999
DXF file: Y:\001_SCHNEIDER_PARIS\maxime fuentes - génération CAD 2D\TRAVAIL\XACS101_2D-Views\xacs101_2d-views_5.dxf
999
Pro/ENGINEER 2018260 by Parametric Technology Corporation
  0
SECTION
  2
HEADER
  9
$ACADVER
  1
AC1027
  9
$DWGCODEPAGE
  3
ANSI_1252
  9
$EXTMAX
 10
558.8
 20
431.8
 30
0.0
  9
$EXTMIN
 10
0.0
 20
0.0
 30
0.0
  9
$LIMMIN
 10
0.0
 20
0.0
  9
$LIMMAX
 10
558.8
 20
431.8
  9
$VIEWCTR
 10
279.4
 20
215.9
  9
$VIEWSIZE
 40
431.8
  9
$CLAYER
  8
0
  9
$LTSCALE
 40
30.734
  9
$CELTYPE
  6
BYLAYER
  9
$DIMSCALE
 40
1.0
  9
$DIMASZ
 40
3.5
  9
$DIMEXO
 40
1.0
  9
$DIMDLI
 40
21.2344
  9
$DIMEXE
 40
3.0
  9
$DIMCEN
 40
5.0292
  9
$DIMLFAC
 40
1.0
  9
$DIMBLK
  1
_FILLED
  9
$DIMALT
 70
0
  9
$DIMALTF
 40
0.0393700787
  9
$DIMTXT
 40
4.0
  9
$DIMTOL
 70
1
  9
$DIMLIM
 70
0
  9
$DIMTFAC
 40
1.0
  9
$DIMTP
 40
0.0001
  9
$DIMTM
 40
0.0001
  9
$DIMGAP
 40
0.625
  9
$DIMDSEP
 70
46
  9
$AUNITS
 70
0
  9
$PDMODE
 70
0
  9
$PDSIZE
 40
0.01
  9
$HANDSEED
  5
2B5
  9
$TILEMODE
 70
1
  9
$MEASUREMENT
 70
1
  9
$INSUNITS
 70
4
  0
ENDSEC
  0
SECTION
  2
CLASSES
  0
CLASS
  1
ACDBDICTIONARYWDFLT
  2
AcDbDictionaryWithDefault
  3
AutoCAD 2000
 90
0
 91
1
280
0
281
0
  0
CLASS
  1
ACDBPLACEHOLDER
  2
AcDbPlaceHolder
  3
AutoCAD 2000
 90
0
 91
1
280
0
281
0
  0
CLASS
  1
LAYOUT
  2
AcDbLayout
  3
AutoCAD 2000
 90
0
 91
0
280
0
281
0
  0
ENDSEC
  0
SECTION
  2
TABLES
  0
TABLE
  2
VPORT
  5
8
100
AcDbSymbolTable
 70
2
  0
VPORT
  5
1F4
100
AcDbSymbolTableRecord
100
AcDbViewportTableRecord
  2
*ACTIVE
 70
0
 10
0.0
 20
0.0
 11
1.0
 21
1.0
 12
279.4
 22
215.9
 13
0.0
 23
0.0
 14
1.0
 24
1.0
 15
0.0
 25
0.0
 16
0.0
 26
0.0
 36
1.0
 17
0.0
 27
0.0
 37
0.0
 40
431.8
 41
1.2941176471
 42
50.0
 43
0.0
 44
0.0
 50
0.0
 51
0.0
 71
0
 72
100
 73
1
 74
1
 75
0
 76
0
 77
0
 78
0
  0
ENDTAB
  0
TABLE
  2
LTYPE
  5
5
100
AcDbSymbolTable
 70
6
  0
LTYPE
  5
14
100
AcDbSymbolTableRecord
100
AcDbLinetypeTableRecord
  2
BYBLOCK
 70
0
  3

 72
65
 73
0
 40
0.0
  0
LTYPE
  5
15
100
AcDbSymbolTableRecord
100
AcDbLinetypeTableRecord
  2
BYLAYER
 70
0
  3

 72
65
 73
0
 40
0.0
  0
LTYPE
  5
16
100
AcDbSymbolTableRecord
100
AcDbLinetypeTableRecord
  2
CONTINUOUS
 70
64
  3
Solid line
 72
65
 73
0
 40
0.0
  0
LTYPE
  5
1F5
100
AcDbSymbolTableRecord
100
AcDbLinetypeTableRecord
  2
CENTER
 70
64
  3
____ _ ____ _ ____ _ ____ _ ____ _ ____ _ ____
 72
65
 73
4
 40
0.6
 49
0.375
 74
0
 49
-0.075
 74
0
 49
0.075
 74
0
 49
-0.075
 74
0
  0
LTYPE
  5
1F6
100
AcDbSymbolTableRecord
100
AcDbLinetypeTableRecord
  2
HIDDEN
 70
64
  3
- - - - - - - - - - - - - - - - - - - -
 72
65
 73
2
 40
0.2
 49
0.1
 74
0
 49
-0.1
 74
0
  0
LTYPE
  5
1F7
100
AcDbSymbolTableRecord
100
AcDbLinetypeTableRecord
  2
PHANTOM
 70
64
  3
_____ _ _ _____ _ _ _____ _ _ _____
 72
65
 73
6
 40
0.8
 49
0.45
 74
0
 49
-0.05
 74
0
 49
0.1
 74
0
 49
-0.05
 74
0
 49
0.1
 74
0
 49
-0.05
 74
0
  0
LTYPE
  5
1F8
100
AcDbSymbolTableRecord
100
AcDbLinetypeTableRecord
  2
DOT
 70
64
  3
. . . . . . . . . . . . . . . . . . . .
 72
65
 73
2
 40
0.2
 49
0.1
 74
0
 49
-0.1
 74
0
  0
LTYPE
  5
1F9
100
AcDbSymbolTableRecord
100
AcDbLinetypeTableRecord
  2
DASHED
 70
64
  3
- - - - - - - - - - - - - - - - - - - -
 72
65
 73
2
 40
0.2
 49
0.1
 74
0
 49
-0.1
 74
0
  0
ENDTAB
  0
TABLE
  2
LAYER
  5
2
100
AcDbSymbolTable
 70
36
  0
LAYER
  5
10
100
AcDbSymbolTableRecord
100
AcDbLayerTableRecord
  2
0
 70
0
 62
7
  6
CONTINUOUS
370
-3
390
F
  0
LAYER
  5
1FA
100
AcDbSymbolTableRecord
100
AcDbLayerTableRecord
  2
DEFAULT_1
 70
0
 62
7
  6
CENTER
370
-3
390
F
  0
LAYER
  5
1FB
100
AcDbSymbolTableRecord
100
AcDbLayerTableRecord
  2
DEFAULT_2
 70
0
 62
8
  6
HIDDEN
370
-3
390
F
  0
LAYER
  5
1FC
100
AcDbSymbolTableRecord
100
AcDbLayerTableRecord
  2
DEFAULT_3
 70
0
 62
7
  6
PHANTOM
370
-3
390
F
  0
LAYER
  5
1FD
100
AcDbSymbolTableRecord
100
AcDbLayerTableRecord
  2
01_ALL_DTM_PLN
 70
0
 62
7
  6
CONTINUOUS
370
-3
390
F
  0
LAYER
  5
1FE
100
AcDbSymbolTableRecord
100
AcDbLayerTableRecord
  2
01__ASM_ALL_DTM_PLN
 70
0
 62
7
  6
CONTINUOUS
370
-3
390
F
  0
LAYER
  5
1FF
100
AcDbSymbolTableRecord
100
AcDbLayerTableRecord
  2
01__ASM_DEF_DTM_PLN
 70
0
 62
7
  6
CONTINUOUS
370
-3
390
F
  0
LAYER
  5
200
100
AcDbSymbolTableRecord
100
AcDbLayerTableRecord
  2
01___PRT_ALL_DTM_PLN
 70
0
 62
7
  6
CONTINUOUS
370
-3
390
F
  0
LAYER
  5
201
100
AcDbSymbolTableRecord
100
AcDbLayerTableRecord
  2
01___PRT_DEF_DTM_PLN
 70
0
 62
7
  6
CONTINUOUS
370
-3
390
F
  0
LAYER
  5
202
100
AcDbSymbolTableRecord
100
AcDbLayerTableRecord
  2
02_ALL_AXES
 70
0
 62
7
  6
CONTINUOUS
370
-3
390
F
  0
LAYER
  5
203
100
AcDbSymbolTableRecord
100
AcDbLayerTableRecord
  2
02__ASM_ALL_AXES
 70
0
 62
7
  6
CONTINUOUS
370
-3
390
F
  0
LAYER
  5
204
100
AcDbSymbolTableRecord
100
AcDbLayerTableRecord
  2
02___PRT_ALL_AXES
 70
0
 62
7
  6
CONTINUOUS
370
-3
390
F
  0
LAYER
  5
205
100
AcDbSymbolTableRecord
100
AcDbLayerTableRecord
  2
03_ALL_CURVES
 70
0
 62
7
  6
CONTINUOUS
370
-3
390
F
  0
LAYER
  5
206
100
AcDbSymbolTableRecord
100
AcDbLayerTableRecord
  2
03__ASM_ALL_CURVES
 70
0
 62
7
  6
CONTINUOUS
370
-3
390
F
  0
LAYER
  5
207
100
AcDbSymbolTableRecord
100
AcDbLayerTableRecord
  2
03___PRT_ALL_CURVES
 70
0
 62
7
  6
CONTINUOUS
370
-3
390
F
  0
LAYER
  5
208
100
AcDbSymbolTableRecord
100
AcDbLayerTableRecord
  2
04_ALL_DTM_PNT
 70
0
 62
7
  6
CONTINUOUS
370
-3
390
F
  0
LAYER
  5
209
100
AcDbSymbolTableRecord
100
AcDbLayerTableRecord
  2
04__ASM_ALL_DTM_PNT
 70
0
 62
7
  6
CONTINUOUS
370
-3
390
F
  0
LAYER
  5
20A
100
AcDbSymbolTableRecord
100
AcDbLayerTableRecord
  2
04___PRT_ALL_DTM_PNT
 70
0
 62
7
  6
CONTINUOUS
370
-3
390
F
  0
LAYER
  5
20B
100
AcDbSymbolTableRecord
100
AcDbLayerTableRecord
  2
05_ALL_DTM_CSYS
 70
0
 62
7
  6
CONTINUOUS
370
-3
390
F
  0
LAYER
  5
20C
100
AcDbSymbolTableRecord
100
AcDbLayerTableRecord
  2
05__ASM_ALL_DTM_CSYS
 70
0
 62
7
  6
CONTINUOUS
370
-3
390
F
  0
LAYER
  5
20D
100
AcDbSymbolTableRecord
100
AcDbLayerTableRecord
  2
05__ASM_DEF_DTM_CSYS
 70
0
 62
7
  6
CONTINUOUS
370
-3
390
F
  0
LAYER
  5
20E
100
AcDbSymbolTableRecord
100
AcDbLayerTableRecord
  2
05___PRT_ALL_DTM_CSYS
 70
0
 62
7
  6
CONTINUOUS
370
-3
390
F
  0
LAYER
  5
20F
100
AcDbSymbolTableRecord
100
AcDbLayerTableRecord
  2
05___PRT_DEF_DTM_CSYS
 70
0
 62
7
  6
CONTINUOUS
370
-3
390
F
  0
LAYER
  5
210
100
AcDbSymbolTableRecord
100
AcDbLayerTableRecord
  2
06_ALL_SURFS
 70
0
 62
7
  6
CONTINUOUS
370
-3
390
F
  0
LAYER
  5
211
100
AcDbSymbolTableRecord
100
AcDbLayerTableRecord
  2
06__ASM_ALL_SURFS
 70
0
 62
7
  6
CONTINUOUS
370
-3
390
F
  0
LAYER
  5
212
100
AcDbSymbolTableRecord
100
AcDbLayerTableRecord
  2
06___PRT_ALL_SURFS
 70
0
 62
7
  6
CONTINUOUS
370
-3
390
F
  0
LAYER
  5
213
100
AcDbSymbolTableRecord
100
AcDbLayerTableRecord
  2
07__ASM_ALL_SKELETONS
 70
0
 62
7
  6
CONTINUOUS
370
-3
390
F
  0
LAYER
  5
214
100
AcDbSymbolTableRecord
100
AcDbLayerTableRecord
  2
CLOSED_SHELL
 70
0
 62
7
  6
CONTINUOUS
370
-3
390
F
  0
LAYER
  5
215
100
AcDbSymbolTableRecord
100
AcDbLayerTableRecord
  2
ORIENTED_CLOSED_SHE
 70
0
 62
7
  6
CONTINUOUS
370
-3
390
F
  0
ENDTAB
  0
TABLE
  2
STYLE
  5
3
100
AcDbSymbolTable
 70
1
  0
STYLE
  5
11
100
AcDbSymbolTableRecord
100
AcDbTextStyleTableRecord
  2
STANDARD
 70
0
 40
0.0
 41
0.6
 50
0.0
 71
0
 42
0.2
  3
txt
  4

  0
STYLE
  5
216
100
AcDbSymbolTableRecord
100
AcDbTextStyleTableRecord
  2
TEXTSTYLE_1
 70
0
 40
0.0
 41
0.8
 50
0.0
 71
0
 42
0.2
  3
gdt
  4

  0
ENDTAB
  0
TABLE
  2
VIEW
  5
6
100
AcDbSymbolTable
 70
0
  0
ENDTAB
  0
TABLE
  2
UCS
  5
7
100
AcDbSymbolTable
 70
0
  0
ENDTAB
  0
TABLE
  2
APPID
  5
9
100
AcDbSymbolTable
 70
1
  0
APPID
  5
217
100
AcDbSymbolTableRecord
100
AcDbRegAppTableRecord
  2
ACAD
 70
0
  0
ENDTAB
  0
TABLE
  2
BLOCK_RECORD
  5
1
100
AcDbSymbolTable
 70
0
  0
BLOCK_RECORD
  5
218
100
AcDbSymbolTableRecord
100
AcDbBlockTableRecord
  2
*Model_Space
  0
BLOCK_RECORD
  5
219
100
AcDbSymbolTableRecord
100
AcDbBlockTableRecord
  2
*Paper_Space
  0
BLOCK_RECORD
  5
21A
100
AcDbSymbolTableRecord
100
AcDbBlockTableRecord
  2
_FILLED
  0
ENDTAB
  0
TABLE
  2
DIMSTYLE
  5
A
100
AcDbSymbolTable
 70
1
100
AcDbDimStyleTable
 71
0
  0
DIMSTYLE
105
21B
100
AcDbSymbolTableRecord
100
AcDbDimStyleTableRecord
  2
STANDARD
 70
0
  3

  4

 40
1.0
 41
3.5
 42
1.0
 43
0.38
 44
3.0
 45
0.0
 46
0.0
 47
0.0001
 48
0.0001
140
4.0
141
0.09
142
0.0
143
25.4
144
1.0
145
0.0
146
1.0
147
0.625
 71
1.0
 72
0.0
 73
0
 74
0
 75
0
 76
0
 77
1
 78
8
 79
2
170
0
171
3
172
0
173
0
174
0
175
0
176
0
177
0
178
0
270
2
179
4
271
4
272
4
273
2
274
2
275
0
280
0
281
0
282
0
283
1
284
8
285
0
286
0
287
3
288
0
340
11
278
46
341
21A
342
21A
343
21A
344
21A
  0
ENDTAB
  0
ENDSEC
  0
SECTION
  2
BLOCKS
  0
BLOCK
  5
20
100
AcDbEntity
  8
0
100
AcDbBlockBegin
  2
*Model_Space
 70
0
 10
0.0
 20
0.0
 30
0.0
  3
*Model_Space
  1

  0
ENDBLK
  5
21
100
AcDbEntity
  8
0
100
AcDbBlockEnd
  0
BLOCK
  5
1C
100
AcDbEntity
  8
0
100
AcDbBlockBegin
  2
*Paper_Space
 70
0
 10
0.0
 20
0.0
 30
0.0
  3
*Paper_Space
  1

  0
ENDBLK
  5
1D
100
AcDbEntity
  8
0
100
AcDbBlockEnd
  0
BLOCK
  5
21C
100
AcDbEntity
  8
0
100
AcDbBlockBegin
  2
_FILLED
 70
64
 10
0.0
 20
0.0
  3
_FILLED
  1

  0
SOLID
  5
21D
100
AcDbEntity
  8
0
  6
BYBLOCK
 62
0
100
AcDbTrace
 10
0.0
 20
0.0
 11
-1.0
 21
0.2857142857
 12
-1.0
 22
-0.2857142857
 13
-1.0
 23
-0.2857142857
  0
ENDBLK
  5
21E
100
AcDbEntity
  8
0
  6
BYBLOCK
 62
0
100
AcDbBlockEnd
  0
ENDSEC
  0
SECTION
  2
ENTITIES
  0
LINE
  5
21F
100
AcDbEntity
  8
0
100
AcDbLine
 62
7
  6
CONTINUOUS
 10
415.6436852826
 20
172.5627483349
 11
430.4336852817
 21
172.5627483349
  0
LINE
  5
220
100
AcDbEntity
  8
0
100
AcDbLine
 62
9
  6
CONTINUOUS
 10
430.4336852826
 20
173.0627483349
 11
425.5835743811
 21
173.0627483349
  0
LINE
  5
221
100
AcDbEntity
  8
0
100
AcDbLine
 62
9
  6
CONTINUOUS
 10
425.5336852826
 20
173.0627483349
 11
415.6436852826
 21
173.0627483349
  0
LINE
  5
222
100
AcDbEntity
  8
0
100
AcDbLine
 62
7
  6
CONTINUOUS
 10
425.5336852826
 20
173.3425766506
 11
417.1436852826
 21
173.3425766506
  0
LINE
  5
223
100
AcDbEntity
  8
0
100
AcDbLine
 62
7
  6
CONTINUOUS
 10
402.5183530828
 20
203.5953016647
 11
405.0492620235
 21
189.2418038024
  0
LINE
  5
224
100
AcDbEntity
  8
0
100
AcDbLine
 62
7
  6
CONTINUOUS
 10
409.9230694474
 20
199.7627483349
 11
405.3548425006
 21
191.1711630154
  0
LINE
  5
225
100
AcDbEntity
  8
0
100
AcDbLine
 62
7
  6
CONTINUOUS
 10
417.6436852826
 20
178.3054312335
 11
425.5336852832
 21
178.3054312335
  0
LINE
  5
226
100
AcDbEntity
  8
0
100
AcDbLine
 62
7
  6
CONTINUOUS
 10
417.6436852826
 20
178.711011021
 11
425.5336852832
 21
178.711011021
  0
LINE
  5
227
100
AcDbEntity
  8
0
100
AcDbLine
 62
7
  6
CONTINUOUS
 10
423.5586852826
 20
178.7627483349
 11
424.4509256458
 21
178.7627483349
  0
LINE
  5
228
100
AcDbEntity
  8
0
100
AcDbLine
 62
7
  6
CONTINUOUS
 10
410.14025816
 20
199.7627483349
 11
409.9296765353
 21
202.1697073196
  0
LINE
  5
229
100
AcDbEntity
  8
0
100
AcDbLine
 62
7
  6
CONTINUOUS
 10
430.0830107773
 20
209.5049211049
 11
422.095623501
 21
206.5977498868
  0
LINE
  5
22A
100
AcDbEntity
  8
0
100
AcDbLine
 62
7
  6
CONTINUOUS
 10
417.3971603968
 20
204.88764917
 11
409.9296765355
 21
202.1697073196
  0
LINE
  5
22B
100
AcDbEntity
  8
0
100
AcDbLine
 62
7
  6
CONTINUOUS
 10
423.5586852826
 20
179.1627483348
 11
425.5336852832
 21
179.1627483348
  0
LINE
  5
22C
100
AcDbEntity
  8
0
100
AcDbLine
 62
7
  6
CONTINUOUS
 10
425.5336852826
 20
180.3690215028
 11
423.5586852826
 21
180.3690215028
  0
LINE
  5
22D
100
AcDbEntity
  8
0
100
AcDbLine
 62
7
  6
CONTINUOUS
 10
419.9586852826
 20
180.3690215028
 11
418.308685282
 21
180.3690215028
  0
LINE
  5
22E
100
AcDbEntity
  8
0
100
AcDbLine
 62
7
  6
CONTINUOUS
 10
417.8086852826
 20
180.5860817249
 11
417.6436852826
 21
180.5860817249
  0
LINE
  5
22F
100
AcDbEntity
  8
0
100
AcDbLine
 62
7
  6
CONTINUOUS
 10
417.8086852826
 20
180.4558455917
 11
418.3086852826
 21
180.3690215028
  0
LINE
  5
230
100
AcDbEntity
  8
0
100
AcDbLine
 62
7
  6
CONTINUOUS
 10
403.6734705777
 20
196.7001012541
 11
403.7305027545
 21
196.7208592689
  0
LINE
  5
231
100
AcDbEntity
  8
0
100
AcDbLine
 62
7
  6
CONTINUOUS
 10
426.0336852824
 20
181.9868036208
 11
426.5311055586
 21
182.0731797453
  0
LINE
  5
232
100
AcDbEntity
  8
0
100
AcDbLine
 62
7
  6
CONTINUOUS
 10
421.0336852827
 20
181.9520739853
 11
421.4535222363
 21
182.0249779072
  0
LINE
  5
233
100
AcDbEntity
  8
0
100
AcDbLine
 62
7
  6
CONTINUOUS
 10
417.6436852826
 20
181.5411467021
 11
417.8086852826
 21
181.5411467021
  0
LINE
  5
234
100
AcDbEntity
  8
0
100
AcDbLine
 62
7
  6
CONTINUOUS
 10
425.7913876314
 20
181.7061124709
 11
425.1586852795
 21
181.7061124709
  0
LINE
  5
235
100
AcDbEntity
  8
0
100
AcDbLine
 62
7
  6
CONTINUOUS
 10
417.6436852826
 20
181.899979532
 11
417.1436852826
 21
181.899979532
  0
LINE
  5
236
100
AcDbEntity
  8
0
100
AcDbLine
 62
7
  6
CONTINUOUS
 10
417.8086852826
 20
181.9318551018
 11
424.7586852826
 21
181.9318551018
  0
LINE
  5
237
100
AcDbEntity
  8
0
100
AcDbLine
 62
7
  6
CONTINUOUS
 10
417.6436852826
 20
181.9520739853
 11
421.0336852827
 21
181.9520739853
  0
LINE
  5
238
100
AcDbEntity
  8
0
100
AcDbLine
 62
7
  6
CONTINUOUS
 10
417.143685282
 20
182.0249779072
 11
421.4535222359
 21
182.0249779072
  0
LINE
  5
239
100
AcDbEntity
  8
0
100
AcDbLine
 62
7
  6
CONTINUOUS
 10
426.5317504893
 20
182.0731797453
 11
422.2336852826
 21
182.0731797454
  0
LINE
  5
23A
100
AcDbEntity
  8
0
100
AcDbLine
 62
7
  6
CONTINUOUS
 10
422.7844757013
 20
182.6998135369
 11
427.257033192
 21
182.6998135369
  0
LINE
  5
23B
100
AcDbEntity
  8
0
100
AcDbLine
 62
7
  6
CONTINUOUS
 10
421.9336852826
 20
183.0896527133
 11
421.5336852826
 21
183.0896527133
  0
LINE
  5
23C
100
AcDbEntity
  8
0
100
AcDbLine
 62
7
  6
CONTINUOUS
 10
400.7725427572
 20
199.6010290747
 11
403.6734705777
 21
196.7001012541
  0
LINE
  5
23D
100
AcDbEntity
  8
0
100
AcDbLine
 62
9
  6
CONTINUOUS
 10
413.5036852826
 20
199.7627483349
 11
413.5036852826
 21
193.8639254575
  0
LINE
  5
23E
100
AcDbEntity
  8
0
100
AcDbLine
 62
7
  6
CONTINUOUS
 10
410.668109811
 20
188.3840380924
 11
415.0036852826
 21
196.7627483349
  0
LINE
  5
23F
100
AcDbEntity
  8
0
100
AcDbLine
 62
7
  6
CONTINUOUS
 10
435.6797081444
 20
207.2852412668
 11
432.3907839717
 21
206.0881707652
  0
LINE
  5
240
100
AcDbEntity
  8
0
100
AcDbLine
 62
7
  6
CONTINUOUS
 10
422.5240114535
 20
202.4969592603
 11
420.5067835149
 21
201.7627483349
  0
LINE
  5
241
100
AcDbEntity
  8
0
100
AcDbLine
 62
7
  6
CONTINUOUS
 10
417.1436852826
 20
183.1674963127
 11
419.5651265376
 21
183.1674963127
  0
LINE
  5
242
100
AcDbEntity
  8
0
100
AcDbLine
 62
7
  6
CONTINUOUS
 10
421.5336852834
 20
183.2780239523
 11
421.9336852826
 21
183.2780239523
  0
LINE
  5
243
100
AcDbEntity
  8
0
100
AcDbLine
 62
7
  6
CONTINUOUS
 10
421.5336852834
 20
183.978958959
 11
421.9336852826
 21
183.978958959
  0
LINE
  5
244
100
AcDbEntity
  8
0
100
AcDbLine
 62
7
  6
CONTINUOUS
 10
419.3364252289
 20
184.144050898
 11
417.6436852826
 21
184.144050898
  0
LINE
  5
245
100
AcDbEntity
  8
0
100
AcDbLine
 62
7
  6
CONTINUOUS
 10
417.643685282
 20
184.162748334
 11
428.5336852826
 21
184.1627483358
  0
LINE
  5
246
100
AcDbEntity
  8
0
100
AcDbLine
 62
7
  6
CONTINUOUS
 10
422.2336852826
 20
182.0731797451
 11
421.9336852824
 21
182.3303031293
  0
LINE
  5
247
100
AcDbEntity
  8
0
100
AcDbLine
 62
7
  6
CONTINUOUS
 10
415.5036852826
 20
196.7627483349
 11
415.5036852826
 21
203.7627483349
  0
LINE
  5
248
100
AcDbEntity
  8
0
100
AcDbLine
 62
7
  6
CONTINUOUS
 10
415.6436852826
 20
172.5627483349
 11
415.6436852826
 21
196.7627483356
  0
LINE
  5
249
100
AcDbEntity
  8
0
100
AcDbLine
 62
7
  6
CONTINUOUS
 10
417.1436852826
 20
173.3425766506
 11
417.1436852826
 21
183.1674963127
  0
LINE
  5
24A
100
AcDbEntity
  8
0
100
AcDbLine
 62
7
  6
CONTINUOUS
 10
417.2036852826
 20
196.7627483349
 11
417.2036852826
 21
196.5627483349
  0
LINE
  5
24B
100
AcDbEntity
  8
0
100
AcDbLine
 62
7
  6
CONTINUOUS
 10
417.6436852826
 20
181.9520739849
 11
417.6436852826
 21
178.3054312329
  0
LINE
  5
24C
100
AcDbEntity
  8
0
100
AcDbLine
 62
7
  6
CONTINUOUS
 10
417.6436852826
 20
184.1440508984
 11
417.6436852826
 21
196.5627483345
  0
LINE
  5
24D
100
AcDbEntity
  8
0
100
AcDbLine
 62
7
  6
CONTINUOUS
 10
417.8086852826
 20
180.4558455917
 11
417.8086852826
 21
180.5860817249
  0
LINE
  5
24E
100
AcDbEntity
  8
0
100
AcDbLine
 62
7
  6
CONTINUOUS
 10
417.8086852826
 20
181.5411467021
 11
417.8086852826
 21
181.9520739853
  0
LINE
  5
24F
100
AcDbEntity
  8
0
100
AcDbLine
 62
7
  6
CONTINUOUS
 10
418.0586852826
 20
178.8281950069
 11
418.0586852826
 21
178.711011021
  0
LINE
  5
250
100
AcDbEntity
  8
0
100
AcDbLine
 62
7
  6
CONTINUOUS
 10
418.3336852826
 20
192.9874875577
 11
418.3336852826
 21
196.5627483349
  0
LINE
  5
251
100
AcDbEntity
  8
0
100
AcDbLine
 62
9
  6
CONTINUOUS
 10
418.5586812374
 20
178.711011021
 11
418.5586805683
 21
178.9150188018
  0
LINE
  5
252
100
AcDbEntity
  8
0
100
AcDbLine
 62
7
  6
CONTINUOUS
 10
422.5240114535
 20
202.4969592603
 11
423.121683931
 21
203.7786720244
  0
LINE
  5
253
100
AcDbEntity
  8
0
100
AcDbLine
 62
7
  6
CONTINUOUS
 10
415.6436852826
 20
188.3627483355
 11
417.6436852826
 21
188.3627483355
  0
LINE
  5
254
100
AcDbEntity
  8
0
100
AcDbLine
 62
7
  6
CONTINUOUS
 10
428.5336852826
 20
188.3627483356
 11
430.433685283
 21
188.3627483356
  0
LINE
  5
255
100
AcDbEntity
  8
0
100
AcDbLine
 62
7
  6
CONTINUOUS
 10
419.7336852826
 20
196.7627483349
 11
419.7336852826
 21
196.569176211
  0
LINE
  5
256
100
AcDbEntity
  8
0
100
AcDbLine
 62
7
  6
CONTINUOUS
 10
419.9586852826
 20
178.711011021
 11
419.9586852826
 21
181.0636142135
  0
LINE
  5
257
100
AcDbEntity
  8
0
100
AcDbLine
 62
7
  6
CONTINUOUS
 10
420.5036852826
 20
203.7627483349
 11
420.5036852826
 21
201.7627483349
  0
LINE
  5
258
100
AcDbEntity
  8
0
100
AcDbLine
 62
7
  6
CONTINUOUS
 10
421.5336852826
 20
184.0014859348
 11
421.5336852826
 21
182.117843264
  0
LINE
  5
259
100
AcDbEntity
  8
0
100
AcDbLine
 62
7
  6
CONTINUOUS
 10
421.9336852826
 20
182.3303031292
 11
421.9336852826
 21
184.0750683543
  0
LINE
  5
25A
100
AcDbEntity
  8
0
100
AcDbLine
 62
7
  6
CONTINUOUS
 10
422.1836852826
 20
196.569176211
 11
422.1836852826
 21
196.7627483349
  0
LINE
  5
25B
100
AcDbEntity
  8
0
100
AcDbLine
 62
7
  6
CONTINUOUS
 10
417.6436852826
 20
192.9874875571
 11
428.5336852826
 21
192.9874875575
  0
LINE
  5
25C
100
AcDbEntity
  8
0
100
AcDbLine
 62
7
  6
CONTINUOUS
 10
428.5336852826
 20
192.9939154334
 11
418.3336852834
 21
192.9939154334
  0
LINE
  5
25D
100
AcDbEntity
  8
0
100
AcDbLine
 62
7
  6
CONTINUOUS
 10
417.8065908176
 20
203.7627483347
 11
417.397160397
 21
204.8876491701
  0
LINE
  5
25E
100
AcDbEntity
  8
0
100
AcDbLine
 62
7
  6
CONTINUOUS
 10
423.5586852826
 20
178.711011021
 11
423.5586852826
 21
181.0636142135
  0
LINE
  5
25F
100
AcDbEntity
  8
0
100
AcDbLine
 62
7
  6
CONTINUOUS
 10
424.2336852826
 20
179.1627483348
 11
424.2336852826
 21
178.7627483356
  0
LINE
  5
260
100
AcDbEntity
  8
0
100
AcDbLine
 62
7
  6
CONTINUOUS
 10
424.7586852826
 20
182.0731797454
 11
424.7586852826
 21
181.775571742
  0
LINE
  5
261
100
AcDbEntity
  8
0
100
AcDbLine
 62
9
  6
CONTINUOUS
 10
424.9586860131
 20
178.9150176555
 11
424.9586860131
 21
178.711011021
  0
LINE
  5
262
100
AcDbEntity
  8
0
100
AcDbLine
 62
9
  6
CONTINUOUS
 10
425.158685283
 20
181.7061124716
 11
425.158685283
 21
182.0731797454
  0
LINE
  5
263
100
AcDbEntity
  8
0
100
AcDbLine
 62
9
  6
CONTINUOUS
 10
429.4336852826
 20
194.9641155516
 11
430.433685283
 21
194.9641155516
  0
LINE
  5
264
100
AcDbEntity
  8
0
100
AcDbLine
 62
7
  6
CONTINUOUS
 10
425.2836852826
 20
196.7627483349
 11
425.2836852826
 21
196.569176211
  0
LINE
  5
265
100
AcDbEntity
  8
0
100
AcDbLine
 62
7
  6
CONTINUOUS
 10
425.4586852826
 20
178.8281933874
 11
425.4586852826
 21
178.711011021
  0
LINE
  5
266
100
AcDbEntity
  8
0
100
AcDbLine
 62
7
  6
CONTINUOUS
 10
425.5336852826
 20
172.5627483349
 11
425.5336852826
 21
181.4075756561
  0
LINE
  5
267
100
AcDbEntity
  8
0
100
AcDbLine
 62
7
  6
CONTINUOUS
 10
426.2836852826
 20
196.569176211
 11
426.2836852826
 21
196.7627483349
  0
LINE
  5
268
100
AcDbEntity
  8
0
100
AcDbLine
 62
7
  6
CONTINUOUS
 10
426.6505900937
 20
196.569176211
 11
426.6505900937
 21
196.7627483349
  0
LINE
  5
269
100
AcDbEntity
  8
0
100
AcDbLine
 62
7
  6
CONTINUOUS
 10
430.4336852826
 20
195.5627483349
 11
429.4336852826
 21
195.5627483349
  0
LINE
  5
26A
100
AcDbEntity
  8
0
100
AcDbLine
 62
9
  6
CONTINUOUS
 10
417.6436852826
 20
196.0627483349
 11
418.3336852821
 21
196.0627483349
  0
LINE
  5
26B
100
AcDbEntity
  8
0
100
AcDbLine
 62
9
  6
CONTINUOUS
 10
428.5336852826
 20
196.1613811181
 11
429.4336852826
 21
196.1613811181
  0
LINE
  5
26C
100
AcDbEntity
  8
0
100
AcDbLine
 62
7
  6
CONTINUOUS
 10
430.4336852826
 20
196.5627483349
 11
428.5336852832
 21
196.5627483349
  0
LINE
  5
26D
100
AcDbEntity
  8
0
100
AcDbLine
 62
7
  6
CONTINUOUS
 10
417.2036852832
 20
196.5627483349
 11
418.3336852821
 21
196.5627483349
  0
LINE
  5
26E
100
AcDbEntity
  8
0
100
AcDbLine
 62
7
  6
CONTINUOUS
 10
418.3336852745
 20
196.569176211
 11
428.5336852831
 21
196.569176211
  0
LINE
  5
26F
100
AcDbEntity
  8
0
100
AcDbLine
 62
7
  6
CONTINUOUS
 10
415.0036852826
 20
196.7627483349
 11
445.5036852826
 21
196.7627483349
  0
LINE
  5
270
100
AcDbEntity
  8
0
100
AcDbLine
 62
7
  6
CONTINUOUS
 10
422.095623501
 20
206.5977498867
 11
423.121683931
 21
203.7786720244
  0
LINE
  5
271
100
AcDbEntity
  8
0
100
AcDbLine
 62
7
  6
CONTINUOUS
 10
427.8167804721
 20
196.7627483349
 11
427.8167804721
 21
196.569176211
  0
LINE
  5
272
100
AcDbEntity
  8
0
100
AcDbLine
 62
7
  6
CONTINUOUS
 10
428.1836852826
 20
196.569176211
 11
428.1836852826
 21
196.7627483349
  0
LINE
  5
273
100
AcDbEntity
  8
0
100
AcDbLine
 62
7
  6
CONTINUOUS
 10
428.5336852822
 20
184.1627483358
 11
428.5336852826
 21
196.5627483349
  0
LINE
  5
274
100
AcDbEntity
  8
0
100
AcDbLine
 62
7
  6
CONTINUOUS
 10
427.257033192
 20
182.6998135369
 11
425.5835743811
 21
173.0627483349
  0
LINE
  5
275
100
AcDbEntity
  8
0
100
AcDbLine
 62
7
  6
CONTINUOUS
 10
421.5336852825
 20
182.1178432635
 11
421.4535222352
 21
182.0249779062
  0
LINE
  5
276
100
AcDbEntity
  8
0
100
AcDbLine
 62
7
  6
CONTINUOUS
 10
445.5036852826
 20
198.7627483349
 11
415.5036852826
 21
198.7627483349
  0
LINE
  5
277
100
AcDbEntity
  8
0
100
AcDbLine
 62
7
  6
CONTINUOUS
 10
429.4336852826
 20
194.9641155514
 11
429.4336852826
 21
196.5627483349
  0
LINE
  5
278
100
AcDbEntity
  8
0
100
AcDbLine
 62
7
  6
CONTINUOUS
 10
430.4336852826
 20
172.5627483349
 11
430.4336852826
 21
196.5627483349
  0
LINE
  5
279
100
AcDbEntity
  8
0
100
AcDbLine
 62
7
  6
CONTINUOUS
 10
409.9230694474
 20
199.7627483349
 11
415.5036852826
 21
199.7627483349
  0
LINE
  5
27A
100
AcDbEntity
  8
0
100
AcDbLine
 62
7
  6
CONTINUOUS
 10
426.033685282
 20
181.9868036215
 11
425.5336852826
 21
181.4075756563
  0
LINE
  5
27B
100
AcDbEntity
  8
0
100
AcDbLine
 62
7
  6
CONTINUOUS
 10
445.5036852826
 20
201.7627483349
 11
415.5036852826
 21
201.7627483349
  0
LINE
  5
27C
100
AcDbEntity
  8
0
100
AcDbLine
 62
7
  6
CONTINUOUS
 10
445.5036852826
 20
203.2627483349
 11
440.5036852826
 21
203.2627483349
  0
LINE
  5
27D
100
AcDbEntity
  8
0
100
AcDbLine
 62
7
  6
CONTINUOUS
 10
420.5036852826
 20
203.2627483352
 11
415.5036852826
 21
203.2627483352
  0
LINE
  5
27E
100
AcDbEntity
  8
0
100
AcDbLine
 62
7
  6
CONTINUOUS
 10
427.2570331919
 20
182.6998135383
 11
426.5311055593
 21
182.0731797462
  0
LINE
  5
27F
100
AcDbEntity
  8
0
100
AcDbLine
 62
7
  6
CONTINUOUS
 10
445.5036852826
 20
203.7627483347
 11
440.5036852826
 21
203.7627483347
  0
LINE
  5
280
100
AcDbEntity
  8
0
100
AcDbLine
 62
7
  6
CONTINUOUS
 10
420.5036852826
 20
203.7627483347
 11
415.5036852826
 21
203.7627483347
  0
LINE
  5
281
100
AcDbEntity
  8
0
100
AcDbLine
 62
7
  6
CONTINUOUS
 10
431.1090712076
 20
206.6858432426
 11
430.0830107776
 21
209.504921105
  0
LINE
  5
282
100
AcDbEntity
  8
0
100
AcDbLine
 62
7
  6
CONTINUOUS
 10
431.1090712076
 20
206.6858432427
 11
432.3907839718
 21
206.0881707652
  0
LINE
  5
283
100
AcDbEntity
  8
0
100
AcDbLine
 62
7
  6
CONTINUOUS
 10
440.5036852826
 20
201.7627483349
 11
440.5036852826
 21
203.7627483349
  0
LINE
  5
284
100
AcDbEntity
  8
0
100
AcDbLine
 62
7
  6
CONTINUOUS
 10
433.4060898551
 20
213.5319561775
 11
435.6797081445
 21
207.2852412668
  0
LINE
  5
285
100
AcDbEntity
  8
0
100
AcDbLine
 62
7
  6
CONTINUOUS
 10
445.5036852826
 20
196.7627483349
 11
445.5036852826
 21
203.7627483349
  0
ARC
  5
286
100
AcDbEntity
  8
0
100
AcDbCircle
 62
7
  6
CONTINUOUS
 10
432.4460467034
 20
163.5411738555
 40
50.0
100
AcDbArc
 50
88.8998039759
 51
129.0974183212
  0
ARC
  5
287
100
AcDbEntity
  8
0
100
AcDbCircle
 62
7
  6
CONTINUOUS
 10
445.2361931285
 20
189.6945130251
 40
26.4878388525
100
AcDbArc
 50
192.0958397091
 51
194.2655067468
  0
ARC
  5
288
100
AcDbEntity
  8
0
100
AcDbCircle
 62
7
  6
CONTINUOUS
 10
421.7581903158
 20
168.4763480336
 40
10.2408519786
100
AcDbArc
 50
89.9972307468
 51
91.9534935722
  0
ARC
  5
289
100
AcDbEntity
  8
0
100
AcDbCircle
 62
7
  6
CONTINUOUS
 10
421.7608174283
 20
168.5725116733
 40
10.1446885509
100
AcDbArc
 50
88.0372336209
 51
90.0120420601
  0
ARC
  5
28A
100
AcDbEntity
  8
0
100
AcDbCircle
 62
7
  6
CONTINUOUS
 10
408.0036852826
 20
189.7627483349
 40
3.0
100
AcDbArc
 50
152.0000001632
 51
332.6406309159
  0
ARC
  5
28B
100
AcDbEntity
  8
0
100
AcDbCircle
 62
7
  6
CONTINUOUS
 10
422.6266123608
 20
178.7801101671
 40
2.5363973107
100
AcDbArc
 50
76.895702108
 51
77.7337554784
  0
ARC
  5
28C
100
AcDbEntity
  8
0
100
AcDbCircle
 62
7
  6
CONTINUOUS
 10
425.5587187749
 20
176.6984729578
 40
2.2963253333
100
AcDbArc
 50
103.7263372838
 51
105.1472898392
  0
ARC
  5
28D
100
AcDbEntity
  8
0
100
AcDbCircle
 62
7
  6
CONTINUOUS
 10
417.9586799878
 20
176.6985826236
 40
2.2962121055
100
AcDbArc
 50
74.8527320216
 51
76.2731442258
  0
ARC
  5
28E
100
AcDbEntity
  8
0
100
AcDbCircle
 62
7
  6
CONTINUOUS
 10
402.0806903021
 20
200.9091766202
 40
1.85
100
AcDbArc
 50
129.0974183278
 51
225.0000000143
  0
CIRCLE
  5
28F
100
AcDbEntity
  8
0
100
AcDbCircle
 62
7
  6
CONTINUOUS
 10
408.0036852826
 20
189.7627483349
 40
1.49
  0
ARC
  5
290
100
AcDbEntity
  8
0
100
AcDbCircle
 62
7
  6
CONTINUOUS
 10
423.0401532149
 20
180.2556162192
 40
1.0030773156
100
AcDbArc
 50
69.6076112243
 51
70.5508607113
  0
ARC
  5
291
100
AcDbEntity
  8
0
100
AcDbCircle
 62
7
  6
CONTINUOUS
 10
418.4386852826
 20
196.8627483349
 40
0.3
100
AcDbArc
 50
199.5701002148
 51
249.5126848853
  0
ARC
  5
292
100
AcDbEntity
  8
0
100
AcDbCircle
 62
7
  6
CONTINUOUS
 10
418.1579511568
 20
178.8280767643
 40
0.0992659437
100
AcDbArc
 50
165.6821986425
 51
179.932201302
  0
ARC
  5
293
100
AcDbEntity
  8
0
100
AcDbCircle
 62
7
  6
CONTINUOUS
 10
425.3594198537
 20
178.8280768228
 40
0.0992654974
100
AcDbArc
 50
0.0673131689
 51
14.3166461313
  0
SPLINE
  5
294
100
AcDbEntity
  8
0
100
AcDbSpline
 62
7
  6
CONTINUOUS
 70
0
 71
3
 72
10
 73
6
 74
0
 42
0.0000001
 43
0.0000001
 44
0.0000000001
 40
0.0
 40
0.0
 40
0.0
 40
0.0
 40
0.5522426899
 40
0.7950682101
 40
1.0
 40
1.0
 40
1.0
 40
1.0
 10
421.7586852826
 20
181.3761809333
 30
0.0
 10
422.0182568157
 20
181.3761809333
 30
0.0
 10
422.3923344881
 20
181.3630713244
 30
0.0
 10
422.8599098629
 20
181.3139673789
 30
0.0
 10
423.0678140344
 20
181.2797059078
 30
0.0
 10
423.1619636055
 20
181.2593527048
 30
0.0
  0
LINE
  5
295
100
AcDbEntity
  8
0
100
AcDbLine
 62
7
  6
CONTINUOUS
 10
423.1619636055
 20
181.2593527048
 11
423.1654434503
 21
181.2585980366
  0
SPLINE
  5
296
100
AcDbEntity
  8
0
100
AcDbSpline
 62
7
  6
CONTINUOUS
 70
0
 71
3
 72
9
 73
5
 74
0
 42
0.0000001
 43
0.0000001
 44
0.0000000001
 40
0.0
 40
0.0
 40
0.0
 40
0.0
 40
0.2751450706
 40
1.0
 40
1.0
 40
1.0
 40
1.0
 10
423.201674364
 20
181.2504427546
 30
0.0
 10
423.2176938246
 20
181.2467111126
 30
0.0
 10
423.2757630894
 20
181.2325372552
 30
0.0
 10
423.3332902923
 20
181.2158897101
 30
0.0
 10
423.3741478259
 20
181.2014553709
 30
0.0
  0
SPLINE
  5
297
100
AcDbEntity
  8
0
100
AcDbSpline
 62
7
  6
CONTINUOUS
 70
0
 71
3
 72
11
 73
7
 74
0
 42
0.0000001
 43
0.0000001
 44
0.0000000001
 40
0.0
 40
0.0
 40
0.0
 40
0.0
 40
0.355742604
 40
0.6336700301
 40
0.8408846134
 40
1.0
 40
1.0
 40
1.0
 40
1.0
 10
423.3896730328
 20
181.19582896
 30
0.0
 10
423.414603732
 20
181.1865569209
 30
0.0
 10
423.4584565525
 20
181.1682888616
 30
0.0
 10
423.5128000782
 20
181.1362103553
 30
0.0
 10
423.5485269996
 20
181.1027972997
 30
0.0
 10
423.5586852826
 20
181.075511358
 30
0.0
 10
423.5586852826
 20
181.0636142135
 30
0.0
  0
SPLINE
  5
298
100
AcDbEntity
  8
0
100
AcDbSpline
 62
7
  6
CONTINUOUS
 70
0
 71
3
 72
9
 73
5
 74
0
 42
0.0000001
 43
0.0000001
 44
0.0000000001
 40
0.0
 40
0.0
 40
0.0
 40
0.0
 40
0.4314107997
 40
1.0
 40
1.0
 40
1.0
 40
1.0
 10
419.9586852826
 20
181.0636142135
 30
0.0
 10
419.9586852826
 20
181.0759347771
 30
0.0
 10
419.9696390493
 20
181.1043352065
 30
0.0
 10
419.9913365233
 20
181.1236991839
 30
0.0
 10
420.0042825719
 20
181.1335011892
 30
0.0
  0
SPLINE
  5
299
100
AcDbEntity
  8
0
100
AcDbSpline
 62
7
  6
CONTINUOUS
 70
0
 71
3
 72
9
 73
5
 74
0
 42
0.0000001
 43
0.0000001
 44
0.0000000001
 40
0.0
 40
0.0
 40
0.0
 40
0.0
 40
0.2361043728
 40
1.0
 40
1.0
 40
1.0
 40
1.0
 10
420.0042825719
 20
181.1335011892
 30
0.0
 10
420.006266355
 20
181.1350031959
 30
0.0
 10
420.0147730261
 20
181.1412266126
 30
0.0
 10
420.0236562863
 20
181.1469263162
 30
0.0
 10
420.0305723535
 20
181.1510469032
 30
0.0
  0
SPLINE
  5
29A
100
AcDbEntity
  8
0
100
AcDbSpline
 62
7
  6
CONTINUOUS
 70
0
 71
3
 72
9
 73
5
 74
0
 42
0.0000001
 43
0.0000001
 44
0.0000000001
 40
0.0
 40
0.0
 40
0.0
 40
0.0
 40
0.2324203976
 40
1.0
 40
1.0
 40
1.0
 40
1.0
 10
420.0305723535
 20
181.1510469032
 30
0.0
 10
420.0341532788
 20
181.1531804156
 30
0.0
 10
420.0497210937
 20
181.1620901058
 30
0.0
 10
420.0658452051
 20
181.1700047425
 30
0.0
 10
420.0783889373
 20
181.1756757033
 30
0.0
  0
SPLINE
  5
29B
100
AcDbEntity
  8
0
100
AcDbSpline
 62
7
  6
CONTINUOUS
 70
0
 71
3
 72
8
 73
4
 74
0
 42
0.0000001
 43
0.0000001
 44
0.0000000001
 40
0.0
 40
0.0
 40
0.0
 40
0.0
 40
1.0
 40
1.0
 40
1.0
 40
1.0
 10
418.0617673719
 20
178.8526221491
 30
0.0
 10
418.0636581648
 20
178.8600369463
 30
0.0
 10
418.0663920687
 20
178.867270562
 30
0.0
 10
418.0697562037
 20
178.8741434734
 30
0.0
  0
SPLINE
  5
29C
100
AcDbEntity
  8
0
100
AcDbSpline
 62
7
  6
CONTINUOUS
 70
0
 71
3
 72
9
 73
5
 74
0
 42
0.0000001
 43
0.0000001
 44
0.0000000001
 40
0.0
 40
0.0
 40
0.0
 40
0.0
 40
0.2342718614
 40
1.0
 40
1.0
 40
1.0
 40
1.0
 10
418.0697562037
 20
178.8741434734
 30
0.0
 10
418.071530633
 20
178.8777686238
 30
0.0
 10
418.0798689048
 20
178.8928685903
 30
0.0
 10
418.0909514642
 20
178.9063516572
 30
0.0
 10
418.1002572817
 20
178.9157024594
 30
0.0
  0
SPLINE
  5
29D
100
AcDbEntity
  8
0
100
AcDbSpline
 62
7
  6
CONTINUOUS
 70
0
 71
3
 72
9
 73
5
 74
0
 42
0.0000001
 43
0.0000001
 44
0.0000000001
 40
0.0
 40
0.0
 40
0.0
 40
0.0
 40
0.2412352022
 40
1.0
 40
1.0
 40
1.0
 40
1.0
 10
418.3590804928
 20
178.9606451368
 30
0.0
 10
418.3707652428
 20
178.9584452478
 30
0.0
 10
418.4191315853
 20
178.9489517797
 30
0.0
 10
418.4672275638
 20
178.9380968394
 30
0.0
 10
418.5035546149
 20
178.9292107027
 30
0.0
  0
SPLINE
  5
29E
100
AcDbEntity
  8
0
100
AcDbSpline
 62
7
  6
CONTINUOUS
 70
0
 71
3
 72
10
 73
6
 74
0
 42
0.0000001
 43
0.0000001
 44
0.0000000001
 40
0.0
 40
0.0
 40
0.0
 40
0.0
 40
0.3024578731
 40
0.5716771049
 40
1.0
 40
1.0
 40
1.0
 40
1.0
 10
418.3590799321
 20
178.9606452457
 30
0.0
 10
418.3322866331
 20
178.9656897446
 30
0.0
 10
418.2806916703
 20
178.9716375633
 30
0.0
 10
418.191010603
 20
178.9673563246
 30
0.0
 10
418.1274927464
 20
178.943069617
 30
0.0
 10
418.1002574628
 20
178.9157026768
 30
0.0
  0
SPLINE
  5
29F
100
AcDbEntity
  8
0
100
AcDbSpline
 62
7
  6
CONTINUOUS
 70
0
 71
3
 72
8
 73
4
 74
0
 42
0.0000001
 43
0.0000001
 44
0.0000000001
 40
0.0
 40
0.0
 40
0.0
 40
0.0
 40
1.0
 40
1.0
 40
1.0
 40
1.0
 10
419.228669265
 20
178.7110452101
 30
0.0
 10
419.0065793809
 20
178.782982552
 30
0.0
 10
418.7839989754
 20
178.8539408748
 30
0.0
 10
418.5586805683
 20
178.9150188018
 30
0.0
  0
SPLINE
  5
2A0
100
AcDbEntity
  8
0
100
AcDbSpline
 62
7
  6
CONTINUOUS
 70
0
 71
3
 72
8
 73
4
 74
0
 42
0.0000001
 43
0.0000001
 44
0.0000000001
 40
0.0
 40
0.0
 40
0.0
 40
0.0
 40
1.0
 40
1.0
 40
1.0
 40
1.0
 10
424.9586860131
 20
178.9150176555
 30
0.0
 10
424.7333696136
 20
178.8539401549
 30
0.0
 10
424.5107895403
 20
178.7829876352
 30
0.0
 10
424.288702406
 20
178.711048454
 30
0.0
  0
SPLINE
  5
2A1
100
AcDbEntity
  8
0
100
AcDbSpline
 62
7
  6
CONTINUOUS
 70
0
 71
3
 72
9
 73
5
 74
0
 42
0.0000001
 43
0.0000001
 44
0.0000000001
 40
0.0
 40
0.0
 40
0.0
 40
0.0
 40
0.2574794135
 40
1.0
 40
1.0
 40
1.0
 40
1.0
 10
425.013826836
 20
178.9292134406
 30
0.0
 10
425.0261534905
 20
178.9322286297
 30
0.0
 10
425.0740995744
 20
178.9436414182
 30
0.0
 10
425.1223306399
 20
178.9538751152
 30
0.0
 10
425.158294506
 20
178.9606459661
 30
0.0
  0
SPLINE
  5
2A2
100
AcDbEntity
  8
0
100
AcDbSpline
 62
7
  6
CONTINUOUS
 70
0
 71
3
 72
9
 73
5
 74
0
 42
0.0000001
 43
0.0000001
 44
0.0000000001
 40
0.0
 40
0.0
 40
0.0
 40
0.0
 40
0.2757253452
 40
1.0
 40
1.0
 40
1.0
 40
1.0
 10
425.4171145278
 20
178.9157012476
 30
0.0
 10
425.4219352655
 20
178.9108571889
 30
0.0
 10
425.4385173139
 20
178.8924931569
 30
0.0
 10
425.4511668339
 20
178.8700191672
 30
0.0
 10
425.4556022685
 20
178.8526240401
 30
0.0
  0
SPLINE
  5
2A3
100
AcDbEntity
  8
0
100
AcDbSpline
 62
7
  6
CONTINUOUS
 70
0
 71
3
 72
10
 73
6
 74
0
 42
0.0000001
 43
0.0000001
 44
0.0000000001
 40
0.0
 40
0.0
 40
0.0
 40
0.0
 40
0.4283246741
 40
0.6975428908
 40
1.0
 40
1.0
 40
1.0
 40
1.0
 10
425.4171133642
 20
178.9157024291
 30
0.0
 10
425.3898783969
 20
178.9430692538
 30
0.0
 10
425.3263622112
 20
178.9673579162
 30
0.0
 10
425.2366818985
 20
178.9716384918
 30
0.0
 10
425.1850878675
 20
178.9656903001
 30
0.0
 10
425.1582949261
 20
178.96064605
 30
0.0
  0
SPLINE
  5
2A4
100
AcDbEntity
  8
0
100
AcDbSpline
 62
7
  6
CONTINUOUS
 70
0
 71
3
 72
9
 73
5
 74
0
 42
0.0000001
 43
0.0000001
 44
0.0000000001
 40
0.0
 40
0.0
 40
0.0
 40
0.0
 40
0.4314472166
 40
1.0
 40
1.0
 40
1.0
 40
1.0
 10
419.9586853713
 20
181.0636140764
 30
0.0
 10
419.9586853713
 20
181.0759340547
 30
0.0
 10
419.9696269452
 20
181.1043328921
 30
0.0
 10
419.9913174878
 20
181.1237010031
 30
0.0
 10
420.0042595284
 20
181.1335030307
 30
0.0
  0
SPLINE
  5
2A5
100
AcDbEntity
  8
0
100
AcDbSpline
 62
7
  6
CONTINUOUS
 70
0
 71
3
 72
9
 73
5
 74
0
 42
0.0000001
 43
0.0000001
 44
0.0000000001
 40
0.0
 40
0.0
 40
0.0
 40
0.0
 40
0.2360894355
 40
1.0
 40
1.0
 40
1.0
 40
1.0
 10
420.0042595284
 20
181.1335030307
 30
0.0
 10
420.0062441411
 20
181.1350061344
 30
0.0
 10
420.0147550922
 20
181.1412343341
 30
0.0
 10
420.0236434112
 20
181.1469378565
 30
0.0
 10
420.0305636647
 20
181.1510610877
 30
0.0
  0
SPLINE
  5
2A6
100
AcDbEntity
  8
0
100
AcDbSpline
 62
7
  6
CONTINUOUS
 70
0
 71
3
 72
9
 73
5
 74
0
 42
0.0000001
 43
0.0000001
 44
0.0000000001
 40
0.0
 40
0.0
 40
0.0
 40
0.0
 40
0.2324180691
 40
1.0
 40
1.0
 40
1.0
 40
1.0
 10
420.0305636647
 20
181.1510610877
 30
0.0
 10
420.0341441442
 20
181.1531944119
 30
0.0
 10
420.0497102175
 20
181.162103358
 30
0.0
 10
420.065832622
 20
181.1700172066
 30
0.0
 10
420.0783750634
 20
181.1756876167
 30
0.0
  0
SPLINE
  5
2A7
100
AcDbEntity
  8
0
100
AcDbSpline
 62
7
  6
CONTINUOUS
 70
0
 71
3
 72
12
 73
8
 74
0
 42
0.0000001
 43
0.0000001
 44
0.0000000001
 40
0.0
 40
0.0
 40
0.0
 40
0.0
 40
0.0725415493
 40
0.1643616219
 40
0.3992009883
 40
0.6859062808
 40
1.0
 40
1.0
 40
1.0
 40
1.0
 10
420.0783750634
 20
181.1756876167
 30
0.0
 10
420.1158293062
 20
181.1926205975
 30
0.0
 10
420.2040681166
 20
181.2233636163
 30
0.0
 10
420.4236460007
 20
181.2781682823
 30
0.0
 10
420.7680588269
 20
181.3296374901
 30
0.0
 10
421.2401679381
 20
181.3676509106
 30
0.0
 10
421.580710917
 20
181.3761809334
 30
0.0
 10
421.7586852826
 20
181.3761809334
 30
0.0
  0
SPLINE
  5
2A8
100
AcDbEntity
  8
0
100
AcDbSpline
 62
7
  6
CONTINUOUS
 70
0
 71
3
 72
10
 73
6
 74
0
 42
0.0000001
 43
0.0000001
 44
0.0000000001
 40
0.0
 40
0.0
 40
0.0
 40
0.0
 40
0.5522399059
 40
0.7950668367
 40
1.0
 40
1.0
 40
1.0
 40
1.0
 10
421.7586852826
 20
181.3761809334
 30
0.0
 10
422.0182565183
 20
181.3761809334
 30
0.0
 10
422.3923351696
 20
181.3630787371
 30
0.0
 10
422.8599127939
 20
181.3139780181
 30
0.0
 10
423.0678193838
 20
181.2797181565
 30
0.0
 10
423.1619701049
 20
181.2593654423
 30
0.0
  0
LINE
  5
2A9
100
AcDbEntity
  8
0
100
AcDbLine
 62
7
  6
CONTINUOUS
 10
423.1619701049
 20
181.2593654423
 11
423.165481963
 21
181.2586038365
  0
SPLINE
  5
2AA
100
AcDbEntity
  8
0
100
AcDbSpline
 62
7
  6
CONTINUOUS
 70
0
 71
3
 72
9
 73
5
 74
0
 42
0.0000001
 43
0.0000001
 44
0.0000000001
 40
0.0
 40
0.0
 40
0.0
 40
0.0
 40
0.2751461228
 40
1.0
 40
1.0
 40
1.0
 40
1.0
 10
423.2016754356
 20
181.2504570613
 30
0.0
 10
423.2176957933
 20
181.2467253703
 30
0.0
 10
423.2757680865
 20
181.232551323
 30
0.0
 10
423.333298281
 20
181.2159033324
 30
0.0
 10
423.3741578844
 20
181.2014685405
 30
0.0
  0
SPLINE
  5
2AB
100
AcDbEntity
  8
0
100
AcDbSpline
 62
7
  6
CONTINUOUS
 70
0
 71
3
 72
13
 73
9
 74
0
 42
0.0000001
 43
0.0000001
 44
0.0000000001
 40
0.0
 40
0.0
 40
0.0
 40
0.0
 40
0.3688394044
 40
0.683311387
 40
0.8057641197
 40
0.8993381445
 40
0.9624998937
 40
1.0
 40
1.0
 40
1.0
 40
1.0
 10
425.1586852795
 20
181.7061124709
 30
0.0
 10
425.1076238025
 20
181.7061124708
 30
0.0
 10
425.0130229922
 20
181.7091548973
 30
0.0
 10
424.9018579992
 20
181.7208532157
 30
0.0
 10
424.8298217454
 20
181.7351609542
 30
0.0
 10
424.7927232902
 20
181.7468805131
 30
0.0
 10
424.7685075566
 20
181.757920798
 30
0.0
 10
424.7586852826
 20
181.7703802934
 30
0.0
 10
424.7586852826
 20
181.775571742
 30
0.0
  0
SPLINE
  5
2AC
100
AcDbEntity
  8
0
100
AcDbSpline
 62
7
  6
CONTINUOUS
 70
0
 71
3
 72
10
 73
6
 74
0
 42
0.0000001
 43
0.0000001
 44
0.0000000001
 40
0.0
 40
0.0
 40
0.0
 40
0.0
 40
0.4988903907
 40
0.749756717
 40
1.0
 40
1.0
 40
1.0
 40
1.0
 10
418.18487079
 20
196.5627483349
 30
0.0
 10
418.108759843
 20
196.5627483351
 30
0.0
 10
417.9925598003
 20
196.5904777456
 30
0.0
 10
417.862614471
 20
196.6715697796
 30
0.0
 10
417.809535563
 20
196.7293291849
 30
0.0
 10
417.7904825223
 20
196.7624121494
 30
0.0
  0
SPLINE
  5
2AD
100
AcDbEntity
  8
0
100
AcDbSpline
 62
7
  6
CONTINUOUS
 70
0
 71
3
 72
9
 73
5
 74
0
 42
0.0000001
 43
0.0000001
 44
0.0000000001
 40
0.0
 40
0.0
 40
0.0
 40
0.0
 40
0.2459869068
 40
1.0
 40
1.0
 40
1.0
 40
1.0
 10
425.5336852826
 20
172.9103495668
 30
0.0
 10
425.5394698028
 20
172.9221834888
 30
0.0
 10
425.5613390339
 20
172.9710677671
 30
0.0
 10
425.5766665963
 20
173.0229679884
 30
0.0
 10
425.5835743817
 20
173.0627483392
 30
0.0
  0
SPLINE
  5
2AE
100
AcDbEntity
  8
0
100
AcDbSpline
 62
7
  6
CONTINUOUS
 70
0
 71
3
 72
9
 73
5
 74
0
 42
0.0000001
 43
0.0000001
 44
0.0000000001
 40
0.0
 40
0.0
 40
0.0
 40
0.0
 40
0.5175111832
 40
1.0
 40
1.0
 40
1.0
 40
1.0
 10
421.9336852838
 20
184.0750683544
 30
0.0
 10
422.176145375
 20
184.0801946956
 30
0.0
 10
422.6445145199
 20
184.0991227714
 30
0.0
 10
423.111725188
 20
184.1379276954
 30
0.0
 10
423.3364609209
 20
184.1627483344
 30
0.0
  0
SPLINE
  5
2AF
100
AcDbEntity
  8
0
100
AcDbSpline
 62
7
  6
CONTINUOUS
 70
0
 71
3
 72
9
 73
5
 74
0
 42
0.0000001
 43
0.0000001
 44
0.0000000001
 40
0.0
 40
0.0
 40
0.0
 40
0.0
 40
0.4709383381
 40
1.0
 40
1.0
 40
1.0
 40
1.0
 10
419.3364252948
 20
184.144050898
 30
0.0
 10
419.6785521366
 20
184.0933342906
 30
0.0
 10
420.4106075512
 20
184.0235194938
 30
0.0
 10
421.1451329698
 20
184.0014859349
 30
0.0
 10
421.5336852834
 20
184.0014859349
 30
0.0
  0
ELLIPSE
  5
2B0
100
AcDbEntity
  8
0
100
AcDbEllipse
 62
7
  6
CONTINUOUS
 10
421.5336852826
 20
186.5199758002
 30
0.0
 11
0.0
 21
4.0545957574
 31
0.0
 40
0.86321799
 41
-3.7389329803
 42
-3.1415926536
  0
ELLIPSE
  5
2B1
100
AcDbEntity
  8
0
100
AcDbEllipse
 62
7
  6
CONTINUOUS
 10
421.5336852826
 20
200.4857810237
 30
0.0
 11
0.0
 21
19.0435381371
 31
0.0
 40
0.1837893765
 41
-2.776143642
 42
-2.6004931277
  0
ELLIPSE
  5
2B2
100
AcDbEntity
  8
0
100
AcDbEllipse
 62
7
  6
CONTINUOUS
 10
421.5336852826
 20
185.5014915297
 30
0.0
 11
3.5
 21
-0.0
 31
0.0
 40
0.8570779461
 41
-1.4562603535
 42
-1.2053473156
  0
ENDSEC
  0
SECTION
  2
OBJECTS
  0
DICTIONARY
  5
C
100
AcDbDictionary
280
0
281
1
  3
ACAD_GROUP
350
D
  3
ACAD_MLINESTYLE
350
17
  3
ACAD_LAYOUT
350
1A
  3
ACAD_PLOTSETTINGS
350
19
  3
ACAD_PLOTSTYLENAME
350
E
  0
DICTIONARY
  5
D
102
{ACAD_REACTORS
330
C
102
}
100
AcDbDictionary
280
0
281
1
  0
ACDBDICTIONARYWDFLT
  5
E
102
{ACAD_REACTORS
330
C
102
}
100
AcDbDictionary
281
1
  3
Normal
350
F
100
AcDbDictionaryWithDefault
340
F
  0
DICTIONARY
  5
17
102
{ACAD_REACTORS
330
C
102
}
100
AcDbDictionary
280
0
281
1
  3
Standard
350
18
  0
DICTIONARY
  5
19
102
{ACAD_REACTORS
330
C
102
}
100
AcDbDictionary
281
1
  0
DICTIONARY
  5
1A
102
{ACAD_REACTORS
330
C
102
}
100
AcDbDictionary
281
1
  3
Model
350
2B3
  3
Layout1
350
2B4
  0
ACDBPLACEHOLDER
  5
F
102
{ACAD_REACTORS
330
E
102
}
  0
MLINESTYLE
  5
18
102
{ACAD_REACTORS
330
17
102
}
100
AcDbMlineStyle
  2
STANDARD
 70
0
  3

 62
256
 51
90.0
 52
90.0
 71
2
 49
0.5
 62
256
  6
BYLAYER
 49
-0.5
 62
256
  6
BYLAYER
  0
LAYOUT
  5
2B3
102
{ACAD_REACTORS
330
1A
102
}
100
AcDbPlotSettings
  1

  2
none_device
  4
ANSI_C_(22.00_x_17.00_Inches)
  6

 40
0.0
 41
0.0
 42
0.0
 43
0.0
 44
558.8
 45
431.8
 46
0.0
 47
0.0
 48
0.0
 49
0.0
140
0.0
141
0.0
142
1.0
143
1.0
 70
1024
 72
1
 73
0
 74
0
  7

 75
0
147
1.0
148
0.0
149
0.0
100
AcDbLayout
  1
Model
 70
0
 71
0
 10
0.0
 20
0.0
 11
558.8
 21
431.8
 12
0.0
 22
0.0
 32
0.0
 14
0.0
 24
0.0
 34
0.0
 15
0.0
 25
0.0
 35
0.0
146
0.0
 13
0.0
 23
0.0
 33
0.0
 16
1.0
 26
0.0
 36
0.0
 17
0.0
 27
1.0
 37
0.0
 76
0
330
218
345
0
346
0
  0
LAYOUT
  5
2B4
102
{ACAD_REACTORS
330
1A
102
}
100
AcDbPlotSettings
  1

  2
none_device
  4
ANSI_C_(22.00_x_17.00_Inches)
  6

 40
0.0
 41
0.0
 42
0.0
 43
0.0
 44
558.8
 45
431.8
 46
0.0
 47
0.0
 48
0.0
 49
0.0
140
0.0
141
0.0
142
1.0
143
1.0
 70
0
 72
1
 73
0
 74
0
  7

 75
0
147
1.0
148
0.0
149
0.0
100
AcDbLayout
  1
Layout1
 70
0
 71
1
 10
0.0
 20
0.0
 11
558.8
 21
431.8
 12
0.0
 22
0.0
 32
0.0
 14
0.0
 24
0.0
 34
0.0
 15
0.0
 25
0.0
 35
0.0
146
0.0
 13
0.0
 23
0.0
 33
0.0
 16
1.0
 26
0.0
 36
0.0
 17
0.0
 27
1.0
 37
0.0
 76
0
330
219
345
0
346
0
  0
ENDSEC
  0
EOF
