999
DXF file: C:\Users\sesa63760\Dev\_Creo\CAD\MCADID0000724_3D-CAD\drw0001_1.dxf
999
Pro/ENGINEER 2019471 by Parametric Technology Corporation
  0
SECTION
  2
HEADER
  9
$ACADVER
  1
AC1024
  9
$DWGCODEPAGE
  3
ANSI_1252
  9
$EXTMAX
 10
164.6317927804
 20
232.8363926465
 30
0.0
  9
$EXTMIN
 10
0.0
 20
0.0
 30
0.0
  9
$LIMMIN
 10
0.0
 20
0.0
  9
$LIMMAX
 10
164.6317927804
 20
232.8363926465
  9
$VIEWCTR
 10
82.3158963902
 20
116.4181963233
  9
$VIEWSIZE
 40
232.8363926465
  9
$CLAYER
  8
0
  9
$LTSCALE
 40
15.1774833725
  9
$CELTYPE
  6
BYLAYER
  9
$DIMSCALE
 40
1.0
  9
$DIMASZ
 40
1.959902295
  9
$DIMEXO
 40
1.0
  9
$DIMDLI
 40
10.4862612392
  9
$DIMEXE
 40
1.0
  9
$DIMCEN
 40
2.4835881882
  9
$DIMLFAC
 40
1.0
  9
$DIMBLK
  1
_FILLED
  9
$DIMALT
 70
0
  9
$DIMALTF
 40
0.0393700787
  9
$DIMTXT
 40
2.743863213
  9
$DIMTOL
 70
1
  9
$DIMLIM
 70
0
  9
$DIMTFAC
 40
1.0
  9
$DIMTP
 40
0.01
  9
$DIMTM
 40
0.01
  9
$DIMGAP
 40
0.625
  9
$DIMDSEP
 70
46
  9
$AUNITS
 70
0
  9
$PDMODE
 70
3
  9
$PDSIZE
 40
0.3125
  9
$HANDSEED
  5
669
  9
$TILEMODE
 70
1
  9
$MEASUREMENT
 70
1
  9
$INSUNITS
 70
4
  0
ENDSEC
  0
SECTION
  2
CLASSES
  0
CLASS
  1
ACDBDICTIONARYWDFLT
  2
AcDbDictionaryWithDefault
  3
AutoCAD 2000
 90
0
 91
1
280
0
281
0
  0
CLASS
  1
ACDBPLACEHOLDER
  2
AcDbPlaceHolder
  3
AutoCAD 2000
 90
0
 91
1
280
0
281
0
  0
CLASS
  1
LAYOUT
  2
AcDbLayout
  3
AutoCAD 2000
 90
0
 91
0
280
0
281
0
  0
ENDSEC
  0
SECTION
  2
TABLES
  0
TABLE
  2
VPORT
  5
8
100
AcDbSymbolTable
 70
2
  0
VPORT
  5
1F4
100
AcDbSymbolTableRecord
100
AcDbViewportTableRecord
  2
*ACTIVE
 70
0
 10
0.0
 20
0.0
 11
1.0
 21
1.0
 12
82.3158963902
 22
116.4181963233
 13
0.0
 23
0.0
 14
1.0
 24
1.0
 15
0.0
 25
0.0
 16
0.0
 26
0.0
 36
1.0
 17
0.0
 27
0.0
 37
0.0
 40
232.8363926465
 41
0.7070707071
 42
50.0
 43
0.0
 44
0.0
 50
0.0
 51
0.0
 71
0
 72
100
 73
1
 74
1
 75
0
 76
0
 77
0
 78
0
  0
ENDTAB
  0
TABLE
  2
LTYPE
  5
5
100
AcDbSymbolTable
 70
6
  0
LTYPE
  5
14
100
AcDbSymbolTableRecord
100
AcDbLinetypeTableRecord
  2
BYBLOCK
 70
0
  3

 72
65
 73
0
 40
0.0
  0
LTYPE
  5
15
100
AcDbSymbolTableRecord
100
AcDbLinetypeTableRecord
  2
BYLAYER
 70
0
  3

 72
65
 73
0
 40
0.0
  0
LTYPE
  5
16
100
AcDbSymbolTableRecord
100
AcDbLinetypeTableRecord
  2
CONTINUOUS
 70
64
  3
Solid line
 72
65
 73
0
 40
0.0
  0
LTYPE
  5
1F5
100
AcDbSymbolTableRecord
100
AcDbLinetypeTableRecord
  2
CENTER
 70
64
  3
____ _ ____ _ ____ _ ____ _ ____ _ ____ _ ____
 72
65
 73
4
 40
0.6
 49
0.375
 74
0
 49
-0.075
 74
0
 49
0.075
 74
0
 49
-0.075
 74
0
  0
LTYPE
  5
1F6
100
AcDbSymbolTableRecord
100
AcDbLinetypeTableRecord
  2
HIDDEN
 70
64
  3
- - - - - - - - - - - - - - - - - - - -
 72
65
 73
2
 40
0.2
 49
0.1
 74
0
 49
-0.1
 74
0
  0
LTYPE
  5
1F7
100
AcDbSymbolTableRecord
100
AcDbLinetypeTableRecord
  2
PHANTOM
 70
64
  3
_____ _ _ _____ _ _ _____ _ _ _____
 72
65
 73
6
 40
0.8
 49
0.45
 74
0
 49
-0.05
 74
0
 49
0.1
 74
0
 49
-0.05
 74
0
 49
0.1
 74
0
 49
-0.05
 74
0
  0
LTYPE
  5
1F8
100
AcDbSymbolTableRecord
100
AcDbLinetypeTableRecord
  2
DOT
 70
64
  3
. . . . . . . . . . . . . . . . . . . .
 72
65
 73
2
 40
0.2
 49
0.1
 74
0
 49
-0.1
 74
0
  0
LTYPE
  5
1F9
100
AcDbSymbolTableRecord
100
AcDbLinetypeTableRecord
  2
DASHED
 70
64
  3
- - - - - - - - - - - - - - - - - - - -
 72
65
 73
2
 40
0.2
 49
0.1
 74
0
 49
-0.1
 74
0
  0
ENDTAB
  0
TABLE
  2
LAYER
  5
2
100
AcDbSymbolTable
 70
36
  0
LAYER
  5
10
100
AcDbSymbolTableRecord
100
AcDbLayerTableRecord
  2
0
 70
0
 62
7
  6
CONTINUOUS
370
-3
390
F
  0
LAYER
  5
1FA
100
AcDbSymbolTableRecord
100
AcDbLayerTableRecord
  2
DEFAULT_1
 70
0
 62
7
  6
CENTER
370
-3
390
F
  0
LAYER
  5
1FB
100
AcDbSymbolTableRecord
100
AcDbLayerTableRecord
  2
DEFAULT_2
 70
0
 62
8
  6
HIDDEN
370
-3
390
F
  0
LAYER
  5
1FC
100
AcDbSymbolTableRecord
100
AcDbLayerTableRecord
  2
DEFAULT_3
 70
0
 62
7
  6
PHANTOM
370
-3
390
F
  0
LAYER
  5
1FD
100
AcDbSymbolTableRecord
100
AcDbLayerTableRecord
  2
00_COMPONENTS
 70
0
 62
7
  6
CONTINUOUS
370
-3
390
F
  0
LAYER
  5
1FE
100
AcDbSymbolTableRecord
100
AcDbLayerTableRecord
  2
01_1_DEFAULT_DATUMS
 70
0
 62
7
  6
CONTINUOUS
370
-3
390
F
  0
LAYER
  5
1FF
100
AcDbSymbolTableRecord
100
AcDbLayerTableRecord
  2
01_PLANES
 70
0
 62
7
  6
CONTINUOUS
370
-3
390
F
  0
LAYER
  5
200
100
AcDbSymbolTableRecord
100
AcDbLayerTableRecord
  2
02_COORD_SYS
 70
0
 62
7
  6
CONTINUOUS
370
-3
390
F
  0
LAYER
  5
201
100
AcDbSymbolTableRecord
100
AcDbLayerTableRecord
  2
03_AXES
 70
0
 62
7
  6
CONTINUOUS
370
-3
390
F
  0
LAYER
  5
202
100
AcDbSymbolTableRecord
100
AcDbLayerTableRecord
  2
04_POINTS
 70
0
 62
7
  6
CONTINUOUS
370
-3
390
F
  0
LAYER
  5
203
100
AcDbSymbolTableRecord
100
AcDbLayerTableRecord
  2
05_CURVES
 70
0
 62
7
  6
CONTINUOUS
370
-3
390
F
  0
LAYER
  5
204
100
AcDbSymbolTableRecord
100
AcDbLayerTableRecord
  2
06_SURFS
 70
0
 62
7
  6
CONTINUOUS
370
-3
390
F
  0
LAYER
  5
205
100
AcDbSymbolTableRecord
100
AcDbLayerTableRecord
  2
07_COSMETICS
 70
0
 62
7
  6
CONTINUOUS
370
-3
390
F
  0
LAYER
  5
206
100
AcDbSymbolTableRecord
100
AcDbLayerTableRecord
  2
10_NOTES
 70
0
 62
7
  6
CONTINUOUS
370
-3
390
F
  0
LAYER
  5
207
100
AcDbSymbolTableRecord
100
AcDbLayerTableRecord
  2
11_NOTES_PUB
 70
0
 62
7
  6
CONTINUOUS
370
-3
390
F
  0
LAYER
  5
208
100
AcDbSymbolTableRecord
100
AcDbLayerTableRecord
  2
13_REF_GTOL
 70
0
 62
7
  6
CONTINUOUS
370
-3
390
F
  0
LAYER
  5
209
100
AcDbSymbolTableRecord
100
AcDbLayerTableRecord
  2
16_MISC
 70
0
 62
7
  6
CONTINUOUS
370
-3
390
F
  0
LAYER
  5
20A
100
AcDbSymbolTableRecord
100
AcDbLayerTableRecord
  2
17_NO_PRINT
 70
0
 62
7
  6
CONTINUOUS
370
-3
390
F
  0
LAYER
  5
20B
100
AcDbSymbolTableRecord
100
AcDbLayerTableRecord
  2
18_DATUM_CAMS_JOINTS
 70
0
 62
7
  6
CONTINUOUS
370
-3
390
F
  0
LAYER
  5
20C
100
AcDbSymbolTableRecord
100
AcDbLayerTableRecord
  2
19_DATUM_FUNCTIONAL
 70
0
 62
7
  6
CONTINUOUS
370
-3
390
F
  0
LAYER
  5
20D
100
AcDbSymbolTableRecord
100
AcDbLayerTableRecord
  2
20_DATUM_KINEMATIC_SCHEME
 70
0
 62
7
  6
CONTINUOUS
370
-3
390
F
  0
ENDTAB
  0
TABLE
  2
STYLE
  5
3
100
AcDbSymbolTable
 70
1
  0
STYLE
  5
11
100
AcDbSymbolTableRecord
100
AcDbTextStyleTableRecord
  2
STANDARD
 70
0
 40
0.0
 41
0.8
 50
0.0
 71
0
 42
0.2
  3
txt
  4

  0
STYLE
  5
20E
100
AcDbSymbolTableRecord
100
AcDbTextStyleTableRecord
  2
TEXTSTYLE_1
 70
0
 40
0.0
 41
0.8
 50
0.0
 71
0
 42
0.2
  3
gdt
  4

  0
ENDTAB
  0
TABLE
  2
VIEW
  5
6
100
AcDbSymbolTable
 70
0
  0
ENDTAB
  0
TABLE
  2
UCS
  5
7
100
AcDbSymbolTable
 70
0
  0
ENDTAB
  0
TABLE
  2
APPID
  5
9
100
AcDbSymbolTable
 70
1
  0
APPID
  5
20F
100
AcDbSymbolTableRecord
100
AcDbRegAppTableRecord
  2
ACAD
 70
0
  0
ENDTAB
  0
TABLE
  2
BLOCK_RECORD
  5
1
100
AcDbSymbolTable
 70
0
  0
BLOCK_RECORD
  5
210
100
AcDbSymbolTableRecord
100
AcDbBlockTableRecord
  2
*Model_Space
  0
BLOCK_RECORD
  5
211
100
AcDbSymbolTableRecord
100
AcDbBlockTableRecord
  2
*Paper_Space
  0
BLOCK_RECORD
  5
212
100
AcDbSymbolTableRecord
100
AcDbBlockTableRecord
  2
_FILLED
  0
ENDTAB
  0
TABLE
  2
DIMSTYLE
  5
A
100
AcDbSymbolTable
 70
1
100
AcDbDimStyleTable
 71
0
  0
DIMSTYLE
105
213
100
AcDbSymbolTableRecord
100
AcDbDimStyleTableRecord
  2
STANDARD
 70
0
  3

  4

 40
1.0
 41
1.959902295
 42
1.0
 43
0.38
 44
1.0
 45
0.0
 46
0.0
 47
0.01
 48
0.01
140
2.743863213
141
0.09
142
0.0
143
25.4
144
1.0
145
0.0
146
1.0
147
0.625
 71
1
 72
0
 73
0
 74
0
 75
0
 76
0
 77
1
 78
8
 79
2
170
0
171
1
172
0
173
0
174
0
175
0
176
0
177
0
178
0
270
2
179
2
271
2
272
2
273
2
274
2
275
0
280
0
281
0
282
0
283
1
284
8
285
0
286
0
287
3
288
0
340
11
278
46
341
212
342
212
343
212
344
212
  0
ENDTAB
  0
ENDSEC
  0
SECTION
  2
BLOCKS
  0
BLOCK
  5
20
100
AcDbEntity
  8
0
100
AcDbBlockBegin
  2
*Model_Space
 70
0
 10
0.0
 20
0.0
 30
0.0
  3
*Model_Space
  1

  0
ENDBLK
  5
21
100
AcDbEntity
  8
0
100
AcDbBlockEnd
  0
BLOCK
  5
1C
100
AcDbEntity
  8
0
100
AcDbBlockBegin
  2
*Paper_Space
 70
0
 10
0.0
 20
0.0
 30
0.0
  3
*Paper_Space
  1

  0
ENDBLK
  5
1D
100
AcDbEntity
  8
0
100
AcDbBlockEnd
  0
BLOCK
  5
214
100
AcDbEntity
  8
0
100
AcDbBlockBegin
  2
_FILLED
 70
64
 10
0.0
 20
0.0
  3
_FILLED
  1

  0
SOLID
  5
215
100
AcDbEntity
  8
0
  6
BYBLOCK
 62
0
100
AcDbTrace
 10
0.0
 20
0.0
 11
-1.0
 21
0.25
 12
-1.0
 22
-0.25
 13
-1.0
 23
-0.25
  0
ENDBLK
  5
216
100
AcDbEntity
  8
0
  6
BYBLOCK
 62
0
100
AcDbBlockEnd
  0
ENDSEC
  0
SECTION
  2
ENTITIES
  0
LINE
  5
217
100
AcDbEntity
  8
0
100
AcDbLine
 62
7
  6
CONTINUOUS
 10
20.5134015466
 20
161.8131823075
 11
26.1702322443
 21
171.6111548755
  0
LWPOLYLINE
  5
218
100
AcDbEntity
  8
0
100
AcDbPolyline
 62
7
  6
CONTINUOUS
 90
3
 70
0
 10
29.4915722757
 20
177.8735760555
 10
28.9259205715
 20
177.2875547727
 10
28.8230977527
 20
176.8363360625
  0
LINE
  5
219
100
AcDbEntity
  8
0
100
AcDbLine
 62
7
  6
CONTINUOUS
 10
29.4959223679
 20
177.8760959256
 11
39.5878350755
 21
183.7026296642
  0
LINE
  5
21A
100
AcDbEntity
  8
0
100
AcDbLine
 62
7
  6
CONTINUOUS
 10
30.6957003352
 20
178.061489326
 11
39.888050219
 21
183.3686633263
  0
LINE
  5
21B
100
AcDbEntity
  8
0
100
AcDbLine
 62
7
  6
CONTINUOUS
 10
31.897786868
 20
177.3674800433
 11
38.8274044732
 21
181.3682727515
  0
LINE
  5
21C
100
AcDbEntity
  8
0
100
AcDbLine
 62
7
  6
CONTINUOUS
 10
26.8773419694
 20
171.202914121
 11
21.2205112717
 21
161.4049415529
  0
LINE
  5
21D
100
AcDbEntity
  8
0
100
AcDbLine
 62
7
  6
CONTINUOUS
 10
26.1702322443
 20
171.6111548755
 11
28.3622541397
 21
172.8767117525
  0
LINE
  5
21E
100
AcDbEntity
  8
0
100
AcDbLine
 62
7
  6
CONTINUOUS
 10
28.3622600273
 20
172.0602268439
 11
26.8773419694
 21
171.202914121
  0
LINE
  5
21F
100
AcDbEntity
  8
0
100
AcDbLine
 62
7
  6
CONTINUOUS
 10
19.0991820963
 20
162.6296638165
 11
21.9275847832
 21
164.2626331216
  0
LINE
  5
220
100
AcDbEntity
  8
0
100
AcDbLine
 62
7
  6
CONTINUOUS
 10
47.8936168379
 20
179.2540392316
 11
65.0609315152
 21
189.1655338182
  0
LINE
  5
221
100
AcDbEntity
  8
0
100
AcDbLine
 62
7
  6
CONTINUOUS
 10
30.8371311121
 20
171.6501638142
 11
38.8274044732
 21
175.2559742331
  0
LINE
  5
222
100
AcDbEntity
  8
0
100
AcDbLine
 62
7
  6
CONTINUOUS
 10
19.0991820963
 20
89.1444462748
 11
19.0991820963
 21
111.475787383
  0
LINE
  5
223
100
AcDbEntity
  8
0
100
AcDbLine
 62
7
  6
CONTINUOUS
 10
19.0991820963
 20
140.2983227083
 11
19.0991820963
 21
162.6296638165
  0
LINE
  5
224
100
AcDbEntity
  8
0
100
AcDbLine
 62
7
  6
CONTINUOUS
 10
26.5945451828
 20
158.3023118186
 11
32.2513758806
 21
168.1002843866
  0
LINE
  5
225
100
AcDbEntity
  8
0
100
AcDbLine
 62
7
  6
CONTINUOUS
 10
32.9584856057
 20
167.6920436321
 11
27.301654908
 21
157.8940710641
  0
LINE
  5
226
100
AcDbEntity
  8
0
100
AcDbLine
 62
7
  6
CONTINUOUS
 10
33.7362939384
 20
168.9575971096
 11
32.2513758806
 21
168.1002843866
  0
LINE
  5
227
100
AcDbEntity
  8
0
100
AcDbLine
 62
7
  6
CONTINUOUS
 10
28.3622600272
 20
165.5282075068
 11
21.2205112717
 21
161.4049415529
  0
LINE
  5
228
100
AcDbEntity
  8
0
100
AcDbLine
 62
7
  6
CONTINUOUS
 10
32.9584856057
 20
167.6920436321
 11
34.4434036636
 21
168.549356355
  0
LINE
  5
229
100
AcDbEntity
  8
0
100
AcDbLine
 62
7
  6
CONTINUOUS
 10
48.4440967352
 20
175.8161984901
 11
41.51447913
 21
171.8154057818
  0
LINE
  5
22A
100
AcDbEntity
  8
0
100
AcDbLine
 62
7
  6
CONTINUOUS
 10
51.9089155465
 20
176.4285704995
 11
42.7165656627
 21
171.1213964992
  0
LINE
  5
22B
100
AcDbEntity
  8
0
100
AcDbLine
 62
7
  6
CONTINUOUS
 10
21.7154880788
 20
157.6898388863
 11
20.5134015466
 21
156.9958180461
  0
LINE
  5
22C
100
AcDbEntity
  8
0
100
AcDbLine
 62
7
  6
CONTINUOUS
 10
43.1408367969
 20
168.9168620032
 11
53.6059735877
 21
174.9588754805
  0
LINE
  5
22D
100
AcDbEntity
  8
0
100
AcDbLine
 62
7
  6
CONTINUOUS
 10
38.3325195168
 20
164.5894138977
 11
39.8174375745
 21
165.4467266206
  0
LINE
  5
22E
100
AcDbEntity
  8
0
100
AcDbLine
 62
7
  6
CONTINUOUS
 10
34.4434036634
 20
162.0173370179
 11
27.301654908
 21
157.8940710641
  0
LINE
  5
22F
100
AcDbEntity
  8
0
100
AcDbLine
 62
7
  6
CONTINUOUS
 10
20.5134015466
 20
153.403207411
 11
20.5134015466
 21
155.5261136961
  0
LINE
  5
230
100
AcDbEntity
  8
0
100
AcDbLine
 62
7
  6
CONTINUOUS
 10
20.5134015466
 20
156.9958180461
 11
20.5134015466
 21
159.2820248147
  0
LINE
  5
231
100
AcDbEntity
  8
0
100
AcDbLine
 62
7
  6
CONTINUOUS
 10
21.7154880788
 20
158.5880155323
 11
21.7154880788
 21
156.3018087637
  0
LINE
  5
232
100
AcDbEntity
  8
0
100
AcDbLine
 62
7
  6
CONTINUOUS
 10
21.9275974451
 20
113.1087639985
 11
21.9275974451
 21
138.6653732875
  0
LINE
  5
233
100
AcDbEntity
  8
0
100
AcDbLine
 62
7
  6
CONTINUOUS
 10
23.3418168954
 20
117.1096467508
 11
23.3418168954
 21
119.9674052108
  0
LINE
  5
234
100
AcDbEntity
  8
0
100
AcDbLine
 62
7
  6
CONTINUOUS
 10
23.3418168954
 20
133.4396950934
 11
23.3418168954
 21
136.2974535534
  0
LINE
  5
235
100
AcDbEntity
  8
0
100
AcDbLine
 62
7
  6
CONTINUOUS
 10
23.3418404472
 20
94.860025919
 11
23.3418404472
 21
97.3095331704
  0
LINE
  5
236
100
AcDbEntity
  8
0
100
AcDbLine
 62
7
  6
CONTINUOUS
 10
23.3418404472
 20
149.5656878667
 11
23.3418404472
 21
151.7702443929
  0
LINE
  5
237
100
AcDbEntity
  8
0
100
AcDbLine
 62
7
  6
CONTINUOUS
 10
24.0489207326
 20
117.5178909047
 11
24.0489207326
 21
119.5591678556
  0
LINE
  5
238
100
AcDbEntity
  8
0
100
AcDbLine
 62
7
  6
CONTINUOUS
 10
24.0489207326
 20
133.8479392473
 11
24.0489207326
 21
135.8892161982
  0
LINE
  5
239
100
AcDbEntity
  8
0
100
AcDbLine
 62
7
  6
CONTINUOUS
 10
25.4631460703
 20
135.0727312902
 11
25.4631460703
 21
132.2149728302
  0
LINE
  5
23A
100
AcDbEntity
  8
0
100
AcDbLine
 62
7
  6
CONTINUOUS
 10
25.4631460703
 20
118.7426829476
 11
25.4631460703
 21
115.8849244876
  0
LINE
  5
23B
100
AcDbEntity
  8
0
100
AcDbLine
 62
7
  6
CONTINUOUS
 10
26.170255796
 20
152.2602012573
 11
26.170255796
 21
151.1986644822
  0
LINE
  5
23C
100
AcDbEntity
  8
0
100
AcDbLine
 62
7
  6
CONTINUOUS
 10
32.6756888191
 20
154.7914413297
 11
38.3325195168
 21
164.5894138977
  0
LINE
  5
23D
100
AcDbEntity
  8
0
100
AcDbLine
 62
7
  6
CONTINUOUS
 10
39.039629242
 20
164.1811731432
 11
33.3827985443
 21
154.3832005752
  0
LINE
  5
23E
100
AcDbEntity
  8
0
100
AcDbLine
 62
7
  6
CONTINUOUS
 10
53.7817073424
 20
175.2034148541
 11
53.6059735877
 21
174.9588754805
  0
LINE
  5
23F
100
AcDbEntity
  8
0
100
AcDbLine
 62
7
  6
CONTINUOUS
 10
39.039629242
 20
164.1811731432
 11
41.231651137
 21
165.44673002
  0
LINE
  5
240
100
AcDbEntity
  8
0
100
AcDbLine
 62
7
  6
CONTINUOUS
 10
22.351918603
 20
154.4646693918
 11
20.5134015466
 21
153.4032074105
  0
LINE
  5
241
100
AcDbEntity
  8
0
100
AcDbLine
 62
7
  6
CONTINUOUS
 10
25.1803575036
 20
152.8317063737
 11
23.3418404472
 21
151.7702443924
  0
LINE
  5
242
100
AcDbEntity
  8
0
100
AcDbLine
 62
7
  6
CONTINUOUS
 10
26.170255796
 20
151.1986644822
 11
23.3418404472
 21
149.5656878667
  0
LINE
  5
243
100
AcDbEntity
  8
0
100
AcDbLine
 62
7
  6
CONTINUOUS
 10
58.9799574514
 20
169.1627746252
 11
53.7817077526
 21
166.161581677
  0
LINE
  5
244
100
AcDbEntity
  8
0
100
AcDbLine
 62
7
  6
CONTINUOUS
 10
42.080175742
 20
159.4057393477
 11
33.3827985443
 21
154.384336255
  0
LINE
  5
245
100
AcDbEntity
  8
0
100
AcDbLine
 62
7
  6
CONTINUOUS
 10
101.8784584731
 20
55.5062102495
 11
102.0784500517
 21
55.5260126951
  0
LINE
  5
246
100
AcDbEntity
  8
0
100
AcDbLine
 62
7
  6
CONTINUOUS
 10
105.5786290627
 20
56.8528388504
 11
105.7786213283
 21
56.8726424887
  0
LINE
  5
247
100
AcDbEntity
  8
0
100
AcDbLine
 62
7
  6
CONTINUOUS
 10
26.9481000451
 20
149.6882165445
 11
26.9481000451
 21
147.4836600188
  0
LINE
  5
248
100
AcDbEntity
  8
0
100
AcDbLine
 62
7
  6
CONTINUOUS
 10
26.9481000451
 20
95.2275053225
 11
26.9481000451
 21
92.7779980711
  0
LINE
  5
249
100
AcDbEntity
  8
0
100
AcDbLine
 62
7
  6
CONTINUOUS
 10
28.3622600273
 20
172.0602268439
 11
28.3622600273
 21
165.5282075069
  0
LINE
  5
24A
100
AcDbEntity
  8
0
100
AcDbLine
 62
7
  6
CONTINUOUS
 10
28.8229081291
 20
176.8367326409
 11
28.8229081291
 21
172.610759064
  0
LINE
  5
24B
100
AcDbEntity
  8
0
100
AcDbLine
 62
7
  6
CONTINUOUS
 10
28.9986458268
 20
172.5092991523
 11
28.9986458268
 21
176.5917861486
  0
LINE
  5
24C
100
AcDbEntity
  8
0
100
AcDbLine
 62
7
  6
CONTINUOUS
 10
30.8371311121
 20
175.5303601868
 11
30.8371311121
 21
171.6501638142
  0
LINE
  5
24D
100
AcDbEntity
  8
0
100
AcDbLine
 62
7
  6
CONTINUOUS
 10
32.1807120115
 20
150.2598455965
 11
32.1807120115
 21
152.5460523651
  0
LINE
  5
24E
100
AcDbEntity
  8
0
100
AcDbLine
 62
7
  6
CONTINUOUS
 10
53.7816947369
 20
165.570227091
 11
53.6059735877
 21
165.3252826382
  0
LINE
  5
24F
100
AcDbEntity
  8
0
100
AcDbLine
 62
7
  6
CONTINUOUS
 10
53.6059735877
 20
165.3252826382
 11
43.1408367969
 21
159.2832691609
  0
LINE
  5
250
100
AcDbEntity
  8
0
100
AcDbLine
 62
7
  6
CONTINUOUS
 10
28.7866171015
 20
150.7496785258
 11
26.9481000451
 21
149.6882165445
  0
LINE
  5
251
100
AcDbEntity
  8
0
100
AcDbLine
 62
7
  6
CONTINUOUS
 10
33.3827985443
 20
150.953866437
 11
32.1807120115
 21
150.2598455965
  0
LINE
  5
252
100
AcDbEntity
  8
0
100
AcDbLine
 62
7
  6
CONTINUOUS
 10
97.4212500587
 20
176.2879164947
 11
100.08254192
 21
177.2825468103
  0
LINE
  5
253
100
AcDbEntity
  8
0
100
AcDbLine
 62
7
  6
CONTINUOUS
 10
96.8812518625
 20
44.2390990835
 11
19.0991820963
 21
89.1455820807
  0
LINE
  5
254
100
AcDbEntity
  8
0
100
AcDbLine
 62
7
  6
CONTINUOUS
 10
93.3457032367
 20
47.0956694673
 11
90.1990649605
 21
48.9123408245
  0
LINE
  5
255
100
AcDbEntity
  8
0
100
AcDbLine
 62
7
  6
CONTINUOUS
 10
90.1990649605
 20
50.5453456588
 11
93.3457032367
 21
48.7286743016
  0
LINE
  5
256
100
AcDbEntity
  8
0
100
AcDbLine
 62
7
  6
CONTINUOUS
 10
33.3827985443
 20
151.8520430824
 11
33.3827985443
 21
149.5658363138
  0
LINE
  5
257
100
AcDbEntity
  8
0
100
AcDbLine
 62
7
  6
CONTINUOUS
 10
33.3827985443
 20
148.0961319639
 11
33.3827985443
 21
145.9732256782
  0
LINE
  5
258
100
AcDbEntity
  8
0
100
AcDbLine
 62
7
  6
CONTINUOUS
 10
34.4434036636
 20
168.549356355
 11
34.4434036636
 21
162.017337018
  0
LINE
  5
259
100
AcDbEntity
  8
0
100
AcDbLine
 62
7
  6
CONTINUOUS
 10
38.8274044732
 20
175.2559742331
 11
38.8274044732
 21
181.3682727515
  0
LINE
  5
25A
100
AcDbEntity
  8
0
100
AcDbLine
 62
7
  6
CONTINUOUS
 10
46.4532209242
 20
145.2383461133
 11
46.5567767518
 21
145.4672238025
  0
LINE
  5
25B
100
AcDbEntity
  8
0
100
AcDbLine
 62
7
  6
CONTINUOUS
 10
46.4532209239
 20
142.5975391752
 11
46.5567767518
 21
142.826416867
  0
LINE
  5
25C
100
AcDbEntity
  8
0
100
AcDbLine
 62
7
  6
CONTINUOUS
 10
96.4565802299
 20
176.6081221658
 11
89.7249516973
 21
172.7216378212
  0
LINE
  5
25D
100
AcDbEntity
  8
0
100
AcDbLine
 62
7
  6
CONTINUOUS
 10
101.0386130954
 20
178.8044679547
 11
100.6850611768
 21
178.6003458777
  0
LINE
  5
25E
100
AcDbEntity
  8
0
100
AcDbLine
 62
7
  6
CONTINUOUS
 10
93.6778423879
 20
174.1504716013
 11
96.0112850464
 21
175.4976773064
  0
LINE
  5
25F
100
AcDbEntity
  8
0
100
AcDbLine
 62
7
  6
CONTINUOUS
 10
86.7904707768
 20
170.145601975
 11
87.3561538458
 21
170.4721972976
  0
LINE
  5
260
100
AcDbEntity
  8
0
100
AcDbLine
 62
7
  6
CONTINUOUS
 10
24.048920732
 20
133.8479392477
 11
23.3418168948
 21
133.4396950938
  0
LINE
  5
261
100
AcDbEntity
  8
0
100
AcDbLine
 62
7
  6
CONTINUOUS
 10
79.3446586557
 20
165.5702899798
 11
86.7904707768
 21
169.8691059518
  0
LINE
  5
262
100
AcDbEntity
  8
0
100
AcDbLine
 62
7
  6
CONTINUOUS
 10
87.8622177804
 20
170.4878756793
 11
89.3713997826
 21
171.3591971134
  0
LINE
  5
263
100
AcDbEntity
  8
0
100
AcDbLine
 62
7
  6
CONTINUOUS
 10
100.08254192
 20
177.2825468103
 11
100.1193781067
 21
177.3000927146
  0
LINE
  5
264
100
AcDbEntity
  8
0
100
AcDbLine
 62
7
  6
CONTINUOUS
 10
146.816952167
 20
74.9657691294
 11
146.966958766
 21
74.9806290171
  0
LINE
  5
265
100
AcDbEntity
  8
0
100
AcDbLine
 62
7
  6
CONTINUOUS
 10
147.1326735181
 20
74.294006762
 11
147.382663858
 21
74.3187613135
  0
LINE
  5
266
100
AcDbEntity
  8
0
100
AcDbLine
 62
7
  6
CONTINUOUS
 10
26.9481000451
 20
92.7779980711
 11
23.3418404472
 21
94.860025919
  0
LINE
  5
267
100
AcDbEntity
  8
0
100
AcDbLine
 62
7
  6
CONTINUOUS
 10
23.3418404472
 20
97.3095331704
 11
26.9481000451
 21
95.2275053225
  0
LINE
  5
268
100
AcDbEntity
  8
0
100
AcDbLine
 62
7
  6
CONTINUOUS
 10
94.1588794206
 20
57.6081501095
 11
93.0982148329
 21
58.2205112412
  0
LINE
  5
269
100
AcDbEntity
  8
0
100
AcDbLine
 62
7
  6
CONTINUOUS
 10
40.4538233741
 20
169.9782859253
 11
40.4538233741
 21
166.0980895527
  0
LINE
  5
26A
100
AcDbEntity
  8
0
100
AcDbLine
 62
7
  6
CONTINUOUS
 10
41.231651137
 20
165.44673002
 11
41.231651137
 21
158.914710683
  0
LINE
  5
26B
100
AcDbEntity
  8
0
100
AcDbLine
 62
7
  6
CONTINUOUS
 10
42.2923086595
 20
168.9168599636
 11
42.2923086595
 21
159.2821314415
  0
LINE
  5
26C
100
AcDbEntity
  8
0
100
AcDbLine
 62
7
  6
CONTINUOUS
 10
43.1408367969
 20
159.2821334811
 11
43.1408367969
 21
168.9168620032
  0
LINE
  5
26D
100
AcDbEntity
  8
0
100
AcDbLine
 62
7
  6
CONTINUOUS
 10
53.9866952509
 20
146.0769864575
 11
52.7261094489
 21
143.6068983569
  0
LINE
  5
26E
100
AcDbEntity
  8
0
100
AcDbLine
 62
7
  6
CONTINUOUS
 10
54.0784995797
 20
145.6455808289
 11
52.8771964077
 21
143.2916556414
  0
LINE
  5
26F
100
AcDbEntity
  8
0
100
AcDbLine
 62
7
  6
CONTINUOUS
 10
53.4914881215
 20
141.8222397601
 11
53.866551595
 21
142.5571677779
  0
LINE
  5
270
100
AcDbEntity
  8
0
100
AcDbLine
 62
7
  6
CONTINUOUS
 10
54.0079723624
 20
142.6388166087
 11
54.4409693709
 21
143.48726402
  0
LINE
  5
271
100
AcDbEntity
  8
0
100
AcDbLine
 62
7
  6
CONTINUOUS
 10
54.4409693709
 20
143.48726402
 11
54.515026501
 21
143.5677981064
  0
LINE
  5
272
100
AcDbEntity
  8
0
100
AcDbLine
 62
7
  6
CONTINUOUS
 10
80.3911810493
 20
166.0264111251
 11
78.5527110728
 21
164.9649763252
  0
LINE
  5
273
100
AcDbEntity
  8
0
100
AcDbLine
 62
7
  6
CONTINUOUS
 10
80.7800881605
 20
166.1448000956
 11
86.7904707768
 21
169.6148754035
  0
LINE
  5
274
100
AcDbEntity
  8
0
100
AcDbLine
 62
7
  6
CONTINUOUS
 10
88.3275297589
 20
170.5022915234
 11
88.6642959442
 21
170.6967224106
  0
LINE
  5
275
100
AcDbEntity
  8
0
100
AcDbLine
 62
7
  6
CONTINUOUS
 10
89.0138068483
 20
170.5963942386
 11
89.3713997826
 21
170.8028493831
  0
LINE
  5
276
100
AcDbEntity
  8
0
100
AcDbLine
 62
7
  6
CONTINUOUS
 10
46.4532209242
 20
145.2383461117
 11
46.8067653803
 21
145.4424638801
  0
LINE
  5
277
100
AcDbEntity
  8
0
100
AcDbLine
 62
7
  6
CONTINUOUS
 10
47.3482445434
 20
145.1298513374
 11
46.4532209242
 21
144.6131122945
  0
LINE
  5
278
100
AcDbEntity
  8
0
100
AcDbLine
 62
7
  6
CONTINUOUS
 10
98.132614221
 20
174.2729550427
 11
95.799171563
 21
172.9257493376
  0
LINE
  5
279
100
AcDbEntity
  8
0
100
AcDbLine
 62
7
  6
CONTINUOUS
 10
46.8067623248
 20
144.0007640262
 11
48.0553334532
 21
144.7216226003
  0
LINE
  5
27A
100
AcDbEntity
  8
0
100
AcDbLine
 62
7
  6
CONTINUOUS
 10
97.2699597916
 20
172.0766085684
 11
99.6034024501
 21
173.4238142735
  0
LINE
  5
27B
100
AcDbEntity
  8
0
100
AcDbLine
 62
7
  6
CONTINUOUS
 10
46.4532209242
 20
142.597539175
 11
46.8067653782
 21
142.8016569423
  0
LINE
  5
27C
100
AcDbEntity
  8
0
100
AcDbLine
 62
7
  6
CONTINUOUS
 10
47.370459998
 20
142.4762185923
 11
46.4532209242
 21
141.9466535272
  0
LINE
  5
27D
100
AcDbEntity
  8
0
100
AcDbLine
 62
7
  6
CONTINUOUS
 10
54.2497011971
 20
146.3563147644
 11
56.5831438599
 21
147.7035204722
  0
LINE
  5
27E
100
AcDbEntity
  8
0
100
AcDbLine
 62
7
  6
CONTINUOUS
 10
56.943144903
 20
147.7145542718
 11
54.6097022402
 21
146.367348564
  0
LINE
  5
27F
100
AcDbEntity
  8
0
100
AcDbLine
 62
7
  6
CONTINUOUS
 10
46.8067623248
 20
141.3343052594
 11
48.0775489074
 21
142.0679898555
  0
LINE
  5
280
100
AcDbEntity
  8
0
100
AcDbLine
 62
7
  6
CONTINUOUS
 10
101.7247316248
 20
172.1990920098
 11
99.3912889668
 21
170.8518863047
  0
LINE
  5
281
100
AcDbEntity
  8
0
100
AcDbLine
 62
7
  6
CONTINUOUS
 10
52.7609818927
 20
143.6752300868
 11
52.4878822458
 21
143.5175568733
  0
LINE
  5
282
100
AcDbEntity
  8
0
100
AcDbLine
 62
7
  6
CONTINUOUS
 10
46.4532209242
 20
139.5228292016
 11
46.8067653809
 21
139.7269469704
  0
LINE
  5
283
100
AcDbEntity
  8
0
100
AcDbLine
 62
7
  6
CONTINUOUS
 10
147.7736265631
 20
84.1004689853
 11
147.5236362316
 21
84.0757144367
  0
LINE
  5
284
100
AcDbEntity
  8
0
100
AcDbLine
 62
7
  6
CONTINUOUS
 10
101.8784592284
 20
55.5062115578
 11
101.830978723
 21
55.5336238202
  0
LINE
  5
285
100
AcDbEntity
  8
0
100
AcDbLine
 62
7
  6
CONTINUOUS
 10
93.0982148329
 20
62.3846735697
 11
94.1588794206
 21
61.772312438
  0
LINE
  5
286
100
AcDbEntity
  8
0
100
AcDbLine
 62
7
  6
CONTINUOUS
 10
102.7148435052
 20
57.1181860593
 11
102.5734209271
 21
57.1998345757
  0
LINE
  5
287
100
AcDbEntity
  8
0
100
AcDbLine
 62
7
  6
CONTINUOUS
 10
104.5179733044
 20
56.2404726182
 11
102.5734227379
 21
57.3631340132
  0
LINE
  5
288
100
AcDbEntity
  8
0
100
AcDbLine
 62
7
  6
CONTINUOUS
 10
102.5734227379
 20
57.5264386804
 11
101.830978723
 21
57.9550792352
  0
LINE
  5
289
100
AcDbEntity
  8
0
100
AcDbLine
 62
7
  6
CONTINUOUS
 10
105.8614705953
 20
56.46499738
 11
105.3841632836
 21
56.7405646507
  0
LINE
  5
28A
100
AcDbEntity
  8
0
100
AcDbLine
 62
7
  6
CONTINUOUS
 10
105.5786254404
 20
56.8528325764
 11
105.8614705953
 21
56.6895355444
  0
LINE
  5
28B
100
AcDbEntity
  8
0
100
AcDbLine
 62
7
  6
CONTINUOUS
 10
105.1791153925
 20
57.806109408
 11
104.96697881
 21
57.9285837503
  0
LINE
  5
28C
100
AcDbEntity
  8
0
100
AcDbLine
 62
7
  6
CONTINUOUS
 10
106.260984263
 20
57.3612618747
 11
105.1226539688
 21
58.0184623086
  0
LINE
  5
28D
100
AcDbEntity
  8
0
100
AcDbLine
 62
7
  6
CONTINUOUS
 10
106.957459463
 20
57.2814232035
 11
109.6091209323
 21
55.7505203741
  0
LINE
  5
28E
100
AcDbEntity
  8
0
100
AcDbLine
 62
7
  6
CONTINUOUS
 10
105.1791153925
 20
58.4593113408
 11
104.9669788086
 21
58.5817856838
  0
LINE
  5
28F
100
AcDbEntity
  8
0
100
AcDbLine
 62
7
  6
CONTINUOUS
 10
106.260984263
 20
58.4307229631
 11
105.1791153925
 21
59.0553261163
  0
LINE
  5
290
100
AcDbEntity
  8
0
100
AcDbLine
 62
7
  6
CONTINUOUS
 10
105.1791153925
 20
59.1125132751
 11
104.9669788087
 21
59.2349876182
  0
LINE
  5
291
100
AcDbEntity
  8
0
100
AcDbLine
 62
7
  6
CONTINUOUS
 10
106.260984263
 20
58.6756736873
 11
105.1295891509
 21
59.3288701826
  0
LINE
  5
292
100
AcDbEntity
  8
0
100
AcDbLine
 62
7
  6
CONTINUOUS
 10
106.5685744325
 20
58.6083091702
 11
106.35643785
 21
58.7307835125
  0
LINE
  5
293
100
AcDbEntity
  8
0
100
AcDbLine
 62
7
  6
CONTINUOUS
 10
106.260984263
 20
59.0839248959
 11
105.1791153925
 21
59.7085280491
  0
LINE
  5
294
100
AcDbEntity
  8
0
100
AcDbLine
 62
7
  6
CONTINUOUS
 10
105.1791153925
 20
59.7657152094
 11
104.96697881
 21
59.8881895517
  0
LINE
  5
295
100
AcDbEntity
  8
0
100
AcDbLine
 62
7
  6
CONTINUOUS
 10
106.957459463
 20
58.914428038
 11
109.6091209323
 21
57.3835252086
  0
LINE
  5
296
100
AcDbEntity
  8
0
100
AcDbLine
 62
7
  6
CONTINUOUS
 10
106.260984263
 20
59.3288756217
 11
105.1295891522
 21
59.9820721162
  0
LINE
  5
297
100
AcDbEntity
  8
0
100
AcDbLine
 62
7
  6
CONTINUOUS
 10
106.5685744325
 20
59.261511103
 11
106.3564378486
 21
59.3839854461
  0
LINE
  5
298
100
AcDbEntity
  8
0
100
AcDbLine
 62
7
  6
CONTINUOUS
 10
106.260984263
 20
59.7371268303
 11
105.1791153925
 21
60.3617299834
  0
LINE
  5
299
100
AcDbEntity
  8
0
100
AcDbLine
 62
7
  6
CONTINUOUS
 10
105.1791153925
 20
60.4189171422
 11
104.9669788087
 21
60.5413914852
  0
LINE
  5
29A
100
AcDbEntity
  8
0
100
AcDbLine
 62
7
  6
CONTINUOUS
 10
46.3228829621
 20
118.4776280569
 11
46.3228829621
 21
124.5810672569
  0
LINE
  5
29B
100
AcDbEntity
  8
0
100
AcDbLine
 62
7
  6
CONTINUOUS
 10
46.4532209242
 20
127.2496100416
 11
46.4532209242
 21
129.7248002151
  0
LINE
  5
29C
100
AcDbEntity
  8
0
100
AcDbLine
 62
7
  6
CONTINUOUS
 10
46.4532209242
 20
132.148624536
 11
46.4532209242
 21
139.522829204
  0
LINE
  5
29D
100
AcDbEntity
  8
0
100
AcDbLine
 62
7
  6
CONTINUOUS
 10
46.4532209239
 20
141.9466535275
 11
46.4532209239
 21
142.5975391752
  0
LINE
  5
29E
100
AcDbEntity
  8
0
100
AcDbLine
 62
7
  6
CONTINUOUS
 10
46.4532209242
 20
144.613112292
 11
46.4532209242
 21
145.2383461133
  0
LINE
  5
29F
100
AcDbEntity
  8
0
100
AcDbLine
 62
7
  6
CONTINUOUS
 10
47.0299867994
 20
118.8858722108
 11
47.0299867994
 21
124.1728299017
  0
LINE
  5
2A0
100
AcDbEntity
  8
0
100
AcDbLine
 62
7
  6
CONTINUOUS
 10
47.8674285986
 20
128.0660983518
 11
47.8674285986
 21
129.3165611655
  0
LINE
  5
2A1
100
AcDbEntity
  8
0
100
AcDbLine
 62
7
  6
CONTINUOUS
 10
47.8674285986
 20
132.9651128462
 11
47.8674285986
 21
139.1145901543
  0
LINE
  5
2A2
100
AcDbEntity
  8
0
100
AcDbLine
 62
7
  6
CONTINUOUS
 10
49.5048767253
 20
122.7439838616
 11
49.5048767253
 21
116.6405446616
  0
LINE
  5
2A3
100
AcDbEntity
  8
0
100
AcDbLine
 62
7
  6
CONTINUOUS
 10
51.2837821265
 20
142.4494833908
 11
51.2837821265
 21
141.8242495809
  0
LINE
  5
2A4
100
AcDbEntity
  8
0
100
AcDbLine
 62
7
  6
CONTINUOUS
 10
51.2837821265
 20
139.8086764527
 11
51.2837821265
 21
139.1577908137
  0
LINE
  5
2A5
100
AcDbEntity
  8
0
100
AcDbLine
 62
7
  6
CONTINUOUS
 10
51.2837821265
 20
136.7339664792
 11
51.2837821265
 21
129.3597618248
  0
LINE
  5
2A6
100
AcDbEntity
  8
0
100
AcDbLine
 62
7
  6
CONTINUOUS
 10
55.1032842223
 20
143.0258979226
 11
54.9056957958
 21
142.6387280676
  0
LINE
  5
2A7
100
AcDbEntity
  8
0
100
AcDbLine
 62
7
  6
CONTINUOUS
 10
51.2837851827
 20
141.8242442873
 11
50.930240726
 21
141.6201265184
  0
LINE
  5
2A8
100
AcDbEntity
  8
0
100
AcDbLine
 62
7
  6
CONTINUOUS
 10
54.4409693727
 20
143.4872640234
 11
54.6114286359
 21
143.5856781374
  0
LINE
  5
2A9
100
AcDbEntity
  8
0
100
AcDbLine
 62
7
  6
CONTINUOUS
 10
100.8620771954
 20
170.0027455354
 11
103.1955198538
 21
171.3499512405
  0
LINE
  5
2AA
100
AcDbEntity
  8
0
100
AcDbLine
 62
7
  6
CONTINUOUS
 10
52.3222316422
 20
141.8499478496
 11
52.675776097
 21
142.0540656173
  0
LINE
  5
2AB
100
AcDbEntity
  8
0
100
AcDbLine
 62
7
  6
CONTINUOUS
 10
54.0079723625
 20
142.6388166087
 11
53.866551595
 21
142.5571677779
  0
LINE
  5
2AC
100
AcDbEntity
  8
0
100
AcDbLine
 62
7
  6
CONTINUOUS
 10
53.2222806077
 20
141.7443544431
 11
52.3222316422
 21
141.2247140324
  0
LINE
  5
2AD
100
AcDbEntity
  8
0
100
AcDbLine
 62
7
  6
CONTINUOUS
 10
54.9056957933
 20
142.6387280626
 11
53.4914881189
 21
141.8222397549
  0
LINE
  5
2AE
100
AcDbEntity
  8
0
100
AcDbLine
 62
7
  6
CONTINUOUS
 10
53.4197015399
 20
141.7441390815
 11
54.8339092143
 21
142.5606273893
  0
LINE
  5
2AF
100
AcDbEntity
  8
0
100
AcDbLine
 62
7
  6
CONTINUOUS
 10
52.6757730427
 20
140.6123657641
 11
54.0899807171
 21
141.4288540718
  0
LINE
  5
2B0
100
AcDbEntity
  8
0
100
AcDbLine
 62
7
  6
CONTINUOUS
 10
55.0468376385
 20
141.8757447288
 11
55.188258406
 21
141.9573935596
  0
LINE
  5
2B1
100
AcDbEntity
  8
0
100
AcDbLine
 62
7
  6
CONTINUOUS
 10
51.2837851825
 20
139.1577855205
 11
50.930240726
 21
138.9536677517
  0
LINE
  5
2B2
100
AcDbEntity
  8
0
100
AcDbLine
 62
7
  6
CONTINUOUS
 10
105.3168490285
 20
170.1252289768
 11
102.9834063705
 21
168.7780232717
  0
LINE
  5
2B3
100
AcDbEntity
  8
0
100
AcDbLine
 62
7
  6
CONTINUOUS
 10
52.3222316422
 20
139.209140913
 11
52.6757760956
 21
139.4132586799
  0
LINE
  5
2B4
100
AcDbEntity
  8
0
100
AcDbLine
 62
7
  6
CONTINUOUS
 10
53.2394707159
 20
139.0878203303
 11
52.3222316422
 21
138.5582552652
  0
LINE
  5
2B5
100
AcDbEntity
  8
0
100
AcDbLine
 62
7
  6
CONTINUOUS
 10
104.4541945991
 20
167.9288825024
 11
106.7876372576
 21
169.2760882075
  0
LINE
  5
2B6
100
AcDbEntity
  8
0
100
AcDbLine
 62
7
  6
CONTINUOUS
 10
52.6757730433
 20
137.945906997
 11
53.9465596259
 21
138.6795915931
  0
LINE
  5
2B7
100
AcDbEntity
  8
0
100
AcDbLine
 62
7
  6
CONTINUOUS
 10
56.0823782429
 20
139.0456016742
 11
55.7359667271
 21
138.8456020861
  0
LINE
  5
2B8
100
AcDbEntity
  8
0
100
AcDbLine
 62
7
  6
CONTINUOUS
 10
64.6941197505
 20
143.2396280749
 11
62.3606770877
 21
141.8924223672
  0
LINE
  5
2B9
100
AcDbEntity
  8
0
100
AcDbLine
 62
7
  6
CONTINUOUS
 10
47.8674285986
 20
132.9651128462
 11
46.4532209242
 21
132.1486245384
  0
LINE
  5
2BA
100
AcDbEntity
  8
0
100
AcDbLine
 62
7
  6
CONTINUOUS
 10
108.9089664323
 20
168.0513659439
 11
106.5755237743
 21
166.7041602387
  0
LINE
  5
2BB
100
AcDbEntity
  8
0
100
AcDbLine
 62
7
  6
CONTINUOUS
 10
62.8601153935
 20
141.1529988818
 11
65.1935580563
 21
142.5002045896
  0
LINE
  5
2BC
100
AcDbEntity
  8
0
100
AcDbLine
 62
7
  6
CONTINUOUS
 10
106.260984263
 20
59.982077556
 11
105.1295891522
 21
60.6352740504
  0
LINE
  5
2BD
100
AcDbEntity
  8
0
100
AcDbLine
 62
7
  6
CONTINUOUS
 10
106.5685744325
 20
59.9147130374
 11
106.3564378487
 21
60.0371873804
  0
LINE
  5
2BE
100
AcDbEntity
  8
0
100
AcDbLine
 62
7
  6
CONTINUOUS
 10
106.260984263
 20
60.3903287645
 11
105.1791153925
 21
61.0149319177
  0
LINE
  5
2BF
100
AcDbEntity
  8
0
100
AcDbLine
 62
7
  6
CONTINUOUS
 10
105.1791153925
 20
61.0721190765
 11
104.96697881
 21
61.1945934188
  0
LINE
  5
2C0
100
AcDbEntity
  8
0
100
AcDbLine
 62
7
  6
CONTINUOUS
 10
106.260984263
 20
60.6352794888
 11
105.1295891522
 21
61.2884759832
  0
LINE
  5
2C1
100
AcDbEntity
  8
0
100
AcDbLine
 62
7
  6
CONTINUOUS
 10
106.5685744325
 20
60.5679149717
 11
106.35643785
 21
60.690389314
  0
LINE
  5
2C2
100
AcDbEntity
  8
0
100
AcDbLine
 62
7
  6
CONTINUOUS
 10
106.260984263
 20
61.0435306973
 11
105.1791153925
 21
61.6681338505
  0
LINE
  5
2C3
100
AcDbEntity
  8
0
100
AcDbLine
 62
7
  6
CONTINUOUS
 10
105.1791153925
 20
61.7253210093
 11
104.9669788086
 21
61.8477953524
  0
LINE
  5
2C4
100
AcDbEntity
  8
0
100
AcDbLine
 62
7
  6
CONTINUOUS
 10
96.8812518625
 20
66.5693043858
 11
19.0991820963
 21
111.475787383
  0
LINE
  5
2C5
100
AcDbEntity
  8
0
100
AcDbLine
 62
7
  6
CONTINUOUS
 10
106.260984263
 20
61.2884814231
 11
105.1295891522
 21
61.9416779176
  0
LINE
  5
2C6
100
AcDbEntity
  8
0
100
AcDbLine
 62
7
  6
CONTINUOUS
 10
106.5685744325
 20
61.2211169045
 11
106.3564378487
 21
61.3435912475
  0
LINE
  5
2C7
100
AcDbEntity
  8
0
100
AcDbLine
 62
7
  6
CONTINUOUS
 10
106.260984263
 20
61.6967326316
 11
105.1791153925
 21
62.3213357848
  0
LINE
  5
2C8
100
AcDbEntity
  8
0
100
AcDbLine
 62
7
  6
CONTINUOUS
 10
105.1791153925
 20
62.3785229436
 11
104.9669788087
 21
62.5009972867
  0
LINE
  5
2C9
100
AcDbEntity
  8
0
100
AcDbLine
 62
7
  6
CONTINUOUS
 10
106.260984263
 20
61.9416833559
 11
105.1295891509
 21
62.5948798511
  0
LINE
  5
2CA
100
AcDbEntity
  8
0
100
AcDbLine
 62
7
  6
CONTINUOUS
 10
106.5685744325
 20
61.8743188388
 11
106.35643785
 21
61.9967931811
  0
LINE
  5
2CB
100
AcDbEntity
  8
0
100
AcDbLine
 62
7
  6
CONTINUOUS
 10
106.260984263
 20
62.3499345644
 11
105.1791153925
 21
62.9745377176
  0
LINE
  5
2CC
100
AcDbEntity
  8
0
100
AcDbLine
 62
7
  6
CONTINUOUS
 10
105.1791153925
 20
63.0317248779
 11
104.96697881
 21
63.1541992202
  0
LINE
  5
2CD
100
AcDbEntity
  8
0
100
AcDbLine
 62
7
  6
CONTINUOUS
 10
109.7858748124
 20
60.5474046538
 11
112.4375362817
 21
59.0165018244
  0
LINE
  5
2CE
100
AcDbEntity
  8
0
100
AcDbLine
 62
7
  6
CONTINUOUS
 10
106.260984263
 20
62.5948852902
 11
105.1295891522
 21
63.2480817847
  0
LINE
  5
2CF
100
AcDbEntity
  8
0
100
AcDbLine
 62
7
  6
CONTINUOUS
 10
106.5685744325
 20
62.5275207716
 11
106.3564378486
 21
62.6499951146
  0
LINE
  5
2D0
100
AcDbEntity
  8
0
100
AcDbLine
 62
7
  6
CONTINUOUS
 10
106.260984263
 20
63.0031364988
 11
105.1791153925
 21
63.6277396519
  0
LINE
  5
2D1
100
AcDbEntity
  8
0
100
AcDbLine
 62
7
  6
CONTINUOUS
 10
105.1791153925
 20
63.6849268107
 11
104.9669788087
 21
63.8074011538
  0
LINE
  5
2D2
100
AcDbEntity
  8
0
100
AcDbLine
 62
7
  6
CONTINUOUS
 10
106.260984263
 20
63.2480872245
 11
105.1295891522
 21
63.901283719
  0
LINE
  5
2D3
100
AcDbEntity
  8
0
100
AcDbLine
 62
7
  6
CONTINUOUS
 10
106.5685744325
 20
63.1807227059
 11
106.3564378487
 21
63.3031970489
  0
LINE
  5
2D4
100
AcDbEntity
  8
0
100
AcDbLine
 62
7
  6
CONTINUOUS
 10
106.260984263
 20
63.6563384331
 11
105.1791153925
 21
64.2809415862
  0
LINE
  5
2D5
100
AcDbEntity
  8
0
100
AcDbLine
 62
7
  6
CONTINUOUS
 10
105.1791153925
 20
64.338128745
 11
104.96697881
 21
64.4606030873
  0
LINE
  5
2D6
100
AcDbEntity
  8
0
100
AcDbLine
 62
7
  6
CONTINUOUS
 10
106.260984263
 20
63.9012891573
 11
105.1295891522
 21
64.5544856518
  0
LINE
  5
2D7
100
AcDbEntity
  8
0
100
AcDbLine
 62
7
  6
CONTINUOUS
 10
106.5685744325
 20
63.8339246402
 11
106.35643785
 21
63.9563989825
  0
LINE
  5
2D8
100
AcDbEntity
  8
0
100
AcDbLine
 62
7
  6
CONTINUOUS
 10
106.260984263
 20
64.3095403659
 11
105.1791153925
 21
64.934143519
  0
LINE
  5
2D9
100
AcDbEntity
  8
0
100
AcDbLine
 62
7
  6
CONTINUOUS
 10
105.1791153925
 20
64.9913306789
 11
104.9669788096
 21
65.1138050214
  0
LINE
  5
2DA
100
AcDbEntity
  8
0
100
AcDbLine
 62
7
  6
CONTINUOUS
 10
99.7096672113
 20
68.2022810013
 11
21.9275974451
 21
113.1087639985
  0
LINE
  5
2DB
100
AcDbEntity
  8
0
100
AcDbLine
 62
7
  6
CONTINUOUS
 10
106.260984263
 20
64.5544910916
 11
105.1295891522
 21
65.2076875861
  0
LINE
  5
2DC
100
AcDbEntity
  8
0
100
AcDbLine
 62
7
  6
CONTINUOUS
 10
106.5685744325
 20
64.487126573
 11
106.3564378487
 21
64.609600916
  0
LINE
  5
2DD
100
AcDbEntity
  8
0
100
AcDbLine
 62
7
  6
CONTINUOUS
 10
106.260984263
 20
64.9627423001
 11
105.1791153925
 21
65.5873454533
  0
LINE
  5
2DE
100
AcDbEntity
  8
0
100
AcDbLine
 62
7
  6
CONTINUOUS
 10
105.1791153925
 20
65.6445326122
 11
104.9669788087
 21
65.7670069552
  0
LINE
  5
2DF
100
AcDbEntity
  8
0
100
AcDbLine
 62
7
  6
CONTINUOUS
 10
106.260984263
 20
65.2076930244
 11
105.1295891509
 21
65.8608895196
  0
LINE
  5
2E0
100
AcDbEntity
  8
0
100
AcDbLine
 62
7
  6
CONTINUOUS
 10
106.5685744325
 20
65.1403285073
 11
106.35643785
 21
65.2628028496
  0
LINE
  5
2E1
100
AcDbEntity
  8
0
100
AcDbLine
 62
7
  6
CONTINUOUS
 10
106.260984263
 20
65.6159442341
 11
105.1791153925
 21
66.2405473873
  0
LINE
  5
2E2
100
AcDbEntity
  8
0
100
AcDbLine
 62
7
  6
CONTINUOUS
 10
105.1791153925
 20
66.2977345464
 11
104.96697881
 21
66.4202088887
  0
LINE
  5
2E3
100
AcDbEntity
  8
0
100
AcDbLine
 62
7
  6
CONTINUOUS
 10
106.260984263
 20
65.8608949587
 11
105.1295891522
 21
66.5140914532
  0
LINE
  5
2E4
100
AcDbEntity
  8
0
100
AcDbLine
 62
7
  6
CONTINUOUS
 10
106.5685744325
 20
65.7935304412
 11
106.3564378496
 21
65.9160047837
  0
LINE
  5
2E5
100
AcDbEntity
  8
0
100
AcDbLine
 62
7
  6
CONTINUOUS
 10
106.260984263
 20
66.2691461673
 11
105.1791153925
 21
66.8937493205
  0
LINE
  5
2E6
100
AcDbEntity
  8
0
100
AcDbLine
 62
7
  6
CONTINUOUS
 10
105.1791153925
 20
66.9509364792
 11
104.9669788087
 21
67.0734108223
  0
LINE
  5
2E7
100
AcDbEntity
  8
0
100
AcDbLine
 62
7
  6
CONTINUOUS
 10
106.260984263
 20
66.514096893
 11
105.1295891522
 21
67.1672933875
  0
LINE
  5
2E8
100
AcDbEntity
  8
0
100
AcDbLine
 62
7
  6
CONTINUOUS
 10
106.5685744325
 20
66.4467323744
 11
106.3564378487
 21
66.5692067175
  0
LINE
  5
2E9
100
AcDbEntity
  8
0
100
AcDbLine
 62
7
  6
CONTINUOUS
 10
106.260984263
 20
66.9223481016
 11
105.1791153925
 21
67.5469512547
  0
LINE
  5
2EA
100
AcDbEntity
  8
0
100
AcDbLine
 62
7
  6
CONTINUOUS
 10
105.1791153925
 20
67.6041384135
 11
104.96697881
 21
67.7266127558
  0
LINE
  5
2EB
100
AcDbEntity
  8
0
100
AcDbLine
 62
7
  6
CONTINUOUS
 10
106.260984263
 20
67.1672988258
 11
105.1295891522
 21
67.8204953203
  0
LINE
  5
2EC
100
AcDbEntity
  8
0
100
AcDbLine
 62
7
  6
CONTINUOUS
 10
106.5685744325
 20
67.0999343087
 11
106.35643785
 21
67.222408651
  0
LINE
  5
2ED
100
AcDbEntity
  8
0
100
AcDbLine
 62
7
  6
CONTINUOUS
 10
52.3222316422
 20
138.5582552681
 11
52.3222316422
 21
139.2091409086
  0
LINE
  5
2EE
100
AcDbEntity
  8
0
100
AcDbLine
 62
7
  6
CONTINUOUS
 10
52.3222316422
 20
141.2247140368
 11
52.3222316422
 21
141.8499478452
  0
LINE
  5
2EF
100
AcDbEntity
  8
0
100
AcDbLine
 62
7
  6
CONTINUOUS
 10
53.3705545242
 20
128.5489751164
 11
53.3705545242
 21
132.1549766699
  0
LINE
  5
2F0
100
AcDbEntity
  8
0
100
AcDbLine
 62
7
  6
CONTINUOUS
 10
53.3705545236
 20
134.7952186015
 11
53.3705545236
 21
135.1352104839
  0
LINE
  5
2F1
100
AcDbEntity
  8
0
100
AcDbLine
 62
7
  6
CONTINUOUS
 10
53.6059735877
 20
174.9588754805
 11
53.6059735877
 21
165.3241469584
  0
LINE
  5
2F2
100
AcDbEntity
  8
0
100
AcDbLine
 62
7
  6
CONTINUOUS
 10
53.7817077526
 20
175.2038199332
 11
53.7817077526
 21
165.570227091
  0
LINE
  5
2F3
100
AcDbEntity
  8
0
100
AcDbLine
 62
7
  6
CONTINUOUS
 10
55.137528951
 20
142.9106701366
 11
55.137528951
 21
142.6204085238
  0
LINE
  5
2F4
100
AcDbEntity
  8
0
100
AcDbLine
 62
7
  6
CONTINUOUS
 10
55.8688642516
 20
112.9663778709
 11
55.8688642516
 21
119.0698170709
  0
LINE
  5
2F5
100
AcDbEntity
  8
0
100
AcDbLine
 62
7
  6
CONTINUOUS
 10
56.1989698725
 20
131.1759497763
 11
56.1989698725
 21
131.3384985756
  0
LINE
  5
2F6
100
AcDbEntity
  8
0
100
AcDbLine
 62
7
  6
CONTINUOUS
 10
56.5759680888
 20
118.6615797157
 11
56.5759680888
 21
113.3746220248
  0
LINE
  5
2F7
100
AcDbEntity
  8
0
100
AcDbLine
 62
7
  6
CONTINUOUS
 10
57.2942147903
 20
136.3386300393
 11
57.2942147903
 21
135.6877444002
  0
LINE
  5
2F8
100
AcDbEntity
  8
0
100
AcDbLine
 62
7
  6
CONTINUOUS
 10
57.2942147903
 20
123.4658910769
 11
57.2942147903
 21
120.9907009171
  0
LINE
  5
2F9
100
AcDbEntity
  8
0
100
AcDbLine
 62
7
  6
CONTINUOUS
 10
61.1257465427
 20
139.4534493109
 11
61.2325615084
 21
139.6895236644
  0
LINE
  5
2FA
100
AcDbEntity
  8
0
100
AcDbLine
 62
7
  6
CONTINUOUS
 10
80.6315984066
 20
165.8876068696
 11
80.7800881605
 21
166.1448000956
  0
LINE
  5
2FB
100
AcDbEntity
  8
0
100
AcDbLine
 62
7
  6
CONTINUOUS
 10
59.6282040701
 20
130.7062262558
 11
59.4544387613
 21
130.4662945312
  0
LINE
  5
2FC
100
AcDbEntity
  8
0
100
AcDbLine
 62
7
  6
CONTINUOUS
 10
46.8067623248
 20
131.5362762701
 11
48.2209699992
 21
132.3527645779
  0
LINE
  5
2FD
100
AcDbEntity
  8
0
100
AcDbLine
 62
7
  6
CONTINUOUS
 10
53.3705545236
 20
135.1352104881
 11
54.0776434332
 21
135.5434460235
  0
LINE
  5
2FE
100
AcDbEntity
  8
0
100
AcDbLine
 62
7
  6
CONTINUOUS
 10
61.1257465427
 20
139.4534493146
 11
61.4904120919
 21
139.6639878109
  0
LINE
  5
2FF
100
AcDbEntity
  8
0
100
AcDbLine
 62
7
  6
CONTINUOUS
 10
54.3720953655
 20
135.3734550204
 11
53.3705545236
 21
134.7952185974
  0
LINE
  5
300
100
AcDbEntity
  8
0
100
AcDbLine
 62
7
  6
CONTINUOUS
 10
61.6752552694
 20
139.4804447376
 11
61.1257465427
 21
139.16318762
  0
LINE
  5
301
100
AcDbEntity
  8
0
100
AcDbLine
 62
7
  6
CONTINUOUS
 10
24.0489207326
 20
117.5178909047
 11
23.3418168954
 21
117.1096467508
  0
LINE
  5
302
100
AcDbEntity
  8
0
100
AcDbLine
 62
7
  6
CONTINUOUS
 10
108.0463120028
 20
165.8550194695
 11
110.3797546613
 21
167.2022251746
  0
LINE
  5
303
100
AcDbEntity
  8
0
100
AcDbLine
 62
7
  6
CONTINUOUS
 10
61.0750170876
 20
138.5587487377
 11
60.9335963202
 21
138.4770999069
  0
LINE
  5
304
100
AcDbEntity
  8
0
100
AcDbLine
 62
7
  6
CONTINUOUS
 10
46.4532209242
 20
129.7248002127
 11
46.8067653809
 21
129.9289179815
  0
LINE
  5
305
100
AcDbEntity
  8
0
100
AcDbLine
 62
7
  6
CONTINUOUS
 10
57.2942178463
 20
135.687739107
 11
56.9406733897
 21
135.4836213383
  0
LINE
  5
306
100
AcDbEntity
  8
0
100
AcDbLine
 62
7
  6
CONTINUOUS
 10
60.1073533183
 20
137.1431396075
 11
61.5215609928
 21
137.9596279152
  0
LINE
  5
307
100
AcDbEntity
  8
0
100
AcDbLine
 62
7
  6
CONTINUOUS
 10
54.0776373247
 20
133.570522061
 11
55.786273185
 21
134.5569975464
  0
LINE
  5
308
100
AcDbEntity
  8
0
100
AcDbLine
 62
7
  6
CONTINUOUS
 10
62.2553031311
 20
137.8784613697
 11
62.1138823637
 21
137.7968125389
  0
LINE
  5
309
100
AcDbEntity
  8
0
100
AcDbLine
 62
7
  6
CONTINUOUS
 10
58.6862191685
 20
135.5349741223
 11
59.0397636219
 21
135.7390918893
  0
LINE
  5
30A
100
AcDbEntity
  8
0
100
AcDbLine
 62
7
  6
CONTINUOUS
 10
60.2444672316
 20
136.2426769923
 11
61.658674906
 21
137.0591653
  0
LINE
  5
30B
100
AcDbEntity
  8
0
100
AcDbLine
 62
7
  6
CONTINUOUS
 10
53.3705545236
 20
132.1549766703
 11
54.0776434331
 21
132.5632122057
  0
LINE
  5
30C
100
AcDbEntity
  8
0
100
AcDbLine
 62
7
  6
CONTINUOUS
 10
112.501083836
 20
165.9775029109
 11
110.167641178
 21
164.6302972058
  0
LINE
  5
30D
100
AcDbEntity
  8
0
100
AcDbLine
 62
7
  6
CONTINUOUS
 10
59.6034582423
 20
135.4136535396
 11
58.6862191685
 21
134.8840884745
  0
LINE
  5
30E
100
AcDbEntity
  8
0
100
AcDbLine
 62
7
  6
CONTINUOUS
 10
19.0991820963
 20
111.475787383
 11
21.9275974451
 21
113.1087639985
  0
LINE
  5
30F
100
AcDbEntity
  8
0
100
AcDbLine
 62
7
  6
CONTINUOUS
 10
47.8674285986
 20
128.0660983518
 11
46.4532209242
 21
127.2496100441
  0
LINE
  5
310
100
AcDbEntity
  8
0
100
AcDbLine
 62
7
  6
CONTINUOUS
 10
59.0397605696
 20
134.2717402064
 11
60.3105471522
 21
135.0054248024
  0
LINE
  5
311
100
AcDbEntity
  8
0
100
AcDbLine
 62
7
  6
CONTINUOUS
 10
67.3109124339
 20
139.0387703299
 11
63.7753932478
 21
137.0008567857
  0
LINE
  5
312
100
AcDbEntity
  8
0
100
AcDbLine
 62
7
  6
CONTINUOUS
 10
51.2837851827
 20
129.3597565313
 11
50.930240726
 21
129.1556387624
  0
LINE
  5
313
100
AcDbEntity
  8
0
100
AcDbLine
 62
7
  6
CONTINUOUS
 10
46.8067623248
 20
126.6372617757
 11
48.2209699992
 21
127.4537500834
  0
LINE
  5
314
100
AcDbEntity
  8
0
100
AcDbLine
 62
7
  6
CONTINUOUS
 10
111.6384294066
 20
163.7811564365
 11
113.9718720651
 21
165.1283621416
  0
LINE
  5
315
100
AcDbEntity
  8
0
100
AcDbLine
 62
7
  6
CONTINUOUS
 10
54.6783612928
 20
130.2980312439
 11
56.3397432745
 21
131.2572248527
  0
LINE
  5
316
100
AcDbEntity
  8
0
100
AcDbLine
 62
7
  6
CONTINUOUS
 10
55.1617780788
 20
130.2501492936
 11
56.6229212584
 21
131.0937356661
  0
LINE
  5
317
100
AcDbEntity
  8
0
100
AcDbLine
 62
7
  6
CONTINUOUS
 10
63.6582053728
 20
134.6800310832
 11
63.304660916
 21
134.4759133143
  0
LINE
  5
318
100
AcDbEntity
  8
0
100
AcDbLine
 62
7
  6
CONTINUOUS
 10
54.6312650245
 20
129.2768423189
 11
53.3705545236
 21
128.5489751167
  0
LINE
  5
319
100
AcDbEntity
  8
0
100
AcDbLine
 62
7
  6
CONTINUOUS
 10
57.3300309835
 20
130.6854949116
 11
55.8688878039
 21
129.8419085391
  0
LINE
  5
31A
100
AcDbEntity
  8
0
100
AcDbLine
 62
7
  6
CONTINUOUS
 10
64.6966518322
 20
134.7057346455
 11
65.050196287
 21
134.9098524132
  0
LINE
  5
31B
100
AcDbEntity
  8
0
100
AcDbLine
 62
7
  6
CONTINUOUS
 10
59.9947022264
 20
137.0836679333
 11
60.0063985127
 21
137.0901647338
  0
LINE
  5
31C
100
AcDbEntity
  8
0
100
AcDbLine
 62
7
  6
CONTINUOUS
 10
60.0063985127
 20
137.0901647338
 11
60.1072197581
 21
137.143370801
  0
LINE
  5
31D
100
AcDbEntity
  8
0
100
AcDbLine
 62
7
  6
CONTINUOUS
 10
106.260984263
 20
67.5755500344
 11
105.1791153925
 21
68.2001531875
  0
LINE
  5
31E
100
AcDbEntity
  8
0
100
AcDbLine
 62
7
  6
CONTINUOUS
 10
105.1791153925
 20
68.2573403463
 11
104.9669788086
 21
68.3798146894
  0
LINE
  5
31F
100
AcDbEntity
  8
0
100
AcDbLine
 62
7
  6
CONTINUOUS
 10
106.260984263
 20
67.8205007601
 11
105.1295891522
 21
68.4736972546
  0
LINE
  5
320
100
AcDbEntity
  8
0
100
AcDbLine
 62
7
  6
CONTINUOUS
 10
106.5685744325
 20
67.7531362415
 11
106.3564378487
 21
67.8756105845
  0
LINE
  5
321
100
AcDbEntity
  8
0
100
AcDbLine
 62
7
  6
CONTINUOUS
 10
106.260984263
 20
68.2287519687
 11
105.1791153925
 21
68.8533551218
  0
LINE
  5
322
100
AcDbEntity
  8
0
100
AcDbLine
 62
7
  6
CONTINUOUS
 10
105.1791153925
 20
68.9105422807
 11
104.9669788087
 21
69.0330166237
  0
LINE
  5
323
100
AcDbEntity
  8
0
100
AcDbLine
 62
7
  6
CONTINUOUS
 10
106.260984263
 20
68.4737026929
 11
105.1295891509
 21
69.1268991881
  0
LINE
  5
324
100
AcDbEntity
  8
0
100
AcDbLine
 62
7
  6
CONTINUOUS
 10
106.5685744325
 20
68.4063381758
 11
106.35643785
 21
68.5288125181
  0
LINE
  5
325
100
AcDbEntity
  8
0
100
AcDbLine
 62
7
  6
CONTINUOUS
 10
106.260984263
 20
68.8819539015
 11
105.1791153925
 21
69.5065570546
  0
LINE
  5
326
100
AcDbEntity
  8
0
100
AcDbLine
 62
7
  6
CONTINUOUS
 10
105.1791153925
 20
69.563744215
 11
104.96697881
 21
69.6862185572
  0
LINE
  5
327
100
AcDbEntity
  8
0
100
AcDbLine
 62
7
  6
CONTINUOUS
 10
106.260984263
 20
69.1269046273
 11
105.1295891522
 21
69.7801011217
  0
LINE
  5
328
100
AcDbEntity
  8
0
100
AcDbLine
 62
7
  6
CONTINUOUS
 10
106.5685744325
 20
69.0595401086
 11
106.3564378486
 21
69.1820144517
  0
LINE
  5
329
100
AcDbEntity
  8
0
100
AcDbLine
 62
7
  6
CONTINUOUS
 10
25.4631460703
 20
115.8849244876
 11
23.3418168954
 21
117.1096467508
  0
LINE
  5
32A
100
AcDbEntity
  8
0
100
AcDbLine
 62
7
  6
CONTINUOUS
 10
106.260984263
 20
69.5351558358
 11
105.1791153925
 21
70.159758989
  0
LINE
  5
32B
100
AcDbEntity
  8
0
100
AcDbLine
 62
7
  6
CONTINUOUS
 10
105.1791153925
 20
70.2169461478
 11
104.9669788087
 21
70.3394204908
  0
LINE
  5
32C
100
AcDbEntity
  8
0
100
AcDbLine
 62
7
  6
CONTINUOUS
 10
106.260984263
 20
69.7801065615
 11
105.1295891522
 21
70.433303056
  0
LINE
  5
32D
100
AcDbEntity
  8
0
100
AcDbLine
 62
7
  6
CONTINUOUS
 10
106.5685744325
 20
69.712742043
 11
106.3564378487
 21
69.835216386
  0
LINE
  5
32E
100
AcDbEntity
  8
0
100
AcDbLine
 62
7
  6
CONTINUOUS
 10
25.4631460703
 20
116.7014059967
 11
24.0489207326
 21
117.5178909047
  0
LINE
  5
32F
100
AcDbEntity
  8
0
100
AcDbLine
 62
7
  6
CONTINUOUS
 10
106.260984263
 20
70.1883577701
 11
105.1791153925
 21
70.8129609233
  0
LINE
  5
330
100
AcDbEntity
  8
0
100
AcDbLine
 62
7
  6
CONTINUOUS
 10
104.5179733044
 20
71.2641170937
 11
102.6182041169
 21
72.3609245324
  0
LINE
  5
331
100
AcDbEntity
  8
0
100
AcDbLine
 62
7
  6
CONTINUOUS
 10
106.260984263
 20
70.4333084943
 11
105.1791153925
 21
71.0579116475
  0
LINE
  5
332
100
AcDbEntity
  8
0
100
AcDbLine
 62
7
  6
CONTINUOUS
 10
106.5685744325
 20
70.3659439772
 11
106.35643785
 21
70.4884183195
  0
LINE
  5
333
100
AcDbEntity
  8
0
100
AcDbLine
 62
7
  6
CONTINUOUS
 10
106.260984263
 20
70.8415597029
 11
105.1791153925
 21
71.4661628561
  0
LINE
  5
334
100
AcDbEntity
  8
0
100
AcDbLine
 62
7
  6
CONTINUOUS
 10
106.260984263
 20
71.0865104286
 11
105.3347905512
 21
71.6212365203
  0
LINE
  5
335
100
AcDbEntity
  8
0
100
AcDbLine
 62
7
  6
CONTINUOUS
 10
106.5685744325
 20
71.01914591
 11
106.3564378487
 21
71.1416202531
  0
LINE
  5
336
100
AcDbEntity
  8
0
100
AcDbLine
 62
7
  6
CONTINUOUS
 10
120.003535563
 20
63.3030290114
 11
121.4177550133
 21
62.4865475023
  0
LINE
  5
337
100
AcDbEntity
  8
0
100
AcDbLine
 62
7
  6
CONTINUOUS
 10
103.634074872
 20
72.9991468104
 11
105.5786290602
 21
71.8764833245
  0
LINE
  5
338
100
AcDbEntity
  8
0
100
AcDbLine
 62
7
  6
CONTINUOUS
 10
98.2954477603
 20
76.2856340235
 11
96.1741185849
 21
77.5103562871
  0
LINE
  5
339
100
AcDbEntity
  8
0
100
AcDbLine
 62
7
  6
CONTINUOUS
 10
23.3418168954
 20
119.9674052108
 11
25.4631460703
 21
118.7426829476
  0
LINE
  5
33A
100
AcDbEntity
  8
0
100
AcDbLine
 62
7
  6
CONTINUOUS
 10
105.8614705953
 20
72.3663819533
 11
103.9169200285
 21
73.4890433485
  0
LINE
  5
33B
100
AcDbEntity
  8
0
100
AcDbLine
 62
7
  6
CONTINUOUS
 10
105.8614705953
 20
72.5909201183
 11
103.9617014079
 21
73.6877275569
  0
LINE
  5
33C
100
AcDbEntity
  8
0
100
AcDbLine
 62
7
  6
CONTINUOUS
 10
98.2954477603
 20
77.1021155326
 11
96.8812224221
 21
77.9186004409
  0
LINE
  5
33D
100
AcDbEntity
  8
0
100
AcDbLine
 62
7
  6
CONTINUOUS
 10
106.9221263511
 20
73.2032863491
 11
104.9775721634
 21
74.3259498348
  0
LINE
  5
33E
100
AcDbEntity
  8
0
100
AcDbLine
 62
7
  6
CONTINUOUS
 10
105.1189947401
 20
74.4075976181
 11
105.2604173173
 21
74.3259491022
  0
LINE
  5
33F
100
AcDbEntity
  8
0
100
AcDbLine
 62
7
  6
CONTINUOUS
 10
96.1741185849
 20
80.368114747
 11
98.2954477603
 21
79.1433924834
  0
LINE
  5
340
100
AcDbEntity
  8
0
100
AcDbLine
 62
7
  6
CONTINUOUS
 10
58.6862191685
 20
120.1870449957
 11
58.6862191685
 21
122.6622351555
  0
LINE
  5
341
100
AcDbEntity
  8
0
100
AcDbLine
 62
7
  6
CONTINUOUS
 10
58.686219169
 20
134.8840884743
 11
58.686219169
 21
135.534974122
  0
LINE
  5
342
100
AcDbEntity
  8
0
100
AcDbLine
 62
7
  6
CONTINUOUS
 10
59.4044128774
 20
117.0286132983
 11
59.4044128774
 21
110.9251740983
  0
LINE
  5
343
100
AcDbEntity
  8
0
100
AcDbLine
 62
7
  6
CONTINUOUS
 10
60.1004268429
 20
121.0035332991
 11
60.1004268429
 21
122.2539961128
  0
LINE
  5
344
100
AcDbEntity
  8
0
100
AcDbLine
 62
7
  6
CONTINUOUS
 10
61.1257465427
 20
139.1631876981
 11
61.1257465427
 21
139.4534493109
  0
LINE
  5
345
100
AcDbEntity
  8
0
100
AcDbLine
 62
7
  6
CONTINUOUS
 10
62.232851778
 20
109.2922110802
 11
62.232851778
 21
115.3956502802
  0
LINE
  5
346
100
AcDbEntity
  8
0
100
AcDbLine
 62
7
  6
CONTINUOUS
 10
62.6098794345
 20
129.8010044394
 11
62.6098794345
 21
126.1950028859
  0
LINE
  5
347
100
AcDbEntity
  8
0
100
AcDbLine
 62
7
  6
CONTINUOUS
 10
62.6098794351
 20
123.5547609543
 11
62.6098794351
 21
123.214769072
  0
LINE
  5
348
100
AcDbEntity
  8
0
100
AcDbLine
 62
7
  6
CONTINUOUS
 10
62.9399556152
 20
109.7004552341
 11
62.9399556152
 21
114.987412925
  0
LINE
  5
349
100
AcDbEntity
  8
0
100
AcDbLine
 62
7
  6
CONTINUOUS
 10
63.6582023166
 20
135.3052701852
 11
63.6582023166
 21
134.6800363768
  0
LINE
  5
34A
100
AcDbEntity
  8
0
100
AcDbLine
 62
7
  6
CONTINUOUS
 10
63.6582023166
 20
132.6644632486
 11
63.6582023166
 21
132.013577608
  0
LINE
  5
34B
100
AcDbEntity
  8
0
100
AcDbLine
 62
7
  6
CONTINUOUS
 10
64.6966518322
 20
121.6160130766
 11
64.6966518322
 21
128.990217731
  0
LINE
  5
34C
100
AcDbEntity
  8
0
100
AcDbLine
 62
7
  6
CONTINUOUS
 10
64.6966518322
 20
131.4140420655
 11
64.6966518322
 21
132.0649277045
  0
LINE
  5
34D
100
AcDbEntity
  8
0
100
AcDbLine
 62
7
  6
CONTINUOUS
 10
64.6966518322
 20
134.0805008327
 11
64.6966518322
 21
134.7057346426
  0
LINE
  5
34E
100
AcDbEntity
  8
0
100
AcDbLine
 62
7
  6
CONTINUOUS
 10
64.6966518322
 20
134.7057346426
 11
64.8002076606
 21
134.9346123359
  0
LINE
  5
34F
100
AcDbEntity
  8
0
100
AcDbLine
 62
7
  6
CONTINUOUS
 10
63.6582023166
 20
132.013577608
 11
63.5546464882
 21
131.7846999148
  0
LINE
  5
350
100
AcDbEntity
  8
0
100
AcDbLine
 62
7
  6
CONTINUOUS
 10
89.2385612441
 20
170.4666309811
 11
89.3713997826
 21
170.6967153559
  0
LINE
  5
351
100
AcDbEntity
  8
0
100
AcDbLine
 62
7
  6
CONTINUOUS
 10
116.0932012398
 20
163.9036398779
 11
113.7597585818
 21
162.5564341728
  0
LINE
  5
352
100
AcDbEntity
  8
0
100
AcDbLine
 62
7
  6
CONTINUOUS
 10
65.591675451
 20
134.597239871
 11
64.6966518322
 21
134.0805008283
  0
LINE
  5
353
100
AcDbEntity
  8
0
100
AcDbLine
 62
7
  6
CONTINUOUS
 10
59.6281293683
 20
130.7063556245
 11
61.0420186708
 21
131.5226601212
  0
LINE
  5
354
100
AcDbEntity
  8
0
100
AcDbLine
 62
7
  6
CONTINUOUS
 10
56.5259951981
 20
128.890984299
 11
58.4821237385
 21
130.020348897
  0
LINE
  5
355
100
AcDbEntity
  8
0
100
AcDbLine
 62
7
  6
CONTINUOUS
 10
54.0776373247
 20
127.3242785806
 11
55.786273185
 21
128.3107540661
  0
LINE
  5
356
100
AcDbEntity
  8
0
100
AcDbLine
 62
7
  6
CONTINUOUS
 10
60.1115461548
 20
130.6584736748
 11
61.3251966544
 21
131.3591709348
  0
LINE
  5
357
100
AcDbEntity
  8
0
100
AcDbLine
 62
7
  6
CONTINUOUS
 10
65.0501932328
 20
133.46815256
 11
66.2987643608
 21
134.1890111339
  0
LINE
  5
358
100
AcDbEntity
  8
0
100
AcDbLine
 62
7
  6
CONTINUOUS
 10
63.6582053715
 20
132.0135723167
 11
63.3046609153
 21
131.8094545481
  0
LINE
  5
359
100
AcDbEntity
  8
0
100
AcDbLine
 62
7
  6
CONTINUOUS
 10
115.2305468103
 20
161.7072934036
 11
117.5639894688
 21
163.0544991086
  0
LINE
  5
35A
100
AcDbEntity
  8
0
100
AcDbLine
 62
7
  6
CONTINUOUS
 10
62.0005231781
 20
130.9325802499
 11
60.81865588
 21
130.2502329203
  0
LINE
  5
35B
100
AcDbEntity
  8
0
100
AcDbLine
 62
7
  6
CONTINUOUS
 10
64.6966518322
 20
132.0649277089
 11
65.0501962857
 21
132.2690454758
  0
LINE
  5
35C
100
AcDbEntity
  8
0
100
AcDbLine
 62
7
  6
CONTINUOUS
 10
65.613890906
 20
131.9436071261
 11
64.6966518322
 21
131.4140420611
  0
LINE
  5
35D
100
AcDbEntity
  8
0
100
AcDbLine
 62
7
  6
CONTINUOUS
 10
65.0501932333
 20
130.8016937929
 11
66.320979816
 21
131.535378389
  0
LINE
  5
35E
100
AcDbEntity
  8
0
100
AcDbLine
 62
7
  6
CONTINUOUS
 10
61.3020726664
 20
128.6235000032
 11
62.6098794345
 21
129.3785580857
  0
LINE
  5
35F
100
AcDbEntity
  8
0
100
AcDbLine
 62
7
  6
CONTINUOUS
 10
119.6853186435
 20
161.829776845
 11
117.3518759855
 21
160.4825711398
  0
LINE
  5
360
100
AcDbEntity
  8
0
100
AcDbLine
 62
7
  6
CONTINUOUS
 10
47.0299867994
 20
118.8858722108
 11
46.3228829621
 21
118.4776280569
  0
LINE
  5
361
100
AcDbEntity
  8
0
100
AcDbLine
 62
7
  6
CONTINUOUS
 10
64.6966518322
 20
128.9902177354
 11
65.0501962889
 21
129.1943355042
  0
LINE
  5
362
100
AcDbEntity
  8
0
100
AcDbLine
 62
7
  6
CONTINUOUS
 10
69.527216089
 20
131.2916328201
 11
69.173671634
 21
131.0875150523
  0
LINE
  5
363
100
AcDbEntity
  8
0
100
AcDbLine
 62
7
  6
CONTINUOUS
 10
118.8226642141
 20
159.6334303706
 11
121.1561068726
 21
160.9806360757
  0
LINE
  5
364
100
AcDbEntity
  8
0
100
AcDbLine
 62
7
  6
CONTINUOUS
 10
62.6098855434
 20
126.194992305
 11
61.902796634
 21
125.7867567696
  0
LINE
  5
365
100
AcDbEntity
  8
0
100
AcDbLine
 62
7
  6
CONTINUOUS
 10
105.9553808286
 20
75.468436126
 11
105.9078580556
 21
75.4958727912
  0
LINE
  5
366
100
AcDbEntity
  8
0
100
AcDbLine
 62
7
  6
CONTINUOUS
 10
104.023000618
 20
79.1841745701
 11
104.7301044552
 21
78.7759372149
  0
LINE
  5
367
100
AcDbEntity
  8
0
100
AcDbLine
 62
7
  6
CONTINUOUS
 10
108.1948770435
 20
76.8162759378
 11
109.6091209323
 21
75.9997803195
  0
LINE
  5
368
100
AcDbEntity
  8
0
100
AcDbLine
 62
7
  6
CONTINUOUS
 10
115.2659398541
 20
74.1217333047
 11
116.6801593044
 21
73.3052517957
  0
LINE
  5
369
100
AcDbEntity
  8
0
100
AcDbLine
 62
7
  6
CONTINUOUS
 10
104.0229915647
 20
81.2254358398
 11
104.7301044552
 21
80.8171932578
  0
LINE
  5
36A
100
AcDbEntity
  8
0
100
AcDbLine
 62
7
  6
CONTINUOUS
 10
108.2656055341
 20
80.8171475302
 11
108.9727274785
 21
80.408899721
  0
LINE
  5
36B
100
AcDbEntity
  8
0
100
AcDbLine
 62
7
  6
CONTINUOUS
 10
65.7684004037
 20
113.3544465076
 11
65.7684004037
 21
107.2510073076
  0
LINE
  5
36C
100
AcDbEntity
  8
0
100
AcDbLine
 62
7
  6
CONTINUOUS
 10
66.1108595067
 20
122.43250138
 11
66.1108595067
 21
128.5819786882
  0
LINE
  5
36D
100
AcDbEntity
  8
0
100
AcDbLine
 62
7
  6
CONTINUOUS
 10
69.5272130348
 20
131.9168719273
 11
69.5272130348
 21
131.2916381102
  0
LINE
  5
36E
100
AcDbEntity
  8
0
100
AcDbLine
 62
7
  6
CONTINUOUS
 10
69.5272130348
 20
129.2760649907
 11
69.5272130348
 21
128.625179343
  0
LINE
  5
36F
100
AcDbEntity
  8
0
100
AcDbLine
 62
7
  6
CONTINUOUS
 10
69.5272130345
 20
126.2013550199
 11
69.5272130345
 21
118.8271503518
  0
LINE
  5
370
100
AcDbEntity
  8
0
100
AcDbLine
 62
7
  6
CONTINUOUS
 10
69.5272130345
 20
116.403326031
 11
69.5272130345
 21
113.9281358575
  0
LINE
  5
371
100
AcDbEntity
  8
0
100
AcDbLine
 62
7
  6
CONTINUOUS
 10
58.6862191685
 20
122.6622351599
 11
59.0397636252
 21
122.8663529287
  0
LINE
  5
372
100
AcDbEntity
  8
0
100
AcDbLine
 62
7
  6
CONTINUOUS
 10
123.2774360472
 20
159.755913812
 11
120.9439933892
 21
158.4087081069
  0
LINE
  5
373
100
AcDbEntity
  8
0
100
AcDbLine
 62
7
  6
CONTINUOUS
 10
69.5272160888
 20
128.6251740533
 11
69.173671634
 21
128.4210562855
  0
LINE
  5
374
100
AcDbEntity
  8
0
100
AcDbLine
 62
7
  6
CONTINUOUS
 10
57.2942178465
 20
120.9906956234
 11
56.9406733897
 21
120.7865778545
  0
LINE
  5
375
100
AcDbEntity
  8
0
100
AcDbLine
 62
7
  6
CONTINUOUS
 10
62.6098855453
 20
123.2147584887
 11
61.902796634
 21
122.8065229523
  0
LINE
  5
376
100
AcDbEntity
  8
0
100
AcDbLine
 62
7
  6
CONTINUOUS
 10
122.4147816178
 20
157.5595673376
 11
124.7482242763
 21
158.9067730427
  0
LINE
  5
377
100
AcDbEntity
  8
0
100
AcDbLine
 62
7
  6
CONTINUOUS
 10
60.1004268429
 20
121.0035332991
 11
58.6862191685
 21
120.1870449913
  0
LINE
  5
378
100
AcDbEntity
  8
0
100
AcDbLine
 62
7
  6
CONTINUOUS
 10
59.039760569
 20
119.5746967229
 11
60.4539682435
 21
120.3911850307
  0
LINE
  5
379
100
AcDbEntity
  8
0
100
AcDbLine
 62
7
  6
CONTINUOUS
 10
126.869553451
 20
157.682050779
 11
124.536110793
 21
156.3348450739
  0
LINE
  5
37A
100
AcDbEntity
  8
0
100
AcDbLine
 62
7
  6
CONTINUOUS
 10
66.1108595067
 20
122.43250138
 11
64.6966518322
 21
121.6160130723
  0
LINE
  5
37B
100
AcDbEntity
  8
0
100
AcDbLine
 62
7
  6
CONTINUOUS
 10
65.0501932328
 20
121.0036648039
 11
66.4644009072
 21
121.8201531117
  0
LINE
  5
37C
100
AcDbEntity
  8
0
100
AcDbLine
 62
7
  6
CONTINUOUS
 10
126.0068990216
 20
155.4857043047
 11
128.3403416801
 21
156.8329100098
  0
LINE
  5
37D
100
AcDbEntity
  8
0
100
AcDbLine
 62
7
  6
CONTINUOUS
 10
124.2461585868
 20
72.2845132719
 11
125.6603780371
 21
71.4680317629
  0
LINE
  5
37E
100
AcDbEntity
  8
0
100
AcDbLine
 62
7
  6
CONTINUOUS
 10
75.3143816932
 20
101.7397571216
 11
72.13238793
 21
103.5768405169
  0
LINE
  5
37F
100
AcDbEntity
  8
0
100
AcDbLine
 62
7
  6
CONTINUOUS
 10
65.7684004037
 20
107.2510073076
 11
62.232851778
 21
109.2922110802
  0
LINE
  5
380
100
AcDbEntity
  8
0
100
AcDbLine
 62
7
  6
CONTINUOUS
 10
59.4044128774
 20
110.9251740983
 11
55.8688642516
 21
112.9663778709
  0
LINE
  5
381
100
AcDbEntity
  8
0
100
AcDbLine
 62
7
  6
CONTINUOUS
 10
49.5048767253
 20
116.6405446616
 11
46.3228829621
 21
118.4776280569
  0
LINE
  5
382
100
AcDbEntity
  8
0
100
AcDbLine
 62
7
  6
CONTINUOUS
 10
75.3143816932
 20
102.5562386307
 11
72.8394917672
 21
103.9850846708
  0
LINE
  5
383
100
AcDbEntity
  8
0
100
AcDbLine
 62
7
  6
CONTINUOUS
 10
65.7684004037
 20
108.0674888167
 11
62.9399556152
 21
109.7004552341
  0
LINE
  5
384
100
AcDbEntity
  8
0
100
AcDbLine
 62
7
  6
CONTINUOUS
 10
59.4044128774
 20
111.7416556074
 11
56.5759680888
 21
113.3746220248
  0
LINE
  5
385
100
AcDbEntity
  8
0
100
AcDbLine
 62
7
  6
CONTINUOUS
 10
49.5048767253
 20
117.4570261706
 11
47.0299867994
 21
118.8858722108
  0
LINE
  5
386
100
AcDbEntity
  8
0
100
AcDbLine
 62
7
  6
CONTINUOUS
 10
108.2656055341
 20
83.6749059901
 11
108.9727274785
 21
83.266658181
  0
LINE
  5
387
100
AcDbEntity
  8
0
100
AcDbLine
 62
7
  6
CONTINUOUS
 10
98.2954477603
 20
90.1661751147
 11
96.1741185849
 21
91.3908973783
  0
LINE
  5
388
100
AcDbEntity
  8
0
100
AcDbLine
 62
7
  6
CONTINUOUS
 10
25.4631460703
 20
132.2149728302
 11
23.3418168954
 21
133.4396950934
  0
LINE
  5
389
100
AcDbEntity
  8
0
100
AcDbLine
 62
7
  6
CONTINUOUS
 10
98.2954477603
 20
90.9826566238
 11
96.8812224221
 21
91.7991415321
  0
LINE
  5
38A
100
AcDbEntity
  8
0
100
AcDbLine
 62
7
  6
CONTINUOUS
 10
25.4631460703
 20
133.0314543393
 11
24.048920732
 21
133.8479392477
  0
LINE
  5
38B
100
AcDbEntity
  8
0
100
AcDbLine
 62
7
  6
CONTINUOUS
 10
23.3418168954
 20
136.2974535534
 11
25.4631460703
 21
135.0727312902
  0
LINE
  5
38C
100
AcDbEntity
  8
0
100
AcDbLine
 62
7
  6
CONTINUOUS
 10
96.1741185849
 20
94.2486558382
 11
98.2954477603
 21
93.0239335746
  0
LINE
  5
38D
100
AcDbEntity
  8
0
100
AcDbLine
 62
7
  6
CONTINUOUS
 10
62.1138823637
 20
137.7956768579
 11
62.4889458372
 21
136.6276726427
  0
LINE
  5
38E
100
AcDbEntity
  8
0
100
AcDbLine
 62
7
  6
CONTINUOUS
 10
61.8223061226
 20
139.2257436683
 11
62.2553031312
 21
137.8773256886
  0
LINE
  5
38F
100
AcDbEntity
  8
0
100
AcDbLine
 62
7
  6
CONTINUOUS
 10
63.3860790859
 20
137.2244866559
 11
62.184775811
 21
140.9655262026
  0
LINE
  5
390
100
AcDbEntity
  8
0
100
AcDbLine
 62
7
  6
CONTINUOUS
 10
64.1289451665
 20
137.2016716374
 11
62.8601153935
 21
141.1529988818
  0
LWPOLYLINE
  5
391
100
AcDbEntity
  8
0
100
AcDbPolyline
 62
7
  6
CONTINUOUS
 90
3
 70
0
 10
53.7815181193
 20
175.2034186673
 10
53.6778650712
 20
175.656392465
 10
53.1134011238
 20
176.2404532379
  0
LINE
  5
392
100
AcDbEntity
  8
0
100
AcDbLine
 62
7
  6
CONTINUOUS
 10
72.13238793
 20
103.5768405169
 11
72.13238793
 21
109.6802797169
  0
LINE
  5
393
100
AcDbEntity
  8
0
100
AcDbLine
 62
7
  6
CONTINUOUS
 10
72.8394917672
 20
109.2720423617
 11
72.8394917672
 21
103.9850846708
  0
LINE
  5
394
100
AcDbEntity
  8
0
100
AcDbLine
 62
7
  6
CONTINUOUS
 10
75.3143816932
 20
107.8431963216
 11
75.3143816932
 21
101.7397571216
  0
LINE
  5
395
100
AcDbEntity
  8
0
100
AcDbLine
 62
7
  6
CONTINUOUS
 10
25.4632062803
 20
96.084789743
 11
23.3418404472
 21
94.860025919
  0
LINE
  5
396
100
AcDbEntity
  8
0
100
AcDbLine
 62
7
  6
CONTINUOUS
 10
56.5759680888
 20
113.3746220248
 11
55.8688642516
 21
112.9663778709
  0
LINE
  5
397
100
AcDbEntity
  8
0
100
AcDbLine
 62
7
  6
CONTINUOUS
 10
130.4616708547
 20
155.6081877461
 11
128.1282281967
 21
154.2609820409
  0
LINE
  5
398
100
AcDbEntity
  8
0
100
AcDbLine
 62
7
  6
CONTINUOUS
 10
69.5272160878
 20
118.8271450634
 11
69.173671634
 21
118.6230272962
  0
LINE
  5
399
100
AcDbEntity
  8
0
100
AcDbLine
 62
7
  6
CONTINUOUS
 10
129.5990164253
 20
153.4118412717
 11
131.9324590838
 21
154.7590469768
  0
LINE
  5
39A
100
AcDbEntity
  8
0
100
AcDbLine
 62
7
  6
CONTINUOUS
 10
134.0537882585
 20
153.5343247131
 11
131.7203456005
 21
152.187119008
  0
LINE
  5
39B
100
AcDbEntity
  8
0
100
AcDbLine
 62
7
  6
CONTINUOUS
 10
146.7800681687
 20
150.3223273818
 11
143.8243741288
 21
149.217667296
  0
LINE
  5
39C
100
AcDbEntity
  8
0
100
AcDbLine
 62
7
  6
CONTINUOUS
 10
96.8812518625
 20
95.3918397111
 11
19.0991820963
 21
140.2983227083
  0
LINE
  5
39D
100
AcDbEntity
  8
0
100
AcDbLine
 62
7
  6
CONTINUOUS
 10
104.023000618
 20
93.0647156613
 11
104.7301044552
 21
92.6564783061
  0
LINE
  5
39E
100
AcDbEntity
  8
0
100
AcDbLine
 62
7
  6
CONTINUOUS
 10
69.1736716304
 20
113.7240128038
 11
59.0397605726
 21
119.5746967209
  0
LINE
  5
39F
100
AcDbEntity
  8
0
100
AcDbLine
 62
7
  6
CONTINUOUS
 10
56.9406733862
 20
120.7865778566
 11
46.8067623283
 21
126.6372617736
  0
LINE
  5
3A0
100
AcDbEntity
  8
0
100
AcDbLine
 62
7
  6
CONTINUOUS
 10
104.0229915647
 20
95.105976931
 11
104.7301044552
 21
94.697734349
  0
LINE
  5
3A1
100
AcDbEntity
  8
0
100
AcDbLine
 62
7
  6
CONTINUOUS
 10
69.5272130345
 20
115.1528632148
 11
60.4539682435
 21
120.3911850307
  0
LINE
  5
3A2
100
AcDbEntity
  8
0
100
AcDbLine
 62
7
  6
CONTINUOUS
 10
57.2942147903
 20
122.2154282675
 11
48.2209699992
 21
127.4537500834
  0
LINE
  5
3A3
100
AcDbEntity
  8
0
100
AcDbLine
 62
7
  6
CONTINUOUS
 10
46.8067623283
 20
129.9289232687
 11
56.9406733862
 21
124.0782393517
  0
LINE
  5
3A4
100
AcDbEntity
  8
0
100
AcDbLine
 62
7
  6
CONTINUOUS
 10
59.0397605726
 20
122.866358216
 11
69.1736716304
 21
117.015674299
  0
LINE
  5
3A5
100
AcDbEntity
  8
0
100
AcDbLine
 62
7
  6
CONTINUOUS
 10
108.2656055341
 20
94.6976886214
 11
108.9727274785
 21
94.2894408122
  0
LINE
  5
3A6
100
AcDbEntity
  8
0
100
AcDbLine
 62
7
  6
CONTINUOUS
 10
28.9986458268
 20
176.5917861486
 11
28.8229085297
 21
176.8363323192
  0
LINE
  5
3A7
100
AcDbEntity
  8
0
100
AcDbLine
 62
7
  6
CONTINUOUS
 10
65.1935580574
 20
142.5002045861
 11
66.4615318168
 21
138.5515430972
  0
LINE
  5
3A8
100
AcDbEntity
  8
0
100
AcDbLine
 62
7
  6
CONTINUOUS
 10
78.5527110728
 20
163.9035231823
 11
78.5527110728
 21
164.9649763252
  0
LINE
  5
3A9
100
AcDbEntity
  8
0
100
AcDbLine
 62
7
  6
CONTINUOUS
 10
133.1911338291
 20
151.3379782387
 11
135.5245764876
 21
152.6851839438
  0
LINE
  5
3AA
100
AcDbEntity
  8
0
100
AcDbLine
 62
7
  6
CONTINUOUS
 10
69.5272160878
 20
113.928130569
 11
69.173671634
 21
113.7240128018
  0
LINE
  5
3AB
100
AcDbEntity
  8
0
100
AcDbLine
 62
7
  6
CONTINUOUS
 10
62.9399556152
 20
109.7004552341
 11
62.232851778
 21
109.2922110802
  0
LINE
  5
3AC
100
AcDbEntity
  8
0
100
AcDbLine
 62
7
  6
CONTINUOUS
 10
137.6459056622
 20
151.4604616802
 11
135.3124630043
 21
150.113255975
  0
LINE
  5
3AD
100
AcDbEntity
  8
0
100
AcDbLine
 62
7
  6
CONTINUOUS
 10
136.7832512329
 20
149.2641152057
 11
139.116693891
 21
150.6113209111
  0
LINE
  5
3AE
100
AcDbEntity
  8
0
100
AcDbLine
 62
7
  6
CONTINUOUS
 10
91.9314661226
 20
123.0314565083
 11
118.5892807856
 21
138.4222611093
  0
LINE
  5
3AF
100
AcDbEntity
  8
0
100
AcDbLine
 62
7
  6
CONTINUOUS
 10
141.2380230659
 20
149.3865986472
 11
138.9045804081
 21
148.039392942
  0
LINE
  5
3B0
100
AcDbEntity
  8
0
100
AcDbLine
 62
7
  6
CONTINUOUS
 10
146.7800681682
 20
150.3223273816
 11
146.8169043554
 21
150.339873286
  0
LINE
  5
3B1
100
AcDbEntity
  8
0
100
AcDbLine
 62
7
  6
CONTINUOUS
 10
61.9027966339
 20
122.8065229523
 11
54.0776373248
 21
127.3242785806
  0
LINE
  5
3B2
100
AcDbEntity
  8
0
100
AcDbLine
 62
7
  6
CONTINUOUS
 10
69.1736716304
 20
118.6230272983
 11
65.0501932363
 21
121.0036648019
  0
LINE
  5
3B3
100
AcDbEntity
  8
0
100
AcDbLine
 62
7
  6
CONTINUOUS
 10
50.9302407224
 20
129.1556387645
 11
46.8067623283
 21
131.5362762681
  0
LINE
  5
3B4
100
AcDbEntity
  8
0
100
AcDbLine
 62
7
  6
CONTINUOUS
 10
147.1326680957
 20
74.29399737
 11
146.4538115248
 21
74.6859265274
  0
LINE
  5
3B5
100
AcDbEntity
  8
0
100
AcDbLine
 62
7
  6
CONTINUOUS
 10
147.0291119354
 20
74.5228665834
 11
146.578286842
 21
74.7831446842
  0
LINE
  5
3B6
100
AcDbEntity
  8
0
100
AcDbLine
 62
7
  6
CONTINUOUS
 10
146.8169618491
 20
74.9657858997
 11
147.0290957158
 21
74.8433131254
  0
LINE
  5
3B7
100
AcDbEntity
  8
0
100
AcDbLine
 62
7
  6
CONTINUOUS
 10
128.4180830019
 20
85.7975840367
 11
129.6908699094
 21
85.062756797
  0
LINE
  5
3B8
100
AcDbEntity
  8
0
100
AcDbLine
 62
7
  6
CONTINUOUS
 10
108.2656055341
 20
97.5554470813
 11
108.9727274785
 21
97.1471992722
  0
LINE
  5
3B9
100
AcDbEntity
  8
0
100
AcDbLine
 62
7
  6
CONTINUOUS
 10
69.5272130345
 20
120.0518777092
 11
66.4644009072
 21
121.8201531117
  0
LINE
  5
3BA
100
AcDbEntity
  8
0
100
AcDbLine
 62
7
  6
CONTINUOUS
 10
51.2837821265
 20
130.5844891754
 11
48.2209699992
 21
132.3527645779
  0
LINE
  5
3BB
100
AcDbEntity
  8
0
100
AcDbLine
 62
7
  6
CONTINUOUS
 10
55.1617780769
 20
128.6712983282
 11
61.9027966339
 21
124.7794574949
  0
LINE
  5
3BC
100
AcDbEntity
  8
0
100
AcDbLine
 62
7
  6
CONTINUOUS
 10
61.9027966339
 20
125.7867567697
 11
56.5259951975
 21
128.8909842994
  0
LINE
  5
3BD
100
AcDbEntity
  8
0
100
AcDbLine
 62
7
  6
CONTINUOUS
 10
55.8688878074
 20
129.841908537
 11
55.1617780751
 21
130.2501492957
  0
LINE
  5
3BE
100
AcDbEntity
  8
0
100
AcDbLine
 62
7
  6
CONTINUOUS
 10
26.9481000451
 20
147.4836600188
 11
23.3418404472
 21
149.5656878667
  0
LINE
  5
3BF
100
AcDbEntity
  8
0
100
AcDbLine
 62
7
  6
CONTINUOUS
 10
54.0776373244
 20
132.5632227863
 11
60.8186558817
 21
128.6713819528
  0
LINE
  5
3C0
100
AcDbEntity
  8
0
100
AcDbLine
 62
7
  6
CONTINUOUS
 10
62.6098794345
 20
128.644457596
 11
61.9741206728
 21
129.0115047845
  0
LINE
  5
3C1
100
AcDbEntity
  8
0
100
AcDbLine
 62
7
  6
CONTINUOUS
 10
59.4544387613
 20
130.4662945312
 11
54.0776373248
 21
133.5705220609
  0
LINE
  5
3C2
100
AcDbEntity
  8
0
100
AcDbLine
 62
7
  6
CONTINUOUS
 10
33.3827985443
 20
145.9732256782
 11
26.9481000451
 21
149.6882165445
  0
LINE
  5
3C3
100
AcDbEntity
  8
0
100
AcDbLine
 62
7
  6
CONTINUOUS
 10
23.3418404472
 20
151.7702443929
 11
20.5134015466
 21
153.403207411
  0
LINE
  5
3C4
100
AcDbEntity
  8
0
100
AcDbLine
 62
7
  6
CONTINUOUS
 10
60.8186558807
 20
130.2502329199
 11
60.1115461509
 21
130.6584736771
  0
LINE
  5
3C5
100
AcDbEntity
  8
0
100
AcDbLine
 62
7
  6
CONTINUOUS
 10
105.7786213283
 20
56.8726424887
 11
105.8614705953
 21
56.6895355438
  0
LINE
  5
3C6
100
AcDbEntity
  8
0
100
AcDbLine
 62
7
  6
CONTINUOUS
 10
86.7904707768
 20
169.6148754035
 11
86.7904707768
 21
170.145601975
  0
LINE
  5
3C7
100
AcDbEntity
  8
0
100
AcDbLine
 62
7
  6
CONTINUOUS
 10
89.3713997826
 20
172.1092645379
 11
89.3713997826
 21
170.696715356
  0
LINE
  5
3C8
100
AcDbEntity
  8
0
100
AcDbLine
 62
7
  6
CONTINUOUS
 10
90.1990649605
 20
48.9123408245
 11
90.1990649605
 21
50.5453456588
  0
LINE
  5
3C9
100
AcDbEntity
  8
0
100
AcDbLine
 62
7
  6
CONTINUOUS
 10
143.1541064786
 20
149.6479027373
 11
136.4224779513
 21
145.7614183957
  0
LINE
  5
3CA
100
AcDbEntity
  8
0
100
AcDbLine
 62
7
  6
CONTINUOUS
 10
147.7361393429
 20
151.8442485255
 11
147.3825874267
 21
151.6401264499
  0
LINE
  5
3CB
100
AcDbEntity
  8
0
100
AcDbLine
 62
7
  6
CONTINUOUS
 10
133.4879970255
 20
143.1853825465
 11
134.0536800945
 21
143.5119778691
  0
LINE
  5
3CC
100
AcDbEntity
  8
0
100
AcDbLine
 62
7
  6
CONTINUOUS
 10
127.0887072982
 20
139.0661916967
 11
125.2502373215
 21
138.0047568966
  0
LINE
  5
3CD
100
AcDbEntity
  8
0
100
AcDbLine
 62
7
  6
CONTINUOUS
 10
127.4776144092
 20
139.1845806671
 11
133.4879970255
 21
142.654655975
  0
LINE
  5
3CE
100
AcDbEntity
  8
0
100
AcDbLine
 62
7
  6
CONTINUOUS
 10
135.0250560076
 20
143.5420720949
 11
135.3618221931
 21
143.7365029822
  0
LINE
  5
3CF
100
AcDbEntity
  8
0
100
AcDbLine
 62
7
  6
CONTINUOUS
 10
140.3822594378
 20
145.6808643291
 11
125.2502373215
 21
136.9444394362
  0
LINE
  5
3D0
100
AcDbEntity
  8
0
100
AcDbLine
 62
7
  6
CONTINUOUS
 10
127.6543950783
 20
137.6792816327
 11
140.947947218
 21
145.3542717255
  0
LINE
  5
3D1
100
AcDbEntity
  8
0
100
AcDbLine
 62
7
  6
CONTINUOUS
 10
124.2461585861
 20
135.1563350737
 11
97.5883439245
 21
119.765530472
  0
LINE
  5
3D2
100
AcDbEntity
  8
0
100
AcDbLine
 62
7
  6
CONTINUOUS
 10
128.1352296907
 20
137.4005422376
 11
141.4287818304
 21
145.0755323304
  0
LINE
  5
3D3
100
AcDbEntity
  8
0
100
AcDbLine
 62
7
  6
CONTINUOUS
 10
145.0678642283
 20
146.9385180207
 11
141.6359057243
 21
144.9570876822
  0
LINE
  5
3D4
100
AcDbEntity
  8
0
100
AcDbLine
 62
7
  6
CONTINUOUS
 10
141.7823366936
 20
144.8725476352
 11
145.3178558797
 21
146.9137684045
  0
LINE
  5
3D5
100
AcDbEntity
  8
0
100
AcDbLine
 62
7
  6
CONTINUOUS
 10
145.459277824
 20
146.832120254
 11
141.923758638
 21
144.7908994847
  0
LINE
  5
3D6
100
AcDbEntity
  8
0
100
AcDbLine
 62
7
  6
CONTINUOUS
 10
142.6308744749
 20
144.3826552016
 11
145.8128326871
 21
146.2197486663
  0
LINE
  5
3D7
100
AcDbEntity
  8
0
100
AcDbLine
 62
7
  6
CONTINUOUS
 10
72.8394917672
 20
103.9850846708
 11
72.13238793
 21
103.5768405169
  0
LINE
  5
3D8
100
AcDbEntity
  8
0
100
AcDbLine
 62
7
  6
CONTINUOUS
 10
96.8812518625
 20
117.7243165018
 11
142.8430012814
 21
144.2601865034
  0
LINE
  5
3D9
100
AcDbEntity
  8
0
100
AcDbLine
 62
7
  6
CONTINUOUS
 10
147.9482704964
 20
145.5980029203
 11
148.0189808788
 21
145.6388273349
  0
LINE
  5
3DA
100
AcDbEntity
  8
0
100
AcDbLine
 62
7
  6
CONTINUOUS
 10
142.8430012814
 20
83.6756027223
 11
143.9036364286
 21
83.0632585876
  0
LINE
  5
3DB
100
AcDbEntity
  8
0
100
AcDbLine
 62
7
  6
CONTINUOUS
 10
26.170255796
 20
151.1986644822
 11
27.8672861446
 21
150.2189057187
  0
LINE
  5
3DC
100
AcDbEntity
  8
0
100
AcDbLine
 62
7
  6
CONTINUOUS
 10
147.9480452381
 20
81.0139394765
 11
147.8773339487
 21
81.0547637349
  0
LINE
  5
3DD
100
AcDbEntity
  8
0
100
AcDbLine
 62
7
  6
CONTINUOUS
 10
147.8773265886
 20
81.1364209081
 11
148.0187556227
 21
81.0547686644
  0
LINE
  5
3DE
100
AcDbEntity
  8
0
100
AcDbLine
 62
7
  6
CONTINUOUS
 10
148.0687589067
 20
81.0597238388
 11
147.8773248766
 21
81.1702458272
  0
LINE
  5
3DF
100
AcDbEntity
  8
0
100
AcDbLine
 62
7
  6
CONTINUOUS
 10
46.8067623283
 20
139.7269522576
 11
50.9302407224
 21
137.3463147539
  0
LINE
  5
3E0
100
AcDbEntity
  8
0
100
AcDbLine
 62
7
  6
CONTINUOUS
 10
65.0501932363
 20
129.1943407914
 11
69.1736716304
 21
126.8137032878
  0
LINE
  5
3E1
100
AcDbEntity
  8
0
100
AcDbLine
 62
7
  6
CONTINUOUS
 10
54.0776373248
 20
135.5434566035
 11
61.9027966339
 21
131.0257009753
  0
LINE
  5
3E2
100
AcDbEntity
  8
0
100
AcDbLine
 62
7
  6
CONTINUOUS
 10
20.5134015466
 20
155.5261136961
 11
33.3827985443
 21
148.0961319639
  0
LINE
  5
3E3
100
AcDbEntity
  8
0
100
AcDbLine
 62
7
  6
CONTINUOUS
 10
142.8430012814
 20
85.4716156001
 11
147.0286800732
 21
83.0550674925
  0
LINE
  5
3E4
100
AcDbEntity
  8
0
100
AcDbLine
 62
7
  6
CONTINUOUS
 10
142.8430012814
 20
85.7981974795
 11
147.0286635426
 21
83.3816589157
  0
LINE
  5
3E5
100
AcDbEntity
  8
0
100
AcDbLine
 62
7
  6
CONTINUOUS
 10
69.1736716336
 20
128.4210562857
 11
65.0501932337
 21
130.8016937927
  0
LINE
  5
3E6
100
AcDbEntity
  8
0
100
AcDbLine
 62
7
  6
CONTINUOUS
 10
63.3046609158
 20
131.8094545477
 11
59.0397605699
 21
134.2717402062
  0
LINE
  5
3E7
100
AcDbEntity
  8
0
100
AcDbLine
 62
7
  6
CONTINUOUS
 10
56.9406733894
 20
135.4836213385
 11
52.6757730435
 21
137.9459069969
  0
LINE
  5
3E8
100
AcDbEntity
  8
0
100
AcDbLine
 62
7
  6
CONTINUOUS
 10
50.9302407224
 20
138.9536677533
 11
46.8067623283
 21
141.3343052569
  0
LINE
  5
3E9
100
AcDbEntity
  8
0
100
AcDbLine
 62
7
  6
CONTINUOUS
 10
33.3827985443
 20
149.5658363138
 11
32.1807120115
 21
150.2598455965
  0
LINE
  5
3EA
100
AcDbEntity
  8
0
100
AcDbLine
 62
7
  6
CONTINUOUS
 10
21.7154880788
 20
156.3018087637
 11
20.5134015466
 21
156.9958180461
  0
LINE
  5
3EB
100
AcDbEntity
  8
0
100
AcDbLine
 62
7
  6
CONTINUOUS
 10
147.3821947976
 20
83.9940536741
 11
142.8430012814
 21
86.6146989857
  0
LINE
  5
3EC
100
AcDbEntity
  8
0
100
AcDbLine
 62
7
  6
CONTINUOUS
 10
142.8430012814
 20
86.7779952866
 11
147.5236155643
 21
84.0757025044
  0
LINE
  5
3ED
100
AcDbEntity
  8
0
100
AcDbLine
 62
7
  6
CONTINUOUS
 10
147.7736319854
 20
84.1004783772
 11
142.8430012814
 21
86.947114942
  0
LINE
  5
3EE
100
AcDbEntity
  8
0
100
AcDbLine
 62
7
  6
CONTINUOUS
 10
46.8067623229
 20
142.8016622343
 11
50.9302407289
 21
140.4210247238
  0
LINE
  5
3EF
100
AcDbEntity
  8
0
100
AcDbLine
 62
7
  6
CONTINUOUS
 10
52.6757730398
 20
139.4132639728
 11
56.9406733926
 21
136.9509783104
  0
LINE
  5
3F0
100
AcDbEntity
  8
0
100
AcDbLine
 62
7
  6
CONTINUOUS
 10
59.0397605661
 20
135.7390971821
 11
63.3046609189
 21
133.2768115197
  0
LINE
  5
3F1
100
AcDbEntity
  8
0
100
AcDbLine
 62
7
  6
CONTINUOUS
 10
65.0501932299
 20
132.2690507687
 11
69.1736716359
 21
129.8884132582
  0
LINE
  5
3F2
100
AcDbEntity
  8
0
100
AcDbLine
 62
7
  6
CONTINUOUS
 10
69.1736716342
 20
131.0875150521
 11
65.0501932326
 21
133.4681525601
  0
LINE
  5
3F3
100
AcDbEntity
  8
0
100
AcDbLine
 62
7
  6
CONTINUOUS
 10
63.3046609162
 20
134.4759133142
 11
60.2444672316
 21
136.2426769923
  0
LINE
  5
3F4
100
AcDbEntity
  8
0
100
AcDbLine
 62
7
  6
CONTINUOUS
 10
55.7359667271
 20
138.8456020861
 11
52.6757730425
 21
140.6123657642
  0
LINE
  5
3F5
100
AcDbEntity
  8
0
100
AcDbLine
 62
7
  6
CONTINUOUS
 10
50.9302407262
 20
141.6201265183
 11
46.8067623246
 21
144.0007640263
  0
LINE
  5
3F6
100
AcDbEntity
  8
0
100
AcDbLine
 62
7
  6
CONTINUOUS
 10
20.5134015466
 20
159.2820248147
 11
21.7154880788
 21
158.5880155323
  0
LINE
  5
3F7
100
AcDbEntity
  8
0
100
AcDbLine
 62
7
  6
CONTINUOUS
 10
32.1807120115
 20
152.5460523651
 11
33.3827985443
 21
151.8520430824
  0
LINE
  5
3F8
100
AcDbEntity
  8
0
100
AcDbLine
 62
7
  6
CONTINUOUS
 10
46.8067623271
 20
145.4424691684
 11
50.9302407236
 21
143.0618316633
  0
LINE
  5
3F9
100
AcDbEntity
  8
0
100
AcDbLine
 62
7
  6
CONTINUOUS
 10
52.675773043
 20
142.054070907
 11
53.1697127059
 21
141.768901161
  0
LINE
  5
3FA
100
AcDbEntity
  8
0
100
AcDbLine
 62
7
  6
CONTINUOUS
 10
62.8107212521
 20
136.202788204
 11
63.3046609149
 21
135.917618458
  0
LINE
  5
3FB
100
AcDbEntity
  8
0
100
AcDbLine
 62
7
  6
CONTINUOUS
 10
65.050193233
 20
134.9098577029
 11
69.1736716341
 21
132.5292201952
  0
LINE
  5
3FC
100
AcDbEntity
  8
0
100
AcDbLine
 62
7
  6
CONTINUOUS
 10
54.0899807171
 20
141.4288540718
 11
55.3706751118
 21
140.6894615456
  0
LINE
  5
3FD
100
AcDbEntity
  8
0
100
AcDbLine
 62
7
  6
CONTINUOUS
 10
61.658674906
 20
137.0591653
 11
62.5128093461
 21
136.5660417071
  0
LINE
  5
3FE
100
AcDbEntity
  8
0
100
AcDbLine
 62
7
  6
CONTINUOUS
 10
106.0382315349
 20
75.2853317104
 11
105.9553815839
 21
75.4684374343
  0
LINE
  5
3FF
100
AcDbEntity
  8
0
100
AcDbLine
 62
7
  6
CONTINUOUS
 10
93.0982148329
 20
58.2205112412
 11
93.0982148329
 21
62.3846735697
  0
LINE
  5
400
100
AcDbEntity
  8
0
100
AcDbLine
 62
7
  6
CONTINUOUS
 10
93.3457032367
 20
48.7286743016
 11
93.3457032367
 21
47.0956694673
  0
LINE
  5
401
100
AcDbEntity
  8
0
100
AcDbLine
 62
7
  6
CONTINUOUS
 10
94.1588794206
 20
61.772312438
 11
94.1588794206
 21
57.6081501095
  0
LINE
  5
402
100
AcDbEntity
  8
0
100
AcDbLine
 62
7
  6
CONTINUOUS
 10
96.0112850558
 20
173.0482123888
 11
96.0112850562
 21
175.4976773121
  0
LINE
  5
403
100
AcDbEntity
  8
0
100
AcDbLine
 62
7
  6
CONTINUOUS
 10
96.1741185849
 20
77.5103562871
 11
96.1741185849
 21
80.368114747
  0
LINE
  5
404
100
AcDbEntity
  8
0
100
AcDbLine
 62
7
  6
CONTINUOUS
 10
96.1741185849
 20
91.3908973783
 11
96.1741185849
 21
94.2486558382
  0
LINE
  5
405
100
AcDbEntity
  8
0
100
AcDbLine
 62
7
  6
CONTINUOUS
 10
96.8812224228
 20
77.9186004405
 11
96.8812224228
 21
79.9598773914
  0
LINE
  5
406
100
AcDbEntity
  8
0
100
AcDbLine
 62
7
  6
CONTINUOUS
 10
96.8812224228
 20
91.7991415317
 11
96.8812224228
 21
93.8404184826
  0
LINE
  5
407
100
AcDbEntity
  8
0
100
AcDbLine
 62
7
  6
CONTINUOUS
 10
96.8812518625
 20
44.2379632776
 11
96.8812518625
 21
66.5693043858
  0
LINE
  5
408
100
AcDbEntity
  8
0
100
AcDbLine
 62
7
  6
CONTINUOUS
 10
96.8812518625
 20
95.3918397111
 11
96.8812518625
 21
117.7231808193
  0
LINE
  5
409
100
AcDbEntity
  8
0
100
AcDbLine
 62
7
  6
CONTINUOUS
 10
145.8128326873
 20
141.7931320714
 11
147.0290355069
 21
142.4953029053
  0
LINE
  5
40A
100
AcDbEntity
  8
0
100
AcDbLine
 62
7
  6
CONTINUOUS
 10
147.3535518569
 20
141.949188282
 11
147.553043761
 21
142.064364299
  0
LINE
  5
40B
100
AcDbEntity
  8
0
100
AcDbLine
 62
7
  6
CONTINUOUS
 10
145.812832687
 20
140.014330307
 11
142.8430012814
 21
138.2997075801
  0
LINE
  5
40C
100
AcDbEntity
  8
0
100
AcDbLine
 62
7
  6
CONTINUOUS
 10
145.2535913485
 20
138.7783758777
 11
142.8430012814
 21
137.3866293612
  0
LINE
  5
40D
100
AcDbEntity
  8
0
100
AcDbLine
 62
7
  6
CONTINUOUS
 10
63.5546464882
 20
131.7846999148
 11
63.3046609158
 21
131.8094545477
  0
LINE
  5
40E
100
AcDbEntity
  8
0
100
AcDbLine
 62
7
  6
CONTINUOUS
 10
96.8812518625
 20
117.7231808193
 11
62.1138823637
 21
137.7956768579
  0
LINE
  5
40F
100
AcDbEntity
  8
0
100
AcDbLine
 62
7
  6
CONTINUOUS
 10
60.9335963202
 20
138.4770999069
 11
55.0468376386
 21
141.8757447288
  0
LINE
  5
410
100
AcDbEntity
  8
0
100
AcDbLine
 62
7
  6
CONTINUOUS
 10
53.866551595
 20
142.5571677779
 11
19.0991820963
 21
162.6296638165
  0
LINE
  5
411
100
AcDbEntity
  8
0
100
AcDbLine
 62
7
  6
CONTINUOUS
 10
61.0750170876
 20
138.5587487377
 11
55.188258406
 21
141.9573935596
  0
LINE
  5
412
100
AcDbEntity
  8
0
100
AcDbLine
 62
7
  6
CONTINUOUS
 10
63.3860790859
 20
137.2256223371
 11
62.2553031311
 21
137.8784613697
  0
LINE
  5
413
100
AcDbEntity
  8
0
100
AcDbLine
 62
7
  6
CONTINUOUS
 10
54.0079723625
 20
142.6399522894
 11
52.8771964077
 21
143.292791322
  0
LINE
  5
414
100
AcDbEntity
  8
0
100
AcDbLine
 62
7
  6
CONTINUOUS
 10
97.5883439245
 20
119.765530472
 11
91.9314661226
 21
123.0314565083
  0
LINE
  5
415
100
AcDbEntity
  8
0
100
AcDbLine
 62
7
  6
CONTINUOUS
 10
98.2954477603
 20
93.0239335746
 11
98.2954477603
 21
90.1661751147
  0
LINE
  5
416
100
AcDbEntity
  8
0
100
AcDbLine
 62
7
  6
CONTINUOUS
 10
98.2954477603
 20
79.1433924834
 11
98.2954477603
 21
76.2856340235
  0
LINE
  5
417
100
AcDbEntity
  8
0
100
AcDbLine
 62
7
  6
CONTINUOUS
 10
99.6034024587
 20
170.9743493553
 11
99.6034024591
 21
173.4238142787
  0
LINE
  5
418
100
AcDbEntity
  8
0
100
AcDbLine
 62
7
  6
CONTINUOUS
 10
99.7096672113
 20
68.2022810013
 11
99.7096672113
 21
97.0248163266
  0
LINE
  5
419
100
AcDbEntity
  8
0
100
AcDbLine
 62
7
  6
CONTINUOUS
 10
100.3315092582
 20
177.9879725922
 11
100.3315092582
 21
177.6675166854
  0
LINE
  5
41A
100
AcDbEntity
  8
0
100
AcDbLine
 62
7
  6
CONTINUOUS
 10
101.830978723
 20
51.2598346821
 11
101.830978723
 21
73.1420994611
  0
LINE
  5
41B
100
AcDbEntity
  8
0
100
AcDbLine
 62
7
  6
CONTINUOUS
 10
101.8663118351
 20
71.4886329875
 11
101.8663118351
 21
57.9346801149
  0
LINE
  5
41C
100
AcDbEntity
  8
0
100
AcDbLine
 62
7
  6
CONTINUOUS
 10
102.5734227378
 20
57.199837712
 11
102.5734227379
 21
57.5264386804
  0
LINE
  5
41D
100
AcDbEntity
  8
0
100
AcDbLine
 62
7
  6
CONTINUOUS
 10
102.5734227449
 20
71.8968812246
 11
102.573422745
 21
72.2234822221
  0
LINE
  5
41E
100
AcDbEntity
  8
0
100
AcDbLine
 62
7
  6
CONTINUOUS
 10
103.1955198616
 20
168.9004863218
 11
103.195519862
 21
171.3499512452
  0
LINE
  5
41F
100
AcDbEntity
  8
0
100
AcDbLine
 62
7
  6
CONTINUOUS
 10
112.9324500879
 20
128.623152859
 11
118.5892807856
 21
138.421125427
  0
LINE
  5
420
100
AcDbEntity
  8
0
100
AcDbLine
 62
7
  6
CONTINUOUS
 10
114.7709789445
 20
118.2537289069
 11
121.4177550133
 21
122.0912239528
  0
LINE
  5
421
100
AcDbEntity
  8
0
100
AcDbLine
 62
7
  6
CONTINUOUS
 10
122.8319626877
 20
122.0912098434
 11
125.6603780371
 21
123.7241864592
  0
LINE
  5
422
100
AcDbEntity
  8
0
100
AcDbLine
 62
7
  6
CONTINUOUS
 10
120.003535563
 20
118.008690959
 11
114.7709789445
 21
114.9876910197
  0
LINE
  5
423
100
AcDbEntity
  8
0
100
AcDbLine
 62
7
  6
CONTINUOUS
 10
121.4177550133
 20
117.19220945
 11
114.7709789445
 21
113.3547144042
  0
LINE
  5
424
100
AcDbEntity
  8
0
100
AcDbLine
 62
7
  6
CONTINUOUS
 10
124.2461585862
 20
117.1921462137
 11
122.8319626877
 21
116.3756647047
  0
LINE
  5
425
100
AcDbEntity
  8
0
100
AcDbLine
 62
7
  6
CONTINUOUS
 10
55.9858782836
 20
138.8209123525
 11
55.7359667271
 21
138.8456020861
  0
LINE
  5
426
100
AcDbEntity
  8
0
100
AcDbLine
 62
7
  6
CONTINUOUS
 10
64.8002076606
 20
134.9346123359
 11
65.050193233
 21
134.9098577029
  0
LINE
  5
427
100
AcDbEntity
  8
0
100
AcDbLine
 62
7
  6
CONTINUOUS
 10
36.2465174768
 20
160.9763323231
 11
34.4434036634
 21
162.0173370179
  0
LINE
  5
428
100
AcDbEntity
  8
0
100
AcDbLine
 62
7
  6
CONTINUOUS
 10
30.1653738405
 20
164.4872028119
 11
28.3622600272
 21
165.5282075068
  0
LINE
  5
429
100
AcDbEntity
  8
0
100
AcDbLine
 62
7
  6
CONTINUOUS
 10
42.080175742
 20
159.4046036678
 11
42.2923086595
 21
159.2821314415
  0
LINE
  5
42A
100
AcDbEntity
  8
0
100
AcDbLine
 62
7
  6
CONTINUOUS
 10
128.4180830019
 20
110.2926565506
 11
129.6908699094
 21
109.5578293109
  0
LINE
  5
42B
100
AcDbEntity
  8
0
100
AcDbLine
 62
7
  6
CONTINUOUS
 10
26.1702322443
 20
171.6111548755
 11
26.8773419694
 21
171.202914121
  0
LINE
  5
42C
100
AcDbEntity
  8
0
100
AcDbLine
 62
7
  6
CONTINUOUS
 10
32.2513758806
 20
168.1002843866
 11
32.9584856057
 21
167.6920436321
  0
LINE
  5
42D
100
AcDbEntity
  8
0
100
AcDbLine
 62
7
  6
CONTINUOUS
 10
38.3325195168
 20
164.5894138977
 11
39.039629242
 21
164.1811731432
  0
LINE
  5
42E
100
AcDbEntity
  8
0
100
AcDbLine
 62
7
  6
CONTINUOUS
 10
120.003535563
 20
118.008690959
 11
121.4177550133
 21
117.19220945
  0
LINE
  5
42F
100
AcDbEntity
  8
0
100
AcDbLine
 62
7
  6
CONTINUOUS
 10
103.9169200285
 20
73.325747046
 11
103.9169200285
 21
73.5502852108
  0
LINE
  5
430
100
AcDbEntity
  8
0
100
AcDbLine
 62
7
  6
CONTINUOUS
 10
104.023000618
 20
77.5511906439
 11
104.023000618
 21
81.225451521
  0
LINE
  5
431
100
AcDbEntity
  8
0
100
AcDbLine
 62
7
  6
CONTINUOUS
 10
104.023000618
 20
91.4317317351
 11
104.023000618
 21
95.1059926122
  0
LINE
  5
432
100
AcDbEntity
  8
0
100
AcDbLine
 62
7
  6
CONTINUOUS
 10
104.5179733044
 20
71.2641170937
 11
104.5179733044
 21
56.2404726182
  0
LINE
  5
433
100
AcDbEntity
  8
0
100
AcDbLine
 62
7
  6
CONTINUOUS
 10
104.7301044552
 20
94.697734349
 11
104.7301044552
 21
92.6564783061
  0
LINE
  5
434
100
AcDbEntity
  8
0
100
AcDbLine
 62
7
  6
CONTINUOUS
 10
104.7301044552
 20
80.8171932578
 11
104.7301044552
 21
78.7759372149
  0
LINE
  5
435
100
AcDbEntity
  8
0
100
AcDbLine
 62
7
  6
CONTINUOUS
 10
104.871525223
 20
57.6285232008
 11
104.871525223
 21
57.8734739251
  0
LINE
  5
436
100
AcDbEntity
  8
0
100
AcDbLine
 62
7
  6
CONTINUOUS
 10
104.871525223
 20
58.2817251336
 11
104.871525223
 21
58.5266758594
  0
LINE
  5
437
100
AcDbEntity
  8
0
100
AcDbLine
 62
7
  6
CONTINUOUS
 10
104.871525223
 20
58.934927068
 11
104.871525223
 21
59.1798777937
  0
LINE
  5
438
100
AcDbEntity
  8
0
100
AcDbLine
 62
7
  6
CONTINUOUS
 10
104.871525223
 20
59.5881290023
 11
104.871525223
 21
59.8330797265
  0
LINE
  5
439
100
AcDbEntity
  8
0
100
AcDbLine
 62
7
  6
CONTINUOUS
 10
104.871525223
 20
60.2413309351
 11
104.871525223
 21
60.4862816608
  0
LINE
  5
43A
100
AcDbEntity
  8
0
100
AcDbLine
 62
7
  6
CONTINUOUS
 10
104.871525223
 20
60.8945328693
 11
104.871525223
 21
61.1394835936
  0
LINE
  5
43B
100
AcDbEntity
  8
0
100
AcDbLine
 62
7
  6
CONTINUOUS
 10
104.871525223
 20
61.5477348021
 11
104.871525223
 21
61.7926855279
  0
LINE
  5
43C
100
AcDbEntity
  8
0
100
AcDbLine
 62
7
  6
CONTINUOUS
 10
104.871525223
 20
62.2009367365
 11
104.871525223
 21
62.4458874622
  0
LINE
  5
43D
100
AcDbEntity
  8
0
100
AcDbLine
 62
7
  6
CONTINUOUS
 10
104.871525223
 20
62.8541386708
 11
104.871525223
 21
63.099089395
  0
LINE
  5
43E
100
AcDbEntity
  8
0
100
AcDbLine
 62
7
  6
CONTINUOUS
 10
104.871525223
 20
63.5073406036
 11
104.871525223
 21
63.7522913293
  0
LINE
  5
43F
100
AcDbEntity
  8
0
100
AcDbLine
 62
7
  6
CONTINUOUS
 10
104.871525223
 20
64.1605425379
 11
104.871525223
 21
64.4054932621
  0
LINE
  5
440
100
AcDbEntity
  8
0
100
AcDbLine
 62
7
  6
CONTINUOUS
 10
104.871525223
 20
64.8137444718
 11
104.871525223
 21
65.0586951965
  0
LINE
  5
441
100
AcDbEntity
  8
0
100
AcDbLine
 62
7
  6
CONTINUOUS
 10
104.871525223
 20
65.466946405
 11
104.871525223
 21
65.7118971307
  0
LINE
  5
442
100
AcDbEntity
  8
0
100
AcDbLine
 62
7
  6
CONTINUOUS
 10
104.871525223
 20
66.1201483393
 11
104.871525223
 21
66.3650990635
  0
LINE
  5
443
100
AcDbEntity
  8
0
100
AcDbLine
 62
7
  6
CONTINUOUS
 10
104.871525223
 20
66.7733502721
 11
104.871525223
 21
67.0183009978
  0
LINE
  5
444
100
AcDbEntity
  8
0
100
AcDbLine
 62
7
  6
CONTINUOUS
 10
104.871525223
 20
67.4265522064
 11
104.871525223
 21
67.6715029306
  0
LINE
  5
445
100
AcDbEntity
  8
0
100
AcDbLine
 62
7
  6
CONTINUOUS
 10
104.871525223
 20
68.0797541392
 11
104.871525223
 21
68.324704865
  0
LINE
  5
446
100
AcDbEntity
  8
0
100
AcDbLine
 62
7
  6
CONTINUOUS
 10
104.871525223
 20
68.7329560735
 11
104.871525223
 21
68.9779067993
  0
LINE
  5
447
100
AcDbEntity
  8
0
100
AcDbLine
 62
7
  6
CONTINUOUS
 10
104.871525223
 20
69.3861580078
 11
104.871525223
 21
69.6311087321
  0
LINE
  5
448
100
AcDbEntity
  8
0
100
AcDbLine
 62
7
  6
CONTINUOUS
 10
104.871525223
 20
70.0393599406
 11
104.871525223
 21
70.2843106663
  0
LINE
  5
449
100
AcDbEntity
  8
0
100
AcDbLine
 62
7
  6
CONTINUOUS
 10
105.1791153925
 20
56.7366483195
 11
105.1791153925
 21
57.806109408
  0
LINE
  5
44A
100
AcDbEntity
  8
0
100
AcDbLine
 62
7
  6
CONTINUOUS
 10
105.1791153925
 20
58.0510601322
 11
105.1791153925
 21
58.4593113408
  0
LINE
  5
44B
100
AcDbEntity
  8
0
100
AcDbLine
 62
7
  6
CONTINUOUS
 10
105.1791153925
 20
58.7042620666
 11
105.1791153925
 21
59.1125132751
  0
LINE
  5
44C
100
AcDbEntity
  8
0
100
AcDbLine
 62
7
  6
CONTINUOUS
 10
105.1791153925
 20
59.3574640008
 11
105.1791153925
 21
59.7657152094
  0
LINE
  5
44D
100
AcDbEntity
  8
0
100
AcDbLine
 62
7
  6
CONTINUOUS
 10
105.1791153925
 20
60.0106659336
 11
105.1791153925
 21
60.4189171422
  0
LINE
  5
44E
100
AcDbEntity
  8
0
100
AcDbLine
 62
7
  6
CONTINUOUS
 10
105.1791153925
 20
60.6638678679
 11
105.1791153925
 21
61.0721190765
  0
LINE
  5
44F
100
AcDbEntity
  8
0
100
AcDbLine
 62
7
  6
CONTINUOUS
 10
105.1791153925
 20
61.3170698007
 11
105.1791153925
 21
61.7253210093
  0
LINE
  5
450
100
AcDbEntity
  8
0
100
AcDbLine
 62
7
  6
CONTINUOUS
 10
105.1791153925
 20
61.9702717351
 11
105.1791153925
 21
62.3785229436
  0
LINE
  5
451
100
AcDbEntity
  8
0
100
AcDbLine
 62
7
  6
CONTINUOUS
 10
105.1791153925
 20
62.6234736694
 11
105.1791153925
 21
63.0317248779
  0
LINE
  5
452
100
AcDbEntity
  8
0
100
AcDbLine
 62
7
  6
CONTINUOUS
 10
105.1791153925
 20
63.2766756022
 11
105.1791153925
 21
63.6849268107
  0
LINE
  5
453
100
AcDbEntity
  8
0
100
AcDbLine
 62
7
  6
CONTINUOUS
 10
105.1791153925
 20
63.9298775364
 11
105.1791153925
 21
64.338128745
  0
LINE
  5
454
100
AcDbEntity
  8
0
100
AcDbLine
 62
7
  6
CONTINUOUS
 10
105.1791153925
 20
64.5830794692
 11
105.1791153925
 21
64.9913306789
  0
LINE
  5
455
100
AcDbEntity
  8
0
100
AcDbLine
 62
7
  6
CONTINUOUS
 10
105.1791153925
 20
65.2362814036
 11
105.1791153925
 21
65.6445326122
  0
LINE
  5
456
100
AcDbEntity
  8
0
100
AcDbLine
 62
7
  6
CONTINUOUS
 10
105.1791153925
 20
65.8894833379
 11
105.1791153925
 21
66.2977345464
  0
LINE
  5
457
100
AcDbEntity
  8
0
100
AcDbLine
 62
7
  6
CONTINUOUS
 10
105.1791153925
 20
66.5426852707
 11
105.1791153925
 21
66.9509364792
  0
LINE
  5
458
100
AcDbEntity
  8
0
100
AcDbLine
 62
7
  6
CONTINUOUS
 10
105.1791153925
 20
67.195887205
 11
105.1791153925
 21
67.6041384135
  0
LINE
  5
459
100
AcDbEntity
  8
0
100
AcDbLine
 62
7
  6
CONTINUOUS
 10
105.1791153925
 20
67.8490891378
 11
105.1791153925
 21
68.2573403463
  0
LINE
  5
45A
100
AcDbEntity
  8
0
100
AcDbLine
 62
7
  6
CONTINUOUS
 10
105.1791153925
 20
68.5022910721
 11
105.1791153925
 21
68.9105422807
  0
LINE
  5
45B
100
AcDbEntity
  8
0
100
AcDbLine
 62
7
  6
CONTINUOUS
 10
105.1791153925
 20
69.1554930064
 11
105.1791153925
 21
69.563744215
  0
LINE
  5
45C
100
AcDbEntity
  8
0
100
AcDbLine
 62
7
  6
CONTINUOUS
 10
105.1791153925
 20
69.8086949392
 11
105.1791153925
 21
70.2169461478
  0
LINE
  5
45D
100
AcDbEntity
  8
0
100
AcDbLine
 62
7
  6
CONTINUOUS
 10
105.1791153925
 20
70.4618968735
 11
105.1791153925
 21
71.531357962
  0
LINE
  5
45E
100
AcDbEntity
  8
0
100
AcDbLine
 62
7
  6
CONTINUOUS
 10
105.2604173173
 20
74.3259491104
 11
105.2604173173
 21
74.1626528033
  0
LINE
  5
45F
100
AcDbEntity
  8
0
100
AcDbLine
 62
7
  6
CONTINUOUS
 10
105.8614705953
 20
72.5909201183
 11
105.8614705953
 21
72.3663819545
  0
LINE
  5
460
100
AcDbEntity
  8
0
100
AcDbLine
 62
7
  6
CONTINUOUS
 10
105.8614705953
 20
56.6895355438
 11
105.8614705953
 21
56.46499738
  0
LINE
  5
461
100
AcDbEntity
  8
0
100
AcDbLine
 62
7
  6
CONTINUOUS
 10
106.0382315353
 20
73.8972775713
 11
106.0382315349
 21
75.2853317104
  0
LINE
  5
462
100
AcDbEntity
  8
0
100
AcDbLine
 62
7
  6
CONTINUOUS
 10
106.260984263
 20
72.1559715171
 11
106.260984263
 21
71.0865104286
  0
LINE
  5
463
100
AcDbEntity
  8
0
100
AcDbLine
 62
7
  6
CONTINUOUS
 10
106.260984263
 20
70.8415597029
 11
106.260984263
 21
70.4333084943
  0
LINE
  5
464
100
AcDbEntity
  8
0
100
AcDbLine
 62
7
  6
CONTINUOUS
 10
106.260984263
 20
70.1883577701
 11
106.260984263
 21
69.7801065615
  0
LINE
  5
465
100
AcDbEntity
  8
0
100
AcDbLine
 62
7
  6
CONTINUOUS
 10
106.260984263
 20
69.5351558358
 11
106.260984263
 21
69.1269046273
  0
LINE
  5
466
100
AcDbEntity
  8
0
100
AcDbLine
 62
7
  6
CONTINUOUS
 10
106.260984263
 20
68.8819539015
 11
106.260984263
 21
68.4737026929
  0
LINE
  5
467
100
AcDbEntity
  8
0
100
AcDbLine
 62
7
  6
CONTINUOUS
 10
106.260984263
 20
68.2287519687
 11
106.260984263
 21
67.8205007601
  0
LINE
  5
468
100
AcDbEntity
  8
0
100
AcDbLine
 62
7
  6
CONTINUOUS
 10
106.260984263
 20
67.5755500344
 11
106.260984263
 21
67.1672988258
  0
LINE
  5
469
100
AcDbEntity
  8
0
100
AcDbLine
 62
7
  6
CONTINUOUS
 10
106.260984263
 20
66.9223481016
 11
106.260984263
 21
66.514096893
  0
LINE
  5
46A
100
AcDbEntity
  8
0
100
AcDbLine
 62
7
  6
CONTINUOUS
 10
106.260984263
 20
66.2691461673
 11
106.260984263
 21
65.8608949587
  0
LINE
  5
46B
100
AcDbEntity
  8
0
100
AcDbLine
 62
7
  6
CONTINUOUS
 10
106.260984263
 20
65.6159442341
 11
106.260984263
 21
65.2076930244
  0
LINE
  5
46C
100
AcDbEntity
  8
0
100
AcDbLine
 62
7
  6
CONTINUOUS
 10
106.260984263
 20
64.9627423001
 11
106.260984263
 21
64.5544910916
  0
LINE
  5
46D
100
AcDbEntity
  8
0
100
AcDbLine
 62
7
  6
CONTINUOUS
 10
106.260984263
 20
64.3095403659
 11
106.260984263
 21
63.9012891573
  0
LINE
  5
46E
100
AcDbEntity
  8
0
100
AcDbLine
 62
7
  6
CONTINUOUS
 10
106.260984263
 20
63.6563384331
 11
106.260984263
 21
63.2480872245
  0
LINE
  5
46F
100
AcDbEntity
  8
0
100
AcDbLine
 62
7
  6
CONTINUOUS
 10
106.260984263
 20
63.0031364988
 11
106.260984263
 21
62.5948852902
  0
LINE
  5
470
100
AcDbEntity
  8
0
100
AcDbLine
 62
7
  6
CONTINUOUS
 10
106.260984263
 20
62.3499345644
 11
106.260984263
 21
61.9416833559
  0
LINE
  5
471
100
AcDbEntity
  8
0
100
AcDbLine
 62
7
  6
CONTINUOUS
 10
106.260984263
 20
61.6967326316
 11
106.260984263
 21
61.2884814231
  0
LINE
  5
472
100
AcDbEntity
  8
0
100
AcDbLine
 62
7
  6
CONTINUOUS
 10
106.260984263
 20
61.0435306973
 11
106.260984263
 21
60.6352794888
  0
LINE
  5
473
100
AcDbEntity
  8
0
100
AcDbLine
 62
7
  6
CONTINUOUS
 10
106.260984263
 20
60.3903287645
 11
106.260984263
 21
59.982077556
  0
LINE
  5
474
100
AcDbEntity
  8
0
100
AcDbLine
 62
7
  6
CONTINUOUS
 10
106.260984263
 20
59.7371268303
 11
106.260984263
 21
59.3288756217
  0
LINE
  5
475
100
AcDbEntity
  8
0
100
AcDbLine
 62
7
  6
CONTINUOUS
 10
106.260984263
 20
59.0839248959
 11
106.260984263
 21
58.6756736873
  0
LINE
  5
476
100
AcDbEntity
  8
0
100
AcDbLine
 62
7
  6
CONTINUOUS
 10
106.260984263
 20
58.4307229631
 11
106.260984263
 21
57.3612618747
  0
LINE
  5
477
100
AcDbEntity
  8
0
100
AcDbLine
 62
7
  6
CONTINUOUS
 10
106.5685744325
 20
71.2640966357
 11
106.5685744325
 21
71.01914591
  0
LINE
  5
478
100
AcDbEntity
  8
0
100
AcDbLine
 62
7
  6
CONTINUOUS
 10
106.5685744325
 20
70.6108947015
 11
106.5685744325
 21
70.3659439772
  0
LINE
  5
479
100
AcDbEntity
  8
0
100
AcDbLine
 62
7
  6
CONTINUOUS
 10
106.5685744325
 20
69.9576927687
 11
106.5685744325
 21
69.712742043
  0
LINE
  5
47A
100
AcDbEntity
  8
0
100
AcDbLine
 62
7
  6
CONTINUOUS
 10
106.5685744325
 20
69.3044908344
 11
106.5685744325
 21
69.0595401086
  0
LINE
  5
47B
100
AcDbEntity
  8
0
100
AcDbLine
 62
7
  6
CONTINUOUS
 10
106.5685744325
 20
68.6512889
 11
106.5685744325
 21
68.4063381758
  0
LINE
  5
47C
100
AcDbEntity
  8
0
100
AcDbLine
 62
7
  6
CONTINUOUS
 10
106.5685744325
 20
67.9980869672
 11
106.5685744325
 21
67.7531362415
  0
LINE
  5
47D
100
AcDbEntity
  8
0
100
AcDbLine
 62
7
  6
CONTINUOUS
 10
106.5685744325
 20
67.344885033
 11
106.5685744325
 21
67.0999343087
  0
LINE
  5
47E
100
AcDbEntity
  8
0
100
AcDbLine
 62
7
  6
CONTINUOUS
 10
106.5685744325
 20
66.6916831001
 11
106.5685744325
 21
66.4467323744
  0
LINE
  5
47F
100
AcDbEntity
  8
0
100
AcDbLine
 62
7
  6
CONTINUOUS
 10
106.5685744325
 20
66.0384811659
 11
106.5685744325
 21
65.7935304412
  0
LINE
  5
480
100
AcDbEntity
  8
0
100
AcDbLine
 62
7
  6
CONTINUOUS
 10
106.5685744325
 20
65.3852792315
 11
106.5685744325
 21
65.1403285073
  0
LINE
  5
481
100
AcDbEntity
  8
0
100
AcDbLine
 62
7
  6
CONTINUOUS
 10
106.5685744325
 20
64.7320772987
 11
106.5685744325
 21
64.487126573
  0
LINE
  5
482
100
AcDbEntity
  8
0
100
AcDbLine
 62
7
  6
CONTINUOUS
 10
106.5685744325
 20
64.0788753644
 11
106.5685744325
 21
63.8339246402
  0
LINE
  5
483
100
AcDbEntity
  8
0
100
AcDbLine
 62
7
  6
CONTINUOUS
 10
106.5685744325
 20
63.4256734316
 11
106.5685744325
 21
63.1807227059
  0
LINE
  5
484
100
AcDbEntity
  8
0
100
AcDbLine
 62
7
  6
CONTINUOUS
 10
106.5685744325
 20
62.7724714974
 11
106.5685744325
 21
62.5275207716
  0
LINE
  5
485
100
AcDbEntity
  8
0
100
AcDbLine
 62
7
  6
CONTINUOUS
 10
106.5685744325
 20
62.119269563
 11
106.5685744325
 21
61.8743188388
  0
LINE
  5
486
100
AcDbEntity
  8
0
100
AcDbLine
 62
7
  6
CONTINUOUS
 10
106.5685744325
 20
61.4660676302
 11
106.5685744325
 21
61.2211169045
  0
LINE
  5
487
100
AcDbEntity
  8
0
100
AcDbLine
 62
7
  6
CONTINUOUS
 10
106.5685744325
 20
60.8128656959
 11
106.5685744325
 21
60.5679149717
  0
LINE
  5
488
100
AcDbEntity
  8
0
100
AcDbLine
 62
7
  6
CONTINUOUS
 10
106.5685744325
 20
60.1596637631
 11
106.5685744325
 21
59.9147130374
  0
LINE
  5
489
100
AcDbEntity
  8
0
100
AcDbLine
 62
7
  6
CONTINUOUS
 10
106.5685744325
 20
59.5064618288
 11
106.5685744325
 21
59.261511103
  0
LINE
  5
48A
100
AcDbEntity
  8
0
100
AcDbLine
 62
7
  6
CONTINUOUS
 10
106.5685744325
 20
58.8532598945
 11
106.5685744325
 21
58.6083091702
  0
LINE
  5
48B
100
AcDbEntity
  8
0
100
AcDbLine
 62
7
  6
CONTINUOUS
 10
106.7876372645
 20
166.8266232884
 11
106.7876372649
 21
169.2760882118
  0
LINE
  5
48C
100
AcDbEntity
  8
0
100
AcDbLine
 62
7
  6
CONTINUOUS
 10
106.9221263511
 20
57.0773636108
 11
106.9221263511
 21
73.2032863491
  0
LINE
  5
48D
100
AcDbEntity
  8
0
100
AcDbLine
 62
7
  6
CONTINUOUS
 10
106.957459463
 20
58.9144280378
 11
106.957459463
 21
57.2814232035
  0
LINE
  5
48E
100
AcDbEntity
  8
0
100
AcDbLine
 62
7
  6
CONTINUOUS
 10
108.9727274785
 20
97.9637016893
 11
108.9727274785
 21
97.1471992722
  0
LINE
  5
48F
100
AcDbEntity
  8
0
100
AcDbLine
 62
7
  6
CONTINUOUS
 10
108.9727274785
 20
95.1059432294
 11
108.9727274785
 21
94.2894408122
  0
LINE
  5
490
100
AcDbEntity
  8
0
100
AcDbLine
 62
7
  6
CONTINUOUS
 10
108.9727274785
 20
84.0831605981
 11
108.9727274785
 21
83.266658181
  0
LINE
  5
491
100
AcDbEntity
  8
0
100
AcDbLine
 62
7
  6
CONTINUOUS
 10
108.9727274785
 20
81.2254021382
 11
108.9727274785
 21
80.408899721
  0
LINE
  5
492
100
AcDbEntity
  8
0
100
AcDbLine
 62
7
  6
CONTINUOUS
 10
109.6091209323
 20
77.6327851537
 11
109.6091209323
 21
75.9997803198
  0
LINE
  5
493
100
AcDbEntity
  8
0
100
AcDbLine
 62
7
  6
CONTINUOUS
 10
109.6091209323
 20
57.3835252086
 11
109.6091209323
 21
55.7505203747
  0
LINE
  5
494
100
AcDbEntity
  8
0
100
AcDbLine
 62
7
  6
CONTINUOUS
 10
109.7858748124
 20
76.1018286109
 11
109.7858748124
 21
60.5474046538
  0
LINE
  5
495
100
AcDbEntity
  8
0
100
AcDbLine
 62
7
  6
CONTINUOUS
 10
125.6603780371
 20
116.375664705
 11
122.8319626877
 21
114.7426880892
  0
LINE
  5
496
100
AcDbEntity
  8
0
100
AcDbLine
 62
7
  6
CONTINUOUS
 10
142.8430012814
 20
123.0311095875
 11
145.6714107394
 21
124.664082802
  0
LINE
  5
497
100
AcDbEntity
  8
0
100
AcDbLine
 62
7
  6
CONTINUOUS
 10
128.4180830019
 20
114.0486053021
 11
129.6908699094
 21
114.7834447794
  0
LINE
  5
498
100
AcDbEntity
  8
0
100
AcDbLine
 62
7
  6
CONTINUOUS
 10
99.7096672113
 20
97.0248163266
 11
96.8812518625
 21
95.3918397111
  0
LINE
  5
499
100
AcDbEntity
  8
0
100
AcDbLine
 62
7
  6
CONTINUOUS
 10
135.5118163945
 20
143.7513557114
 11
135.3618221929
 21
143.7365029821
  0
LINE
  5
49A
100
AcDbEntity
  8
0
100
AcDbLine
 62
7
  6
CONTINUOUS
 10
147.1326082227
 20
141.9398376174
 11
147.3535518569
 21
141.949188282
  0
LINE
  5
49B
100
AcDbEntity
  8
0
100
AcDbLine
 62
7
  6
CONTINUOUS
 10
135.0250560076
 20
143.5420720949
 11
134.0536800945
 21
143.5119778691
  0
LINE
  5
49C
100
AcDbEntity
  8
0
100
AcDbLine
 62
7
  6
CONTINUOUS
 10
61.2325615084
 20
139.6895236644
 11
61.4904089413
 21
139.6639932681
  0
LINE
  5
49D
100
AcDbEntity
  8
0
100
AcDbLine
 62
7
  6
CONTINUOUS
 10
46.5567767518
 20
142.826416867
 11
46.8067623229
 21
142.8016622343
  0
LINE
  5
49E
100
AcDbEntity
  8
0
100
AcDbLine
 62
7
  6
CONTINUOUS
 10
46.5567767518
 20
145.4672238025
 11
46.8067623271
 21
145.4424691684
  0
LINE
  5
49F
100
AcDbEntity
  8
0
100
AcDbLine
 62
7
  6
CONTINUOUS
 10
28.3622600273
 20
172.0602268439
 11
33.7362939384
 21
168.9575971096
  0
LINE
  5
4A0
100
AcDbEntity
  8
0
100
AcDbLine
 62
7
  6
CONTINUOUS
 10
34.4434036636
 20
168.549356355
 11
39.8174375747
 21
165.4467266207
  0
LINE
  5
4A1
100
AcDbEntity
  8
0
100
AcDbLine
 62
7
  6
CONTINUOUS
 10
124.2461585868
 20
117.192146214
 11
125.6603780371
 21
116.375664705
  0
LINE
  5
4A2
100
AcDbEntity
  8
0
100
AcDbLine
 62
7
  6
CONTINUOUS
 10
28.3622541394
 20
172.8767117523
 11
41.231651137
 21
165.44673002
  0
LINE
  5
4A3
100
AcDbEntity
  8
0
100
AcDbLine
 62
7
  6
CONTINUOUS
 10
40.4538233741
 20
166.0980895527
 11
30.8371311121
 21
171.6501638142
  0
LINE
  5
4A4
100
AcDbEntity
  8
0
100
AcDbLine
 62
7
  6
CONTINUOUS
 10
28.9986458268
 20
176.5917861486
 11
30.8371311121
 21
175.5303601868
  0
LINE
  5
4A5
100
AcDbEntity
  8
0
100
AcDbLine
 62
7
  6
CONTINUOUS
 10
40.4538233741
 20
169.9782859253
 11
42.2923086595
 21
168.9168599636
  0
LINE
  5
4A6
100
AcDbEntity
  8
0
100
AcDbLine
 62
7
  6
CONTINUOUS
 10
42.7165656627
 20
171.1213964992
 11
41.51447913
 21
171.8154057818
  0
LINE
  5
4A7
100
AcDbEntity
  8
0
100
AcDbLine
 62
7
  6
CONTINUOUS
 10
31.897786868
 20
177.3674800433
 11
30.6957003352
 21
178.061489326
  0
LINE
  5
4A8
100
AcDbEntity
  8
0
100
AcDbLine
 62
7
  6
CONTINUOUS
 10
110.3797546674
 20
164.752760255
 11
110.3797546678
 21
167.2022251783
  0
LINE
  5
4A9
100
AcDbEntity
  8
0
100
AcDbLine
 62
7
  6
CONTINUOUS
 10
112.4375362817
 20
77.6327569356
 11
112.4375362817
 21
59.0165018244
  0
LINE
  5
4AA
100
AcDbEntity
  8
0
100
AcDbLine
 62
7
  6
CONTINUOUS
 10
113.3567712693
 20
71.3865042723
 11
113.3567712693
 21
81.1845332779
  0
LINE
  5
4AB
100
AcDbEntity
  8
0
100
AcDbLine
 62
7
  6
CONTINUOUS
 10
113.9718720704
 20
162.6788972216
 11
113.9718720708
 21
165.1283621449
  0
LINE
  5
4AC
100
AcDbEntity
  8
0
100
AcDbLine
 62
7
  6
CONTINUOUS
 10
114.770978944
 20
58.6490524562
 11
114.770978944
 21
63.548066959
  0
LINE
  5
4AD
100
AcDbEntity
  8
0
100
AcDbLine
 62
7
  6
CONTINUOUS
 10
114.7709789445
 20
113.3547144042
 11
114.7709789445
 21
118.2537289069
  0
LINE
  5
4AE
100
AcDbEntity
  8
0
100
AcDbLine
 62
7
  6
CONTINUOUS
 10
115.2659398541
 20
82.2867856947
 11
115.2659398541
 21
74.1217333047
  0
LINE
  5
4AF
100
AcDbEntity
  8
0
100
AcDbLine
 62
7
  6
CONTINUOUS
 10
116.6801593044
 20
83.1032808012
 11
116.6801593044
 21
73.3052517957
  0
LINE
  5
4B0
100
AcDbEntity
  8
0
100
AcDbLine
 62
7
  6
CONTINUOUS
 10
127.4776144092
 20
139.1845806671
 11
127.0887072982
 21
138.5109700521
  0
LINE
  5
4B1
100
AcDbEntity
  8
0
100
AcDbLine
 62
7
  6
CONTINUOUS
 10
136.0689260313
 20
143.7364959274
 11
135.5951664595
 21
142.9159157247
  0
LINE
  5
4B2
100
AcDbEntity
  8
0
100
AcDbLine
 62
7
  6
CONTINUOUS
 10
96.8812224221
 20
91.7991415321
 11
96.1741185849
 21
91.3908973783
  0
LINE
  5
4B3
100
AcDbEntity
  8
0
100
AcDbLine
 62
7
  6
CONTINUOUS
 10
104.023000618
 20
95.1059926122
 11
108.9727274785
 21
97.9637016893
  0
LINE
  5
4B4
100
AcDbEntity
  8
0
100
AcDbLine
 62
7
  6
CONTINUOUS
 10
129.6908699094
 20
109.5578293109
 11
128.4180830019
 21
108.8229898337
  0
LINE
  5
4B5
100
AcDbEntity
  8
0
100
AcDbLine
 62
7
  6
CONTINUOUS
 10
108.9727274785
 20
97.1471992722
 11
104.7301044552
 21
94.697734349
  0
LINE
  5
4B6
100
AcDbEntity
  8
0
100
AcDbLine
 62
7
  6
CONTINUOUS
 10
104.7301044552
 20
92.6564783061
 11
108.9727274785
 21
95.1059432294
  0
LINE
  5
4B7
100
AcDbEntity
  8
0
100
AcDbLine
 62
7
  6
CONTINUOUS
 10
108.9727274785
 20
94.2894408122
 11
104.023000618
 21
91.4317317351
  0
LINE
  5
4B8
100
AcDbEntity
  8
0
100
AcDbLine
 62
7
  6
CONTINUOUS
 10
143.5040927349
 20
149.6825587331
 11
143.1541064786
 21
149.6479027373
  0
LINE
  5
4B9
100
AcDbEntity
  8
0
100
AcDbLine
 62
7
  6
CONTINUOUS
 10
147.9861296789
 20
151.8690030745
 11
147.7361393429
 21
151.8442485255
  0
LINE
  5
4BA
100
AcDbEntity
  8
0
100
AcDbLine
 62
7
  6
CONTINUOUS
 10
43.1506152679
 20
172.7600237829
 11
38.8274044732
 21
175.2559742331
  0
LINE
  5
4BB
100
AcDbEntity
  8
0
100
AcDbLine
 62
7
  6
CONTINUOUS
 10
53.7817077526
 20
172.163917593
 11
58.9799574514
 21
169.1627746252
  0
LINE
  5
4BC
100
AcDbEntity
  8
0
100
AcDbLine
 62
7
  6
CONTINUOUS
 10
117.5639894733
 20
160.6050341881
 11
117.5639894737
 21
163.0544991115
  0
LINE
  5
4BD
100
AcDbEntity
  8
0
100
AcDbLine
 62
7
  6
CONTINUOUS
 10
120.003535563
 20
121.2747288463
 11
120.003535563
 21
118.008690959
  0
LINE
  5
4BE
100
AcDbEntity
  8
0
100
AcDbLine
 62
7
  6
CONTINUOUS
 10
120.003535563
 20
66.5690668986
 11
120.003535563
 21
63.3030290114
  0
LINE
  5
4BF
100
AcDbEntity
  8
0
100
AcDbLine
 62
7
  6
CONTINUOUS
 10
121.1561068763
 20
158.5311711547
 11
121.1561068767
 21
160.9806360781
  0
LINE
  5
4C0
100
AcDbEntity
  8
0
100
AcDbLine
 62
7
  6
CONTINUOUS
 10
121.4177550133
 20
122.0912239528
 11
121.4177550133
 21
117.19220945
  0
LINE
  5
4C1
100
AcDbEntity
  8
0
100
AcDbLine
 62
7
  6
CONTINUOUS
 10
121.4177550133
 20
67.3855620051
 11
121.4177550133
 21
62.4865475023
  0
LINE
  5
4C2
100
AcDbEntity
  8
0
100
AcDbLine
 62
7
  6
CONTINUOUS
 10
122.8319626877
 20
69.8350551471
 11
122.8319626877
 21
77.1835769012
  0
LINE
  5
4C3
100
AcDbEntity
  8
0
100
AcDbLine
 62
7
  6
CONTINUOUS
 10
122.8319626877
 20
114.7426880892
 11
122.8319626877
 21
122.0912098434
  0
LINE
  5
4C4
100
AcDbEntity
  8
0
100
AcDbLine
 62
7
  6
CONTINUOUS
 10
145.067863284
 20
146.9385196563
 11
145.3178558885
 21
146.9137683994
  0
LINE
  5
4C5
100
AcDbEntity
  8
0
100
AcDbLine
 62
7
  6
CONTINUOUS
 10
38.8274044732
 20
181.3682727515
 11
48.4440967352
 21
175.8161984901
  0
LINE
  5
4C6
100
AcDbEntity
  8
0
100
AcDbLine
 62
7
  6
CONTINUOUS
 10
39.888050219
 20
183.3686633263
 11
51.9089155465
 21
176.4285704995
  0
LINE
  5
4C7
100
AcDbEntity
  8
0
100
AcDbLine
 62
7
  6
CONTINUOUS
 10
118.5892807856
 20
138.4222611093
 11
124.2461585861
 21
135.1563350737
  0
LINE
  5
4C8
100
AcDbEntity
  8
0
100
AcDbLine
 62
7
  6
CONTINUOUS
 10
53.1086861894
 20
176.2431856523
 11
40.1882542994
 21
183.7026317268
  0
LINE
  5
4C9
100
AcDbEntity
  8
0
100
AcDbLine
 62
7
  6
CONTINUOUS
 10
125.2502373215
 20
136.9444394362
 11
78.5527110728
 21
163.9046588628
  0
LINE
  5
4CA
100
AcDbEntity
  8
0
100
AcDbLine
 62
7
  6
CONTINUOUS
 10
125.2502373215
 20
138.0047568966
 11
78.5527110728
 21
164.9649763252
  0
LINE
  5
4CB
100
AcDbEntity
  8
0
100
AcDbLine
 62
7
  6
CONTINUOUS
 10
124.2461585868
 20
122.9076913527
 11
124.2461585868
 21
117.192146214
  0
LINE
  5
4CC
100
AcDbEntity
  8
0
100
AcDbLine
 62
7
  6
CONTINUOUS
 10
124.2461585868
 20
78.0000584105
 11
124.2461585868
 21
72.2845132719
  0
LINE
  5
4CD
100
AcDbEntity
  8
0
100
AcDbLine
 62
7
  6
CONTINUOUS
 10
124.7482242792
 20
156.4573081212
 11
124.7482242796
 21
158.9067730446
  0
LINE
  5
4CE
100
AcDbEntity
  8
0
100
AcDbLine
 62
7
  6
CONTINUOUS
 10
125.2502373215
 20
136.9433037538
 11
125.2502373215
 21
138.0047568966
  0
LINE
  5
4CF
100
AcDbEntity
  8
0
100
AcDbLine
 62
7
  6
CONTINUOUS
 10
125.6603780371
 20
123.7241864592
 11
125.6603780371
 21
116.375664705
  0
LINE
  5
4D0
100
AcDbEntity
  8
0
100
AcDbLine
 62
7
  6
CONTINUOUS
 10
125.6603780365
 20
78.8165535167
 11
125.6603780365
 21
71.4680317626
  0
LINE
  5
4D1
100
AcDbEntity
  8
0
100
AcDbLine
 62
7
  6
CONTINUOUS
 10
127.0887072982
 20
139.0661916967
 11
127.0887072982
 21
138.5109700522
  0
LINE
  5
4D2
100
AcDbEntity
  8
0
100
AcDbLine
 62
7
  6
CONTINUOUS
 10
128.3403416821
 20
154.3834450878
 11
128.3403416825
 21
156.8329100112
  0
LINE
  5
4D3
100
AcDbEntity
  8
0
100
AcDbLine
 62
7
  6
CONTINUOUS
 10
128.4180830019
 20
84.3279173198
 11
128.4180830019
 21
89.5535327883
  0
LINE
  5
4D4
100
AcDbEntity
  8
0
100
AcDbLine
 62
7
  6
CONTINUOUS
 10
128.4180830019
 20
108.8229898337
 11
128.4180830019
 21
114.0486053021
  0
LINE
  5
4D5
100
AcDbEntity
  8
0
100
AcDbLine
 62
7
  6
CONTINUOUS
 10
129.6908699094
 20
114.7834447794
 11
129.6908699094
 21
109.5578293109
  0
LINE
  5
4D6
100
AcDbEntity
  8
0
100
AcDbLine
 62
7
  6
CONTINUOUS
 10
129.6908699094
 20
90.2883722655
 11
129.6908699094
 21
85.062756797
  0
LINE
  5
4D7
100
AcDbEntity
  8
0
100
AcDbLine
 62
7
  6
CONTINUOUS
 10
96.8812224221
 20
77.9186004409
 11
96.1741185849
 21
77.5103562871
  0
LINE
  5
4D8
100
AcDbEntity
  8
0
100
AcDbLine
 62
7
  6
CONTINUOUS
 10
104.023000618
 20
81.225451521
 11
108.9727274785
 21
84.0831605981
  0
LINE
  5
4D9
100
AcDbEntity
  8
0
100
AcDbLine
 62
7
  6
CONTINUOUS
 10
108.9727274785
 20
83.266658181
 11
104.7301044552
 21
80.8171932578
  0
LINE
  5
4DA
100
AcDbEntity
  8
0
100
AcDbLine
 62
7
  6
CONTINUOUS
 10
104.7301044552
 20
78.7759372149
 11
108.9727274785
 21
81.2254021382
  0
LINE
  5
4DB
100
AcDbEntity
  8
0
100
AcDbLine
 62
7
  6
CONTINUOUS
 10
108.9727274785
 20
80.408899721
 11
104.023000618
 21
77.5511906439
  0
LINE
  5
4DC
100
AcDbEntity
  8
0
100
AcDbLine
 62
7
  6
CONTINUOUS
 10
113.3567712693
 20
81.1845332779
 11
116.6801593044
 21
83.1032808012
  0
LINE
  5
4DD
100
AcDbEntity
  8
0
100
AcDbLine
 62
7
  6
CONTINUOUS
 10
128.4180830019
 20
89.5535327883
 11
129.6908699094
 21
90.2883722655
  0
LWPOLYLINE
  5
4DE
100
AcDbEntity
  8
0
100
AcDbPolyline
 62
7
  6
CONTINUOUS
 90
4
 70
0
 10
40.1879213735
 20
183.7028263453
 10
40.0630174695
 20
183.7570823079
 10
39.8554199989
 20
183.7822748231
 10
39.5879394578
 20
183.7026922438
  0
LINE
  5
4DF
100
AcDbEntity
  8
0
100
AcDbLine
 62
7
  6
CONTINUOUS
 10
128.1352296907
 20
137.40167792
 11
127.6543950783
 21
137.6792816327
  0
LINE
  5
4E0
100
AcDbEntity
  8
0
100
AcDbLine
 62
7
  6
CONTINUOUS
 10
79.4729060635
 20
165.4962479795
 11
79.3446586557
 21
165.5702899798
  0
LINE
  5
4E1
100
AcDbEntity
  8
0
100
AcDbLine
 62
7
  6
CONTINUOUS
 10
127.088707298
 20
139.0661916966
 11
80.3911810493
 21
166.0264111251
  0
LINE
  5
4E2
100
AcDbEntity
  8
0
100
AcDbLine
 62
7
  6
CONTINUOUS
 10
127.4776144092
 20
139.1845806671
 11
80.7800881605
 21
166.1448000956
  0
LINE
  5
4E3
100
AcDbEntity
  8
0
100
AcDbLine
 62
7
  6
CONTINUOUS
 10
147.0291119356
 20
74.5228665837
 11
147.1326735181
 21
74.294006762
  0
LINE
  5
4E4
100
AcDbEntity
  8
0
100
AcDbLine
 62
7
  6
CONTINUOUS
 10
146.966958766
 20
74.9806290171
 11
147.029095716
 21
74.8433131239
  0
LINE
  5
4E5
100
AcDbEntity
  8
0
100
AcDbLine
 62
7
  6
CONTINUOUS
 10
147.8771881455
 20
83.8716091635
 11
147.7736265631
 21
84.1004689853
  0
LINE
  5
4E6
100
AcDbEntity
  8
0
100
AcDbLine
 62
7
  6
CONTINUOUS
 10
131.932459085
 20
152.3095820544
 11
131.9324590854
 21
154.7590469777
  0
LINE
  5
4E7
100
AcDbEntity
  8
0
100
AcDbLine
 62
7
  6
CONTINUOUS
 10
133.4879970255
 20
142.654655975
 11
133.4879970255
 21
143.1853825465
  0
LINE
  5
4E8
100
AcDbEntity
  8
0
100
AcDbLine
 62
7
  6
CONTINUOUS
 10
135.524576488
 20
150.2357190209
 11
135.5245764884
 21
152.6851839443
  0
LINE
  5
4E9
100
AcDbEntity
  8
0
100
AcDbLine
 62
7
  6
CONTINUOUS
 10
135.5739533448
 20
142.9036684003
 11
135.5739533448
 21
143.6140255031
  0
LINE
  5
4EA
100
AcDbEntity
  8
0
100
AcDbLine
 62
7
  6
CONTINUOUS
 10
136.0689260313
 20
145.1490451093
 11
136.0689260313
 21
143.7364959274
  0
LINE
  5
4EB
100
AcDbEntity
  8
0
100
AcDbLine
 62
7
  6
CONTINUOUS
 10
145.6714107394
 20
98.5360054984
 11
142.8430012814
 21
96.9030322839
  0
LINE
  5
4EC
100
AcDbEntity
  8
0
100
AcDbLine
 62
7
  6
CONTINUOUS
 10
101.830978723
 20
73.1420994611
 11
109.6091209323
 21
77.6327851537
  0
LINE
  5
4ED
100
AcDbEntity
  8
0
100
AcDbLine
 62
7
  6
CONTINUOUS
 10
104.058340796
 20
73.7952345253
 11
105.1189965518
 21
74.4076007561
  0
LINE
  5
4EE
100
AcDbEntity
  8
0
100
AcDbLine
 62
7
  6
CONTINUOUS
 10
102.7148435053
 20
72.4684315014
 11
103.7754992611
 21
73.0807977322
  0
LINE
  5
4EF
100
AcDbEntity
  8
0
100
AcDbLine
 62
7
  6
CONTINUOUS
 10
144.6358509222
 20
96.2470757923
 11
142.8430012814
 21
95.2119797483
  0
LINE
  5
4F0
100
AcDbEntity
  8
0
100
AcDbLine
 62
7
  6
CONTINUOUS
 10
109.6091209323
 20
75.9997803198
 11
112.4375362817
 21
77.6327569356
  0
LINE
  5
4F1
100
AcDbEntity
  8
0
100
AcDbLine
 62
7
  6
CONTINUOUS
 10
101.830978723
 20
71.4682335274
 11
102.5734227449
 21
71.8968812246
  0
LINE
  5
4F2
100
AcDbEntity
  8
0
100
AcDbLine
 62
7
  6
CONTINUOUS
 10
105.8791526426
 20
73.805433878
 11
106.0382315353
 21
73.8972775713
  0
LINE
  5
4F3
100
AcDbEntity
  8
0
100
AcDbLine
 62
7
  6
CONTINUOUS
 10
106.9221263511
 20
73.2032863491
 11
105.8614705953
 21
72.5909201183
  0
LINE
  5
4F4
100
AcDbEntity
  8
0
100
AcDbLine
 62
7
  6
CONTINUOUS
 10
105.5786290591
 20
71.8764833239
 11
104.5179733044
 21
71.2641170937
  0
LINE
  5
4F5
100
AcDbEntity
  8
0
100
AcDbLine
 62
7
  6
CONTINUOUS
 10
105.1791153925
 20
71.531357962
 11
106.260984263
 21
72.1559715171
  0
LINE
  5
4F6
100
AcDbEntity
  8
0
100
AcDbLine
 62
7
  6
CONTINUOUS
 10
99.7096672113
 20
68.2022810013
 11
96.8812518625
 21
66.5693043858
  0
LINE
  5
4F7
100
AcDbEntity
  8
0
100
AcDbLine
 62
7
  6
CONTINUOUS
 10
129.6908699094
 20
85.062756797
 11
128.4180830019
 21
84.3279173198
  0
LINE
  5
4F8
100
AcDbEntity
  8
0
100
AcDbLine
 62
7
  6
CONTINUOUS
 10
104.871525223
 20
70.2843106663
 11
105.1791153925
 21
70.4618968735
  0
LINE
  5
4F9
100
AcDbEntity
  8
0
100
AcDbLine
 62
7
  6
CONTINUOUS
 10
106.260984263
 20
71.0865104286
 11
106.5685744325
 21
71.2640966357
  0
LINE
  5
4FA
100
AcDbEntity
  8
0
100
AcDbLine
 62
7
  6
CONTINUOUS
 10
106.5685744325
 20
71.01914591
 11
106.260984263
 21
70.8415597029
  0
LINE
  5
4FB
100
AcDbEntity
  8
0
100
AcDbLine
 62
7
  6
CONTINUOUS
 10
105.1791153925
 20
70.2169461478
 11
104.871525223
 21
70.0393599406
  0
LINE
  5
4FC
100
AcDbEntity
  8
0
100
AcDbLine
 62
7
  6
CONTINUOUS
 10
104.871525223
 20
69.6311087321
 11
105.1791153925
 21
69.8086949392
  0
LINE
  5
4FD
100
AcDbEntity
  8
0
100
AcDbLine
 62
7
  6
CONTINUOUS
 10
106.260984263
 20
70.4333084943
 11
106.5685744325
 21
70.6108947015
  0
LINE
  5
4FE
100
AcDbEntity
  8
0
100
AcDbLine
 62
7
  6
CONTINUOUS
 10
106.5685744325
 20
70.3659439772
 11
106.260984263
 21
70.1883577701
  0
LINE
  5
4FF
100
AcDbEntity
  8
0
100
AcDbLine
 62
7
  6
CONTINUOUS
 10
105.1791153925
 20
69.563744215
 11
104.871525223
 21
69.3861580078
  0
LINE
  5
500
100
AcDbEntity
  8
0
100
AcDbLine
 62
7
  6
CONTINUOUS
 10
104.871525223
 20
68.9779067993
 11
105.1791153925
 21
69.1554930064
  0
LINE
  5
501
100
AcDbEntity
  8
0
100
AcDbLine
 62
7
  6
CONTINUOUS
 10
106.260984263
 20
69.7801065615
 11
106.5685744325
 21
69.9576927687
  0
LINE
  5
502
100
AcDbEntity
  8
0
100
AcDbLine
 62
7
  6
CONTINUOUS
 10
106.5685744325
 20
69.712742043
 11
106.260984263
 21
69.5351558358
  0
LINE
  5
503
100
AcDbEntity
  8
0
100
AcDbLine
 62
7
  6
CONTINUOUS
 10
105.1791153925
 20
68.9105422807
 11
104.871525223
 21
68.7329560735
  0
LINE
  5
504
100
AcDbEntity
  8
0
100
AcDbLine
 62
7
  6
CONTINUOUS
 10
104.871525223
 20
68.324704865
 11
105.1791153925
 21
68.5022910721
  0
LINE
  5
505
100
AcDbEntity
  8
0
100
AcDbLine
 62
7
  6
CONTINUOUS
 10
106.260984263
 20
69.1269046273
 11
106.5685744325
 21
69.3044908344
  0
LINE
  5
506
100
AcDbEntity
  8
0
100
AcDbLine
 62
7
  6
CONTINUOUS
 10
133.4879970255
 20
142.654655975
 11
86.7904707768
 21
169.6148754035
  0
LINE
  5
507
100
AcDbEntity
  8
0
100
AcDbLine
 62
7
  6
CONTINUOUS
 10
133.4879970255
 20
143.1853825465
 11
86.7904707768
 21
170.145601975
  0
LINE
  5
508
100
AcDbEntity
  8
0
100
AcDbLine
 62
7
  6
CONTINUOUS
 10
134.0536800945
 20
143.5119778691
 11
87.3561538458
 21
170.4721972976
  0
LINE
  5
509
100
AcDbEntity
  8
0
100
AcDbLine
 62
7
  6
CONTINUOUS
 10
135.0250560076
 20
143.5420720949
 11
88.3275297589
 21
170.5022915234
  0
LINE
  5
50A
100
AcDbEntity
  8
0
100
AcDbLine
 62
7
  6
CONTINUOUS
 10
88.6642959444
 20
170.6967224107
 11
135.3618221931
 21
143.7365029822
  0
LINE
  5
50B
100
AcDbEntity
  8
0
100
AcDbLine
 62
7
  6
CONTINUOUS
 10
88.8142933997
 20
170.711580776
 11
135.5118196484
 21
143.7513613475
  0
LINE
  5
50C
100
AcDbEntity
  8
0
100
AcDbLine
 62
7
  6
CONTINUOUS
 10
136.0689260314
 20
143.7364959275
 11
89.3713997826
 21
170.696715356
  0
LINE
  5
50D
100
AcDbEntity
  8
0
100
AcDbLine
 62
7
  6
CONTINUOUS
 10
89.3713997826
 20
172.1092645379
 11
136.0689260313
 21
145.1490451094
  0
LINE
  5
50E
100
AcDbEntity
  8
0
100
AcDbLine
 62
7
  6
CONTINUOUS
 10
136.4224779461
 20
145.7614183927
 11
89.7249516973
 21
172.7216378212
  0
LINE
  5
50F
100
AcDbEntity
  8
0
100
AcDbLine
 62
7
  6
CONTINUOUS
 10
139.116693891
 20
148.1618559875
 11
139.1166938914
 21
150.6113209108
  0
LINE
  5
510
100
AcDbEntity
  8
0
100
AcDbLine
 62
7
  6
CONTINUOUS
 10
140.947947218
 20
145.353136043
 11
140.947947218
 21
144.7979239946
  0
LINE
  5
511
100
AcDbEntity
  8
0
100
AcDbLine
 62
7
  6
CONTINUOUS
 10
115.2659398541
 20
74.1217333047
 11
113.3567594934
 21
73.0194740891
  0
LINE
  5
512
100
AcDbEntity
  8
0
100
AcDbLine
 62
7
  6
CONTINUOUS
 10
106.5685744325
 20
69.0595401086
 11
106.260984263
 21
68.8819539015
  0
LINE
  5
513
100
AcDbEntity
  8
0
100
AcDbLine
 62
7
  6
CONTINUOUS
 10
105.1791153925
 20
68.2573403463
 11
104.871525223
 21
68.0797541392
  0
LINE
  5
514
100
AcDbEntity
  8
0
100
AcDbLine
 62
7
  6
CONTINUOUS
 10
104.871525223
 20
67.6715029306
 11
105.1791153925
 21
67.8490891378
  0
LINE
  5
515
100
AcDbEntity
  8
0
100
AcDbLine
 62
7
  6
CONTINUOUS
 10
106.260984263
 20
68.4737026929
 11
106.5685744325
 21
68.6512889
  0
LINE
  5
516
100
AcDbEntity
  8
0
100
AcDbLine
 62
7
  6
CONTINUOUS
 10
106.5685744325
 20
68.4063381758
 11
106.260984263
 21
68.2287519687
  0
LINE
  5
517
100
AcDbEntity
  8
0
100
AcDbLine
 62
7
  6
CONTINUOUS
 10
105.1791153925
 20
67.6041384135
 11
104.871525223
 21
67.4265522064
  0
LINE
  5
518
100
AcDbEntity
  8
0
100
AcDbLine
 62
7
  6
CONTINUOUS
 10
104.871525223
 20
67.0183009978
 11
105.1791153925
 21
67.195887205
  0
LINE
  5
519
100
AcDbEntity
  8
0
100
AcDbLine
 62
7
  6
CONTINUOUS
 10
106.260984263
 20
67.8205007601
 11
106.5685744325
 21
67.9980869672
  0
LINE
  5
51A
100
AcDbEntity
  8
0
100
AcDbLine
 62
7
  6
CONTINUOUS
 10
122.8319626877
 20
77.1835769012
 11
125.6603780365
 21
78.8165535167
  0
LINE
  5
51B
100
AcDbEntity
  8
0
100
AcDbLine
 62
7
  6
CONTINUOUS
 10
106.5685744325
 20
67.7531362415
 11
106.260984263
 21
67.5755500344
  0
LINE
  5
51C
100
AcDbEntity
  8
0
100
AcDbLine
 62
7
  6
CONTINUOUS
 10
105.1791153925
 20
66.9509364792
 11
104.871525223
 21
66.7733502721
  0
LINE
  5
51D
100
AcDbEntity
  8
0
100
AcDbLine
 62
7
  6
CONTINUOUS
 10
116.6801593044
 20
73.3052517957
 11
113.3567712693
 21
71.3865042723
  0
LINE
  5
51E
100
AcDbEntity
  8
0
100
AcDbLine
 62
7
  6
CONTINUOUS
 10
104.871525223
 20
66.3650990635
 11
105.1791153925
 21
66.5426852707
  0
LINE
  5
51F
100
AcDbEntity
  8
0
100
AcDbLine
 62
7
  6
CONTINUOUS
 10
106.260984263
 20
67.1672988258
 11
106.5685744325
 21
67.344885033
  0
LINE
  5
520
100
AcDbEntity
  8
0
100
AcDbLine
 62
7
  6
CONTINUOUS
 10
106.5685744325
 20
67.0999343087
 11
106.260984263
 21
66.9223481016
  0
LINE
  5
521
100
AcDbEntity
  8
0
100
AcDbLine
 62
7
  6
CONTINUOUS
 10
105.1791153925
 20
66.2977345464
 11
104.871525223
 21
66.1201483393
  0
LINE
  5
522
100
AcDbEntity
  8
0
100
AcDbLine
 62
7
  6
CONTINUOUS
 10
104.871525223
 20
65.7118971307
 11
105.1791153925
 21
65.8894833379
  0
LINE
  5
523
100
AcDbEntity
  8
0
100
AcDbLine
 62
7
  6
CONTINUOUS
 10
106.260984263
 20
66.514096893
 11
106.5685744325
 21
66.6916831001
  0
LINE
  5
524
100
AcDbEntity
  8
0
100
AcDbLine
 62
7
  6
CONTINUOUS
 10
106.5685744325
 20
66.4467323744
 11
106.260984263
 21
66.2691461673
  0
LINE
  5
525
100
AcDbEntity
  8
0
100
AcDbLine
 62
7
  6
CONTINUOUS
 10
105.1791153925
 20
65.6445326122
 11
104.871525223
 21
65.466946405
  0
LINE
  5
526
100
AcDbEntity
  8
0
100
AcDbLine
 62
7
  6
CONTINUOUS
 10
104.871525223
 20
65.0586951965
 11
105.1791153925
 21
65.2362814036
  0
LINE
  5
527
100
AcDbEntity
  8
0
100
AcDbLine
 62
7
  6
CONTINUOUS
 10
106.260984263
 20
65.8608949587
 11
106.5685744325
 21
66.0384811659
  0
LINE
  5
528
100
AcDbEntity
  8
0
100
AcDbLine
 62
7
  6
CONTINUOUS
 10
94.1588794206
 20
58.8328825711
 11
93.0982148329
 21
58.2205112412
  0
LINE
  5
529
100
AcDbEntity
  8
0
100
AcDbLine
 62
7
  6
CONTINUOUS
 10
104.871525223
 20
64.8137444718
 11
105.1791153925
 21
64.9913306789
  0
LINE
  5
52A
100
AcDbEntity
  8
0
100
AcDbLine
 62
7
  6
CONTINUOUS
 10
106.260984263
 20
65.6159442341
 11
106.5685744325
 21
65.7935304412
  0
LINE
  5
52B
100
AcDbEntity
  8
0
100
AcDbLine
 62
7
  6
CONTINUOUS
 10
104.871525223
 20
64.4054932621
 11
105.1791153925
 21
64.5830794692
  0
LINE
  5
52C
100
AcDbEntity
  8
0
100
AcDbLine
 62
7
  6
CONTINUOUS
 10
106.260984263
 20
65.2076930244
 11
106.5685744325
 21
65.3852792315
  0
LINE
  5
52D
100
AcDbEntity
  8
0
100
AcDbLine
 62
7
  6
CONTINUOUS
 10
106.5685744325
 20
65.1403285073
 11
106.260984263
 21
64.9627423001
  0
LINE
  5
52E
100
AcDbEntity
  8
0
100
AcDbLine
 62
7
  6
CONTINUOUS
 10
105.1791153925
 20
64.338128745
 11
104.871525223
 21
64.1605425379
  0
LINE
  5
52F
100
AcDbEntity
  8
0
100
AcDbLine
 62
7
  6
CONTINUOUS
 10
104.871525223
 20
63.7522913293
 11
105.1791153925
 21
63.9298775364
  0
LINE
  5
530
100
AcDbEntity
  8
0
100
AcDbLine
 62
7
  6
CONTINUOUS
 10
106.260984263
 20
64.5544910916
 11
106.5685744325
 21
64.7320772987
  0
LINE
  5
531
100
AcDbEntity
  8
0
100
AcDbLine
 62
7
  6
CONTINUOUS
 10
106.5685744325
 20
64.487126573
 11
106.260984263
 21
64.3095403659
  0
LINE
  5
532
100
AcDbEntity
  8
0
100
AcDbLine
 62
7
  6
CONTINUOUS
 10
105.1791153925
 20
63.6849268107
 11
104.871525223
 21
63.5073406036
  0
LINE
  5
533
100
AcDbEntity
  8
0
100
AcDbLine
 62
7
  6
CONTINUOUS
 10
104.871525223
 20
63.099089395
 11
105.1791153925
 21
63.2766756022
  0
LINE
  5
534
100
AcDbEntity
  8
0
100
AcDbLine
 62
7
  6
CONTINUOUS
 10
106.260984263
 20
63.9012891573
 11
106.5685744325
 21
64.0788753644
  0
LINE
  5
535
100
AcDbEntity
  8
0
100
AcDbLine
 62
7
  6
CONTINUOUS
 10
106.5685744325
 20
63.8339246402
 11
106.260984263
 21
63.6563384331
  0
LINE
  5
536
100
AcDbEntity
  8
0
100
AcDbLine
 62
7
  6
CONTINUOUS
 10
105.1791153925
 20
63.0317248779
 11
104.871525223
 21
62.8541386708
  0
LINE
  5
537
100
AcDbEntity
  8
0
100
AcDbLine
 62
7
  6
CONTINUOUS
 10
104.871525223
 20
62.4458874622
 11
105.1791153925
 21
62.6234736694
  0
LINE
  5
538
100
AcDbEntity
  8
0
100
AcDbLine
 62
7
  6
CONTINUOUS
 10
106.260984263
 20
63.2480872245
 11
106.5685744325
 21
63.4256734316
  0
LINE
  5
539
100
AcDbEntity
  8
0
100
AcDbLine
 62
7
  6
CONTINUOUS
 10
106.5685744325
 20
63.1807227059
 11
106.260984263
 21
63.0031364988
  0
LINE
  5
53A
100
AcDbEntity
  8
0
100
AcDbLine
 62
7
  6
CONTINUOUS
 10
105.1791153925
 20
62.3785229436
 11
104.871525223
 21
62.2009367365
  0
LINE
  5
53B
100
AcDbEntity
  8
0
100
AcDbLine
 62
7
  6
CONTINUOUS
 10
104.871525223
 20
61.7926855279
 11
105.1791153925
 21
61.9702717351
  0
LINE
  5
53C
100
AcDbEntity
  8
0
100
AcDbLine
 62
7
  6
CONTINUOUS
 10
106.260984263
 20
62.5948852902
 11
106.5685744325
 21
62.7724714974
  0
LINE
  5
53D
100
AcDbEntity
  8
0
100
AcDbLine
 62
7
  6
CONTINUOUS
 10
106.5685744325
 20
62.5275207716
 11
106.260984263
 21
62.3499345644
  0
LINE
  5
53E
100
AcDbEntity
  8
0
100
AcDbLine
 62
7
  6
CONTINUOUS
 10
105.1791153925
 20
61.7253210093
 11
104.871525223
 21
61.5477348021
  0
LINE
  5
53F
100
AcDbEntity
  8
0
100
AcDbLine
 62
7
  6
CONTINUOUS
 10
104.871525223
 20
61.1394835936
 11
105.1791153925
 21
61.3170698007
  0
LINE
  5
540
100
AcDbEntity
  8
0
100
AcDbLine
 62
7
  6
CONTINUOUS
 10
106.260984263
 20
61.9416833559
 11
106.5685744325
 21
62.119269563
  0
LINE
  5
541
100
AcDbEntity
  8
0
100
AcDbLine
 62
7
  6
CONTINUOUS
 10
124.2461585862
 20
72.2845132716
 11
122.8319626877
 21
71.4680317626
  0
LINE
  5
542
100
AcDbEntity
  8
0
100
AcDbLine
 62
7
  6
CONTINUOUS
 10
106.5685744325
 20
61.8743188388
 11
106.260984263
 21
61.6967326316
  0
LINE
  5
543
100
AcDbEntity
  8
0
100
AcDbLine
 62
7
  6
CONTINUOUS
 10
105.1791153925
 20
61.0721190765
 11
104.871525223
 21
60.8945328693
  0
LINE
  5
544
100
AcDbEntity
  8
0
100
AcDbLine
 62
7
  6
CONTINUOUS
 10
88.6642959442
 20
170.6967224106
 11
88.8142901458
 21
170.7115751399
  0
LINE
  5
545
100
AcDbEntity
  8
0
100
AcDbLine
 62
7
  6
CONTINUOUS
 10
96.4565802299
 20
176.6081221659
 11
96.8065664862
 21
176.6427781616
  0
LINE
  5
546
100
AcDbEntity
  8
0
100
AcDbLine
 62
7
  6
CONTINUOUS
 10
87.3561538458
 20
170.4721972976
 11
88.3275297589
 21
170.5022915234
  0
LINE
  5
547
100
AcDbEntity
  8
0
100
AcDbLine
 62
7
  6
CONTINUOUS
 10
142.8430012814
 20
144.2601865034
 11
141.923758638
 21
144.7908994847
  0
LINE
  5
548
100
AcDbEntity
  8
0
100
AcDbLine
 62
7
  6
CONTINUOUS
 10
141.7823366936
 20
144.8725476352
 11
141.4287818304
 21
145.0766680128
  0
LINE
  5
549
100
AcDbEntity
  8
0
100
AcDbLine
 62
7
  6
CONTINUOUS
 10
140.947947218
 20
145.3542717255
 11
140.3822594378
 21
145.6808643291
  0
LINE
  5
54A
100
AcDbEntity
  8
0
100
AcDbLine
 62
7
  6
CONTINUOUS
 10
91.6350630929
 20
173.8244345664
 11
65.0609315152
 21
189.1666694974
  0
LINE
  5
54B
100
AcDbEntity
  8
0
100
AcDbLine
 62
7
  6
CONTINUOUS
 10
146.5997343279
 20
142.2474472336
 11
147.1325916676
 21
141.9398088648
  0
LINE
  5
54C
100
AcDbEntity
  8
0
100
AcDbLine
 62
7
  6
CONTINUOUS
 10
147.0290355069
 20
142.1687019381
 11
146.7461867288
 21
142.3320010619
  0
LINE
  5
54D
100
AcDbEntity
  8
0
100
AcDbLine
 62
7
  6
CONTINUOUS
 10
93.6778423935
 20
174.1504716046
 11
95.7991715687
 21
172.9257493409
  0
LINE
  5
54E
100
AcDbEntity
  8
0
100
AcDbLine
 62
7
  6
CONTINUOUS
 10
97.2699597968
 20
172.0766085714
 11
99.391288972
 21
170.8518863077
  0
LINE
  5
54F
100
AcDbEntity
  8
0
100
AcDbLine
 62
7
  6
CONTINUOUS
 10
100.8620772001
 20
170.0027455381
 11
102.9834063753
 21
168.7780232744
  0
LINE
  5
550
100
AcDbEntity
  8
0
100
AcDbLine
 62
7
  6
CONTINUOUS
 10
104.4541946034
 20
167.9288825049
 11
106.5755237785
 21
166.7041602412
  0
LINE
  5
551
100
AcDbEntity
  8
0
100
AcDbLine
 62
7
  6
CONTINUOUS
 10
108.0463120066
 20
165.8550194717
 11
110.1676411818
 21
164.6302972079
  0
LINE
  5
552
100
AcDbEntity
  8
0
100
AcDbLine
 62
7
  6
CONTINUOUS
 10
111.6384294099
 20
163.7811564384
 11
113.7597585851
 21
162.5564341747
  0
LINE
  5
553
100
AcDbEntity
  8
0
100
AcDbLine
 62
7
  6
CONTINUOUS
 10
115.2305468132
 20
161.7072934052
 11
117.3518759883
 21
160.4825711415
  0
LINE
  5
554
100
AcDbEntity
  8
0
100
AcDbLine
 62
7
  6
CONTINUOUS
 10
118.8226642165
 20
159.633430372
 11
120.9439933916
 21
158.4087081082
  0
LINE
  5
555
100
AcDbEntity
  8
0
100
AcDbLine
 62
7
  6
CONTINUOUS
 10
122.4147816197
 20
157.5595673387
 11
124.5361107949
 21
156.334845075
  0
LINE
  5
556
100
AcDbEntity
  8
0
100
AcDbLine
 62
7
  6
CONTINUOUS
 10
126.006899023
 20
155.4857043055
 11
128.1282281982
 21
154.2609820418
  0
LINE
  5
557
100
AcDbEntity
  8
0
100
AcDbLine
 62
7
  6
CONTINUOUS
 10
129.5990164263
 20
153.4118412722
 11
131.7203456014
 21
152.1871190085
  0
LINE
  5
558
100
AcDbEntity
  8
0
100
AcDbLine
 62
7
  6
CONTINUOUS
 10
133.1911338295
 20
151.337978239
 11
135.3124630048
 21
150.1132559752
  0
LINE
  5
559
100
AcDbEntity
  8
0
100
AcDbLine
 62
7
  6
CONTINUOUS
 10
136.7832512329
 20
149.2641152057
 11
138.9045804081
 21
148.039392942
  0
LINE
  5
55A
100
AcDbEntity
  8
0
100
AcDbLine
 62
7
  6
CONTINUOUS
 10
145.3178558885
 20
146.9137683994
 11
145.4592778152
 21
146.8321202591
  0
LINE
  5
55B
100
AcDbEntity
  8
0
100
AcDbLine
 62
7
  6
CONTINUOUS
 10
96.0112850464
 20
175.4976773064
 11
98.132614221
 21
174.2729550427
  0
LINE
  5
55C
100
AcDbEntity
  8
0
100
AcDbLine
 62
7
  6
CONTINUOUS
 10
99.6034024501
 20
173.4238142735
 11
101.7247316248
 21
172.1990920098
  0
LINE
  5
55D
100
AcDbEntity
  8
0
100
AcDbLine
 62
7
  6
CONTINUOUS
 10
103.1955198538
 20
171.3499512405
 11
105.3168490285
 21
170.1252289768
  0
LINE
  5
55E
100
AcDbEntity
  8
0
100
AcDbLine
 62
7
  6
CONTINUOUS
 10
106.7876372576
 20
169.2760882075
 11
108.9089664323
 21
168.0513659439
  0
LINE
  5
55F
100
AcDbEntity
  8
0
100
AcDbLine
 62
7
  6
CONTINUOUS
 10
110.3797546613
 20
167.2022251746
 11
112.501083836
 21
165.9775029109
  0
LINE
  5
560
100
AcDbEntity
  8
0
100
AcDbLine
 62
7
  6
CONTINUOUS
 10
113.9718720651
 20
165.1283621416
 11
116.0932012398
 21
163.9036398779
  0
LINE
  5
561
100
AcDbEntity
  8
0
100
AcDbLine
 62
7
  6
CONTINUOUS
 10
117.5639894688
 20
163.0544991086
 11
119.6853186435
 21
161.829776845
  0
LINE
  5
562
100
AcDbEntity
  8
0
100
AcDbLine
 62
7
  6
CONTINUOUS
 10
121.1561068726
 20
160.9806360757
 11
123.2774360472
 21
159.755913812
  0
LINE
  5
563
100
AcDbEntity
  8
0
100
AcDbLine
 62
7
  6
CONTINUOUS
 10
124.7482242763
 20
158.9067730427
 11
126.869553451
 21
157.682050779
  0
LINE
  5
564
100
AcDbEntity
  8
0
100
AcDbLine
 62
7
  6
CONTINUOUS
 10
128.3403416801
 20
156.8329100098
 11
130.4616708547
 21
155.6081877461
  0
LINE
  5
565
100
AcDbEntity
  8
0
100
AcDbLine
 62
7
  6
CONTINUOUS
 10
131.9324590838
 20
154.7590469768
 11
134.0537882585
 21
153.5343247131
  0
LINE
  5
566
100
AcDbEntity
  8
0
100
AcDbLine
 62
7
  6
CONTINUOUS
 10
135.5245764876
 20
152.6851839438
 11
137.6459056622
 21
151.4604616802
  0
LINE
  5
567
100
AcDbEntity
  8
0
100
AcDbLine
 62
7
  6
CONTINUOUS
 10
139.116693891
 20
150.6113209111
 11
141.2380230659
 21
149.3865986472
  0
LINE
  5
568
100
AcDbEntity
  8
0
100
AcDbLine
 62
7
  6
CONTINUOUS
 10
143.8243741284
 20
149.2176672958
 11
143.6596466423
 21
149.3127706027
  0
LINE
  5
569
100
AcDbEntity
  8
0
100
AcDbLine
 62
7
  6
CONTINUOUS
 10
96.4565802299
 20
176.6081221658
 11
143.1541064786
 21
149.6479027373
  0
LINE
  5
56A
100
AcDbEntity
  8
0
100
AcDbLine
 62
7
  6
CONTINUOUS
 10
96.8065742919
 20
176.6427916858
 11
143.5041005406
 21
149.6825722573
  0
LINE
  5
56B
100
AcDbEntity
  8
0
100
AcDbLine
 62
7
  6
CONTINUOUS
 10
135.5739533448
 20
143.6140255031
 11
135.5118163945
 21
143.7513557114
  0
LINE
  5
56C
100
AcDbEntity
  8
0
100
AcDbLine
 62
7
  6
CONTINUOUS
 10
142.8430012814
 20
144.2590508209
 11
142.8430012814
 21
70.7738332793
  0
LINE
  5
56D
100
AcDbEntity
  8
0
100
AcDbLine
 62
7
  6
CONTINUOUS
 10
145.6714107394
 20
98.5360054984
 11
145.6714107394
 21
124.664082802
  0
LINE
  5
56E
100
AcDbEntity
  8
0
100
AcDbLine
 62
7
  6
CONTINUOUS
 10
145.8128326873
 20
146.2197486619
 11
145.8128326873
 21
140.0143303127
  0
LINE
  5
56F
100
AcDbEntity
  8
0
100
AcDbLine
 62
7
  6
CONTINUOUS
 10
145.8128326866
 20
79.7564520255
 11
145.8128326866
 21
73.5510336665
  0
LINE
  5
570
100
AcDbEntity
  8
0
100
AcDbLine
 62
7
  6
CONTINUOUS
 10
147.0286635426
 20
83.3816589139
 11
147.0286800732
 21
83.0550674924
  0
LINE
  5
571
100
AcDbEntity
  8
0
100
AcDbLine
 62
7
  6
CONTINUOUS
 10
147.029095716
 20
74.8433131239
 11
147.0291119356
 21
74.5228665837
  0
LINE
  5
572
100
AcDbEntity
  8
0
100
AcDbLine
 62
7
  6
CONTINUOUS
 10
147.0290355069
 20
151.0277531636
 11
147.0290355069
 21
150.7072972585
  0
LINE
  5
573
100
AcDbEntity
  8
0
100
AcDbLine
 62
7
  6
CONTINUOUS
 10
147.0290355069
 20
142.4953029053
 11
147.0290355069
 21
142.1687019382
  0
LINE
  5
574
100
AcDbEntity
  8
0
100
AcDbLine
 62
7
  6
CONTINUOUS
 10
147.8773307221
 20
81.0547581461
 11
147.8771881455
 21
83.8716091635
  0
LINE
  5
575
100
AcDbEntity
  8
0
100
AcDbLine
 62
7
  6
CONTINUOUS
 10
147.877560111
 20
142.6585949221
 11
147.877560111
 21
145.4755282607
  0
LINE
  5
576
100
AcDbEntity
  8
0
100
AcDbLine
 62
7
  6
CONTINUOUS
 10
148.0896912623
 20
151.6401193943
 11
148.0896912623
 21
145.7613019934
  0
LINE
  5
577
100
AcDbEntity
  8
0
100
AcDbLine
 62
7
  6
CONTINUOUS
 10
148.0896912623
 20
81.0140776613
 11
148.0896912623
 21
75.1267481526
  0
LINE
  5
578
100
AcDbEntity
  8
0
100
AcDbLine
 62
7
  6
CONTINUOUS
 10
143.9036364294
 20
83.0632585871
 11
142.8430012814
 21
82.4509042539
  0
LINE
  5
579
100
AcDbEntity
  8
0
100
AcDbLine
 62
7
  6
CONTINUOUS
 10
104.871525223
 20
60.4862816608
 11
105.1791153925
 21
60.6638678679
  0
LINE
  5
57A
100
AcDbEntity
  8
0
100
AcDbLine
 62
7
  6
CONTINUOUS
 10
106.260984263
 20
61.2884814231
 11
106.5685744325
 21
61.4660676302
  0
LINE
  5
57B
100
AcDbEntity
  8
0
100
AcDbLine
 62
7
  6
CONTINUOUS
 10
106.5685744325
 20
61.2211169045
 11
106.260984263
 21
61.0435306973
  0
LINE
  5
57C
100
AcDbEntity
  8
0
100
AcDbLine
 62
7
  6
CONTINUOUS
 10
105.1791153925
 20
60.4189171422
 11
104.871525223
 21
60.2413309351
  0
LINE
  5
57D
100
AcDbEntity
  8
0
100
AcDbLine
 62
7
  6
CONTINUOUS
 10
104.871525223
 20
59.8330797265
 11
105.1791153925
 21
60.0106659336
  0
LINE
  5
57E
100
AcDbEntity
  8
0
100
AcDbLine
 62
7
  6
CONTINUOUS
 10
106.260984263
 20
60.6352794888
 11
106.5685744325
 21
60.8128656959
  0
LINE
  5
57F
100
AcDbEntity
  8
0
100
AcDbLine
 62
7
  6
CONTINUOUS
 10
106.5685744325
 20
60.5679149717
 11
106.260984263
 21
60.3903287645
  0
LINE
  5
580
100
AcDbEntity
  8
0
100
AcDbLine
 62
7
  6
CONTINUOUS
 10
105.1791153925
 20
59.7657152094
 11
104.871525223
 21
59.5881290023
  0
LINE
  5
581
100
AcDbEntity
  8
0
100
AcDbLine
 62
7
  6
CONTINUOUS
 10
125.6603780365
 20
71.4680317626
 11
122.8319626877
 21
69.8350551471
  0
LINE
  5
582
100
AcDbEntity
  8
0
100
AcDbLine
 62
7
  6
CONTINUOUS
 10
147.3821947976
 20
83.9940536741
 11
147.5236155643
 21
84.0757025044
  0
LINE
  5
583
100
AcDbEntity
  8
0
100
AcDbLine
 62
7
  6
CONTINUOUS
 10
104.871525223
 20
59.1798777937
 11
105.1791153925
 21
59.3574640008
  0
LINE
  5
584
100
AcDbEntity
  8
0
100
AcDbLine
 62
7
  6
CONTINUOUS
 10
106.260984263
 20
59.982077556
 11
106.5685744325
 21
60.1596637631
  0
LINE
  5
585
100
AcDbEntity
  8
0
100
AcDbLine
 62
7
  6
CONTINUOUS
 10
106.5685744325
 20
59.9147130374
 11
106.260984263
 21
59.7371268303
  0
LINE
  5
586
100
AcDbEntity
  8
0
100
AcDbLine
 62
7
  6
CONTINUOUS
 10
105.1791153925
 20
59.1125132751
 11
104.871525223
 21
58.934927068
  0
LINE
  5
587
100
AcDbEntity
  8
0
100
AcDbLine
 62
7
  6
CONTINUOUS
 10
102.5734227379
 20
57.5264386804
 11
101.830978723
 21
57.0977909875
  0
LINE
  5
588
100
AcDbEntity
  8
0
100
AcDbLine
 62
7
  6
CONTINUOUS
 10
147.0286800732
 20
83.0550674924
 11
145.0380230492
 21
81.9057679842
  0
LINE
  5
589
100
AcDbEntity
  8
0
100
AcDbLine
 62
7
  6
CONTINUOUS
 10
104.871525223
 20
58.5266758594
 11
105.1791153925
 21
58.7042620666
  0
LINE
  5
58A
100
AcDbEntity
  8
0
100
AcDbLine
 62
7
  6
CONTINUOUS
 10
106.260984263
 20
59.3288756217
 11
106.5685744325
 21
59.5064618288
  0
LINE
  5
58B
100
AcDbEntity
  8
0
100
AcDbLine
 62
7
  6
CONTINUOUS
 10
102.8562678936
 20
57.1998369806
 11
102.7148435052
 21
57.1181860593
  0
LINE
  5
58C
100
AcDbEntity
  8
0
100
AcDbLine
 62
7
  6
CONTINUOUS
 10
106.5685744325
 20
59.261511103
 11
106.260984263
 21
59.0839248959
  0
LINE
  5
58D
100
AcDbEntity
  8
0
100
AcDbLine
 62
7
  6
CONTINUOUS
 10
105.1791153925
 20
58.4593113408
 11
104.871525223
 21
58.2817251336
  0
LINE
  5
58E
100
AcDbEntity
  8
0
100
AcDbLine
 62
7
  6
CONTINUOUS
 10
104.871525223
 20
57.8734739251
 11
105.1791153925
 21
58.0510601322
  0
LINE
  5
58F
100
AcDbEntity
  8
0
100
AcDbLine
 62
7
  6
CONTINUOUS
 10
106.260984263
 20
58.6756736873
 11
106.5685744325
 21
58.8532598945
  0
LINE
  5
590
100
AcDbEntity
  8
0
100
AcDbLine
 62
7
  6
CONTINUOUS
 10
114.770978944
 20
63.548066959
 11
121.4177550133
 21
67.3855620051
  0
LINE
  5
591
100
AcDbEntity
  8
0
100
AcDbLine
 62
7
  6
CONTINUOUS
 10
109.7858748124
 20
60.5474046538
 11
106.957459463
 21
58.914428038
  0
LINE
  5
592
100
AcDbEntity
  8
0
100
AcDbLine
 62
7
  6
CONTINUOUS
 10
106.5685744325
 20
58.6083091702
 11
106.260984263
 21
58.4307229631
  0
LINE
  5
593
100
AcDbEntity
  8
0
100
AcDbLine
 62
7
  6
CONTINUOUS
 10
105.1791153925
 20
57.806109408
 11
104.871525223
 21
57.6285232008
  0
LINE
  5
594
100
AcDbEntity
  8
0
100
AcDbLine
 62
7
  6
CONTINUOUS
 10
91.6133088493
 20
49.7288500405
 11
90.1990649605
 21
48.9123408245
  0
LINE
  5
595
100
AcDbEntity
  8
0
100
AcDbLine
 62
7
  6
CONTINUOUS
 10
102.0784500517
 20
55.5260126951
 11
103.9169508102
 21
56.5874652669
  0
LINE
  5
596
100
AcDbEntity
  8
0
100
AcDbLine
 62
7
  6
CONTINUOUS
 10
106.260984263
 20
57.3612618747
 11
105.1791153925
 21
56.7366483195
  0
LINE
  5
597
100
AcDbEntity
  8
0
100
AcDbLine
 62
7
  6
CONTINUOUS
 10
104.5179733044
 20
56.2404726182
 11
105.5786290627
 21
56.8528388504
  0
LINE
  5
598
100
AcDbEntity
  8
0
100
AcDbLine
 62
7
  6
CONTINUOUS
 10
148.0187597545
 20
81.0547710502
 11
147.948041108
 21
81.0139370917
  0
LINE
  5
599
100
AcDbEntity
  8
0
100
AcDbLine
 62
7
  6
CONTINUOUS
 10
142.8430012814
 20
78.0418292995
 11
145.8128326864
 21
79.756452026
  0
LINE
  5
59A
100
AcDbEntity
  8
0
100
AcDbLine
 62
7
  6
CONTINUOUS
 10
101.830978723
 20
54.3216658362
 11
105.7024139802
 21
56.556826682
  0
LINE
  5
59B
100
AcDbEntity
  8
0
100
AcDbLine
 62
7
  6
CONTINUOUS
 10
106.9221263511
 20
57.2610237442
 11
106.957459463
 21
57.2814232041
  0
LINE
  5
59C
100
AcDbEntity
  8
0
100
AcDbLine
 62
7
  6
CONTINUOUS
 10
105.8614705953
 20
56.46499738
 11
106.9221263511
 21
57.0773636108
  0
LINE
  5
59D
100
AcDbEntity
  8
0
100
AcDbLine
 62
7
  6
CONTINUOUS
 10
112.4375362817
 20
59.0165018244
 11
109.6091209323
 21
57.3835252086
  0
LINE
  5
59E
100
AcDbEntity
  8
0
100
AcDbLine
 62
7
  6
CONTINUOUS
 10
120.003535563
 20
63.3030290114
 11
114.770978944
 21
60.2820290717
  0
LINE
  5
59F
100
AcDbEntity
  8
0
100
AcDbLine
 62
7
  6
CONTINUOUS
 10
101.0386130942
 20
178.804467954
 11
101.2886034301
 21
178.829222503
  0
LINE
  5
5A0
100
AcDbEntity
  8
0
100
AcDbLine
 62
7
  6
CONTINUOUS
 10
146.7800681682
 20
150.3223273816
 11
100.0825419195
 21
177.2825468101
  0
LINE
  5
5A1
100
AcDbEntity
  8
0
100
AcDbLine
 62
7
  6
CONTINUOUS
 10
100.1193781067
 20
177.3000927145
 11
146.8169043554
 21
150.339873286
  0
LINE
  5
5A2
100
AcDbEntity
  8
0
100
AcDbLine
 62
7
  6
CONTINUOUS
 10
147.0290355069
 20
150.7072972568
 11
100.3315092582
 21
177.6675166854
  0
LINE
  5
5A3
100
AcDbEntity
  8
0
100
AcDbLine
 62
7
  6
CONTINUOUS
 10
100.3315092582
 20
177.9879725922
 11
147.0290355069
 21
151.0277531637
  0
LINE
  5
5A4
100
AcDbEntity
  8
0
100
AcDbLine
 62
7
  6
CONTINUOUS
 10
147.3825874255
 20
151.6401264492
 11
100.6850611768
 21
178.6003458777
  0
LINE
  5
5A5
100
AcDbEntity
  8
0
100
AcDbLine
 62
7
  6
CONTINUOUS
 10
101.0386130954
 20
178.8044679547
 11
147.7361393441
 21
151.8442485261
  0
LINE
  5
5A6
100
AcDbEntity
  8
0
100
AcDbLine
 62
7
  6
CONTINUOUS
 10
101.2886088533
 20
178.8292318964
 11
147.986135102
 21
151.8690124678
  0
LINE
  5
5A7
100
AcDbEntity
  8
0
100
AcDbLine
 62
7
  6
CONTINUOUS
 10
145.8128326866
 20
74.1853069458
 11
146.78011615
 21
74.9407781311
  0
LINE
  5
5A8
100
AcDbEntity
  8
0
100
AcDbLine
 62
7
  6
CONTINUOUS
 10
109.6091209323
 20
55.7505203747
 11
101.830978723
 21
51.2598346821
  0
LINE
  5
5A9
100
AcDbEntity
  8
0
100
AcDbLine
 62
7
  6
CONTINUOUS
 10
121.4177550133
 20
62.4865475023
 11
114.770978944
 21
58.6490524562
  0
LINE
  5
5AA
100
AcDbEntity
  8
0
100
AcDbLine
 62
7
  6
CONTINUOUS
 10
145.8128326863
 20
73.5510336668
 11
142.8430012814
 21
71.8364109404
  0
LINE
  5
5AB
100
AcDbEntity
  8
0
100
AcDbLine
 62
7
  6
CONTINUOUS
 10
147.382663858
 20
74.3187613135
 11
147.7362157672
 21
74.5229072452
  0
LINE
  5
5AC
100
AcDbEntity
  8
0
100
AcDbLine
 62
7
  6
CONTINUOUS
 10
145.7092694761
 20
73.3221532164
 11
142.8430012814
 21
71.6673223806
  0
LINE
  5
5AD
100
AcDbEntity
  8
0
100
AcDbLine
 62
7
  6
CONTINUOUS
 10
143.1542263069
 20
71.4281246331
 11
142.8430012814
 21
71.2484398535
  0
LINE
  5
5AE
100
AcDbEntity
  8
0
100
AcDbLine
 62
7
  6
CONTINUOUS
 10
142.8430012814
 20
70.7749690851
 11
96.8812518625
 21
44.2390990835
  0
LINE
  5
5AF
100
AcDbEntity
  8
0
100
AcDbLine
 62
7
  6
CONTINUOUS
 10
147.0290355069
 20
142.1687019382
 11
147.1326082227
 21
141.9398376174
  0
LINE
  5
5B0
100
AcDbEntity
  8
0
100
AcDbLine
 62
7
  6
CONTINUOUS
 10
143.6490770822
 20
149.3590188719
 11
143.5040927349
 21
149.6825587331
  0
LINE
  5
5B1
100
AcDbEntity
  8
0
100
AcDbLine
 62
7
  6
CONTINUOUS
 10
145.8128326866
 20
73.5510336665
 11
145.7092704202
 21
73.322151581
  0
LINE
  5
5B2
100
AcDbEntity
  8
0
100
AcDbLine
 62
7
  6
CONTINUOUS
 10
148.0896912623
 20
151.6401193966
 11
147.9861296789
 21
151.8690030745
  0
SPLINE
  5
5B3
100
AcDbEntity
  8
0
100
AcDbSpline
 62
7
  6
CONTINUOUS
 70
0
 71
3
 72
11
 73
7
 74
0
 42
0.0000001
 43
0.0000001
 44
0.0000000001
 40
0.0
 40
0.0
 40
0.0
 40
0.0
 40
0.2176899422
 40
0.4508856506
 40
0.7106204681
 40
1.0
 40
1.0
 40
1.0
 40
1.0
 10
99.0847046073
 20
48.0544581959
 30
0.0
 10
99.0434720547
 20
48.07822168
 30
0.0
 10
98.9663195618
 20
48.1430592219
 30
0.0
 10
98.8841012706
 20
48.277386712
 30
0.0
 10
98.8355121233
 20
48.4429515906
 30
0.0
 10
98.8257874148
 20
48.563381786
 30
0.0
 10
98.8257874148
 20
48.6266443693
 30
0.0
  0
SPLINE
  5
5B4
100
AcDbEntity
  8
0
100
AcDbSpline
 62
7
  6
CONTINUOUS
 70
0
 71
3
 72
11
 73
7
 74
0
 42
0.0000001
 43
0.0000001
 44
0.0000000001
 40
0.0
 40
0.0
 40
0.0
 40
0.0
 40
0.2176899422
 40
0.4508856506
 40
0.7106204681
 40
1.0
 40
1.0
 40
1.0
 40
1.0
 10
125.9546504214
 20
63.567736043
 30
0.0
 10
125.9134178688
 20
63.5914995271
 30
0.0
 10
125.8362653759
 20
63.656337069
 30
0.0
 10
125.7540470847
 20
63.7906645591
 30
0.0
 10
125.7054579374
 20
63.9562294377
 30
0.0
 10
125.6957332289
 20
64.0766596332
 30
0.0
 10
125.6957332289
 20
64.1399222164
 30
0.0
  0
SPLINE
  5
5B5
100
AcDbEntity
  8
0
100
AcDbSpline
 62
7
  6
CONTINUOUS
 70
0
 71
3
 72
11
 73
7
 74
0
 42
0.0000001
 43
0.0000001
 44
0.0000000001
 40
0.0
 40
0.0
 40
0.0
 40
0.0
 40
0.2176899422
 40
0.4508856506
 40
0.7106204681
 40
1.0
 40
1.0
 40
1.0
 40
1.0
 10
125.9546504214
 20
130.5209342476
 30
0.0
 10
125.9134178688
 20
130.5446977317
 30
0.0
 10
125.8362653759
 20
130.6095352737
 30
0.0
 10
125.7540470847
 20
130.7438627638
 30
0.0
 10
125.7054579374
 20
130.9094276423
 30
0.0
 10
125.6957332289
 20
131.0298578378
 30
0.0
 10
125.6957332289
 20
131.093120421
 30
0.0
  0
SPLINE
  5
5B6
100
AcDbEntity
  8
0
100
AcDbSpline
 62
7
  6
CONTINUOUS
 70
0
 71
3
 72
9
 73
5
 74
0
 42
0.0000001
 43
0.0000001
 44
0.0000000001
 40
0.0
 40
0.0
 40
0.0
 40
0.0
 40
0.4519687878
 40
1.0
 40
1.0
 40
1.0
 40
1.0
 10
102.6163666785
 20
57.1109153575
 30
0.0
 10
102.6030168981
 20
57.1186226695
 30
0.0
 10
102.5790672094
 20
57.1460763456
 30
0.0
 10
102.5734227378
 20
57.1811464897
 30
0.0
 10
102.5734227378
 20
57.199837712
 30
0.0
  0
SPLINE
  5
5B7
100
AcDbEntity
  8
0
100
AcDbSpline
 62
7
  6
CONTINUOUS
 70
0
 71
3
 72
16
 73
12
 74
0
 42
0.0000001
 43
0.0000001
 44
0.0000000001
 40
0.0
 40
0.0
 40
0.0
 40
0.0
 40
0.0428757513
 40
0.0875233495
 40
0.186923412
 40
0.3042342846
 40
0.4379543358
 40
0.5823556102
 40
0.7295669663
 40
0.8712579545
 40
1.0
 40
1.0
 40
1.0
 40
1.0
 10
22.2668894192
 20
91.4146410121
 30
0.0
 10
22.319890156
 20
91.445242115
 30
0.0
 10
22.436685004
 20
91.4939074208
 30
0.0
 10
22.7030141004
 20
91.5328052057
 30
0.0
 10
23.0789359306
 20
91.4594812935
 30
0.0
 10
23.521803713
 20
91.2165516286
 30
0.0
 10
23.9475133102
 20
90.8400574283
 30
0.0
 10
24.3229968291
 20
90.3591988574
 30
0.0
 10
24.6188335104
 20
89.81265941
 30
0.0
 10
24.8106696447
 20
89.2452558035
 30
0.0
 10
24.8621263564
 20
88.8588080469
 30
0.0
 10
24.8621263564
 20
88.6750425863
 30
0.0
  0
SPLINE
  5
5B8
100
AcDbEntity
  8
0
100
AcDbSpline
 62
7
  6
CONTINUOUS
 70
0
 71
3
 72
9
 73
5
 74
0
 42
0.0000001
 43
0.0000001
 44
0.0000000001
 40
0.0
 40
0.0
 40
0.0
 40
0.0
 40
0.4490472416
 40
1.0
 40
1.0
 40
1.0
 40
1.0
 10
143.7112043607
 20
149.220339226
 30
0.0
 10
143.6908068588
 20
149.2321104801
 30
0.0
 10
143.6557768936
 20
149.2764528949
 30
0.0
 10
143.6489416457
 20
149.3301243496
 30
0.0
 10
143.6490770822
 20
149.3590188719
 30
0.0
  0
SPLINE
  5
5B9
100
AcDbEntity
  8
0
100
AcDbSpline
 62
7
  6
CONTINUOUS
 70
0
 71
3
 72
11
 73
7
 74
0
 42
0.0000001
 43
0.0000001
 44
0.0000000001
 40
0.0
 40
0.0
 40
0.0
 40
0.0
 40
0.2176899422
 40
0.4508856506
 40
0.7106204681
 40
1.0
 40
1.0
 40
1.0
 40
1.0
 10
99.0847046073
 20
115.0076564005
 30
0.0
 10
99.0434720547
 20
115.0314198846
 30
0.0
 10
98.9663195618
 20
115.0962574265
 30
0.0
 10
98.8841012706
 20
115.2305849167
 30
0.0
 10
98.8355121233
 20
115.3961497952
 30
0.0
 10
98.8257874148
 20
115.5165799907
 30
0.0
 10
98.8257874148
 20
115.5798425739
 30
0.0
  0
SPLINE
  5
5BA
100
AcDbEntity
  8
0
100
AcDbSpline
 62
7
  6
CONTINUOUS
 70
0
 71
3
 72
16
 73
12
 74
0
 42
0.0000001
 43
0.0000001
 44
0.0000000001
 40
0.0
 40
0.0
 40
0.0
 40
0.0
 40
0.0428757513
 40
0.0875233495
 40
0.186923412
 40
0.3042342846
 40
0.4379543358
 40
0.5823556102
 40
0.7295669663
 40
0.8712579545
 40
1.0
 40
1.0
 40
1.0
 40
1.0
 10
91.5636424836
 20
119.1767476908
 30
0.0
 10
91.6166432204
 20
119.2073487938
 30
0.0
 10
91.7334380684
 20
119.2560140995
 30
0.0
 10
91.9997671648
 20
119.2949118844
 30
0.0
 10
92.375688995
 20
119.2215879723
 30
0.0
 10
92.8185567774
 20
118.9786583074
 30
0.0
 10
93.2442663746
 20
118.6021641071
 30
0.0
 10
93.6197498936
 20
118.1213055361
 30
0.0
 10
93.9155865748
 20
117.5747660888
 30
0.0
 10
94.1074227091
 20
117.0073624823
 30
0.0
 10
94.1588794208
 20
116.6209147257
 30
0.0
 10
94.1588794208
 20
116.4371492651
 30
0.0
  0
SPLINE
  5
5BB
100
AcDbEntity
  8
0
100
AcDbSpline
 62
7
  6
CONTINUOUS
 70
0
 71
3
 72
11
 73
7
 74
0
 42
0.0000001
 43
0.0000001
 44
0.0000000001
 40
0.0
 40
0.0
 40
0.0
 40
0.0
 40
0.2372416433
 40
0.4999988394
 40
0.7627566633
 40
1.0
 40
1.0
 40
1.0
 40
1.0
 10
143.9036364286
 20
83.0632585876
 30
0.0
 10
144.1746795508
 20
82.9067534598
 30
0.0
 10
144.6875943151
 20
82.4750526464
 30
0.0
 10
145.2862389271
 20
81.6569697298
 30
0.0
 10
145.6954024068
 20
80.7294866705
 30
0.0
 10
145.8128137653
 20
80.0694370527
 30
0.0
 10
145.8128326866
 20
79.7564520255
 30
0.0
  0
SPLINE
  5
5BC
100
AcDbEntity
  8
0
100
AcDbSpline
 62
7
  6
CONTINUOUS
 70
0
 71
3
 72
11
 73
7
 74
0
 42
0.0000001
 43
0.0000001
 44
0.0000000001
 40
0.0
 40
0.0
 40
0.0
 40
0.0
 40
0.217745073
 40
0.4508830112
 40
0.7104597664
 40
1.0
 40
1.0
 40
1.0
 40
1.0
 10
54.6783883417
 20
130.2979843943
 30
0.0
 10
54.6465018878
 20
130.2795748362
 30
0.0
 10
54.5867819886
 20
130.2294836009
 30
0.0
 10
54.5232545403
 20
130.1255666858
 30
0.0
 10
54.4855931769
 20
129.9975469091
 30
0.0
 10
54.4781175964
 20
129.9043857912
 30
0.0
 10
54.4781175965
 20
129.8554264442
 30
0.0
  0
SPLINE
  5
5BD
100
AcDbEntity
  8
0
100
AcDbSpline
 62
7
  6
CONTINUOUS
 70
0
 71
3
 72
9
 73
5
 74
0
 42
0.0000001
 43
0.0000001
 44
0.0000000001
 40
0.0
 40
0.0
 40
0.0
 40
0.0
 40
0.4653007661
 40
1.0
 40
1.0
 40
1.0
 40
1.0
 10
56.5831403261
 20
147.7035264566
 30
0.0
 10
56.6327032313
 20
147.7321685717
 30
0.0
 10
56.757844024
 20
147.763510424
 30
0.0
 10
56.8813025102
 20
147.7369757218
 30
0.0
 10
56.9431449869
 20
147.7145542383
 30
0.0
  0
SPLINE
  5
5BE
100
AcDbEntity
  8
0
100
AcDbSpline
 62
7
  6
CONTINUOUS
 70
0
 71
3
 72
9
 73
5
 74
0
 42
0.0000001
 43
0.0000001
 44
0.0000000001
 40
0.0
 40
0.0
 40
0.0
 40
0.0
 40
0.4991058718
 40
1.0
 40
1.0
 40
1.0
 40
1.0
 10
53.9866952509
 20
146.0769864563
 30
0.0
 10
54.0160146556
 20
146.1344371376
 30
0.0
 10
54.0908153721
 20
146.2421547188
 30
0.0
 10
54.1936426189
 20
146.3239495224
 30
0.0
 10
54.2497011971
 20
146.3563147644
 30
0.0
  0
SPLINE
  5
5BF
100
AcDbEntity
  8
0
100
AcDbSpline
 62
7
  6
CONTINUOUS
 70
0
 71
3
 72
11
 73
7
 74
0
 42
0.0000001
 43
0.0000001
 44
0.0000000001
 40
0.0
 40
0.0
 40
0.0
 40
0.0
 40
0.217774469
 40
0.4508954125
 40
0.7103284765
 40
1.0
 40
1.0
 40
1.0
 40
1.0
 10
57.0066563244
 20
142.8403345332
 30
0.0
 10
57.080886678
 20
142.8831548963
 30
0.0
 10
57.251371853
 20
142.9451100867
 30
0.0
 10
57.5346446508
 20
142.9522595067
 30
0.0
 10
57.8365049289
 20
142.8793333219
 30
0.0
 10
58.032921134
 20
142.7859212435
 30
0.0
 10
58.1316377468
 20
142.7289284698
 30
0.0
  0
SPLINE
  5
5C0
100
AcDbEntity
  8
0
100
AcDbSpline
 62
7
  6
CONTINUOUS
 70
0
 71
3
 72
9
 73
5
 74
0
 42
0.0000001
 43
0.0000001
 44
0.0000000001
 40
0.0
 40
0.0
 40
0.0
 40
0.0
 40
0.4492318863
 40
1.0
 40
1.0
 40
1.0
 40
1.0
 10
54.515022916
 20
143.5678043071
 30
0.0
 10
54.5497730011
 20
143.5879524999
 30
0.0
 10
54.645009769
 20
143.6022772442
 30
0.0
 10
54.7302166323
 20
143.5669038218
 30
0.0
 10
54.7728665524
 20
143.542280436
 30
0.0
  0
SPLINE
  5
5C1
100
AcDbEntity
  8
0
100
AcDbSpline
 62
7
  6
CONTINUOUS
 70
0
 71
3
 72
9
 73
5
 74
0
 42
0.0000001
 43
0.0000001
 44
0.0000000001
 40
0.0
 40
0.0
 40
0.0
 40
0.0
 40
0.2940275481
 40
1.0
 40
1.0
 40
1.0
 40
1.0
 10
148.0896912623
 20
81.0130989482
 30
0.0
 10
148.0896910028
 20
81.0182240174
 30
0.0
 10
148.0885062958
 20
81.035404098
 30
0.0
 10
148.0794153782
 20
81.0535697914
 30
0.0
 10
148.0687612309
 20
81.0597272756
 30
0.0
  0
SPLINE
  5
5C2
100
AcDbEntity
  8
0
100
AcDbSpline
 62
7
  6
CONTINUOUS
 70
0
 71
3
 72
11
 73
7
 74
0
 42
0.0000001
 43
0.0000001
 44
0.0000000001
 40
0.0
 40
0.0
 40
0.0
 40
0.0
 40
0.236629048
 40
0.4987004699
 40
0.7614773893
 40
1.0
 40
1.0
 40
1.0
 40
1.0
 10
147.7362157672
 20
74.5229072452
 30
0.0
 10
147.7857029482
 20
74.5514818518
 30
0.0
 10
147.8794965127
 20
74.6300573993
 30
0.0
 10
147.989559033
 20
74.7790359232
 30
0.0
 10
148.0657106854
 20
74.9483852929
 30
0.0
 10
148.088664701
 20
75.0691555576
 30
0.0
 10
148.0896912623
 20
75.1267481523
 30
0.0
  0
SPLINE
  5
5C3
100
AcDbEntity
  8
0
100
AcDbSpline
 62
7
  6
CONTINUOUS
 70
0
 71
3
 72
8
 73
4
 74
0
 42
0.0000001
 43
0.0000001
 44
0.0000000001
 40
0.0
 40
0.0
 40
0.0
 40
0.0
 40
1.0
 40
1.0
 40
1.0
 40
1.0
 10
146.78011615
 20
74.9407781311
 30
0.0
 10
146.7918099806
 20
74.9499112885
 30
0.0
 10
146.8041026137
 20
74.9583496134
 30
0.0
 10
146.816952167
 20
74.9657691294
 30
0.0
  0
SPLINE
  5
5C4
100
AcDbEntity
  8
0
100
AcDbSpline
 62
7
  6
CONTINUOUS
 70
0
 71
3
 72
10
 73
6
 74
0
 42
0.0000001
 43
0.0000001
 44
0.0000000001
 40
0.0
 40
0.0
 40
0.0
 40
0.0
 40
0.2308984436
 40
0.4859527441
 40
1.0
 40
1.0
 40
1.0
 40
1.0
 10
143.154197381
 20
71.4281079329
 30
0.0
 10
143.2106696727
 20
71.4607158421
 30
0.0
 10
143.3197748741
 20
71.5467353743
 30
0.0
 10
143.5016301016
 20
71.7637616159
 30
0.0
 10
143.5962091388
 20
71.9671711891
 30
0.0
 10
143.6281677083
 20
72.1087872639
 30
0.0
  0
SPLINE
  5
5C5
100
AcDbEntity
  8
0
100
AcDbSpline
 62
7
  6
CONTINUOUS
 70
0
 71
3
 72
8
 73
4
 74
0
 42
0.0000001
 43
0.0000001
 44
0.0000000001
 40
0.0
 40
0.0
 40
0.0
 40
0.0
 40
1.0
 40
1.0
 40
1.0
 40
1.0
 10
147.8980340112
 20
81.0089699442
 30
0.0
 10
147.8941504934
 20
81.0112133964
 30
0.0
 10
147.8906859082
 20
81.0143230019
 30
0.0
 10
147.8879479152
 20
81.01787521
 30
0.0
  0
SPLINE
  5
5C6
100
AcDbEntity
  8
0
100
AcDbSpline
 62
7
  6
CONTINUOUS
 70
0
 71
3
 72
9
 73
5
 74
0
 42
0.0000001
 43
0.0000001
 44
0.0000000001
 40
0.0
 40
0.0
 40
0.0
 40
0.0
 40
0.2245469606
 40
1.0
 40
1.0
 40
1.0
 40
1.0
 10
147.8879479152
 20
81.01787521
 30
0.0
 10
147.8861756151
 20
81.0201745509
 30
0.0
 10
147.8794667088
 20
81.0313327428
 30
0.0
 10
147.8773312295
 20
81.0447325317
 30
0.0
 10
147.8773307221
 20
81.0547581461
 30
0.0
  0
SPLINE
  5
5C7
100
AcDbEntity
  8
0
100
AcDbSpline
 62
7
  6
CONTINUOUS
 70
0
 71
3
 72
11
 73
7
 74
0
 42
0.0000001
 43
0.0000001
 44
0.0000000001
 40
0.0
 40
0.0
 40
0.0
 40
0.0
 40
0.2485866429
 40
0.511221208
 40
0.767864962
 40
1.0
 40
1.0
 40
1.0
 40
1.0
 10
142.844692337
 20
130.2956554047
 30
0.0
 10
143.2607859782
 20
129.9572040078
 30
0.0
 10
144.0288160595
 20
129.1506599367
 30
0.0
 10
144.9174635351
 20
127.7409584543
 30
0.0
 10
145.5078886164
 20
126.2205881672
 30
0.0
 10
145.6714107394
 20
125.1649472504
 30
0.0
 10
145.6714107394
 20
124.6640828
 30
0.0
  0
SPLINE
  5
5C8
100
AcDbEntity
  8
0
100
AcDbSpline
 62
7
  6
CONTINUOUS
 70
0
 71
3
 72
11
 73
7
 74
0
 42
0.0000001
 43
0.0000001
 44
0.0000000001
 40
0.0
 40
0.0
 40
0.0
 40
0.0
 40
0.2897762172
 40
0.5490701576
 40
0.7822260326
 40
1.0
 40
1.0
 40
1.0
 40
1.0
 10
145.6714107394
 20
98.5360055003
 30
0.0
 10
145.6714107394
 20
98.2825992279
 30
0.0
 10
145.6330948553
 20
97.8007948172
 30
0.0
 10
145.4378335956
 20
97.1388590022
 30
0.0
 10
145.109394217
 20
96.6017267945
 30
0.0
 10
144.8007595828
 20
96.3423277292
 30
0.0
 10
144.6358325453
 20
96.2471076222
 30
0.0
  0
SPLINE
  5
5C9
100
AcDbEntity
  8
0
100
AcDbSpline
 62
7
  6
CONTINUOUS
 70
0
 71
3
 72
15
 73
11
 74
0
 42
0.0000001
 43
0.0000001
 44
0.0000000001
 40
0.0
 40
0.0
 40
0.0
 40
0.0
 40
0.1287974769
 40
0.2706060703
 40
0.4178807568
 40
0.5623765801
 40
0.6961925898
 40
0.8135912016
 40
0.913066129
 40
1.0
 40
1.0
 40
1.0
 40
1.0
 10
125.6957332289
 20
131.093120421
 30
0.0
 10
125.6957332289
 20
131.1999365279
 30
0.0
 10
125.7256823753
 20
131.4246049136
 30
0.0
 10
125.8371491153
 20
131.7544776487
 30
0.0
 10
126.0091687975
 20
132.0722172085
 30
0.0
 10
126.2274705167
 20
132.3517560101
 30
0.0
 10
126.4748250818
 20
132.5707931318
 30
0.0
 10
126.7327622863
 20
132.7117132774
 30
0.0
 10
126.9852932201
 20
132.7623463429
 30
0.0
 10
127.1421099952
 20
132.7219176876
 30
0.0
 10
127.2045756295
 20
132.6859169791
 30
0.0
  0
SPLINE
  5
5CA
100
AcDbEntity
  8
0
100
AcDbSpline
 62
7
  6
CONTINUOUS
 70
0
 71
3
 72
15
 73
11
 74
0
 42
0.0000001
 43
0.0000001
 44
0.0000000001
 40
0.0
 40
0.0
 40
0.0
 40
0.0
 40
0.1287974769
 40
0.2706060703
 40
0.4178807568
 40
0.5623765801
 40
0.6961925898
 40
0.8135912016
 40
0.913066129
 40
1.0
 40
1.0
 40
1.0
 40
1.0
 10
98.8257874148
 20
115.5798425739
 30
0.0
 10
98.8257874148
 20
115.6866586808
 30
0.0
 10
98.8557365612
 20
115.9113270664
 30
0.0
 10
98.9672033011
 20
116.2411998016
 30
0.0
 10
99.1392229833
 20
116.5589393614
 30
0.0
 10
99.3575247026
 20
116.838478163
 30
0.0
 10
99.6048792677
 20
117.0575152847
 30
0.0
 10
99.8628164722
 20
117.1984354303
 30
0.0
 10
100.1153474059
 20
117.2490684958
 30
0.0
 10
100.2721641811
 20
117.2086398404
 30
0.0
 10
100.3346298153
 20
117.1726391319
 30
0.0
  0
SPLINE
  5
5CB
100
AcDbEntity
  8
0
100
AcDbSpline
 62
7
  6
CONTINUOUS
 70
0
 71
3
 72
15
 73
11
 74
0
 42
0.0000001
 43
0.0000001
 44
0.0000000001
 40
0.0
 40
0.0
 40
0.0
 40
0.0
 40
0.1287974769
 40
0.2706060703
 40
0.4178807568
 40
0.5623765801
 40
0.6961925898
 40
0.8135912016
 40
0.913066129
 40
1.0
 40
1.0
 40
1.0
 40
1.0
 10
125.6957332289
 20
64.1399222164
 30
0.0
 10
125.6957332289
 20
64.2467383233
 30
0.0
 10
125.7256823753
 20
64.4714067089
 30
0.0
 10
125.8371491153
 20
64.8012794441
 30
0.0
 10
126.0091687975
 20
65.1190190039
 30
0.0
 10
126.2274705167
 20
65.3985578054
 30
0.0
 10
126.4748250818
 20
65.6175949272
 30
0.0
 10
126.7327622863
 20
65.7585150728
 30
0.0
 10
126.9852932201
 20
65.8091481383
 30
0.0
 10
127.1421099952
 20
65.7687194829
 30
0.0
 10
127.2045756295
 20
65.7327187744
 30
0.0
  0
SPLINE
  5
5CC
100
AcDbEntity
  8
0
100
AcDbSpline
 62
7
  6
CONTINUOUS
 70
0
 71
3
 72
15
 73
11
 74
0
 42
0.0000001
 43
0.0000001
 44
0.0000000001
 40
0.0
 40
0.0
 40
0.0
 40
0.0
 40
0.1287974769
 40
0.2706060703
 40
0.4178807568
 40
0.5623765801
 40
0.6961925898
 40
0.8135912016
 40
0.913066129
 40
1.0
 40
1.0
 40
1.0
 40
1.0
 10
98.8257874148
 20
48.6266443693
 30
0.0
 10
98.8257874148
 20
48.7334604762
 30
0.0
 10
98.8557365612
 20
48.9581288618
 30
0.0
 10
98.9672033011
 20
49.288001597
 30
0.0
 10
99.1392229833
 20
49.6057411568
 30
0.0
 10
99.3575247026
 20
49.8852799583
 30
0.0
 10
99.6048792677
 20
50.1043170801
 30
0.0
 10
99.8628164722
 20
50.2452372257
 30
0.0
 10
100.1153474059
 20
50.2958702911
 30
0.0
 10
100.2721641811
 20
50.2554416358
 30
0.0
 10
100.3346298153
 20
50.2194409273
 30
0.0
  0
SPLINE
  5
5CD
100
AcDbEntity
  8
0
100
AcDbSpline
 62
7
  6
CONTINUOUS
 70
0
 71
3
 72
11
 73
7
 74
0
 42
0.0000001
 43
0.0000001
 44
0.0000000001
 40
0.0
 40
0.0
 40
0.0
 40
0.0
 40
0.2895453772
 40
0.5491366158
 40
0.7822776228
 40
1.0
 40
1.0
 40
1.0
 40
1.0
 10
24.8621263564
 20
88.6750425863
 30
0.0
 10
24.8621263564
 20
88.5661669599
 30
0.0
 10
24.8455017009
 20
88.3589929094
 30
0.0
 10
24.7617502144
 20
88.0742957086
 30
0.0
 10
24.6204626859
 20
87.8432291404
 30
0.0
 10
24.4876910743
 20
87.7318147956
 30
0.0
 10
24.416791475
 20
87.6908794036
 30
0.0
  0
SPLINE
  5
5CE
100
AcDbEntity
  8
0
100
AcDbSpline
 62
7
  6
CONTINUOUS
 70
0
 71
3
 72
9
 73
5
 74
0
 42
0.0000001
 43
0.0000001
 44
0.0000000001
 40
0.0
 40
0.0
 40
0.0
 40
0.0
 40
0.4745478231
 40
1.0
 40
1.0
 40
1.0
 40
1.0
 10
40.4538233741
 20
169.9782859253
 30
0.0
 10
40.4538233741
 20
170.165292634
 30
0.0
 10
40.528793668
 20
170.5593808042
 30
0.0
 10
40.6981291281
 20
170.9193823005
 30
0.0
 10
40.8073752928
 20
171.0952854565
 30
0.0
  0
SPLINE
  5
5CF
100
AcDbEntity
  8
0
100
AcDbSpline
 62
7
  6
CONTINUOUS
 70
0
 71
3
 72
9
 73
5
 74
0
 42
0.0000001
 43
0.0000001
 44
0.0000000001
 40
0.0
 40
0.0
 40
0.0
 40
0.0
 40
0.5254192129
 40
1.0
 40
1.0
 40
1.0
 40
1.0
 10
40.8073752928
 20
171.0952854565
 30
0.0
 10
40.9013000482
 20
171.2465187832
 30
0.0
 10
41.1095949937
 20
171.5170369906
 30
0.0
 10
41.3752212583
 20
171.7350056921
 30
0.0
 10
41.51447913
 20
171.8154057818
 30
0.0
  0
SPLINE
  5
5D0
100
AcDbEntity
  8
0
100
AcDbSpline
 62
7
  6
CONTINUOUS
 70
0
 71
3
 72
12
 73
8
 74
0
 42
0.0000001
 43
0.0000001
 44
0.0000000001
 40
0.0
 40
0.0
 40
0.0
 40
0.0
 40
0.3062956411
 40
0.5844795388
 40
0.7061125724
 40
0.8147059879
 40
1.0
 40
1.0
 40
1.0
 40
1.0
 10
55.9740354462
 20
139.4181979684
 30
0.0
 10
56.0087611971
 20
139.3616078502
 30
0.0
 10
56.0629543454
 20
139.2457963894
 30
0.0
 10
56.0935813452
 20
139.0934850805
 30
0.0
 10
56.0866826099
 20
138.9827360259
 30
0.0
 10
56.0633328165
 20
138.8955022857
 30
0.0
 10
56.0206657777
 20
138.8409903685
 30
0.0
 10
55.9858865919
 20
138.8208979651
 30
0.0
  0
SPLINE
  5
5D1
100
AcDbEntity
  8
0
100
AcDbSpline
 62
7
  6
CONTINUOUS
 70
0
 71
3
 72
9
 73
5
 74
0
 42
0.0000001
 43
0.0000001
 44
0.0000000001
 40
0.0
 40
0.0
 40
0.0
 40
0.0
 40
0.4850607963
 40
1.0
 40
1.0
 40
1.0
 40
1.0
 10
55.0468376386
 20
141.8757447288
 30
0.0
 10
55.1092002236
 20
141.4535429115
 30
0.0
 10
55.3445054234
 20
140.5978092756
 30
0.0
 10
55.7370152649
 20
139.8043262671
 30
0.0
 10
55.9740354462
 20
139.4181979684
 30
0.0
  0
SPLINE
  5
5D2
100
AcDbEntity
  8
0
100
AcDbSpline
 62
7
  6
CONTINUOUS
 70
0
 71
3
 72
11
 73
7
 74
0
 42
0.0000001
 43
0.0000001
 44
0.0000000001
 40
0.0
 40
0.0
 40
0.0
 40
0.0
 40
0.2895391946
 40
0.5491157946
 40
0.7822541179
 40
1.0
 40
1.0
 40
1.0
 40
1.0
 10
60.8186558817
 20
128.6713819528
 30
0.0
 10
60.8610548733
 20
128.6469034373
 30
0.0
 10
60.9454705133
 20
128.6067989443
 30
0.0
 10
61.0751661956
 20
128.5754066196
 30
0.0
 10
61.1969214565
 20
128.5784651678
 30
0.0
 10
61.2701598981
 20
128.6051377188
 30
0.0
 10
61.3020456174
 20
128.6235468528
 30
0.0
  0
SPLINE
  5
5D3
100
AcDbEntity
  8
0
100
AcDbSpline
 62
7
  6
CONTINUOUS
 70
0
 71
3
 72
11
 73
7
 74
0
 42
0.0000001
 43
0.0000001
 44
0.0000000001
 40
0.0
 40
0.0
 40
0.0
 40
0.0
 40
0.2372539654
 40
0.500001259
 40
0.7627478693
 40
1.0
 40
1.0
 40
1.0
 40
1.0
 10
54.4781175965
 20
129.8554264442
 30
0.0
 10
54.4781175965
 20
129.7433449069
 30
0.0
 10
54.5201404958
 20
129.5069791215
 30
0.0
 10
54.6667186855
 20
129.1748932186
 30
0.0
 10
54.8810253036
 20
128.8819115568
 30
0.0
 10
55.06471282
 20
128.7273377127
 30
0.0
 10
55.1617780769
 20
128.6712983282
 30
0.0
  0
SPLINE
  5
5D4
100
AcDbEntity
  8
0
100
AcDbSpline
 62
7
  6
CONTINUOUS
 70
0
 71
3
 72
11
 73
7
 74
0
 42
0.0000001
 43
0.0000001
 44
0.0000000001
 40
0.0
 40
0.0
 40
0.0
 40
0.0
 40
0.2895453772
 40
0.5491366158
 40
0.7822776228
 40
1.0
 40
1.0
 40
1.0
 40
1.0
 10
94.1588794208
 20
116.4371492651
 30
0.0
 10
94.1588794208
 20
116.3282736386
 30
0.0
 10
94.1422547653
 20
116.1210995882
 30
0.0
 10
94.0585032788
 20
115.8364023873
 30
0.0
 10
93.9172157503
 20
115.6053358192
 30
0.0
 10
93.7844441387
 20
115.4939214743
 30
0.0
 10
93.7135445394
 20
115.4529860824
 30
0.0
  0
SPLINE
  5
5D5
100
AcDbEntity
  8
0
100
AcDbSpline
 62
7
  6
CONTINUOUS
 70
0
 71
3
 72
14
 73
10
 74
0
 42
0.0000001
 43
0.0000001
 44
0.0000000001
 40
0.0
 40
0.0
 40
0.0
 40
0.0
 40
0.1198291716
 40
0.2505102812
 40
0.5256032812
 40
0.6603451858
 40
0.7864133946
 40
0.9001966864
 40
1.0
 40
1.0
 40
1.0
 40
1.0
 10
58.1316377468
 20
142.7289284698
 30
0.0
 10
58.2661535398
 20
142.6512674975
 30
0.0
 10
58.530148581
 20
142.4582101985
 30
0.0
 10
59.0074349013
 20
141.9694580359
 30
0.0
 10
59.3842834583
 20
141.3655822988
 30
0.0
 10
59.6249111987
 20
140.7121486745
 30
0.0
 10
59.7217449788
 20
140.2338800202
 30
0.0
 10
59.7304736164
 20
139.7911454723
 30
0.0
 10
59.6719749628
 20
139.5164383817
 30
0.0
 10
59.624978146
 20
139.3959101719
 30
0.0
  0
SPLINE
  5
5D6
100
AcDbEntity
  8
0
100
AcDbSpline
 62
7
  6
CONTINUOUS
 70
0
 71
3
 72
9
 73
5
 74
0
 42
0.0000001
 43
0.0000001
 44
0.0000000001
 40
0.0
 40
0.0
 40
0.0
 40
0.0
 40
0.2422095865
 40
1.0
 40
1.0
 40
1.0
 40
1.0
 10
55.137528951
 20
142.6204085238
 30
0.0
 10
55.137528951
 20
142.5666950164
 30
0.0
 10
55.1420065599
 20
142.3449399641
 30
0.0
 10
55.1637023508
 20
142.1236408555
 30
0.0
 10
55.188258406
 20
141.9573935596
 30
0.0
  0
SPLINE
  5
5D7
100
AcDbEntity
  8
0
100
AcDbSpline
 62
7
  6
CONTINUOUS
 70
0
 71
3
 72
11
 73
7
 74
0
 42
0.0000001
 43
0.0000001
 44
0.0000000001
 40
0.0
 40
0.0
 40
0.0
 40
0.0
 40
0.2372428335
 40
0.4999989086
 40
0.7627555774
 40
1.0
 40
1.0
 40
1.0
 40
1.0
 10
54.7728665524
 20
143.542280436
 30
0.0
 10
54.8246388052
 20
143.5123903881
 30
0.0
 10
54.9226063396
 20
143.4299315435
 30
0.0
 10
55.0369504705
 20
143.2736763321
 30
0.0
 10
55.1151003508
 20
143.0965237894
 30
0.0
 10
55.137528951
 20
142.9704516472
 30
0.0
 10
55.137528951
 20
142.9106701366
 30
0.0
  0
SPLINE
  5
5D8
100
AcDbEntity
  8
0
100
AcDbSpline
 62
7
  6
CONTINUOUS
 70
0
 71
3
 72
9
 73
5
 74
0
 42
0.0000001
 43
0.0000001
 44
0.0000000001
 40
0.0
 40
0.0
 40
0.0
 40
0.0
 40
0.4796935801
 40
1.0
 40
1.0
 40
1.0
 40
1.0
 10
61.4904089413
 20
139.6639932681
 30
0.0
 10
61.5676943341
 20
139.6193735351
 30
0.0
 10
61.704490805
 20
139.4853075888
 30
0.0
 10
61.7927117166
 20
139.3179051115
 30
0.0
 10
61.8223061226
 20
139.2257436683
 30
0.0
  0
SPLINE
  5
5D9
100
AcDbEntity
  8
0
100
AcDbSpline
 62
7
  6
CONTINUOUS
 70
0
 71
3
 72
9
 73
5
 74
0
 42
0.0000001
 43
0.0000001
 44
0.0000000001
 40
0.0
 40
0.0
 40
0.0
 40
0.0
 40
0.4902777423
 40
1.0
 40
1.0
 40
1.0
 40
1.0
 10
64.6941196696
 20
143.2396281551
 30
0.0
 10
64.8095850402
 20
143.1481661374
 30
0.0
 10
65.0116692005
 20
142.9189115738
 30
0.0
 10
65.1467363968
 20
142.646014298
 30
0.0
 10
65.1935580574
 20
142.5002045861
 30
0.0
  0
SPLINE
  5
5DA
100
AcDbEntity
  8
0
100
AcDbSpline
 62
7
  6
CONTINUOUS
 70
0
 71
3
 72
9
 73
5
 74
0
 42
0.0000001
 43
0.0000001
 44
0.0000000001
 40
0.0
 40
0.0
 40
0.0
 40
0.0
 40
0.2422259788
 40
1.0
 40
1.0
 40
1.0
 40
1.0
 10
60.8186323282
 20
145.8897394883
 30
0.0
 10
61.1470938453
 20
145.7001064331
 30
0.0
 10
62.4872795409
 20
144.8899501066
 30
0.0
 10
63.7640472217
 20
143.9763538267
 30
0.0
 10
64.6941196696
 20
143.2396281551
 30
0.0
  0
SPLINE
  5
5DB
100
AcDbEntity
  8
0
100
AcDbSpline
 62
7
  6
CONTINUOUS
 70
0
 71
3
 72
9
 73
5
 74
0
 42
0.0000001
 43
0.0000001
 44
0.0000000001
 40
0.0
 40
0.0
 40
0.0
 40
0.0
 40
0.2407827687
 40
1.0
 40
1.0
 40
1.0
 40
1.0
 10
56.9431449869
 20
147.7145542383
 30
0.0
 10
57.2666032168
 20
147.5972818754
 30
0.0
 10
58.5979187184
 20
147.077218191
 30
0.0
 10
59.879105251
 20
146.432163428
 30
0.0
 10
60.8186323282
 20
145.8897394883
 30
0.0
  0
SPLINE
  5
5DC
100
AcDbEntity
  8
0
100
AcDbSpline
 62
7
  6
CONTINUOUS
 70
0
 71
3
 72
11
 73
7
 74
0
 42
0.0000001
 43
0.0000001
 44
0.0000000001
 40
0.0
 40
0.0
 40
0.0
 40
0.0
 40
0.2896997837
 40
0.5490848048
 40
0.7822133019
 40
1.0
 40
1.0
 40
1.0
 40
1.0
 10
145.8128326873
 20
140.0143303127
 30
0.0
 10
145.8128244167
 20
139.8775324749
 30
0.0
 10
145.792071278
 20
139.6173723166
 30
0.0
 10
145.6866930126
 20
139.2599271316
 30
0.0
 10
145.5092847375
 20
138.9698813872
 30
0.0
 10
145.3426524872
 20
138.8297976241
 30
0.0
 10
145.2535902139
 20
138.7783778429
 30
0.0
  0
SPLINE
  5
5DD
100
AcDbEntity
  8
0
100
AcDbSpline
 62
7
  6
CONTINUOUS
 70
0
 71
3
 72
11
 73
7
 74
0
 42
0.0000001
 43
0.0000001
 44
0.0000000001
 40
0.0
 40
0.0
 40
0.0
 40
0.0
 40
0.237243122
 40
0.4999989076
 40
0.7627552879
 40
1.0
 40
1.0
 40
1.0
 40
1.0
 10
145.4592778152
 20
146.8321202591
 30
0.0
 10
145.5094713636
 20
146.8031376101
 30
0.0
 10
145.6044568315
 20
146.7231942214
 30
0.0
 10
145.7153162096
 20
146.5716968556
 30
0.0
 10
145.7910880246
 20
146.3999411216
 30
0.0
 10
145.8128291835
 20
146.2777092628
 30
0.0
 10
145.8128326873
 20
146.2197486619
 30
0.0
  0
SPLINE
  5
5DE
100
AcDbEntity
  8
0
100
AcDbSpline
 62
7
  6
CONTINUOUS
 70
0
 71
3
 72
9
 73
5
 74
0
 42
0.0000001
 43
0.0000001
 44
0.0000000001
 40
0.0
 40
0.0
 40
0.0
 40
0.0
 40
0.4995469439
 40
1.0
 40
1.0
 40
1.0
 40
1.0
 10
148.0189808788
 20
145.6388273349
 30
0.0
 10
148.0399505366
 20
145.6509341003
 30
0.0
 10
148.0731345061
 20
145.6891810601
 30
0.0
 10
148.0896912621
 20
145.7370444304
 30
0.0
 10
148.0896912623
 20
145.7613019897
 30
0.0
  0
SPLINE
  5
5DF
100
AcDbEntity
  8
0
100
AcDbSpline
 62
7
  6
CONTINUOUS
 70
0
 71
3
 72
9
 73
5
 74
0
 42
0.0000001
 43
0.0000001
 44
0.0000000001
 40
0.0
 40
0.0
 40
0.0
 40
0.0
 40
0.4995502912
 40
1.0
 40
1.0
 40
1.0
 40
1.0
 10
147.877560111
 20
145.4755282607
 30
0.0
 10
147.877560111
 20
145.4997420629
 30
0.0
 10
147.8940906097
 20
145.5476037134
 30
0.0
 10
147.9272629422
 20
145.5858742754
 30
0.0
 10
147.9482704964
 20
145.5980029203
 30
0.0
  0
SPLINE
  5
5E0
100
AcDbEntity
  8
0
100
AcDbSpline
 62
7
  6
CONTINUOUS
 70
0
 71
3
 72
11
 73
7
 74
0
 42
0.0000001
 43
0.0000001
 44
0.0000000001
 40
0.0
 40
0.0
 40
0.0
 40
0.0
 40
0.2421558017
 40
0.504942904
 40
0.76506503
 40
1.0
 40
1.0
 40
1.0
 40
1.0
 10
147.553043761
 20
142.064364299
 30
0.0
 10
147.5998649677
 20
142.0958515366
 30
0.0
 10
147.6874433156
 20
142.1767150634
 30
0.0
 10
147.7893058618
 20
142.3244755615
 30
0.0
 10
147.8581001676
 20
142.4884091109
 30
0.0
 10
147.8775601108
 20
142.6038533942
 30
0.0
 10
147.877560111
 20
142.6585949221
 30
0.0
  0
SPLINE
  5
5E1
100
AcDbEntity
  8
0
100
AcDbSpline
 62
7
  6
CONTINUOUS
 70
0
 71
3
 72
11
 73
7
 74
0
 42
0.0000001
 43
0.0000001
 44
0.0000000001
 40
0.0
 40
0.0
 40
0.0
 40
0.0
 40
0.237244685
 40
0.5000016181
 40
0.7627576707
 40
1.0
 40
1.0
 40
1.0
 40
1.0
 10
100.3315092582
 20
177.9879725921
 30
0.0
 10
100.3315092583
 20
178.0459332021
 30
0.0
 10
100.3532545101
 20
178.1681652692
 30
0.0
 10
100.4290232804
 20
178.3399220751
 30
0.0
 10
100.5398835198
 20
178.4914182701
 30
0.0
 10
100.6348662409
 20
178.5713659908
 30
0.0
 10
100.685061178
 20
178.6003458784
 30
0.0
  0
SPLINE
  5
5E2
100
AcDbEntity
  8
0
100
AcDbSpline
 62
7
  6
CONTINUOUS
 70
0
 71
3
 72
9
 73
5
 74
0
 42
0.0000001
 43
0.0000001
 44
0.0000000001
 40
0.0
 40
0.0
 40
0.0
 40
0.0
 40
0.499998328
 40
1.0
 40
1.0
 40
1.0
 40
1.0
 10
100.1193781067
 20
177.3000927146
 30
0.0
 10
100.1823417545
 20
177.3364445766
 30
0.0
 10
100.2818234497
 20
177.4512538261
 30
0.0
 10
100.331509258
 20
177.5948121512
 30
0.0
 10
100.3315092582
 20
177.667516687
 30
0.0
  0
SPLINE
  5
5E3
100
AcDbEntity
  8
0
100
AcDbSpline
 62
7
  6
CONTINUOUS
 70
0
 71
3
 72
11
 73
7
 74
0
 42
0.0000001
 43
0.0000001
 44
0.0000000001
 40
0.0
 40
0.0
 40
0.0
 40
0.0
 40
0.237244685
 40
0.5000016182
 40
0.7627576707
 40
1.0
 40
1.0
 40
1.0
 40
1.0
 10
89.3713997826
 20
172.1092645379
 30
0.0
 10
89.3713997828
 20
172.1672251478
 30
0.0
 10
89.3931450345
 20
172.289457215
 30
0.0
 10
89.468913805
 20
172.4612140208
 30
0.0
 10
89.5797740442
 20
172.6127102162
 30
0.0
 10
89.6747567658
 20
172.6926579361
 30
0.0
 10
89.7249517025
 20
172.7216378242
 30
0.0
  0
SPLINE
  5
5E4
100
AcDbEntity
  8
0
100
AcDbSpline
 62
7
  6
CONTINUOUS
 70
0
 71
3
 72
9
 73
5
 74
0
 42
0.0000001
 43
0.0000001
 44
0.0000000001
 40
0.0
 40
0.0
 40
0.0
 40
0.0
 40
0.5000016069
 40
1.0
 40
1.0
 40
1.0
 40
1.0
 10
102.5734227378
 20
72.2234822179
 30
0.0
 10
102.573422747
 20
72.2718192532
 30
0.0
 10
102.6095274573
 20
72.3659364458
 30
0.0
 10
102.6729826114
 20
72.4442632473
 30
0.0
 10
102.7148435053
 20
72.4684315014
 30
0.0
  0
SPLINE
  5
5E5
100
AcDbEntity
  8
0
100
AcDbSpline
 62
7
  6
CONTINUOUS
 70
0
 71
3
 72
9
 73
5
 74
0
 42
0.0000001
 43
0.0000001
 44
0.0000000001
 40
0.0
 40
0.0
 40
0.0
 40
0.0
 40
0.4999984064
 40
1.0
 40
1.0
 40
1.0
 40
1.0
 10
103.7754992611
 20
73.0807977322
 30
0.0
 10
103.8173601603
 20
73.1049659894
 30
0.0
 10
103.880815318
 20
73.1832928008
 30
0.0
 10
103.9169200285
 20
73.2774100071
 30
0.0
 10
103.9169200285
 20
73.325747046
 30
0.0
  0
SPLINE
  5
5E6
100
AcDbEntity
  8
0
100
AcDbSpline
 62
7
  6
CONTINUOUS
 70
0
 71
3
 72
9
 73
5
 74
0
 42
0.0000001
 43
0.0000001
 44
0.0000000001
 40
0.0
 40
0.0
 40
0.0
 40
0.0
 40
0.5000015943
 40
1.0
 40
1.0
 40
1.0
 40
1.0
 10
103.9169200285
 20
73.5502852108
 30
0.0
 10
103.9169200285
 20
73.5986222499
 30
0.0
 10
103.9530247389
 20
73.6927394565
 30
0.0
 10
104.0164798968
 20
73.7710662681
 30
0.0
 10
104.058340796
 20
73.7952345253
 30
0.0
  0
SPLINE
  5
5E7
100
AcDbEntity
  8
0
100
AcDbSpline
 62
7
  6
CONTINUOUS
 70
0
 71
3
 72
9
 73
5
 74
0
 42
0.0000001
 43
0.0000001
 44
0.0000000001
 40
0.0
 40
0.0
 40
0.0
 40
0.0
 40
0.5480292196
 40
1.0
 40
1.0
 40
1.0
 40
1.0
 10
105.1189965518
 20
74.4076007561
 30
0.0
 10
105.1351828872
 20
74.4169458854
 30
0.0
 10
105.1683753188
 20
74.4295920533
 30
0.0
 10
105.2041241192
 20
74.422578469
 30
0.0
 10
105.2174733785
 20
74.4148714579
 30
0.0
  0
SPLINE
  5
5E8
100
AcDbEntity
  8
0
100
AcDbSpline
 62
7
  6
CONTINUOUS
 70
0
 71
3
 72
13
 73
9
 74
0
 42
0.0000001
 43
0.0000001
 44
0.0000000001
 40
0.0
 40
0.0
 40
0.0
 40
0.0
 40
0.2699213669
 40
0.5612821949
 40
0.6954003054
 40
0.8130386734
 40
0.9128103868
 40
1.0
 40
1.0
 40
1.0
 40
1.0
 10
60.2444672316
 20
136.2426769923
 30
0.0
 10
60.1671231705
 20
136.2873532153
 30
0.0
 10
60.031378187
 20
136.4224624661
 30
0.0
 10
59.9247323497
 20
136.6308198303
 30
0.0
 10
59.8884954926
 20
136.8080447063
 30
0.0
 10
59.8912285838
 20
136.9255846342
 30
0.0
 10
59.9242247572
 20
137.0231917338
 30
0.0
 10
59.969586032
 20
137.0694661551
 30
0.0
 10
59.9945502489
 20
137.0839308534
 30
0.0
  0
SPLINE
  5
5E9
100
AcDbEntity
  8
0
100
AcDbSpline
 62
7
  6
CONTINUOUS
 70
0
 71
3
 72
9
 73
5
 74
0
 42
0.0000001
 43
0.0000001
 44
0.0000000001
 40
0.0
 40
0.0
 40
0.0
 40
0.0
 40
0.2377384259
 40
1.0
 40
1.0
 40
1.0
 40
1.0
 10
105.9553815839
 20
75.4684374343
 30
0.0
 10
105.9478074926
 20
75.4728102372
 30
0.0
 10
105.9141051441
 20
75.4880951342
 30
0.0
 10
105.8750831509
 20
75.4889777252
 30
0.0
 10
105.847489969
 20
75.4839832326
 30
0.0
  0
SPLINE
  5
5EA
100
AcDbEntity
  8
0
100
AcDbSpline
 62
7
  6
CONTINUOUS
 70
0
 71
3
 72
11
 73
7
 74
0
 42
0.0000001
 43
0.0000001
 44
0.0000000001
 40
0.0
 40
0.0
 40
0.0
 40
0.0
 40
0.2176899422
 40
0.4508856506
 40
0.7106204681
 40
1.0
 40
1.0
 40
1.0
 40
1.0
 10
100.3346298153
 20
50.2194409273
 30
0.0
 10
100.375862368
 20
50.1956774432
 30
0.0
 10
100.4530148608
 20
50.1308399013
 30
0.0
 10
100.535233152
 20
49.9965124112
 30
0.0
 10
100.5838222994
 20
49.8309475326
 30
0.0
 10
100.5935470078
 20
49.7105173372
 30
0.0
 10
100.5935470078
 20
49.647254754
 30
0.0
  0
SPLINE
  5
5EB
100
AcDbEntity
  8
0
100
AcDbSpline
 62
7
  6
CONTINUOUS
 70
0
 71
3
 72
16
 73
12
 74
0
 42
0.0000001
 43
0.0000001
 44
0.0000000001
 40
0.0
 40
0.0
 40
0.0
 40
0.0
 40
0.0428757513
 40
0.0875233495
 40
0.186923412
 40
0.3042342846
 40
0.4379543358
 40
0.5823556103
 40
0.7295669664
 40
0.8712579545
 40
1.0
 40
1.0
 40
1.0
 40
1.0
 10
93.7135445394
 20
115.4529860824
 30
0.0
 10
93.6605438026
 20
115.4223849794
 30
0.0
 10
93.5437489545
 20
115.3737196736
 30
0.0
 10
93.277419858
 20
115.3348218888
 30
0.0
 10
92.9014980276
 20
115.4081458011
 30
0.0
 10
92.4586302451
 20
115.6510754662
 30
0.0
 10
92.0329206479
 20
116.0275696668
 30
0.0
 10
91.657437129
 20
116.5084282381
 30
0.0
 10
91.3616004478
 20
117.0549676857
 30
0.0
 10
91.1697643139
 20
117.6223712924
 30
0.0
 10
91.1183076024
 20
118.0088190491
 30
0.0
 10
91.1183076024
 20
118.1925845097
 30
0.0
  0
SPLINE
  5
5EC
100
AcDbEntity
  8
0
100
AcDbSpline
 62
7
  6
CONTINUOUS
 70
0
 71
3
 72
11
 73
7
 74
0
 42
0.0000001
 43
0.0000001
 44
0.0000000001
 40
0.0
 40
0.0
 40
0.0
 40
0.0
 40
0.2895321696
 40
0.5491644349
 40
0.7823190005
 40
1.0
 40
1.0
 40
1.0
 40
1.0
 10
60.1115461509
 20
130.6584736771
 30
0.0
 10
60.0691481927
 20
130.6829515957
 30
0.0
 10
59.9847236972
 20
130.7230523798
 30
0.0
 10
59.8550134485
 20
130.7544554069
 30
0.0
 10
59.7332658463
 20
130.7513537662
 30
0.0
 10
59.6600170651
 20
130.724739407
 30
0.0
 10
59.6281398185
 20
130.7063375483
 30
0.0
  0
SPLINE
  5
5ED
100
AcDbEntity
  8
0
100
AcDbSpline
 62
7
  6
CONTINUOUS
 70
0
 71
3
 72
11
 73
7
 74
0
 42
0.0000001
 43
0.0000001
 44
0.0000000001
 40
0.0
 40
0.0
 40
0.0
 40
0.0
 40
0.2372539655
 40
0.5000012591
 40
0.7627478695
 40
1.0
 40
1.0
 40
1.0
 40
1.0
 10
61.5023163626
 20
129.0661048039
 30
0.0
 10
61.5023163626
 20
129.1781863413
 30
0.0
 10
61.4602934631
 20
129.4145521269
 30
0.0
 10
61.313715273
 20
129.7466380299
 30
0.0
 10
61.0994086544
 20
130.0396196916
 30
0.0
 10
60.9157211377
 20
130.1941935354
 30
0.0
 10
60.8186558807
 20
130.2502329199
 30
0.0
  0
SPLINE
  5
5EE
100
AcDbEntity
  8
0
100
AcDbSpline
 62
7
  6
CONTINUOUS
 70
0
 71
3
 72
11
 73
7
 74
0
 42
0.0000001
 43
0.0000001
 44
0.0000000001
 40
0.0
 40
0.0
 40
0.0
 40
0.0
 40
0.2895391945
 40
0.5491157943
 40
0.7822541177
 40
1.0
 40
1.0
 40
1.0
 40
1.0
 10
55.1617780751
 20
130.2501492957
 30
0.0
 10
55.1193790837
 20
130.274627811
 30
0.0
 10
55.0349634441
 20
130.3147323036
 30
0.0
 10
54.9052677624
 20
130.3461246277
 30
0.0
 10
54.7835125021
 20
130.3430660792
 30
0.0
 10
54.7102740609
 20
130.3163935281
 30
0.0
 10
54.6783883417
 20
130.2979843943
 30
0.0
  0
SPLINE
  5
5EF
100
AcDbEntity
  8
0
100
AcDbSpline
 62
7
  6
CONTINUOUS
 70
0
 71
3
 72
10
 73
6
 74
0
 42
0.0000001
 43
0.0000001
 44
0.0000000001
 40
0.0
 40
0.0
 40
0.0
 40
0.0
 40
0.5135504173
 40
0.7687804333
 40
1.0
 40
1.0
 40
1.0
 40
1.0
 10
56.5259951975
 20
128.8909842994
 30
0.0
 10
56.4830312078
 20
129.0885625729
 30
0.0
 10
56.3524852914
 20
129.37281797
 30
0.0
 10
56.0998920698
 20
129.6761571666
 30
0.0
 10
55.9477277645
 20
129.796391296
 30
0.0
 10
55.8688878074
 20
129.841908537
 30
0.0
  0
SPLINE
  5
5F0
100
AcDbEntity
  8
0
100
AcDbSpline
 62
7
  6
CONTINUOUS
 70
0
 71
3
 72
11
 73
7
 74
0
 42
0.0000001
 43
0.0000001
 44
0.0000000001
 40
0.0
 40
0.0
 40
0.0
 40
0.0
 40
0.2176899422
 40
0.4508856506
 40
0.7106204681
 40
1.0
 40
1.0
 40
1.0
 40
1.0
 10
100.3346298153
 20
117.1726391319
 30
0.0
 10
100.375862368
 20
117.1488756478
 30
0.0
 10
100.4530148608
 20
117.0840381059
 30
0.0
 10
100.535233152
 20
116.9497106158
 30
0.0
 10
100.5838222994
 20
116.7841457372
 30
0.0
 10
100.5935470078
 20
116.6637155418
 30
0.0
 10
100.5935470078
 20
116.6004529586
 30
0.0
  0
SPLINE
  5
5F1
100
AcDbEntity
  8
0
100
AcDbSpline
 62
7
  6
CONTINUOUS
 70
0
 71
3
 72
11
 73
7
 74
0
 42
0.0000001
 43
0.0000001
 44
0.0000000001
 40
0.0
 40
0.0
 40
0.0
 40
0.0
 40
0.2282226834
 40
0.4661631699
 40
0.7218490353
 40
1.0
 40
1.0
 40
1.0
 40
1.0
 10
60.1073404049
 20
137.1431618884
 30
0.0
 10
60.2138857288
 20
137.2047241513
 30
0.0
 10
60.4157181128
 20
137.3600257681
 30
0.0
 10
60.6570548352
 20
137.6698856094
 30
0.0
 10
60.8351936578
 20
138.0491159214
 30
0.0
 10
60.9073028666
 20
138.329450604
 30
0.0
 10
60.9335963202
 20
138.4770999069
 30
0.0
  0
SPLINE
  5
5F2
100
AcDbEntity
  8
0
100
AcDbSpline
 62
7
  6
CONTINUOUS
 70
0
 71
3
 72
11
 73
7
 74
0
 42
0.0000001
 43
0.0000001
 44
0.0000000001
 40
0.0
 40
0.0
 40
0.0
 40
0.0
 40
0.237245132
 40
0.5000014868
 40
0.7627586276
 40
1.0
 40
1.0
 40
1.0
 40
1.0
 10
147.3822359828
 20
83.9940774523
 30
0.0
 10
147.3320382883
 20
83.9650925849
 30
0.0
 10
147.2370481117
 20
83.8851399497
 30
0.0
 10
147.1261767629
 20
83.7336334593
 30
0.0
 10
147.0504041985
 20
83.5618640469
 30
0.0
 10
147.0286606088
 20
83.4396229077
 30
0.0
 10
147.0286635426
 20
83.3816589139
 30
0.0
  0
SPLINE
  5
5F3
100
AcDbEntity
  8
0
100
AcDbSpline
 62
7
  6
CONTINUOUS
 70
0
 71
3
 72
9
 73
5
 74
0
 42
0.0000001
 43
0.0000001
 44
0.0000000001
 40
0.0
 40
0.0
 40
0.0
 40
0.0
 40
0.2770170756
 40
1.0
 40
1.0
 40
1.0
 40
1.0
 10
147.948041108
 20
81.0139370917
 30
0.0
 10
147.9451550471
 20
81.0122706389
 30
0.0
 10
147.934453456
 20
81.0068503372
 30
0.0
 10
147.9221853488
 20
81.003830418
 30
0.0
 10
147.9135062167
 20
81.0043996562
 30
0.0
  0
SPLINE
  5
5F4
100
AcDbEntity
  8
0
100
AcDbSpline
 62
7
  6
CONTINUOUS
 70
0
 71
3
 72
8
 73
4
 74
0
 42
0.0000001
 43
0.0000001
 44
0.0000000001
 40
0.0
 40
0.0
 40
0.0
 40
0.0
 40
1.0
 40
1.0
 40
1.0
 40
1.0
 10
147.9135062167
 20
81.0043996562
 30
0.0
 10
147.9081400485
 20
81.0047516071
 30
0.0
 10
147.9026905577
 20
81.0062799246
 30
0.0
 10
147.8980340112
 20
81.0089699442
 30
0.0
  0
SPLINE
  5
5F5
100
AcDbEntity
  8
0
100
AcDbSpline
 62
7
  6
CONTINUOUS
 70
0
 71
3
 72
11
 73
7
 74
0
 42
0.0000001
 43
0.0000001
 44
0.0000000001
 40
0.0
 40
0.0
 40
0.0
 40
0.0
 40
0.2895453772
 40
0.5491366158
 40
0.7822776227
 40
1.0
 40
1.0
 40
1.0
 40
1.0
 10
91.1183076024
 20
118.1925845097
 30
0.0
 10
91.1183076024
 20
118.301460136
 30
0.0
 10
91.1349322579
 20
118.5086341861
 30
0.0
 10
91.2186837444
 20
118.7933313866
 30
0.0
 10
91.3599712729
 20
119.0243979543
 30
0.0
 10
91.4927428844
 20
119.1358122989
 30
0.0
 10
91.5636424836
 20
119.1767476908
 30
0.0
  0
SPLINE
  5
5F6
100
AcDbEntity
  8
0
100
AcDbSpline
 62
7
  6
CONTINUOUS
 70
0
 71
3
 72
9
 73
5
 74
0
 42
0.0000001
 43
0.0000001
 44
0.0000000001
 40
0.0
 40
0.0
 40
0.0
 40
0.0
 40
0.2407598114
 40
1.0
 40
1.0
 40
1.0
 40
1.0
 10
61.0750170876
 20
138.5587487377
 30
0.0
 10
61.0835578968
 20
138.6067091365
 30
0.0
 10
61.1141166159
 20
138.8067786987
 30
0.0
 10
61.1257465427
 20
139.0095643041
 30
0.0
 10
61.1257465427
 20
139.1631876981
 30
0.0
  0
SPLINE
  5
5F7
100
AcDbEntity
  8
0
100
AcDbSpline
 62
7
  6
CONTINUOUS
 70
0
 71
3
 72
12
 73
8
 74
0
 42
0.0000001
 43
0.0000001
 44
0.0000000001
 40
0.0
 40
0.0
 40
0.0
 40
0.0
 40
0.3043855835
 40
0.571291597
 40
0.7985541616
 40
0.9011838391
 40
1.0
 40
1.0
 40
1.0
 40
1.0
 10
56.6382973476
 20
141.1202321255
 30
0.0
 10
56.5888453145
 20
141.3041579895
 30
0.0
 10
56.5258460767
 20
141.6589270082
 30
0.0
 10
56.5489716293
 20
142.162793961
 30
0.0
 10
56.6809896924
 20
142.5224163686
 30
0.0
 10
56.8514861021
 20
142.7323382535
 30
0.0
 10
56.9530980973
 20
142.8094390487
 30
0.0
 10
57.0066563244
 20
142.8403345332
 30
0.0
  0
SPLINE
  5
5F8
100
AcDbEntity
  8
0
100
AcDbSpline
 62
7
  6
CONTINUOUS
 70
0
 71
3
 72
10
 73
6
 74
0
 42
0.0000001
 43
0.0000001
 44
0.0000000001
 40
0.0
 40
0.0
 40
0.0
 40
0.0
 40
0.5194376645
 40
0.7534826779
 40
1.0
 40
1.0
 40
1.0
 40
1.0
 10
54.32080376
 20
145.724532491
 30
0.0
 10
54.275500108
 20
145.7409576916
 30
0.0
 10
54.1986936575
 20
145.7507024236
 30
0.0
 10
54.1159243454
 20
145.7029787377
 30
0.0
 10
54.0888954819
 20
145.6659513537
 30
0.0
 10
54.0784995797
 20
145.6455808289
 30
0.0
  0
SPLINE
  5
5F9
100
AcDbEntity
  8
0
100
AcDbSpline
 62
7
  6
CONTINUOUS
 70
0
 71
3
 72
9
 73
5
 74
0
 42
0.0000001
 43
0.0000001
 44
0.0000000001
 40
0.0
 40
0.0
 40
0.0
 40
0.0
 40
0.5229067236
 40
1.0
 40
1.0
 40
1.0
 40
1.0
 10
61.9424712508
 20
141.3242603647
 30
0.0
 10
60.7361869863
 20
142.2797779557
 30
0.0
 10
58.3084833876
 20
143.9619953206
 30
0.0
 10
55.6407766072
 20
145.2459658001
 30
0.0
 10
54.32080376
 20
145.724532491
 30
0.0
  0
SPLINE
  5
5FA
100
AcDbEntity
  8
0
100
AcDbSpline
 62
7
  6
CONTINUOUS
 70
0
 71
3
 72
9
 73
5
 74
0
 42
0.0000001
 43
0.0000001
 44
0.0000000001
 40
0.0
 40
0.0
 40
0.0
 40
0.0
 40
0.5097223023
 40
1.0
 40
1.0
 40
1.0
 40
1.0
 10
62.184775811
 20
140.9655262026
 30
0.0
 10
62.1620600979
 20
141.0362663588
 30
0.0
 10
62.0965317206
 20
141.168663549
 30
0.0
 10
61.9984897203
 20
141.2798872143
 30
0.0
 10
61.9424712508
 20
141.3242603647
 30
0.0
  0
SPLINE
  5
5FB
100
AcDbEntity
  8
0
100
AcDbSpline
 62
7
  6
CONTINUOUS
 70
0
 71
3
 72
15
 73
11
 74
0
 42
0.0000001
 43
0.0000001
 44
0.0000000001
 40
0.0
 40
0.0
 40
0.0
 40
0.0
 40
0.1287974769
 40
0.2706060703
 40
0.4178807568
 40
0.5623765801
 40
0.6961925898
 40
0.8135912016
 40
0.913066129
 40
1.0
 40
1.0
 40
1.0
 40
1.0
 10
127.463492822
 20
132.1137308057
 30
0.0
 10
127.463492822
 20
132.0069146988
 30
0.0
 10
127.4335436755
 20
131.7822463131
 30
0.0
 10
127.3220769356
 20
131.452373578
 30
0.0
 10
127.1500572534
 20
131.1346340182
 30
0.0
 10
126.9317555341
 20
130.8550952166
 30
0.0
 10
126.684400969
 20
130.6360580949
 30
0.0
 10
126.4264637646
 20
130.4951379493
 30
0.0
 10
126.1739328308
 20
130.4445048838
 30
0.0
 10
126.0171160557
 20
130.4849335392
 30
0.0
 10
125.9546504214
 20
130.5209342476
 30
0.0
  0
SPLINE
  5
5FC
100
AcDbEntity
  8
0
100
AcDbSpline
 62
7
  6
CONTINUOUS
 70
0
 71
3
 72
9
 73
5
 74
0
 42
0.0000001
 43
0.0000001
 44
0.0000000001
 40
0.0
 40
0.0
 40
0.0
 40
0.0
 40
0.267149322
 40
1.0
 40
1.0
 40
1.0
 40
1.0
 10
53.8399739149
 20
141.692750588
 30
0.0
 10
53.8562528605
 20
141.6645543621
 30
0.0
 10
53.9229767476
 20
141.5627945699
 30
0.0
 10
54.0126318718
 20
141.4735104383
 30
0.0
 10
54.0899807171
 20
141.4288540718
 30
0.0
  0
SPLINE
  5
5FD
100
AcDbEntity
  8
0
100
AcDbSpline
 62
7
  6
CONTINUOUS
 70
0
 71
3
 72
9
 73
5
 74
0
 42
0.0000001
 43
0.0000001
 44
0.0000000001
 40
0.0
 40
0.0
 40
0.0
 40
0.0
 40
0.2400891609
 40
1.0
 40
1.0
 40
1.0
 40
1.0
 10
53.7474380099
 20
141.9337856773
 30
0.0
 10
53.7514202549
 20
141.9134564979
 30
0.0
 10
53.7720674549
 20
141.8296035025
 30
0.0
 10
53.80719056
 20
141.7495335582
 30
0.0
 10
53.8399739149
 20
141.692750588
 30
0.0
  0
SPLINE
  5
5FE
100
AcDbEntity
  8
0
100
AcDbSpline
 62
7
  6
CONTINUOUS
 70
0
 71
3
 72
9
 73
5
 74
0
 42
0.0000001
 43
0.0000001
 44
0.0000000001
 40
0.0
 40
0.0
 40
0.0
 40
0.0
 40
0.2636331969
 40
1.0
 40
1.0
 40
1.0
 40
1.0
 10
54.9056957958
 20
142.6387280676
 30
0.0
 10
54.9014250789
 20
142.6303596987
 30
0.0
 10
54.8833997136
 20
142.5996194328
 30
0.0
 10
54.8566550989
 20
142.5737144273
 30
0.0
 10
54.8339297641
 20
142.5605918197
 30
0.0
  0
SPLINE
  5
5FF
100
AcDbEntity
  8
0
100
AcDbSpline
 62
7
  6
CONTINUOUS
 70
0
 71
3
 72
15
 73
11
 74
0
 42
0.0000001
 43
0.0000001
 44
0.0000000001
 40
0.0
 40
0.0
 40
0.0
 40
0.0
 40
0.1287974769
 40
0.2706060703
 40
0.4178807568
 40
0.5623765801
 40
0.6961925898
 40
0.8135912016
 40
0.913066129
 40
1.0
 40
1.0
 40
1.0
 40
1.0
 10
100.5935470078
 20
116.6004529586
 30
0.0
 10
100.5935470078
 20
116.4936368516
 30
0.0
 10
100.5635978614
 20
116.268968466
 30
0.0
 10
100.4521311215
 20
115.9390957309
 30
0.0
 10
100.2801114393
 20
115.6213561711
 30
0.0
 10
100.06180972
 20
115.3418173695
 30
0.0
 10
99.8144551549
 20
115.1227802477
 30
0.0
 10
99.5565179504
 20
114.9818601022
 30
0.0
 10
99.3039870167
 20
114.9312270367
 30
0.0
 10
99.1471702416
 20
114.971655692
 30
0.0
 10
99.0847046073
 20
115.0076564005
 30
0.0
  0
SPLINE
  5
600
100
AcDbEntity
  8
0
100
AcDbSpline
 62
7
  6
CONTINUOUS
 70
0
 71
3
 72
9
 73
5
 74
0
 42
0.0000001
 43
0.0000001
 44
0.0000000001
 40
0.0
 40
0.0
 40
0.0
 40
0.0
 40
0.5097229299
 40
1.0
 40
1.0
 40
1.0
 40
1.0
 10
62.8601153931
 20
141.1529988819
 30
0.0
 10
62.8132936093
 20
141.2988089773
 30
0.0
 10
62.6782339875
 20
141.571711157
 30
0.0
 10
62.4761424514
 20
141.8009603549
 30
0.0
 10
62.3606770877
 20
141.8924223672
 30
0.0
  0
SPLINE
  5
601
100
AcDbEntity
  8
0
100
AcDbSpline
 62
7
  6
CONTINUOUS
 70
0
 71
3
 72
11
 73
7
 74
0
 42
0.0000001
 43
0.0000001
 44
0.0000000001
 40
0.0
 40
0.0
 40
0.0
 40
0.0
 40
0.2124590174
 40
0.4741294041
 40
0.7494173234
 40
1.0
 40
1.0
 40
1.0
 40
1.0
 10
62.18477581
 20
140.9655262059
 30
0.0
 10
62.2348205546
 20
140.9629368741
 30
0.0
 10
62.3470690289
 20
140.9728622332
 30
0.0
 10
62.5198682442
 20
141.0110681072
 30
0.0
 10
62.6961383982
 20
141.0707669356
 30
0.0
 10
62.8089299852
 20
141.1234471489
 30
0.0
 10
62.8601153935
 20
141.1529988818
 30
0.0
  0
SPLINE
  5
602
100
AcDbEntity
  8
0
100
AcDbSpline
 62
7
  6
CONTINUOUS
 70
0
 71
3
 72
9
 73
5
 74
0
 42
0.0000001
 43
0.0000001
 44
0.0000000001
 40
0.0
 40
0.0
 40
0.0
 40
0.0
 40
0.2594028122
 40
1.0
 40
1.0
 40
1.0
 40
1.0
 10
58.4851896654
 20
144.5425337805
 30
0.0
 10
58.1641916434
 20
144.7278578824
 30
0.0
 10
56.9129468986
 20
145.4177912623
 30
0.0
 10
55.6045561062
 20
146.0066563546
 30
0.0
 10
54.6097022402
 20
146.367348564
 30
0.0
  0
SPLINE
  5
603
100
AcDbEntity
  8
0
100
AcDbSpline
 62
7
  6
CONTINUOUS
 70
0
 71
3
 72
9
 73
5
 74
0
 42
0.0000001
 43
0.0000001
 44
0.0000000001
 40
0.0
 40
0.0
 40
0.0
 40
0.0
 40
0.2577378414
 40
1.0
 40
1.0
 40
1.0
 40
1.0
 10
62.3606770907
 20
141.8924223839
 30
0.0
 10
62.0443428017
 20
142.1429959731
 30
0.0
 10
60.8009008448
 20
143.0945413016
 30
0.0
 10
59.4916857994
 20
143.9614461126
 30
0.0
 10
58.4851896654
 20
144.5425337805
 30
0.0
  0
SPLINE
  5
604
100
AcDbEntity
  8
0
100
AcDbSpline
 62
7
  6
CONTINUOUS
 70
0
 71
3
 72
11
 73
7
 74
0
 42
0.0000001
 43
0.0000001
 44
0.0000000001
 40
0.0
 40
0.0
 40
0.0
 40
0.0
 40
0.2259858836
 40
0.4882425036
 40
0.7568011529
 40
1.0
 40
1.0
 40
1.0
 40
1.0
 10
61.9424715683
 20
141.3242601185
 30
0.0
 10
61.9519863863
 20
141.3778344893
 30
0.0
 10
61.9926617296
 20
141.4898517191
 30
0.0
 10
62.0881676307
 20
141.6459748169
 30
0.0
 10
62.2119457686
 20
141.7864532864
 30
0.0
 10
62.3099649457
 20
141.8631438882
 30
0.0
 10
62.3606770907
 20
141.8924223839
 30
0.0
  0
SPLINE
  5
605
100
AcDbEntity
  8
0
100
AcDbSpline
 62
7
  6
CONTINUOUS
 70
0
 71
3
 72
9
 73
5
 74
0
 42
0.0000001
 43
0.0000001
 44
0.0000000001
 40
0.0
 40
0.0
 40
0.0
 40
0.0
 40
0.5347023467
 40
1.0
 40
1.0
 40
1.0
 40
1.0
 10
54.6097022432
 20
146.3673485438
 30
0.0
 10
54.5478587295
 20
146.3897704032
 30
0.0
 10
54.4244006932
 20
146.4163110932
 30
0.0
 10
54.2992565645
 20
146.3849704173
 30
0.0
 10
54.2496942183
 20
146.356326848
 30
0.0
  0
SPLINE
  5
606
100
AcDbEntity
  8
0
100
AcDbSpline
 62
7
  6
CONTINUOUS
 70
0
 71
3
 72
10
 73
6
 74
0
 42
0.0000001
 43
0.0000001
 44
0.0000000001
 40
0.0
 40
0.0
 40
0.0
 40
0.0
 40
0.2487688738
 40
0.6423627184
 40
1.0
 40
1.0
 40
1.0
 40
1.0
 10
54.3208039283
 20
145.7245324161
 30
0.0
 10
54.3118889959
 20
145.7850229008
 30
0.0
 10
54.3162298914
 20
145.945534434
 30
0.0
 10
54.403154754
 20
146.1809334392
 30
0.0
 10
54.533576585
 20
146.323397637
 30
0.0
 10
54.6097022431
 20
146.3673485438
 30
0.0
  0
SPLINE
  5
607
100
AcDbEntity
  8
0
100
AcDbSpline
 62
7
  6
CONTINUOUS
 70
0
 71
3
 72
9
 73
5
 74
0
 42
0.0000001
 43
0.0000001
 44
0.0000000001
 40
0.0
 40
0.0
 40
0.0
 40
0.0
 40
0.5111220668
 40
1.0
 40
1.0
 40
1.0
 40
1.0
 10
62.0676087073
 20
138.5091720334
 30
0.0
 10
61.9992428566
 20
138.3949972448
 30
0.0
 10
61.8402267745
 20
138.1852021616
 30
0.0
 10
61.6317676259
 20
138.0233173257
 30
0.0
 10
61.5215508033
 20
137.9596455046
 30
0.0
  0
SPLINE
  5
608
100
AcDbEntity
  8
0
100
AcDbSpline
 62
7
  6
CONTINUOUS
 70
0
 71
3
 72
11
 73
7
 74
0
 42
0.0000001
 43
0.0000001
 44
0.0000000001
 40
0.0
 40
0.0
 40
0.0
 40
0.0
 40
0.2372368346
 40
0.4999850923
 40
0.7627414625
 40
1.0
 40
1.0
 40
1.0
 40
1.0
 10
61.3051883733
 20
137.6715219232
 30
0.0
 10
61.3051883733
 20
137.6135678064
 30
0.0
 10
61.3269278835
 20
137.491349356
 30
0.0
 10
61.4026800835
 20
137.3196061626
 30
0.0
 10
61.5135202562
 20
137.1681116849
 30
0.0
 10
61.6084866498
 20
137.0881555249
 30
0.0
 10
61.658674906
 20
137.0591653
 30
0.0
  0
SPLINE
  5
609
100
AcDbEntity
  8
0
100
AcDbSpline
 62
7
  6
CONTINUOUS
 70
0
 71
3
 72
15
 73
11
 74
0
 42
0.0000001
 43
0.0000001
 44
0.0000000001
 40
0.0
 40
0.0
 40
0.0
 40
0.0
 40
0.1287974769
 40
0.2706060703
 40
0.4178807568
 40
0.5623765801
 40
0.6961925898
 40
0.8135912016
 40
0.913066129
 40
1.0
 40
1.0
 40
1.0
 40
1.0
 10
127.463492822
 20
65.1605326011
 30
0.0
 10
127.463492822
 20
65.0537164941
 30
0.0
 10
127.4335436755
 20
64.8290481085
 30
0.0
 10
127.3220769356
 20
64.4991753733
 30
0.0
 10
127.1500572534
 20
64.1814358136
 30
0.0
 10
126.9317555341
 20
63.901897012
 30
0.0
 10
126.684400969
 20
63.6828598902
 30
0.0
 10
126.4264637646
 20
63.5419397447
 30
0.0
 10
126.1739328308
 20
63.4913066792
 30
0.0
 10
126.0171160557
 20
63.5317353345
 30
0.0
 10
125.9546504214
 20
63.567736043
 30
0.0
  0
SPLINE
  5
60A
100
AcDbEntity
  8
0
100
AcDbSpline
 62
7
  6
CONTINUOUS
 70
0
 71
3
 72
15
 73
11
 74
0
 42
0.0000001
 43
0.0000001
 44
0.0000000001
 40
0.0
 40
0.0
 40
0.0
 40
0.0
 40
0.1287974769
 40
0.2706060703
 40
0.4178807568
 40
0.5623765801
 40
0.6961925898
 40
0.8135912016
 40
0.913066129
 40
1.0
 40
1.0
 40
1.0
 40
1.0
 10
100.5935470078
 20
49.647254754
 30
0.0
 10
100.5935470078
 20
49.540438647
 30
0.0
 10
100.5635978614
 20
49.3157702614
 30
0.0
 10
100.4521311215
 20
48.9858975262
 30
0.0
 10
100.2801114393
 20
48.6681579664
 30
0.0
 10
100.06180972
 20
48.3886191649
 30
0.0
 10
99.8144551549
 20
48.1695820431
 30
0.0
 10
99.5565179504
 20
48.0286618976
 30
0.0
 10
99.3039870167
 20
47.9780288321
 30
0.0
 10
99.1471702416
 20
48.0184574874
 30
0.0
 10
99.0847046073
 20
48.0544581959
 30
0.0
  0
SPLINE
  5
60B
100
AcDbEntity
  8
0
100
AcDbSpline
 62
7
  6
CONTINUOUS
 70
0
 71
3
 72
9
 73
5
 74
0
 42
0.0000001
 43
0.0000001
 44
0.0000000001
 40
0.0
 40
0.0
 40
0.0
 40
0.0
 40
0.2291113314
 40
1.0
 40
1.0
 40
1.0
 40
1.0
 10
47.8674285986
 20
132.9651128437
 30
0.0
 10
47.8674285987
 20
132.9371735167
 30
0.0
 10
47.8782551994
 20
132.8152949806
 30
0.0
 10
47.9239599367
 20
132.698073894
 30
0.0
 10
47.9709631962
 20
132.616661095
 30
0.0
  0
SPLINE
  5
60C
100
AcDbEntity
  8
0
100
AcDbSpline
 62
7
  6
CONTINUOUS
 70
0
 71
3
 72
9
 73
5
 74
0
 42
0.0000001
 43
0.0000001
 44
0.0000000001
 40
0.0
 40
0.0
 40
0.0
 40
0.0
 40
0.2671493223
 40
1.0
 40
1.0
 40
1.0
 40
1.0
 10
47.9709631962
 20
132.616661095
 30
0.0
 10
47.9872421421
 20
132.5884648686
 30
0.0
 10
48.0539660301
 20
132.4867050751
 30
0.0
 10
48.143621156
 20
132.3974209429
 30
0.0
 10
48.2209700024
 20
132.352764576
 30
0.0
  0
SPLINE
  5
60D
100
AcDbEntity
  8
0
100
AcDbSpline
 62
7
  6
CONTINUOUS
 70
0
 71
3
 72
9
 73
5
 74
0
 42
0.0000001
 43
0.0000001
 44
0.0000000001
 40
0.0
 40
0.0
 40
0.0
 40
0.0
 40
0.2671493222
 40
1.0
 40
1.0
 40
1.0
 40
1.0
 10
60.2039614412
 20
120.6550815474
 30
0.0
 10
60.2202403871
 20
120.6268853211
 30
0.0
 10
60.2869642751
 20
120.5251255276
 30
0.0
 10
60.3766194009
 20
120.4358413955
 30
0.0
 10
60.4539682472
 20
120.3911850285
 30
0.0
  0
SPLINE
  5
60E
100
AcDbEntity
  8
0
100
AcDbSpline
 62
7
  6
CONTINUOUS
 70
0
 71
3
 72
9
 73
5
 74
0
 42
0.0000001
 43
0.0000001
 44
0.0000000001
 40
0.0
 40
0.0
 40
0.0
 40
0.0
 40
0.2291113313
 40
1.0
 40
1.0
 40
1.0
 40
1.0
 10
60.1004268429
 20
121.0035333034
 30
0.0
 10
60.1004268429
 20
120.9755939758
 30
0.0
 10
60.1112534432
 20
120.8537154373
 30
0.0
 10
60.1569581808
 20
120.736494348
 30
0.0
 10
60.2039614412
 20
120.6550815474
 30
0.0
  0
SPLINE
  5
60F
100
AcDbEntity
  8
0
100
AcDbSpline
 62
7
  6
CONTINUOUS
 70
0
 71
3
 72
9
 73
5
 74
0
 42
0.0000001
 43
0.0000001
 44
0.0000000001
 40
0.0
 40
0.0
 40
0.0
 40
0.0
 40
0.2291113313
 40
1.0
 40
1.0
 40
1.0
 40
1.0
 10
66.1108595067
 20
122.4325013843
 30
0.0
 10
66.1108595067
 20
122.4045620568
 30
0.0
 10
66.121686107
 20
122.2826835183
 30
0.0
 10
66.1673908445
 20
122.1654624289
 30
0.0
 10
66.214394105
 20
122.0840496284
 30
0.0
  0
SPLINE
  5
610
100
AcDbEntity
  8
0
100
AcDbSpline
 62
7
  6
CONTINUOUS
 70
0
 71
3
 72
9
 73
5
 74
0
 42
0.0000001
 43
0.0000001
 44
0.0000000001
 40
0.0
 40
0.0
 40
0.0
 40
0.0
 40
0.2671493222
 40
1.0
 40
1.0
 40
1.0
 40
1.0
 10
66.214394105
 20
122.0840496284
 30
0.0
 10
66.2306730508
 20
122.0558534021
 30
0.0
 10
66.2973969386
 20
121.9540936088
 30
0.0
 10
66.3870520642
 20
121.8648094768
 30
0.0
 10
66.4644009104
 20
121.8201531098
 30
0.0
  0
SPLINE
  5
611
100
AcDbEntity
  8
0
100
AcDbSpline
 62
7
  6
CONTINUOUS
 70
0
 71
3
 72
11
 73
7
 74
0
 42
0.0000001
 43
0.0000001
 44
0.0000000001
 40
0.0
 40
0.0
 40
0.0
 40
0.0
 40
0.2895453772
 40
0.5491366158
 40
0.7822776227
 40
1.0
 40
1.0
 40
1.0
 40
1.0
 10
21.821554538
 20
90.4304778309
 30
0.0
 10
21.821554538
 20
90.5393534572
 30
0.0
 10
21.8381791935
 20
90.7465275074
 30
0.0
 10
21.92193068
 20
91.0312247078
 30
0.0
 10
22.0632182085
 20
91.2622912755
 30
0.0
 10
22.19598982
 20
91.3737056201
 30
0.0
 10
22.2668894192
 20
91.4146410121
 30
0.0
  0
SPLINE
  5
612
100
AcDbEntity
  8
0
100
AcDbSpline
 62
7
  6
CONTINUOUS
 70
0
 71
3
 72
11
 73
7
 74
0
 42
0.0000001
 43
0.0000001
 44
0.0000000001
 40
0.0
 40
0.0
 40
0.0
 40
0.0
 40
0.2177450729
 40
0.4508830112
 40
0.7104597664
 40
1.0
 40
1.0
 40
1.0
 40
1.0
 10
61.3020456174
 20
128.6235468528
 30
0.0
 10
61.3339320714
 20
128.6419564109
 30
0.0
 10
61.3936519707
 20
128.6920476463
 30
0.0
 10
61.4571794189
 20
128.7959645618
 30
0.0
 10
61.4948407822
 20
128.9239843387
 30
0.0
 10
61.5023163627
 20
129.0171454567
 30
0.0
 10
61.5023163626
 20
129.0661048039
 30
0.0
  0
SPLINE
  5
613
100
AcDbEntity
  8
0
100
AcDbSpline
 62
7
  6
CONTINUOUS
 70
0
 71
3
 72
9
 73
5
 74
0
 42
0.0000001
 43
0.0000001
 44
0.0000000001
 40
0.0
 40
0.0
 40
0.0
 40
0.0
 40
0.2671493223
 40
1.0
 40
1.0
 40
1.0
 40
1.0
 10
47.9709631962
 20
127.7176466006
 30
0.0
 10
47.9872421421
 20
127.6894503742
 30
0.0
 10
48.0539660303
 20
127.5876905804
 30
0.0
 10
48.1436211564
 20
127.4984064482
 30
0.0
 10
48.220970003
 20
127.4537500812
 30
0.0
  0
SPLINE
  5
614
100
AcDbEntity
  8
0
100
AcDbSpline
 62
7
  6
CONTINUOUS
 70
0
 71
3
 72
9
 73
5
 74
0
 42
0.0000001
 43
0.0000001
 44
0.0000000001
 40
0.0
 40
0.0
 40
0.0
 40
0.0
 40
0.2291113314
 40
1.0
 40
1.0
 40
1.0
 40
1.0
 10
47.8674285986
 20
128.0660983493
 30
0.0
 10
47.8674285987
 20
128.0381590223
 30
0.0
 10
47.8782551994
 20
127.9162804862
 30
0.0
 10
47.9239599367
 20
127.7990593995
 30
0.0
 10
47.9709631962
 20
127.7176466006
 30
0.0
  0
SPLINE
  5
615
100
AcDbEntity
  8
0
100
AcDbSpline
 62
7
  6
CONTINUOUS
 70
0
 71
3
 72
9
 73
5
 74
0
 42
0.0000001
 43
0.0000001
 44
0.0000000001
 40
0.0
 40
0.0
 40
0.0
 40
0.0
 40
0.2206193137
 40
1.0
 40
1.0
 40
1.0
 40
1.0
 10
148.0687612309
 20
81.0597272756
 30
0.0
 10
148.0654688911
 20
81.0616300586
 30
0.0
 10
148.0488952902
 20
81.0676278784
 30
0.0
 10
148.0303932469
 20
81.0614883951
 30
0.0
 10
148.0187597545
 20
81.0547710502
 30
0.0
  0
SPLINE
  5
616
100
AcDbEntity
  8
0
100
AcDbSpline
 62
7
  6
CONTINUOUS
 70
0
 71
3
 72
11
 73
7
 74
0
 42
0.0000001
 43
0.0000001
 44
0.0000000001
 40
0.0
 40
0.0
 40
0.0
 40
0.0
 40
0.2372446848
 40
0.5000016179
 40
0.7627576706
 40
1.0
 40
1.0
 40
1.0
 40
1.0
 10
105.8614705953
 20
72.3663819545
 30
0.0
 10
105.8614705953
 20
72.3200134664
 30
0.0
 10
105.8440743941
 20
72.2222278124
 30
0.0
 10
105.7834593779
 20
72.0848223672
 30
0.0
 10
105.694771186
 20
71.9636254108
 30
0.0
 10
105.618785009
 20
71.8996672339
 30
0.0
 10
105.5786290591
 20
71.8764833239
 30
0.0
  0
SPLINE
  5
617
100
AcDbEntity
  8
0
100
AcDbSpline
 62
7
  6
CONTINUOUS
 70
0
 71
3
 72
11
 73
7
 74
0
 42
0.0000001
 43
0.0000001
 44
0.0000000001
 40
0.0
 40
0.0
 40
0.0
 40
0.0
 40
0.2176899422
 40
0.4508856506
 40
0.7106204681
 40
1.0
 40
1.0
 40
1.0
 40
1.0
 10
127.2045756295
 20
65.7327187744
 30
0.0
 10
127.2458081821
 20
65.7089552903
 30
0.0
 10
127.322960675
 20
65.6441177484
 30
0.0
 10
127.4051789661
 20
65.5097902583
 30
0.0
 10
127.4537681135
 20
65.3442253797
 30
0.0
 10
127.463492822
 20
65.2237951843
 30
0.0
 10
127.463492822
 20
65.1605326011
 30
0.0
  0
SPLINE
  5
618
100
AcDbEntity
  8
0
100
AcDbSpline
 62
7
  6
CONTINUOUS
 70
0
 71
3
 72
9
 73
5
 74
0
 42
0.0000001
 43
0.0000001
 44
0.0000000001
 40
0.0
 40
0.0
 40
0.0
 40
0.0
 40
0.2710239438
 40
1.0
 40
1.0
 40
1.0
 40
1.0
 10
101.8110868066
 20
55.5917646425
 30
0.0
 10
101.8144528764
 20
55.5824005226
 30
0.0
 10
101.8290788676
 20
55.5487600164
 30
0.0
 10
101.855279511
 20
55.5195923212
 30
0.0
 10
101.8784584731
 20
55.5062102495
 30
0.0
  0
SPLINE
  5
619
100
AcDbEntity
  8
0
100
AcDbSpline
 62
7
  6
CONTINUOUS
 70
0
 71
3
 72
11
 73
7
 74
0
 42
0.0000001
 43
0.0000001
 44
0.0000000001
 40
0.0
 40
0.0
 40
0.0
 40
0.0
 40
0.2372423293
 40
0.4999983818
 40
0.762755315
 40
1.0
 40
1.0
 40
1.0
 40
1.0
 10
136.4224779513
 20
145.7614183957
 30
0.0
 10
136.3722830145
 20
145.7324385076
 30
0.0
 10
136.2773002929
 20
145.6524907877
 30
0.0
 10
136.1664400537
 20
145.5009945923
 30
0.0
 10
136.0906712832
 20
145.3292377865
 30
0.0
 10
136.0689260315
 20
145.2070057193
 30
0.0
 10
136.0689260313
 20
145.1490451093
 30
0.0
  0
SPLINE
  5
61A
100
AcDbEntity
  8
0
100
AcDbSpline
 62
7
  6
CONTINUOUS
 70
0
 71
3
 72
9
 73
5
 74
0
 42
0.0000001
 43
0.0000001
 44
0.0000000001
 40
0.0
 40
0.0
 40
0.0
 40
0.0
 40
0.5346097974
 40
1.0
 40
1.0
 40
1.0
 40
1.0
 10
143.8243741288
 20
149.217667296
 30
0.0
 10
143.805007067
 20
149.2104290569
 30
0.0
 10
143.7662665776
 20
149.2018523194
 30
0.0
 10
143.7267932365
 20
149.2113429959
 30
0.0
 10
143.7112043607
 20
149.220339226
 30
0.0
  0
SPLINE
  5
61B
100
AcDbEntity
  8
0
100
AcDbSpline
 62
7
  6
CONTINUOUS
 70
0
 71
3
 72
9
 73
5
 74
0
 42
0.0000001
 43
0.0000001
 44
0.0000000001
 40
0.0
 40
0.0
 40
0.0
 40
0.0
 40
0.500001672
 40
1.0
 40
1.0
 40
1.0
 40
1.0
 10
147.0290355069
 20
150.7072972585
 30
0.0
 10
147.0290355067
 20
150.6345927227
 30
0.0
 10
146.9793496985
 20
150.4910343976
 30
0.0
 10
146.8798680032
 20
150.3762251481
 30
0.0
 10
146.8169043554
 20
150.339873286
 30
0.0
  0
SPLINE
  5
61C
100
AcDbEntity
  8
0
100
AcDbSpline
 62
7
  6
CONTINUOUS
 70
0
 71
3
 72
11
 73
7
 74
0
 42
0.0000001
 43
0.0000001
 44
0.0000000001
 40
0.0
 40
0.0
 40
0.0
 40
0.0
 40
0.2372423293
 40
0.4999983819
 40
0.762755315
 40
1.0
 40
1.0
 40
1.0
 40
1.0
 10
147.3825874267
 20
151.6401264499
 30
0.0
 10
147.3323924896
 20
151.6111465623
 30
0.0
 10
147.2374097686
 20
151.5311988416
 30
0.0
 10
147.1265495292
 20
151.3797026466
 30
0.0
 10
147.0507807588
 20
151.2079458407
 30
0.0
 10
147.029035507
 20
151.0857137736
 30
0.0
 10
147.0290355069
 20
151.0277531636
 30
0.0
  0
SPLINE
  5
61D
100
AcDbEntity
  8
0
100
AcDbSpline
 62
7
  6
CONTINUOUS
 70
0
 71
3
 72
9
 73
5
 74
0
 42
0.0000001
 43
0.0000001
 44
0.0000000001
 40
0.0
 40
0.0
 40
0.0
 40
0.0
 40
0.2361808485
 40
1.0
 40
1.0
 40
1.0
 40
1.0
 10
61.3186906405
 20
137.7754701985
 30
0.0
 10
61.316410605
 20
137.7675230269
 30
0.0
 10
61.3081666558
 20
137.733472413
 30
0.0
 10
61.3051883733
 20
137.6982602668
 30
0.0
 10
61.3051883733
 20
137.6715219232
 30
0.0
  0
SPLINE
  5
61E
100
AcDbEntity
  8
0
100
AcDbSpline
 62
7
  6
CONTINUOUS
 70
0
 71
3
 72
9
 73
5
 74
0
 42
0.0000001
 43
0.0000001
 44
0.0000000001
 40
0.0
 40
0.0
 40
0.0
 40
0.0
 40
0.5480292197
 40
1.0
 40
1.0
 40
1.0
 40
1.0
 10
102.7148435052
 20
57.1181860593
 30
0.0
 10
102.6986571698
 20
57.10884093
 30
0.0
 10
102.6654647382
 20
57.0961947621
 30
0.0
 10
102.6297159378
 20
57.1032083464
 30
0.0
 10
102.6163666785
 20
57.1109153575
 30
0.0
  0
SPLINE
  5
61F
100
AcDbEntity
  8
0
100
AcDbSpline
 62
7
  6
CONTINUOUS
 70
0
 71
3
 72
11
 73
7
 74
0
 42
0.0000001
 43
0.0000001
 44
0.0000000001
 40
0.0
 40
0.0
 40
0.0
 40
0.0
 40
0.2176899422
 40
0.4508856506
 40
0.7106204681
 40
1.0
 40
1.0
 40
1.0
 40
1.0
 10
127.2045756295
 20
132.6859169791
 30
0.0
 10
127.2458081821
 20
132.662153495
 30
0.0
 10
127.322960675
 20
132.5973159531
 30
0.0
 10
127.4051789661
 20
132.4629884629
 30
0.0
 10
127.4537681135
 20
132.2974235844
 30
0.0
 10
127.463492822
 20
132.1769933889
 30
0.0
 10
127.463492822
 20
132.1137308057
 30
0.0
  0
SPLINE
  5
620
100
AcDbEntity
  8
0
100
AcDbSpline
 62
7
  6
CONTINUOUS
 70
0
 71
3
 72
9
 73
5
 74
0
 42
0.0000001
 43
0.0000001
 44
0.0000000001
 40
0.0
 40
0.0
 40
0.0
 40
0.0
 40
0.2647098316
 40
1.0
 40
1.0
 40
1.0
 40
1.0
 10
51.9089155465
 20
176.4285704995
 30
0.0
 10
52.0159438847
 20
176.444019393
 30
0.0
 10
52.4221507835
 20
176.4757111609
 30
0.0
 10
52.8486821539
 20
176.3933052139
 30
0.0
 10
53.1088138438
 20
176.2431144435
 30
0.0
  0
SPLINE
  5
621
100
AcDbEntity
  8
0
100
AcDbSpline
 62
7
  6
CONTINUOUS
 70
0
 71
3
 72
13
 73
9
 74
0
 42
0.0000001
 43
0.0000001
 44
0.0000000001
 40
0.0
 40
0.0
 40
0.0
 40
0.0
 40
0.377345247
 40
0.6632103061
 40
0.7715670371
 40
0.8588797522
 40
0.9309849454
 40
1.0
 40
1.0
 40
1.0
 40
1.0
 10
39.888050219
 20
183.3686633263
 30
0.0
 10
39.9122993488
 20
183.4246621955
 30
0.0
 10
39.95863403
 20
183.5214249293
 30
0.0
 10
40.0264387155
 20
183.6273332137
 30
0.0
 10
40.0814658216
 20
183.6829154077
 30
0.0
 10
40.118135375
 20
183.7068767746
 30
0.0
 10
40.1553215288
 20
183.7154274958
 30
0.0
 10
40.1782453339
 20
183.7083949171
 30
0.0
 10
40.1879187903
 20
183.702827832
 30
0.0
  0
SPLINE
  5
622
100
AcDbEntity
  8
0
100
AcDbSpline
 62
7
  6
CONTINUOUS
 70
0
 71
3
 72
9
 73
5
 74
0
 42
0.0000001
 43
0.0000001
 44
0.0000000001
 40
0.0
 40
0.0
 40
0.0
 40
0.0
 40
0.2431469823
 40
1.0
 40
1.0
 40
1.0
 40
1.0
 10
101.9863515802
 20
73.2547678424
 30
0.0
 10
101.976063249
 20
73.2447502811
 30
0.0
 10
101.9353495964
 20
73.201925982
 30
0.0
 10
101.9008048328
 20
73.1533440743
 30
0.0
 10
101.8784559121
 20
73.1146343935
 30
0.0
  0
SPLINE
  5
623
100
AcDbEntity
  8
0
100
AcDbSpline
 62
7
  6
CONTINUOUS
 70
0
 71
3
 72
9
 73
5
 74
0
 42
0.0000001
 43
0.0000001
 44
0.0000000001
 40
0.0
 40
0.0
 40
0.0
 40
0.0
 40
0.2554138352
 40
1.0
 40
1.0
 40
1.0
 40
1.0
 10
101.8784559121
 20
73.1146343935
 30
0.0
 10
101.8709216736
 20
73.1015846371
 30
0.0
 10
101.8431207329
 20
73.0495466319
 30
0.0
 10
101.8219028329
 20
72.9938686018
 30
0.0
 10
101.811087322
 20
72.951292829
 30
0.0
  0
SPLINE
  5
624
100
AcDbEntity
  8
0
100
AcDbSpline
 62
7
  6
CONTINUOUS
 70
0
 71
3
 72
13
 73
9
 74
0
 42
0.0000001
 43
0.0000001
 44
0.0000000001
 40
0.0
 40
0.0
 40
0.0
 40
0.0
 40
0.3773900597
 40
0.6632456385
 40
0.771579632
 40
0.8588650844
 40
0.9309566452
 40
1.0
 40
1.0
 40
1.0
 40
1.0
 10
39.888050219
 20
183.3686633263
 30
0.0
 10
39.8637913796
 20
183.4246826357
 30
0.0
 10
39.8174399508
 20
183.5214732656
 30
0.0
 10
39.7496064789
 20
183.6274055614
 30
0.0
 10
39.6945543523
 20
183.6829778224
 30
0.0
 10
39.6578685339
 20
183.7069189519
 30
0.0
 10
39.6206613486
 20
183.7154266697
 30
0.0
 10
39.5977407406
 20
183.7083522091
 30
0.0
 10
39.5880690624
 20
183.702767246
 30
0.0
  0
SPLINE
  5
625
100
AcDbEntity
  8
0
100
AcDbSpline
 62
7
  6
CONTINUOUS
 70
0
 71
3
 72
9
 73
5
 74
0
 42
0.0000001
 43
0.0000001
 44
0.0000000001
 40
0.0
 40
0.0
 40
0.0
 40
0.0
 40
0.2647096856
 40
1.0
 40
1.0
 40
1.0
 40
1.0
 10
30.6957003352
 20
178.061489326
 30
0.0
 10
30.5886712098
 20
178.0769377865
 30
0.0
 10
30.1824612253
 20
178.1086276287
 30
0.0
 10
29.755927152
 20
178.0262183931
 30
0.0
 10
29.4957946135
 20
177.8760246571
 30
0.0
  0
SPLINE
  5
626
100
AcDbEntity
  8
0
100
AcDbSpline
 62
7
  6
CONTINUOUS
 70
0
 71
3
 72
11
 73
7
 74
0
 42
0.0000001
 43
0.0000001
 44
0.0000000001
 40
0.0
 40
0.0
 40
0.0
 40
0.0
 40
0.2393940321
 40
0.5038147365
 40
0.7645842981
 40
1.0
 40
1.0
 40
1.0
 40
1.0
 10
64.1329294807
 20
137.2072791938
 30
0.0
 10
64.0794127997
 20
137.1763815081
 30
0.0
 10
63.9537337713
 20
137.1339765453
 30
0.0
 10
63.7553954553
 20
137.1197383474
 30
0.0
 10
63.55971466
 20
137.148393283
 30
0.0
 10
63.4387066278
 20
137.1952384989
 30
0.0
 10
63.3860790859
 20
137.2256223371
 30
0.0
  0
SPLINE
  5
627
100
AcDbEntity
  8
0
100
AcDbSpline
 62
7
  6
CONTINUOUS
 70
0
 71
3
 72
11
 73
7
 74
0
 42
0.0000001
 43
0.0000001
 44
0.0000000001
 40
0.0
 40
0.0
 40
0.0
 40
0.0
 40
0.2933288794
 40
0.5483398651
 40
0.7744538862
 40
1.0
 40
1.0
 40
1.0
 40
1.0
 10
52.8771964077
 20
143.292791322
 30
0.0
 10
52.8446080559
 20
143.3116057901
 30
0.0
 10
52.7868157733
 20
143.3529650333
 30
0.0
 10
52.7235015833
 20
143.4317865492
 30
0.0
 10
52.6977642331
 20
143.5221303169
 30
0.0
 10
52.7125938283
 20
143.5811654479
 30
0.0
 10
52.7256814792
 20
143.606970389
 30
0.0
  0
SPLINE
  5
628
100
AcDbEntity
  8
0
100
AcDbSpline
 62
7
  6
CONTINUOUS
 70
0
 71
3
 72
11
 73
7
 74
0
 42
0.0000001
 43
0.0000001
 44
0.0000000001
 40
0.0
 40
0.0
 40
0.0
 40
0.0
 40
0.2372428732
 40
0.4999994739
 40
0.7627563609
 40
1.0
 40
1.0
 40
1.0
 40
1.0
 10
43.1408367969
 20
159.2832691609
 30
0.0
 10
43.0806028055
 20
159.2484932574
 30
0.0
 10
42.9405289068
 20
159.1977532208
 30
0.0
 10
42.7165733953
 20
159.1734409204
 30
0.0
 10
42.4926175457
 20
159.1977521988
 30
0.0
 10
42.3525430962
 20
159.2484915398
 30
0.0
 10
42.2923086595
 20
159.2832671213
 30
0.0
  0
SPLINE
  5
629
100
AcDbEntity
  8
0
100
AcDbSpline
 62
7
  6
CONTINUOUS
 70
0
 71
3
 72
11
 73
7
 74
0
 42
0.0000001
 43
0.0000001
 44
0.0000000001
 40
0.0
 40
0.0
 40
0.0
 40
0.0
 40
0.2037590511
 40
0.4586579064
 40
0.7392442554
 40
1.0
 40
1.0
 40
1.0
 40
1.0
 10
42.7165656627
 20
171.1213964992
 30
0.0
 10
42.6556839008
 20
170.9808013582
 30
0.0
 10
42.546209625
 20
170.6526563222
 30
0.0
 10
42.4167727687
 20
170.1116672246
 30
0.0
 10
42.3228662634
 20
169.5198566008
 30
0.0
 10
42.2923086595
 20
169.112927939
 30
0.0
 10
42.2923086595
 20
168.9168599636
 30
0.0
  0
SPLINE
  5
62A
100
AcDbEntity
  8
0
100
AcDbSpline
 62
7
  6
CONTINUOUS
 70
0
 71
3
 72
11
 73
7
 74
0
 42
0.0000001
 43
0.0000001
 44
0.0000000001
 40
0.0
 40
0.0
 40
0.0
 40
0.0
 40
0.2372167448
 40
0.4999994744
 40
0.7627824897
 40
1.0
 40
1.0
 40
1.0
 40
1.0
 10
43.1408367969
 20
168.9168620032
 30
0.0
 10
43.0806124144
 20
168.8820916473
 30
0.0
 10
42.9405277115
 20
168.8313814435
 30
0.0
 10
42.7165733946
 20
168.8071695306
 30
0.0
 10
42.4926187403
 20
168.8313804214
 30
0.0
 10
42.3525334872
 20
168.8820899297
 30
0.0
 10
42.2923086595
 20
168.9168599636
 30
0.0
  0
SPLINE
  5
62B
100
AcDbEntity
  8
0
100
AcDbSpline
 62
7
  6
CONTINUOUS
 70
0
 71
3
 72
11
 73
7
 74
0
 42
0.0000001
 43
0.0000001
 44
0.0000000001
 40
0.0
 40
0.0
 40
0.0
 40
0.0
 40
0.2037593669
 40
0.4586582604
 40
0.7392444583
 40
1.0
 40
1.0
 40
1.0
 40
1.0
 10
42.7165656627
 20
171.1213964992
 30
0.0
 10
42.7774493703
 20
170.9808018405
 30
0.0
 10
42.8869272967
 20
170.6526574564
 30
0.0
 10
43.016368502
 20
170.1116688638
 30
0.0
 10
43.1102781699
 20
169.5198585811
 30
0.0
 10
43.1408367969
 20
169.1129299452
 30
0.0
 10
43.1408367969
 20
168.9168620032
 30
0.0
  0
SPLINE
  5
62C
100
AcDbEntity
  8
0
100
AcDbSpline
 62
7
  6
CONTINUOUS
 70
0
 71
3
 72
9
 73
5
 74
0
 42
0.0000001
 43
0.0000001
 44
0.0000000001
 40
0.0
 40
0.0
 40
0.0
 40
0.0
 40
0.2491713929
 40
1.0
 40
1.0
 40
1.0
 40
1.0
 10
51.9089155465
 20
176.4285704995
 30
0.0
 10
52.0029402704
 20
176.4149990793
 30
0.0
 10
52.3765852757
 20
176.3385533278
 30
0.0
 10
52.7342974501
 20
176.1761956217
 30
0.0
 10
52.966630829
 20
176.0089635485
 30
0.0
  0
SPLINE
  5
62D
100
AcDbEntity
  8
0
100
AcDbSpline
 62
7
  6
CONTINUOUS
 70
0
 71
3
 72
11
 73
7
 74
0
 42
0.0000001
 43
0.0000001
 44
0.0000000001
 40
0.0
 40
0.0
 40
0.0
 40
0.0
 40
0.2677883947
 40
0.5257015058
 40
0.77006456
 40
1.0
 40
1.0
 40
1.0
 40
1.0
 10
52.966630829
 20
176.0089635485
 30
0.0
 10
53.0588102909
 20
175.9426133642
 30
0.0
 10
53.2297655339
 20
175.7974482635
 30
0.0
 10
53.4358155801
 20
175.5410688329
 30
0.0
 10
53.5719125414
 20
175.2584488336
 30
0.0
 10
53.6059735877
 20
175.0563966543
 30
0.0
 10
53.6059735877
 20
174.9588754805
 30
0.0
  0
SPLINE
  5
62E
100
AcDbEntity
  8
0
100
AcDbSpline
 62
7
  6
CONTINUOUS
 70
0
 71
3
 72
9
 73
5
 74
0
 42
0.0000001
 43
0.0000001
 44
0.0000000001
 40
0.0
 40
0.0
 40
0.0
 40
0.0
 40
0.5254521769
 40
1.0
 40
1.0
 40
1.0
 40
1.0
 10
31.1906830308
 20
176.647359718
 30
0.0
 10
31.0814368661
 20
176.471456562
 30
0.0
 10
30.912101406
 20
176.1114550656
 30
0.0
 10
30.8371311121
 20
175.7173668955
 30
0.0
 10
30.8371311121
 20
175.5303601868
 30
0.0
  0
SPLINE
  5
62F
100
AcDbEntity
  8
0
100
AcDbSpline
 62
7
  6
CONTINUOUS
 70
0
 71
3
 72
9
 73
5
 74
0
 42
0.0000001
 43
0.0000001
 44
0.0000000001
 40
0.0
 40
0.0
 40
0.0
 40
0.0
 40
0.2491727536
 40
1.0
 40
1.0
 40
1.0
 40
1.0
 10
30.6957003352
 20
178.061489326
 30
0.0
 10
30.6016489788
 20
178.0479135813
 30
0.0
 10
30.2279016519
 20
177.9714385544
 30
0.0
 10
29.870096083
 20
177.8090034903
 30
0.0
 10
29.6377248727
 20
177.6416883971
 30
0.0
  0
SPLINE
  5
630
100
AcDbEntity
  8
0
100
AcDbSpline
 62
7
  6
CONTINUOUS
 70
0
 71
3
 72
11
 73
7
 74
0
 42
0.0000001
 43
0.0000001
 44
0.0000000001
 40
0.0
 40
0.0
 40
0.0
 40
0.0
 40
0.2677873359
 40
0.5256987181
 40
0.7700615783
 40
1.0
 40
1.0
 40
1.0
 40
1.0
 10
29.6377248727
 20
177.6416883971
 30
0.0
 10
29.5455794459
 20
177.5753405882
 30
0.0
 10
29.3746897962
 20
177.4301876577
 30
0.0
 10
29.1687254332
 20
177.1738478219
 30
0.0
 10
29.0326899843
 20
176.8912863869
 30
0.0
 10
28.9986458268
 20
176.6892840631
 30
0.0
 10
28.9986458268
 20
176.5917861486
 30
0.0
  0
SPLINE
  5
631
100
AcDbEntity
  8
0
100
AcDbSpline
 62
7
  6
CONTINUOUS
 70
0
 71
3
 72
9
 73
5
 74
0
 42
0.0000001
 43
0.0000001
 44
0.0000000001
 40
0.0
 40
0.0
 40
0.0
 40
0.0
 40
0.4745807871
 40
1.0
 40
1.0
 40
1.0
 40
1.0
 10
31.897786868
 20
177.3674800433
 30
0.0
 10
31.7585289963
 20
177.2870799536
 30
0.0
 10
31.4929027317
 20
177.069111252
 30
0.0
 10
31.2846077862
 20
176.7985930447
 30
0.0
 10
31.1906830308
 20
176.647359718
 30
0.0
  0
SPLINE
  5
632
100
AcDbEntity
  8
0
100
AcDbSpline
 62
7
  6
CONTINUOUS
 70
0
 71
3
 72
10
 73
6
 74
0
 42
0.0000001
 43
0.0000001
 44
0.0000000001
 40
0.0
 40
0.0
 40
0.0
 40
0.0
 40
0.2289293685
 40
0.4690723675
 40
1.0
 40
1.0
 40
1.0
 40
1.0
 10
53.9866920356
 20
146.0769880967
 30
0.0
 10
53.9705619166
 20
146.0453607027
 30
0.0
 10
53.9494856638
 20
145.9737456721
 30
0.0
 10
53.9594351718
 20
145.8166194513
 30
0.0
 10
54.0231939375
 20
145.706579625
 30
0.0
 10
54.0784996837
 20
145.6455810326
 30
0.0
  0
SPLINE
  5
633
100
AcDbEntity
  8
0
100
AcDbSpline
 62
7
  6
CONTINUOUS
 70
0
 71
3
 72
16
 73
12
 74
0
 42
0.0000001
 43
0.0000001
 44
0.0000000001
 40
0.0
 40
0.0
 40
0.0
 40
0.0
 40
0.0428757513
 40
0.0875233495
 40
0.186923412
 40
0.3042342846
 40
0.4379543358
 40
0.5823556103
 40
0.7295669664
 40
0.8712579545
 40
1.0
 40
1.0
 40
1.0
 40
1.0
 10
24.416791475
 20
87.6908794036
 30
0.0
 10
24.3637907382
 20
87.6602783007
 30
0.0
 10
24.2469958901
 20
87.6116129949
 30
0.0
 10
23.9806667936
 20
87.57271521
 30
0.0
 10
23.6047449632
 20
87.6460391223
 30
0.0
 10
23.1618771807
 20
87.8889687874
 30
0.0
 10
22.7361675835
 20
88.2654629881
 30
0.0
 10
22.3606840646
 20
88.7463215593
 30
0.0
 10
22.0648473834
 20
89.292861007
 30
0.0
 10
21.8730112495
 20
89.8602646136
 30
0.0
 10
21.821554538
 20
90.2467123703
 30
0.0
 10
21.821554538
 20
90.4304778309
 30
0.0
  0
SPLINE
  5
634
100
AcDbEntity
  8
0
100
AcDbSpline
 62
7
  6
CONTINUOUS
 70
0
 71
3
 72
9
 73
5
 74
0
 42
0.0000001
 43
0.0000001
 44
0.0000000001
 40
0.0
 40
0.0
 40
0.0
 40
0.0
 40
0.451968793
 40
1.0
 40
1.0
 40
1.0
 40
1.0
 10
105.2174733785
 20
74.4148714579
 30
0.0
 10
105.230823158
 20
74.4071641464
 30
0.0
 10
105.2547728453
 20
74.3797104731
 30
0.0
 10
105.2604173183
 20
74.3446403321
 30
0.0
 10
105.2604173192
 20
74.3259491115
 30
0.0
  0
ELLIPSE
  5
635
100
AcDbEntity
  8
0
100
AcDbEllipse
 62
7
  6
CONTINUOUS
 10
63.3046339907
 20
135.5093672489
 30
0.0
 11
-0.2499988807
 21
0.4330133476
 31
0.0
 40
0.5774007686
 41
3.9270375229
 42
5.4977577098
  0
ELLIPSE
  5
636
100
AcDbEntity
  8
0
100
AcDbEllipse
 62
7
  6
CONTINUOUS
 10
62.8107385803
 20
136.6110449531
 30
0.0
 11
-0.2499911193
 21
0.4330192254
 31
0.0
 40
0.5773850953
 41
1.2126059331
 42
2.3562009332
  0
ELLIPSE
  5
637
100
AcDbEntity
  8
0
100
AcDbEllipse
 62
7
  6
CONTINUOUS
 10
61.9027427838
 20
130.2091985581
 30
0.0
 11
-0.4999977614
 21
0.8660266952
 31
0.0
 40
0.5774007686
 41
-2.3561477742
 42
-0.7854275998
  0
ELLIPSE
  5
638
100
AcDbEntity
  8
0
100
AcDbEllipse
 62
7
  6
CONTINUOUS
 10
61.9027427838
 20
123.9629550777
 30
0.0
 11
-0.4999977614
 21
0.8660266952
 31
0.0
 40
0.5774007686
 41
-2.3561477796
 42
-0.7854275998
  0
ELLIPSE
  5
639
100
AcDbEntity
  8
0
100
AcDbEllipse
 62
7
  6
CONTINUOUS
 10
50.9302138006
 20
136.9380635429
 30
0.0
 11
-0.2499988807
 21
0.4330133476
 31
0.0
 40
0.5774007686
 41
3.9270375229
 42
5.4977577167
  0
ELLIPSE
  5
63A
100
AcDbEntity
  8
0
100
AcDbEllipse
 62
7
  6
CONTINUOUS
 10
69.1736447094
 20
116.6074230875
 30
0.0
 11
-0.2499988807
 21
0.4330133476
 31
0.0
 40
0.5774007686
 41
3.9270375394
 42
5.4977577189
  0
ELLIPSE
  5
63B
100
AcDbEntity
  8
0
100
AcDbEllipse
 62
7
  6
CONTINUOUS
 10
69.1736447094
 20
126.4054520763
 30
0.0
 11
-0.2499988807
 21
0.4330133476
 31
0.0
 40
0.5774007686
 41
3.9270375396
 42
5.4977577189
  0
ELLIPSE
  5
63C
100
AcDbEntity
  8
0
100
AcDbEllipse
 62
7
  6
CONTINUOUS
 10
69.1736447094
 20
129.4801620509
 30
0.0
 11
-0.2499988807
 21
0.4330133476
 31
0.0
 40
0.5774007686
 41
-2.3561477762
 42
-0.7854276037
  0
ELLIPSE
  5
63D
100
AcDbEntity
  8
0
100
AcDbEllipse
 62
7
  6
CONTINUOUS
 10
63.3046339907
 20
132.8685603134
 30
0.0
 11
-0.2499988807
 21
0.4330133476
 31
0.0
 40
0.5774007686
 41
3.9270375203
 42
5.4977576985
  0
ELLIPSE
  5
63E
100
AcDbEntity
  8
0
100
AcDbEllipse
 62
7
  6
CONTINUOUS
 10
56.9406464644
 20
136.5427271041
 30
0.0
 11
-0.2499988807
 21
0.4330133476
 31
0.0
 40
0.5774007686
 41
3.9270375203
 42
5.4977576985
  0
ELLIPSE
  5
63F
100
AcDbEntity
  8
0
100
AcDbEllipse
 62
7
  6
CONTINUOUS
 10
50.9302138006
 20
140.0127735175
 30
0.0
 11
-0.2499988807
 21
0.4330133476
 31
0.0
 40
0.5774007686
 41
3.9270375203
 42
5.4977576985
  0
ELLIPSE
  5
640
100
AcDbEntity
  8
0
100
AcDbEllipse
 62
7
  6
CONTINUOUS
 10
50.9302138006
 20
142.653580453
 30
0.0
 11
-0.2499988807
 21
0.4330133476
 31
0.0
 40
0.5774007686
 41
-2.3561477805
 42
-0.7854275939
  0
ELLIPSE
  5
641
100
AcDbEntity
  8
0
100
AcDbEllipse
 62
7
  6
CONTINUOUS
 10
69.1736447094
 20
132.1209689864
 30
0.0
 11
-0.2499988807
 21
0.4330133476
 31
0.0
 40
0.5774007686
 41
3.9270375336
 42
5.4977577084
  0
ELLIPSE
  5
642
100
AcDbEntity
  8
0
100
AcDbEllipse
 62
7
  6
CONTINUOUS
 10
56.9406464644
 20
123.6699881407
 30
0.0
 11
-0.2499988807
 21
0.4330133476
 31
0.0
 40
0.5774007686
 41
3.9270375227
 42
5.4977577167
  0
ELLIPSE
  5
643
100
AcDbEntity
  8
0
100
AcDbEllipse
 62
7
  6
CONTINUOUS
 10
53.1696953785
 20
142.1771779182
 30
0.0
 11
-0.2500033736
 21
0.4330404462
 31
0.0
 40
0.5773285046
 41
2.3562499379
 42
3.4998449403
  0
ELLIPSE
  5
644
100
AcDbEntity
  8
0
100
AcDbEllipse
 62
7
  6
CONTINUOUS
 10
54.0776911749
 20
134.726892007
 30
0.0
 11
-0.5000358409
 21
0.8660926466
 31
0.0
 40
0.5773128343
 41
5.4978338571
 42
7.0685540366
  0
ELLIPSE
  5
645
100
AcDbEntity
  8
0
100
AcDbEllipse
 62
7
  6
CONTINUOUS
 10
54.0776911749
 20
134.3870244781
 30
0.0
 11
-0.4999977614
 21
0.8660266952
 31
0.0
 40
0.5774007686
 41
0.785444874
 42
2.3561650538
  0
ELLIPSE
  5
646
100
AcDbEntity
  8
0
100
AcDbEllipse
 62
7
  6
CONTINUOUS
 10
54.0776911749
 20
131.7466581896
 30
0.0
 11
-0.5000358409
 21
0.8660926466
 31
0.0
 40
0.5773128343
 41
5.4978338577
 42
7.068554032
  0
ELLIPSE
  5
647
100
AcDbEntity
  8
0
100
AcDbEllipse
 62
7
  6
CONTINUOUS
 10
54.0776911749
 20
128.1407809977
 30
0.0
 11
-0.4999977614
 21
0.8660266952
 31
0.0
 40
0.5774007686
 41
0.7854448794
 42
2.3561650538
  0
ELLIPSE
  5
648
100
AcDbEntity
  8
0
100
AcDbEllipse
 62
7
  6
CONTINUOUS
 10
46.8067892493
 20
139.3186699611
 30
0.0
 11
-0.2500179204
 21
0.4330463233
 31
0.0
 40
0.5773128343
 41
5.4978338456
 42
7.0685540249
  0
ELLIPSE
  5
649
100
AcDbEntity
  8
0
100
AcDbEllipse
 62
7
  6
CONTINUOUS
 10
46.8067892493
 20
131.9445274795
 30
0.0
 11
-0.2499988807
 21
0.4330133476
 31
0.0
 40
0.5774007686
 41
7.0686301932
 42
8.6393503725
  0
ELLIPSE
  5
64A
100
AcDbEntity
  8
0
100
AcDbEllipse
 62
7
  6
CONTINUOUS
 10
59.0397874944
 20
122.4580759191
 30
0.0
 11
-0.2500179204
 21
0.4330463233
 31
0.0
 40
0.5773128343
 41
5.4978338478
 42
7.0685540418
  0
ELLIPSE
  5
64B
100
AcDbEntity
  8
0
100
AcDbEllipse
 62
7
  6
CONTINUOUS
 10
59.0397874944
 20
119.9829479319
 30
0.0
 11
-0.2499988807
 21
0.4330133476
 31
0.0
 40
0.5774007686
 41
7.0686301763
 42
8.6393503703
  0
ELLIPSE
  5
64C
100
AcDbEntity
  8
0
100
AcDbEllipse
 62
7
  6
CONTINUOUS
 10
56.9406464644
 20
121.1948601535
 30
0.0
 11
-0.2500179204
 21
0.4330463233
 31
0.0
 40
0.5773128343
 41
-3.926944113
 42
-2.356223919
  0
ELLIPSE
  5
64D
100
AcDbEntity
  8
0
100
AcDbEllipse
 62
7
  6
CONTINUOUS
 10
69.1736447094
 20
131.4957973502
 30
0.0
 11
-0.2500179204
 21
0.4330463233
 31
0.0
 40
0.5773128343
 41
-3.9269441045
 42
-2.3562239284
  0
ELLIPSE
  5
64E
100
AcDbEntity
  8
0
100
AcDbEllipse
 62
7
  6
CONTINUOUS
 10
65.0502201581
 20
128.7860584945
 30
0.0
 11
-0.2500179204
 21
0.4330463233
 31
0.0
 40
0.5773128343
 41
5.4978338478
 42
7.0685540416
  0
ELLIPSE
  5
64F
100
AcDbEntity
  8
0
100
AcDbEllipse
 62
7
  6
CONTINUOUS
 10
65.0502201581
 20
121.4119160129
 30
0.0
 11
-0.2499988807
 21
0.4330133476
 31
0.0
 40
0.5774007686
 41
7.0686301765
 42
8.6393503703
  0
ELLIPSE
  5
650
100
AcDbEntity
  8
0
100
AcDbEllipse
 62
7
  6
CONTINUOUS
 10
65.0502201581
 20
131.860768469
 30
0.0
 11
-0.2500179204
 21
0.4330463233
 31
0.0
 40
0.5773128343
 41
5.497833866
 42
7.0685540442
  0
ELLIPSE
  5
651
100
AcDbEntity
  8
0
100
AcDbEllipse
 62
7
  6
CONTINUOUS
 10
65.0502201581
 20
131.2099450017
 30
0.0
 11
-0.2499988807
 21
0.4330133476
 31
0.0
 40
0.5774007686
 41
7.0686301765
 42
8.6393503628
  0
ELLIPSE
  5
652
100
AcDbEntity
  8
0
100
AcDbEllipse
 62
7
  6
CONTINUOUS
 10
59.0397874944
 20
135.3308148825
 30
0.0
 11
-0.2500179204
 21
0.4330463233
 31
0.0
 40
0.5773128343
 41
5.497833866
 42
7.0685540336
  0
ELLIPSE
  5
653
100
AcDbEntity
  8
0
100
AcDbEllipse
 62
7
  6
CONTINUOUS
 10
59.0397874944
 20
134.6799914152
 30
0.0
 11
-0.2499988807
 21
0.4330133476
 31
0.0
 40
0.5774007686
 41
7.0686301872
 42
8.6393503628
  0
ELLIPSE
  5
654
100
AcDbEntity
  8
0
100
AcDbEllipse
 62
7
  6
CONTINUOUS
 10
50.9302138006
 20
142.0284088168
 30
0.0
 11
-0.2500179204
 21
0.4330463233
 31
0.0
 40
0.5773128343
 41
-3.9269441023
 42
-2.3562239178
  0
ELLIPSE
  5
655
100
AcDbEntity
  8
0
100
AcDbEllipse
 62
7
  6
CONTINUOUS
 10
52.675799968
 20
139.0049816731
 30
0.0
 11
-0.2500179204
 21
0.4330463233
 31
0.0
 40
0.5773128343
 41
5.497833866
 42
7.0685540442
  0
ELLIPSE
  5
656
100
AcDbEntity
  8
0
100
AcDbEllipse
 62
7
  6
CONTINUOUS
 10
52.675799968
 20
138.3541582058
 30
0.0
 11
-0.2499988807
 21
0.4330133476
 31
0.0
 40
0.5774007686
 41
0.785444873
 42
2.3561650553
  0
ELLIPSE
  5
657
100
AcDbEntity
  8
0
100
AcDbEllipse
 62
7
  6
CONTINUOUS
 10
46.8067892493
 20
141.7425564684
 30
0.0
 11
-0.2499988807
 21
0.4330133476
 31
0.0
 40
0.5774007686
 41
7.0686301872
 42
8.6393503725
  0
ELLIPSE
  5
658
100
AcDbEntity
  8
0
100
AcDbEllipse
 62
7
  6
CONTINUOUS
 10
46.8067892493
 20
144.409015235
 30
0.0
 11
-0.2499988807
 21
0.4330133476
 31
0.0
 40
0.5774007686
 41
0.7854448847
 42
2.3561650547
  0
ELLIPSE
  5
659
100
AcDbEntity
  8
0
100
AcDbEllipse
 62
7
  6
CONTINUOUS
 10
50.9302138006
 20
139.3619500502
 30
0.0
 11
-0.2500179204
 21
0.4330463233
 31
0.0
 40
0.5773128343
 41
-3.926944113
 42
-2.3562239192
  0
ELLIPSE
  5
65A
100
AcDbEntity
  8
0
100
AcDbEllipse
 62
7
  6
CONTINUOUS
 10
65.0502201581
 20
133.8764037684
 30
0.0
 11
-0.2499988807
 21
0.4330133476
 31
0.0
 40
0.5774007686
 41
7.0686301751
 42
8.6393503597
  0
ELLIPSE
  5
65B
100
AcDbEntity
  8
0
100
AcDbEllipse
 62
7
  6
CONTINUOUS
 10
46.8067892493
 20
129.5206409723
 30
0.0
 11
-0.2500179204
 21
0.4330463233
 31
0.0
 40
0.5773128343
 41
5.4978338456
 42
7.0685540251
  0
ELLIPSE
  5
65C
100
AcDbEntity
  8
0
100
AcDbEllipse
 62
7
  6
CONTINUOUS
 10
46.8067892493
 20
127.0455129851
 30
0.0
 11
-0.2499988807
 21
0.4330133476
 31
0.0
 40
0.5774007686
 41
7.068630193
 42
8.6393503725
  0
ELLIPSE
  5
65D
100
AcDbEntity
  8
0
100
AcDbEllipse
 62
7
  6
CONTINUOUS
 10
56.9406464644
 20
135.8919036368
 30
0.0
 11
-0.2500179204
 21
0.4330463233
 31
0.0
 40
0.5773128343
 41
-3.9269441039
 42
-2.3562239192
  0
ELLIPSE
  5
65E
100
AcDbEntity
  8
0
100
AcDbEllipse
 62
7
  6
CONTINUOUS
 10
69.1736447094
 20
128.8293385836
 30
0.0
 11
-0.2500179204
 21
0.4330463233
 31
0.0
 40
0.5773128343
 41
-3.9269441061
 42
-2.3562239298
  0
ELLIPSE
  5
65F
100
AcDbEntity
  8
0
100
AcDbEllipse
 62
7
  6
CONTINUOUS
 10
69.1736447094
 20
119.0313095947
 30
0.0
 11
-0.2500179204
 21
0.4330463233
 31
0.0
 40
0.5773128343
 41
-3.9269441152
 42
-2.3562239359
  0
ELLIPSE
  5
660
100
AcDbEntity
  8
0
100
AcDbEllipse
 62
7
  6
CONTINUOUS
 10
69.1736447094
 20
114.1322951003
 30
0.0
 11
-0.2500179204
 21
0.4330463233
 31
0.0
 40
0.5773128343
 41
-3.9269441152
 42
-2.3562239357
  0
ELLIPSE
  5
661
100
AcDbEntity
  8
0
100
AcDbEllipse
 62
7
  6
CONTINUOUS
 10
50.9302138006
 20
129.5639210614
 30
0.0
 11
-0.2500179204
 21
0.4330463233
 31
0.0
 40
0.5773128343
 41
-3.926944113
 42
-2.3562239192
  0
ELLIPSE
  5
662
100
AcDbEntity
  8
0
100
AcDbEllipse
 62
7
  6
CONTINUOUS
 10
61.9027427838
 20
123.6230875488
 30
0.0
 11
-0.5000358409
 21
0.8660926466
 31
0.0
 40
0.5773128343
 41
-3.9269441037
 42
-2.3562239242
  0
ELLIPSE
  5
663
100
AcDbEntity
  8
0
100
AcDbEllipse
 62
7
  6
CONTINUOUS
 10
61.9027427838
 20
126.6033213662
 30
0.0
 11
-0.5000358409
 21
0.8660926466
 31
0.0
 40
0.5773128343
 41
-3.9269441037
 42
-2.3562239288
  0
ELLIPSE
  5
664
100
AcDbEntity
  8
0
100
AcDbEllipse
 62
7
  6
CONTINUOUS
 10
63.3046339907
 20
134.8841956127
 30
0.0
 11
-0.2500179204
 21
0.4330463233
 31
0.0
 40
0.5773128343
 41
-3.9269441023
 42
-2.3562239178
  0
ELLIPSE
  5
665
100
AcDbEntity
  8
0
100
AcDbEllipse
 62
7
  6
CONTINUOUS
 10
52.675799968
 20
141.6457886087
 30
0.0
 11
-0.2500179204
 21
0.4330463233
 31
0.0
 40
0.5773128343
 41
5.4978338569
 42
7.0685540416
  0
ELLIPSE
  5
666
100
AcDbEntity
  8
0
100
AcDbEllipse
 62
7
  6
CONTINUOUS
 10
52.675799968
 20
141.0206169725
 30
0.0
 11
-0.2499988807
 21
0.4330133476
 31
0.0
 40
0.5774007686
 41
7.0686301751
 42
8.6393503597
  0
ENDSEC
  0
SECTION
  2
OBJECTS
  0
DICTIONARY
  5
C
100
AcDbDictionary
280
0
281
1
  3
ACAD_GROUP
350
D
  3
ACAD_MLINESTYLE
350
17
  3
ACAD_LAYOUT
350
1A
  3
ACAD_PLOTSETTINGS
350
19
  3
ACAD_PLOTSTYLENAME
350
E
  0
DICTIONARY
  5
D
102
{ACAD_REACTORS
330
C
102
}
100
AcDbDictionary
280
0
281
1
  0
ACDBDICTIONARYWDFLT
  5
E
102
{ACAD_REACTORS
330
C
102
}
100
AcDbDictionary
281
1
  3
Normal
350
F
100
AcDbDictionaryWithDefault
340
F
  0
DICTIONARY
  5
17
102
{ACAD_REACTORS
330
C
102
}
100
AcDbDictionary
280
0
281
1
  3
Standard
350
18
  0
DICTIONARY
  5
19
102
{ACAD_REACTORS
330
C
102
}
100
AcDbDictionary
281
1
  0
DICTIONARY
  5
1A
102
{ACAD_REACTORS
330
C
102
}
100
AcDbDictionary
281
1
  3
Model
350
667
  3
Layout1
350
668
  0
ACDBPLACEHOLDER
  5
F
102
{ACAD_REACTORS
330
E
102
}
  0
MLINESTYLE
  5
18
102
{ACAD_REACTORS
330
17
102
}
100
AcDbMlineStyle
  2
STANDARD
 70
0
  3

 62
256
 51
90.0
 52
90.0
 71
2
 49
0.5
 62
256
  6
BYLAYER
 49
-0.5
 62
256
  6
BYLAYER
  0
LAYOUT
  5
667
102
{ACAD_REACTORS
330
1A
102
}
100
AcDbPlotSettings
  1

  2
none_device
  4

  6

 40
0.0
 41
0.0
 42
0.0
 43
0.0
 44
210.0
 45
297.0
 46
0.0
 47
0.0
 48
0.0
 49
0.0
140
0.0
141
0.0
142
1.0
143
1.0
 70
1024
 72
1
 73
0
 74
0
  7

 75
0
147
1.0
148
0.0
149
0.0
100
AcDbLayout
  1
Model
 70
0
 71
0
 10
0.0
 20
0.0
 11
210.0
 21
297.0
 12
0.0
 22
0.0
 32
0.0
 14
0.0
 24
0.0
 34
0.0
 15
0.0
 25
0.0
 35
0.0
146
0.0
 13
0.0
 23
0.0
 33
0.0
 16
1.0
 26
0.0
 36
0.0
 17
0.0
 27
1.0
 37
0.0
 76
0
330
210
345
0
346
0
  0
LAYOUT
  5
668
102
{ACAD_REACTORS
330
1A
102
}
100
AcDbPlotSettings
  1

  2
none_device
  4

  6

 40
0.0
 41
0.0
 42
0.0
 43
0.0
 44
210.0
 45
297.0
 46
0.0
 47
0.0
 48
0.0
 49
0.0
140
0.0
141
0.0
142
1.0
143
1.0
 70
0
 72
1
 73
0
 74
0
  7

 75
0
147
1.0
148
0.0
149
0.0
100
AcDbLayout
  1
Layout1
 70
0
 71
1
 10
0.0
 20
0.0
 11
210.0
 21
297.0
 12
0.0
 22
0.0
 32
0.0
 14
0.0
 24
0.0
 34
0.0
 15
0.0
 25
0.0
 35
0.0
146
0.0
 13
0.0
 23
0.0
 33
0.0
 16
1.0
 26
0.0
 36
0.0
 17
0.0
 27
1.0
 37
0.0
 76
0
330
211
345
0
346
0
  0
ENDSEC
  0
EOF
