999
DXF file: C:\Users\sesa63760\Dev\_Creo\CAD\MCADID0000723_3D-CAD\drw0001_1.dxf
999
Pro/ENGINEER 2019471 by Parametric Technology Corporation
  0
SECTION
  2
HEADER
  9
$ACADVER
  1
AC1024
  9
$DWGCODEPAGE
  3
ANSI_1252
  9
$EXTMAX
 10
151.2568798217
 20
213.9204443193
 30
0.0
  9
$EXTMIN
 10
0.0
 20
0.0
 30
0.0
  9
$LIMMIN
 10
0.0
 20
0.0
  9
$LIMMAX
 10
151.2568798217
 20
213.9204443193
  9
$VIEWCTR
 10
75.6284399108
 20
106.9602221596
  9
$VIEWSIZE
 40
213.9204443193
  9
$CLAYER
  8
0
  9
$LTSCALE
 40
13.9444437778
  9
$CELTYPE
  6
BYLAYER
  9
$DIMSCALE
 40
1.0
  9
$DIMASZ
 40
1.8006771407
  9
$DIMEXO
 40
1.0
  9
$DIMDLI
 40
9.6343429738
  9
$DIMEXE
 40
1.0
  9
$DIMCEN
 40
2.2818180727
  9
$DIMLFAC
 40
1.0
  9
$DIMBLK
  1
_FILLED
  9
$DIMALT
 70
0
  9
$DIMALTF
 40
0.0393700787
  9
$DIMTXT
 40
2.520947997
  9
$DIMTOL
 70
1
  9
$DIMLIM
 70
0
  9
$DIMTFAC
 40
1.0
  9
$DIMTP
 40
0.01
  9
$DIMTM
 40
0.01
  9
$DIMGAP
 40
0.625
  9
$DIMDSEP
 70
46
  9
$AUNITS
 70
0
  9
$PDMODE
 70
3
  9
$PDSIZE
 40
0.3125
  9
$HANDSEED
  5
679
  9
$TILEMODE
 70
1
  9
$MEASUREMENT
 70
1
  9
$INSUNITS
 70
4
  0
ENDSEC
  0
SECTION
  2
CLASSES
  0
CLASS
  1
ACDBDICTIONARYWDFLT
  2
AcDbDictionaryWithDefault
  3
AutoCAD 2000
 90
0
 91
1
280
0
281
0
  0
CLASS
  1
ACDBPLACEHOLDER
  2
AcDbPlaceHolder
  3
AutoCAD 2000
 90
0
 91
1
280
0
281
0
  0
CLASS
  1
LAYOUT
  2
AcDbLayout
  3
AutoCAD 2000
 90
0
 91
0
280
0
281
0
  0
ENDSEC
  0
SECTION
  2
TABLES
  0
TABLE
  2
VPORT
  5
8
100
AcDbSymbolTable
 70
2
  0
VPORT
  5
1F4
100
AcDbSymbolTableRecord
100
AcDbViewportTableRecord
  2
*ACTIVE
 70
0
 10
0.0
 20
0.0
 11
1.0
 21
1.0
 12
75.6284399108
 22
106.9602221596
 13
0.0
 23
0.0
 14
1.0
 24
1.0
 15
0.0
 25
0.0
 16
0.0
 26
0.0
 36
1.0
 17
0.0
 27
0.0
 37
0.0
 40
213.9204443193
 41
0.7070707071
 42
50.0
 43
0.0
 44
0.0
 50
0.0
 51
0.0
 71
0
 72
100
 73
1
 74
1
 75
0
 76
0
 77
0
 78
0
  0
ENDTAB
  0
TABLE
  2
LTYPE
  5
5
100
AcDbSymbolTable
 70
6
  0
LTYPE
  5
14
100
AcDbSymbolTableRecord
100
AcDbLinetypeTableRecord
  2
BYBLOCK
 70
0
  3

 72
65
 73
0
 40
0.0
  0
LTYPE
  5
15
100
AcDbSymbolTableRecord
100
AcDbLinetypeTableRecord
  2
BYLAYER
 70
0
  3

 72
65
 73
0
 40
0.0
  0
LTYPE
  5
16
100
AcDbSymbolTableRecord
100
AcDbLinetypeTableRecord
  2
CONTINUOUS
 70
64
  3
Solid line
 72
65
 73
0
 40
0.0
  0
LTYPE
  5
1F5
100
AcDbSymbolTableRecord
100
AcDbLinetypeTableRecord
  2
CENTER
 70
64
  3
____ _ ____ _ ____ _ ____ _ ____ _ ____ _ ____
 72
65
 73
4
 40
0.6
 49
0.375
 74
0
 49
-0.075
 74
0
 49
0.075
 74
0
 49
-0.075
 74
0
  0
LTYPE
  5
1F6
100
AcDbSymbolTableRecord
100
AcDbLinetypeTableRecord
  2
HIDDEN
 70
64
  3
- - - - - - - - - - - - - - - - - - - -
 72
65
 73
2
 40
0.2
 49
0.1
 74
0
 49
-0.1
 74
0
  0
LTYPE
  5
1F7
100
AcDbSymbolTableRecord
100
AcDbLinetypeTableRecord
  2
PHANTOM
 70
64
  3
_____ _ _ _____ _ _ _____ _ _ _____
 72
65
 73
6
 40
0.8
 49
0.45
 74
0
 49
-0.05
 74
0
 49
0.1
 74
0
 49
-0.05
 74
0
 49
0.1
 74
0
 49
-0.05
 74
0
  0
LTYPE
  5
1F8
100
AcDbSymbolTableRecord
100
AcDbLinetypeTableRecord
  2
DOT
 70
64
  3
. . . . . . . . . . . . . . . . . . . .
 72
65
 73
2
 40
0.2
 49
0.1
 74
0
 49
-0.1
 74
0
  0
LTYPE
  5
1F9
100
AcDbSymbolTableRecord
100
AcDbLinetypeTableRecord
  2
DASHED
 70
64
  3
- - - - - - - - - - - - - - - - - - - -
 72
65
 73
2
 40
0.2
 49
0.1
 74
0
 49
-0.1
 74
0
  0
ENDTAB
  0
TABLE
  2
LAYER
  5
2
100
AcDbSymbolTable
 70
36
  0
LAYER
  5
10
100
AcDbSymbolTableRecord
100
AcDbLayerTableRecord
  2
0
 70
0
 62
7
  6
CONTINUOUS
370
-3
390
F
  0
LAYER
  5
1FA
100
AcDbSymbolTableRecord
100
AcDbLayerTableRecord
  2
DEFAULT_1
 70
0
 62
7
  6
CENTER
370
-3
390
F
  0
LAYER
  5
1FB
100
AcDbSymbolTableRecord
100
AcDbLayerTableRecord
  2
DEFAULT_2
 70
0
 62
8
  6
HIDDEN
370
-3
390
F
  0
LAYER
  5
1FC
100
AcDbSymbolTableRecord
100
AcDbLayerTableRecord
  2
DEFAULT_3
 70
0
 62
7
  6
PHANTOM
370
-3
390
F
  0
LAYER
  5
1FD
100
AcDbSymbolTableRecord
100
AcDbLayerTableRecord
  2
00_COMPONENTS
 70
0
 62
7
  6
CONTINUOUS
370
-3
390
F
  0
LAYER
  5
1FE
100
AcDbSymbolTableRecord
100
AcDbLayerTableRecord
  2
01_1_DEFAULT_DATUMS
 70
0
 62
7
  6
CONTINUOUS
370
-3
390
F
  0
LAYER
  5
1FF
100
AcDbSymbolTableRecord
100
AcDbLayerTableRecord
  2
01_PLANES
 70
0
 62
7
  6
CONTINUOUS
370
-3
390
F
  0
LAYER
  5
200
100
AcDbSymbolTableRecord
100
AcDbLayerTableRecord
  2
02_COORD_SYS
 70
0
 62
7
  6
CONTINUOUS
370
-3
390
F
  0
LAYER
  5
201
100
AcDbSymbolTableRecord
100
AcDbLayerTableRecord
  2
03_AXES
 70
0
 62
7
  6
CONTINUOUS
370
-3
390
F
  0
LAYER
  5
202
100
AcDbSymbolTableRecord
100
AcDbLayerTableRecord
  2
04_POINTS
 70
0
 62
7
  6
CONTINUOUS
370
-3
390
F
  0
LAYER
  5
203
100
AcDbSymbolTableRecord
100
AcDbLayerTableRecord
  2
05_CURVES
 70
0
 62
7
  6
CONTINUOUS
370
-3
390
F
  0
LAYER
  5
204
100
AcDbSymbolTableRecord
100
AcDbLayerTableRecord
  2
06_SURFS
 70
0
 62
7
  6
CONTINUOUS
370
-3
390
F
  0
LAYER
  5
205
100
AcDbSymbolTableRecord
100
AcDbLayerTableRecord
  2
07_COSMETICS
 70
0
 62
7
  6
CONTINUOUS
370
-3
390
F
  0
LAYER
  5
206
100
AcDbSymbolTableRecord
100
AcDbLayerTableRecord
  2
10_NOTES
 70
0
 62
7
  6
CONTINUOUS
370
-3
390
F
  0
LAYER
  5
207
100
AcDbSymbolTableRecord
100
AcDbLayerTableRecord
  2
11_NOTES_PUB
 70
0
 62
7
  6
CONTINUOUS
370
-3
390
F
  0
LAYER
  5
208
100
AcDbSymbolTableRecord
100
AcDbLayerTableRecord
  2
13_REF_GTOL
 70
0
 62
7
  6
CONTINUOUS
370
-3
390
F
  0
LAYER
  5
209
100
AcDbSymbolTableRecord
100
AcDbLayerTableRecord
  2
16_MISC
 70
0
 62
7
  6
CONTINUOUS
370
-3
390
F
  0
LAYER
  5
20A
100
AcDbSymbolTableRecord
100
AcDbLayerTableRecord
  2
17_NO_PRINT
 70
0
 62
7
  6
CONTINUOUS
370
-3
390
F
  0
LAYER
  5
20B
100
AcDbSymbolTableRecord
100
AcDbLayerTableRecord
  2
18_DATUM_CAMS_JOINTS
 70
0
 62
7
  6
CONTINUOUS
370
-3
390
F
  0
LAYER
  5
20C
100
AcDbSymbolTableRecord
100
AcDbLayerTableRecord
  2
19_DATUM_FUNCTIONAL
 70
0
 62
7
  6
CONTINUOUS
370
-3
390
F
  0
LAYER
  5
20D
100
AcDbSymbolTableRecord
100
AcDbLayerTableRecord
  2
20_DATUM_KINEMATIC_SCHEME
 70
0
 62
7
  6
CONTINUOUS
370
-3
390
F
  0
ENDTAB
  0
TABLE
  2
STYLE
  5
3
100
AcDbSymbolTable
 70
1
  0
STYLE
  5
11
100
AcDbSymbolTableRecord
100
AcDbTextStyleTableRecord
  2
STANDARD
 70
0
 40
0.0
 41
0.8
 50
0.0
 71
0
 42
0.2
  3
txt
  4

  0
STYLE
  5
20E
100
AcDbSymbolTableRecord
100
AcDbTextStyleTableRecord
  2
TEXTSTYLE_1
 70
0
 40
0.0
 41
0.8
 50
0.0
 71
0
 42
0.2
  3
gdt
  4

  0
ENDTAB
  0
TABLE
  2
VIEW
  5
6
100
AcDbSymbolTable
 70
0
  0
ENDTAB
  0
TABLE
  2
UCS
  5
7
100
AcDbSymbolTable
 70
0
  0
ENDTAB
  0
TABLE
  2
APPID
  5
9
100
AcDbSymbolTable
 70
1
  0
APPID
  5
20F
100
AcDbSymbolTableRecord
100
AcDbRegAppTableRecord
  2
ACAD
 70
0
  0
ENDTAB
  0
TABLE
  2
BLOCK_RECORD
  5
1
100
AcDbSymbolTable
 70
0
  0
BLOCK_RECORD
  5
210
100
AcDbSymbolTableRecord
100
AcDbBlockTableRecord
  2
*Model_Space
  0
BLOCK_RECORD
  5
211
100
AcDbSymbolTableRecord
100
AcDbBlockTableRecord
  2
*Paper_Space
  0
BLOCK_RECORD
  5
212
100
AcDbSymbolTableRecord
100
AcDbBlockTableRecord
  2
_FILLED
  0
ENDTAB
  0
TABLE
  2
DIMSTYLE
  5
A
100
AcDbSymbolTable
 70
1
100
AcDbDimStyleTable
 71
0
  0
DIMSTYLE
105
213
100
AcDbSymbolTableRecord
100
AcDbDimStyleTableRecord
  2
STANDARD
 70
0
  3

  4

 40
1.0
 41
1.8006771407
 42
1.0
 43
0.38
 44
1.0
 45
0.0
 46
0.0
 47
0.01
 48
0.01
140
2.520947997
141
0.09
142
0.0
143
25.4
144
1.0
145
0.0
146
1.0
147
0.625
 71
1
 72
0
 73
0
 74
0
 75
0
 76
0
 77
1
 78
8
 79
2
170
0
171
1
172
0
173
0
174
0
175
0
176
0
177
0
178
0
270
2
179
2
271
2
272
2
273
2
274
2
275
0
280
0
281
0
282
0
283
1
284
8
285
0
286
0
287
3
288
0
340
11
278
46
341
212
342
212
343
212
344
212
  0
ENDTAB
  0
ENDSEC
  0
SECTION
  2
BLOCKS
  0
BLOCK
  5
20
100
AcDbEntity
  8
0
100
AcDbBlockBegin
  2
*Model_Space
 70
0
 10
0.0
 20
0.0
 30
0.0
  3
*Model_Space
  1

  0
ENDBLK
  5
21
100
AcDbEntity
  8
0
100
AcDbBlockEnd
  0
BLOCK
  5
1C
100
AcDbEntity
  8
0
100
AcDbBlockBegin
  2
*Paper_Space
 70
0
 10
0.0
 20
0.0
 30
0.0
  3
*Paper_Space
  1

  0
ENDBLK
  5
1D
100
AcDbEntity
  8
0
100
AcDbBlockEnd
  0
BLOCK
  5
214
100
AcDbEntity
  8
0
100
AcDbBlockBegin
  2
_FILLED
 70
64
 10
0.0
 20
0.0
  3
_FILLED
  1

  0
SOLID
  5
215
100
AcDbEntity
  8
0
  6
BYBLOCK
 62
0
100
AcDbTrace
 10
0.0
 20
0.0
 11
-1.0
 21
0.25
 12
-1.0
 22
-0.25
 13
-1.0
 23
-0.25
  0
ENDBLK
  5
216
100
AcDbEntity
  8
0
  6
BYBLOCK
 62
0
100
AcDbBlockEnd
  0
ENDSEC
  0
SECTION
  2
ENTITIES
  0
LWPOLYLINE
  5
217
100
AcDbEntity
  8
0
100
AcDbPolyline
 62
7
  6
CONTINUOUS
 90
3
 70
0
 10
27.9402131111
 20
165.3314475014
 10
27.3774659791
 20
164.7519429959
 10
27.2714540324
 20
164.2940110918
  0
LINE
  5
218
100
AcDbEntity
  8
0
100
AcDbLine
 62
7
  6
CONTINUOUS
 10
27.9442785827
 20
165.3338016384
 11
38.0361912903
 21
171.1603353771
  0
LINE
  5
219
100
AcDbEntity
  8
0
100
AcDbLine
 62
7
  6
CONTINUOUS
 10
29.14405655
 20
165.5191950388
 11
38.3364064338
 21
170.8263690392
  0
LINE
  5
21A
100
AcDbEntity
  8
0
100
AcDbLine
 62
7
  6
CONTINUOUS
 10
30.3461430827
 20
164.8251857562
 11
37.2757606879
 21
168.8259784644
  0
LINE
  5
21B
100
AcDbEntity
  8
0
100
AcDbLine
 62
7
  6
CONTINUOUS
 10
18.9617577613
 20
149.2708880203
 11
24.6185884591
 21
159.0688605883
  0
LINE
  5
21C
100
AcDbEntity
  8
0
100
AcDbLine
 62
7
  6
CONTINUOUS
 10
25.3256981842
 20
158.6606198338
 11
19.6688674865
 21
148.8626472658
  0
LINE
  5
21D
100
AcDbEntity
  8
0
100
AcDbLine
 62
7
  6
CONTINUOUS
 10
24.6185884591
 20
159.0688605883
 11
26.8106103544
 21
160.3344174653
  0
LINE
  5
21E
100
AcDbEntity
  8
0
100
AcDbLine
 62
7
  6
CONTINUOUS
 10
26.8106162421
 20
159.5179325568
 11
25.3256981842
 21
158.6606198338
  0
LINE
  5
21F
100
AcDbEntity
  8
0
100
AcDbLine
 62
7
  6
CONTINUOUS
 10
17.5475383111
 20
150.0873695294
 11
20.3759409979
 21
151.7203388345
  0
LINE
  5
220
100
AcDbEntity
  8
0
100
AcDbLine
 62
7
  6
CONTINUOUS
 10
46.3419730527
 20
166.7117449445
 11
63.50928773
 21
176.623239531
  0
LINE
  5
221
100
AcDbEntity
  8
0
100
AcDbLine
 62
7
  6
CONTINUOUS
 10
29.2854873269
 20
159.107869527
 11
37.2757606879
 21
162.7136799459
  0
LINE
  5
222
100
AcDbEntity
  8
0
100
AcDbLine
 62
7
  6
CONTINUOUS
 10
25.0429013976
 20
145.7600175314
 11
30.6997320953
 21
155.5579900994
  0
LINE
  5
223
100
AcDbEntity
  8
0
100
AcDbLine
 62
7
  6
CONTINUOUS
 10
31.4068418205
 20
155.1497493449
 11
25.7500111228
 21
145.3517767769
  0
LINE
  5
224
100
AcDbEntity
  8
0
100
AcDbLine
 62
7
  6
CONTINUOUS
 10
32.1846501532
 20
156.4153028224
 11
30.6997320953
 21
155.5579900994
  0
LINE
  5
225
100
AcDbEntity
  8
0
100
AcDbLine
 62
7
  6
CONTINUOUS
 10
26.8106162419
 20
152.9859132196
 11
19.6688674865
 21
148.8626472658
  0
LINE
  5
226
100
AcDbEntity
  8
0
100
AcDbLine
 62
7
  6
CONTINUOUS
 10
31.4068418205
 20
155.1497493449
 11
32.8917598783
 21
156.0070620679
  0
LINE
  5
227
100
AcDbEntity
  8
0
100
AcDbLine
 62
7
  6
CONTINUOUS
 10
46.8924529499
 20
163.2739042029
 11
39.9628353447
 21
159.2731114947
  0
LINE
  5
228
100
AcDbEntity
  8
0
100
AcDbLine
 62
7
  6
CONTINUOUS
 10
50.3572717613
 20
163.8862762123
 11
41.1649218775
 21
158.579102212
  0
LINE
  5
229
100
AcDbEntity
  8
0
100
AcDbLine
 62
7
  6
CONTINUOUS
 10
20.1638442936
 20
145.1475445991
 11
18.9617577613
 21
144.4535237589
  0
LINE
  5
22A
100
AcDbEntity
  8
0
100
AcDbLine
 62
7
  6
CONTINUOUS
 10
41.5891930117
 20
156.374567716
 11
52.0543298025
 21
162.4165811933
  0
LINE
  5
22B
100
AcDbEntity
  8
0
100
AcDbLine
 62
7
  6
CONTINUOUS
 10
17.5475383111
 20
76.6021519877
 11
17.5475383111
 21
98.9334930959
  0
LINE
  5
22C
100
AcDbEntity
  8
0
100
AcDbLine
 62
7
  6
CONTINUOUS
 10
17.5475383111
 20
127.7560284212
 11
17.5475383111
 21
150.0873695294
  0
LINE
  5
22D
100
AcDbEntity
  8
0
100
AcDbLine
 62
7
  6
CONTINUOUS
 10
18.9617577613
 20
140.8609131239
 11
18.9617577613
 21
142.983819409
  0
LINE
  5
22E
100
AcDbEntity
  8
0
100
AcDbLine
 62
7
  6
CONTINUOUS
 10
18.9617577613
 20
144.4535237589
 11
18.9617577613
 21
146.7397305275
  0
LINE
  5
22F
100
AcDbEntity
  8
0
100
AcDbLine
 62
7
  6
CONTINUOUS
 10
20.1638442936
 20
146.0457212452
 11
20.1638442936
 21
143.7595144765
  0
LINE
  5
230
100
AcDbEntity
  8
0
100
AcDbLine
 62
7
  6
CONTINUOUS
 10
20.3759536599
 20
100.5664697113
 11
20.3759536599
 21
126.1230790004
  0
LINE
  5
231
100
AcDbEntity
  8
0
100
AcDbLine
 62
7
  6
CONTINUOUS
 10
21.7901731102
 20
104.5673524637
 11
21.7901731102
 21
107.4251109236
  0
LINE
  5
232
100
AcDbEntity
  8
0
100
AcDbLine
 62
7
  6
CONTINUOUS
 10
21.7901731102
 20
120.8974008063
 11
21.7901731102
 21
123.7551592662
  0
LINE
  5
233
100
AcDbEntity
  8
0
100
AcDbLine
 62
7
  6
CONTINUOUS
 10
21.7901966619
 20
82.3177316319
 11
21.7901966619
 21
84.7672388833
  0
LINE
  5
234
100
AcDbEntity
  8
0
100
AcDbLine
 62
7
  6
CONTINUOUS
 10
21.7901966619
 20
137.0233935795
 11
21.7901966619
 21
139.2279501058
  0
LINE
  5
235
100
AcDbEntity
  8
0
100
AcDbLine
 62
7
  6
CONTINUOUS
 10
22.4972769474
 20
104.9755966176
 11
22.4972769474
 21
107.0168735684
  0
LINE
  5
236
100
AcDbEntity
  8
0
100
AcDbLine
 62
7
  6
CONTINUOUS
 10
22.4972769474
 20
121.3056449602
 11
22.4972769474
 21
123.346921911
  0
LINE
  5
237
100
AcDbEntity
  8
0
100
AcDbLine
 62
7
  6
CONTINUOUS
 10
31.1240450339
 20
142.2491470426
 11
36.7808757316
 21
152.0471196106
  0
LINE
  5
238
100
AcDbEntity
  8
0
100
AcDbLine
 62
7
  6
CONTINUOUS
 10
37.4879854567
 20
151.6388788561
 11
31.831154759
 21
141.840906288
  0
LINE
  5
239
100
AcDbEntity
  8
0
100
AcDbLine
 62
7
  6
CONTINUOUS
 10
36.7808757316
 20
152.0471196106
 11
38.2657937893
 21
152.9044323335
  0
LINE
  5
23A
100
AcDbEntity
  8
0
100
AcDbLine
 62
7
  6
CONTINUOUS
 10
32.8917598782
 20
149.4750427308
 11
25.7500111228
 21
145.3517767769
  0
LINE
  5
23B
100
AcDbEntity
  8
0
100
AcDbLine
 62
7
  6
CONTINUOUS
 10
37.4879854567
 20
151.6388788561
 11
39.6800073518
 21
152.9044357329
  0
LINE
  5
23C
100
AcDbEntity
  8
0
100
AcDbLine
 62
7
  6
CONTINUOUS
 10
20.8002748177
 20
141.9223751046
 11
18.9617577613
 21
140.8609131233
  0
LINE
  5
23D
100
AcDbEntity
  8
0
100
AcDbLine
 62
7
  6
CONTINUOUS
 10
23.6287137183
 20
140.2894120866
 11
21.7901966619
 21
139.2279501052
  0
LINE
  5
23E
100
AcDbEntity
  8
0
100
AcDbLine
 62
7
  6
CONTINUOUS
 10
89.7201688106
 20
49.0875272802
 11
89.9201603893
 21
49.1073297258
  0
LINE
  5
23F
100
AcDbEntity
  8
0
100
AcDbLine
 62
7
  6
CONTINUOUS
 10
93.4203394002
 20
50.434155881
 11
93.6203316658
 21
50.4539595193
  0
LINE
  5
240
100
AcDbEntity
  8
0
100
AcDbLine
 62
7
  6
CONTINUOUS
 10
84.7229622
 20
37.8192803083
 11
17.5475383111
 21
76.6021519877
  0
LINE
  5
241
100
AcDbEntity
  8
0
100
AcDbLine
 62
7
  6
CONTINUOUS
 10
81.1874135743
 20
40.676986498
 11
78.0407752979
 21
42.4936578553
  0
LINE
  5
242
100
AcDbEntity
  8
0
100
AcDbLine
 62
7
  6
CONTINUOUS
 10
78.0407752979
 20
44.1266626896
 11
81.1874135743
 21
42.3099913323
  0
LINE
  5
243
100
AcDbEntity
  8
0
100
AcDbLine
 62
7
  6
CONTINUOUS
 10
23.911502285
 20
122.530437003
 11
23.911502285
 21
119.6726785431
  0
LINE
  5
244
100
AcDbEntity
  8
0
100
AcDbLine
 62
7
  6
CONTINUOUS
 10
23.911502285
 20
106.2003886604
 11
23.911502285
 21
103.3426302005
  0
LINE
  5
245
100
AcDbEntity
  8
0
100
AcDbLine
 62
7
  6
CONTINUOUS
 10
24.6186120108
 20
139.7179069701
 11
24.6186120108
 21
138.656370195
  0
LINE
  5
246
100
AcDbEntity
  8
0
100
AcDbLine
 62
7
  6
CONTINUOUS
 10
25.3964562599
 20
137.1459222573
 11
25.3964562599
 21
134.9413657317
  0
LINE
  5
247
100
AcDbEntity
  8
0
100
AcDbLine
 62
7
  6
CONTINUOUS
 10
25.3964562599
 20
82.6852110354
 11
25.3964562599
 21
80.235703784
  0
LINE
  5
248
100
AcDbEntity
  8
0
100
AcDbLine
 62
7
  6
CONTINUOUS
 10
26.8106162421
 20
159.5179325568
 11
26.8106162421
 21
152.9859132197
  0
LINE
  5
249
100
AcDbEntity
  8
0
100
AcDbLine
 62
7
  6
CONTINUOUS
 10
27.2712643439
 20
164.2944383537
 11
27.2712643439
 21
160.0684647768
  0
LINE
  5
24A
100
AcDbEntity
  8
0
100
AcDbLine
 62
7
  6
CONTINUOUS
 10
27.4470020415
 20
159.9670048651
 11
27.4470020415
 21
164.0494918614
  0
LINE
  5
24B
100
AcDbEntity
  8
0
100
AcDbLine
 62
7
  6
CONTINUOUS
 10
52.2300634937
 20
162.6610903829
 11
52.0543298025
 21
162.4165811933
  0
LINE
  5
24C
100
AcDbEntity
  8
0
100
AcDbLine
 62
7
  6
CONTINUOUS
 10
24.6186120108
 20
138.656370195
 11
21.7901966619
 21
137.0233935795
  0
LINE
  5
24D
100
AcDbEntity
  8
0
100
AcDbLine
 62
7
  6
CONTINUOUS
 10
57.4283136662
 20
156.6193446582
 11
52.2300639674
 21
153.61815171
  0
LINE
  5
24E
100
AcDbEntity
  8
0
100
AcDbLine
 62
7
  6
CONTINUOUS
 10
40.5285319567
 20
146.8623093807
 11
31.831154759
 21
141.840906288
  0
LINE
  5
24F
100
AcDbEntity
  8
0
100
AcDbLine
 62
7
  6
CONTINUOUS
 10
52.0543298025
 20
152.7818526712
 11
41.5891930117
 21
146.7398391939
  0
LINE
  5
250
100
AcDbEntity
  8
0
100
AcDbLine
 62
7
  6
CONTINUOUS
 10
27.2349733163
 20
138.2073842387
 11
25.3964562599
 21
137.1459222573
  0
LINE
  5
251
100
AcDbEntity
  8
0
100
AcDbLine
 62
7
  6
CONTINUOUS
 10
31.831154759
 20
138.4115721499
 11
30.6290682263
 21
137.7175513093
  0
LINE
  5
252
100
AcDbEntity
  8
0
100
AcDbLine
 62
7
  6
CONTINUOUS
 10
25.3964562599
 20
80.235703784
 11
21.7901966619
 21
82.3177316319
  0
LINE
  5
253
100
AcDbEntity
  8
0
100
AcDbLine
 62
7
  6
CONTINUOUS
 10
82.0005897585
 20
47.9234574714
 11
80.9399251708
 21
48.5358186032
  0
LINE
  5
254
100
AcDbEntity
  8
0
100
AcDbLine
 62
7
  6
CONTINUOUS
 10
29.2854873269
 20
162.9880658997
 11
29.2854873269
 21
159.107869527
  0
LINE
  5
255
100
AcDbEntity
  8
0
100
AcDbLine
 62
7
  6
CONTINUOUS
 10
30.6290682263
 20
137.7175513093
 11
30.6290682263
 21
140.003758078
  0
LINE
  5
256
100
AcDbEntity
  8
0
100
AcDbLine
 62
7
  6
CONTINUOUS
 10
31.831154759
 20
139.3097487953
 11
31.831154759
 21
137.0235420267
  0
LINE
  5
257
100
AcDbEntity
  8
0
100
AcDbLine
 62
7
  6
CONTINUOUS
 10
31.831154759
 20
135.5538376767
 11
31.831154759
 21
133.430931391
  0
LINE
  5
258
100
AcDbEntity
  8
0
100
AcDbLine
 62
7
  6
CONTINUOUS
 10
32.8917598783
 20
156.0070620679
 11
32.8917598783
 21
149.4750427309
  0
LINE
  5
259
100
AcDbEntity
  8
0
100
AcDbLine
 62
7
  6
CONTINUOUS
 10
39.5982542004
 20
135.7365074098
 11
39.7018100282
 21
135.9653850997
  0
LINE
  5
25A
100
AcDbEntity
  8
0
100
AcDbLine
 62
7
  6
CONTINUOUS
 10
39.5982542004
 20
133.0957004687
 11
39.7018100282
 21
133.3245781596
  0
LINE
  5
25B
100
AcDbEntity
  8
0
100
AcDbLine
 62
7
  6
CONTINUOUS
 10
52.2300509516
 20
153.0267971239
 11
52.0543298025
 21
152.7818526712
  0
LINE
  5
25C
100
AcDbEntity
  8
0
100
AcDbLine
 62
7
  6
CONTINUOUS
 10
39.5982542004
 20
135.7365074082
 11
39.9517986568
 21
135.9406251769
  0
LINE
  5
25D
100
AcDbEntity
  8
0
100
AcDbLine
 62
7
  6
CONTINUOUS
 10
40.4932778211
 20
135.6280126338
 11
39.5982542004
 21
135.1112735899
  0
LINE
  5
25E
100
AcDbEntity
  8
0
100
AcDbLine
 62
7
  6
CONTINUOUS
 10
39.9517956009
 20
134.4989253209
 11
41.2003667316
 21
135.2197838963
  0
LINE
  5
25F
100
AcDbEntity
  8
0
100
AcDbLine
 62
7
  6
CONTINUOUS
 10
99.7587097617
 20
161.5002980577
 11
102.4200016229
 21
162.4949283734
  0
LINE
  5
260
100
AcDbEntity
  8
0
100
AcDbLine
 62
7
  6
CONTINUOUS
 10
135.1015871783
 20
67.8004266927
 11
135.3515775134
 21
67.8251812416
  0
LINE
  5
261
100
AcDbEntity
  8
0
100
AcDbLine
 62
7
  6
CONTINUOUS
 10
134.7858944437
 20
68.4722437583
 11
134.9358886448
 21
68.4870964877
  0
LINE
  5
262
100
AcDbEntity
  8
0
100
AcDbLine
 62
7
  6
CONTINUOUS
 10
21.7901966619
 20
84.7672388833
 11
25.3964562599
 21
82.6852110354
  0
LINE
  5
263
100
AcDbEntity
  8
0
100
AcDbLine
 62
7
  6
CONTINUOUS
 10
80.9399251708
 20
52.6999809317
 11
82.0005897585
 21
52.0876197999
  0
LINE
  5
264
100
AcDbEntity
  8
0
100
AcDbLine
 62
7
  6
CONTINUOUS
 10
89.7201695659
 20
49.0875285884
 11
89.6726890605
 21
49.1149408509
  0
LINE
  5
265
100
AcDbEntity
  8
0
100
AcDbLine
 62
7
  6
CONTINUOUS
 10
90.5565538427
 20
50.6995030899
 11
90.4151312646
 21
50.7811516063
  0
LINE
  5
266
100
AcDbEntity
  8
0
100
AcDbLine
 62
7
  6
CONTINUOUS
 10
92.3596836419
 20
49.8217896488
 11
90.4151330754
 21
50.9444510438
  0
LINE
  5
267
100
AcDbEntity
  8
0
100
AcDbLine
 62
7
  6
CONTINUOUS
 10
90.4151330755
 20
51.1077557109
 11
89.6726890605
 21
51.5363962657
  0
LINE
  5
268
100
AcDbEntity
  8
0
100
AcDbLine
 62
7
  6
CONTINUOUS
 10
37.2757606879
 20
162.7136799459
 11
37.2757606879
 21
168.8259784644
  0
LINE
  5
269
100
AcDbEntity
  8
0
100
AcDbLine
 62
7
  6
CONTINUOUS
 10
38.9021795889
 20
157.4359916382
 11
38.9021795889
 21
153.5557952656
  0
LINE
  5
26A
100
AcDbEntity
  8
0
100
AcDbLine
 62
7
  6
CONTINUOUS
 10
39.4679162389
 20
108.9971394283
 11
39.4679162389
 21
115.1005786283
  0
LINE
  5
26B
100
AcDbEntity
  8
0
100
AcDbLine
 62
7
  6
CONTINUOUS
 10
39.5982542004
 20
117.7477713074
 11
39.5982542004
 21
120.2229614852
  0
LINE
  5
26C
100
AcDbEntity
  8
0
100
AcDbLine
 62
7
  6
CONTINUOUS
 10
39.5982542004
 20
122.6467858102
 11
39.5982542004
 21
130.0209904907
  0
LINE
  5
26D
100
AcDbEntity
  8
0
100
AcDbLine
 62
7
  6
CONTINUOUS
 10
39.5982542004
 20
132.4448148157
 11
39.5982542004
 21
133.0957004687
  0
LINE
  5
26E
100
AcDbEntity
  8
0
100
AcDbLine
 62
7
  6
CONTINUOUS
 10
39.5982542004
 20
135.1112735875
 11
39.5982542004
 21
135.7365074098
  0
LINE
  5
26F
100
AcDbEntity
  8
0
100
AcDbLine
 62
7
  6
CONTINUOUS
 10
39.6800073518
 20
152.9044357329
 11
39.6800073518
 21
146.3724163959
  0
LINE
  5
270
100
AcDbEntity
  8
0
100
AcDbLine
 62
7
  6
CONTINUOUS
 10
40.1750200761
 20
109.4053835822
 11
40.1750200761
 21
114.6923412731
  0
LINE
  5
271
100
AcDbEntity
  8
0
100
AcDbLine
 62
7
  6
CONTINUOUS
 10
40.7406648743
 20
156.3745656764
 11
40.7406648743
 21
146.7398371543
  0
LINE
  5
272
100
AcDbEntity
  8
0
100
AcDbLine
 62
7
  6
CONTINUOUS
 10
41.0124618748
 20
118.5642596176
 11
41.0124618748
 21
119.8147224363
  0
LINE
  5
273
100
AcDbEntity
  8
0
100
AcDbLine
 62
7
  6
CONTINUOUS
 10
41.0124618748
 20
123.4632741204
 11
41.0124618748
 21
129.6127514418
  0
LINE
  5
274
100
AcDbEntity
  8
0
100
AcDbLine
 62
7
  6
CONTINUOUS
 10
45.8791204667
 20
134.1206682007
 11
47.1317285269
 21
136.5751241102
  0
LINE
  5
275
100
AcDbEntity
  8
0
100
AcDbLine
 62
7
  6
CONTINUOUS
 10
47.2235329601
 20
136.1437186857
 11
46.0306551056
 21
133.8063027037
  0
LINE
  5
276
100
AcDbEntity
  8
0
100
AcDbLine
 62
7
  6
CONTINUOUS
 10
46.6365213977
 20
132.3204010577
 11
47.0200009695
 21
133.071820223
  0
LINE
  5
277
100
AcDbEntity
  8
0
100
AcDbLine
 62
7
  6
CONTINUOUS
 10
47.1614217369
 20
133.1534690538
 11
47.5860026476
 21
133.985425322
  0
LINE
  5
278
100
AcDbEntity
  8
0
100
AcDbLine
 62
7
  6
CONTINUOUS
 10
48.2483174992
 20
133.5240592225
 11
48.0507290719
 21
133.1368893651
  0
LINE
  5
279
100
AcDbEntity
  8
0
100
AcDbLine
 62
7
  6
CONTINUOUS
 10
47.5860026476
 20
133.985425322
 11
47.660059777
 21
134.0659594076
  0
LINE
  5
27A
100
AcDbEntity
  8
0
100
AcDbLine
 62
7
  6
CONTINUOUS
 10
39.5982542004
 20
133.0957004671
 11
39.9517986545
 21
133.2998182345
  0
LINE
  5
27B
100
AcDbEntity
  8
0
100
AcDbLine
 62
7
  6
CONTINUOUS
 10
43.6709375896
 20
135.1686554262
 11
47.2064567757
 21
137.2098761956
  0
LINE
  5
27C
100
AcDbEntity
  8
0
100
AcDbLine
 62
7
  6
CONTINUOUS
 10
47.2071758064
 20
137.1859158039
 11
43.6920477125
 21
135.1564677668
  0
LINE
  5
27D
100
AcDbEntity
  8
0
100
AcDbLine
 62
7
  6
CONTINUOUS
 10
40.5154932757
 20
132.9743798841
 11
39.5982542004
 21
132.4448148182
  0
LINE
  5
27E
100
AcDbEntity
  8
0
100
AcDbLine
 62
7
  6
CONTINUOUS
 10
47.3947344729
 20
136.8544524174
 11
49.7281771357
 21
138.2016581252
  0
LINE
  5
27F
100
AcDbEntity
  8
0
100
AcDbLine
 62
7
  6
CONTINUOUS
 10
50.0881781822
 20
138.2126919044
 11
47.7547355194
 21
136.8654861967
  0
LINE
  5
280
100
AcDbEntity
  8
0
100
AcDbLine
 62
7
  6
CONTINUOUS
 10
39.9517956009
 20
131.8324665491
 11
41.2225821862
 21
132.5661511467
  0
LINE
  5
281
100
AcDbEntity
  8
0
100
AcDbLine
 62
7
  6
CONTINUOUS
 10
22.4972769468
 20
121.3056449605
 11
21.7901731096
 21
120.8974008066
  0
LINE
  5
282
100
AcDbEntity
  8
0
100
AcDbLine
 62
7
  6
CONTINUOUS
 10
45.6421969562
 20
134.0305740471
 11
45.9129037558
 21
134.1868657578
  0
LINE
  5
283
100
AcDbEntity
  8
0
100
AcDbLine
 62
7
  6
CONTINUOUS
 10
39.5982542004
 20
130.0209904883
 11
39.9517986575
 21
130.2251082574
  0
LINE
  5
284
100
AcDbEntity
  8
0
100
AcDbLine
 62
7
  6
CONTINUOUS
 10
44.4288184592
 20
132.3224055823
 11
44.0752740021
 21
132.1182878132
  0
LINE
  5
285
100
AcDbEntity
  8
0
100
AcDbLine
 62
7
  6
CONTINUOUS
 10
47.5860026489
 20
133.9854253245
 11
47.7564619122
 21
134.0838394387
  0
LINE
  5
286
100
AcDbEntity
  8
0
100
AcDbLine
 62
7
  6
CONTINUOUS
 10
45.4672649183
 20
132.3481091462
 11
45.8208093754
 21
132.5522269152
  0
LINE
  5
287
100
AcDbEntity
  8
0
100
AcDbLine
 62
7
  6
CONTINUOUS
 10
47.1614217369
 20
133.1534690538
 11
47.0200009695
 21
133.071820223
  0
LINE
  5
288
100
AcDbEntity
  8
0
100
AcDbLine
 62
7
  6
CONTINUOUS
 10
46.3673137444
 20
132.2425156581
 11
45.4672649183
 21
131.7228753279
  0
LINE
  5
289
100
AcDbEntity
  8
0
100
AcDbLine
 62
7
  6
CONTINUOUS
 10
48.0507290694
 20
133.1368893602
 11
46.636521395
 21
132.3204010525
  0
LINE
  5
28A
100
AcDbEntity
  8
0
100
AcDbLine
 62
7
  6
CONTINUOUS
 10
46.5647348158
 20
132.2423003789
 11
47.9789424903
 21
133.0587886866
  0
LINE
  5
28B
100
AcDbEntity
  8
0
100
AcDbLine
 62
7
  6
CONTINUOUS
 10
92.0624114018
 20
157.9340193844
 11
98.7940399313
 21
161.8205037287
  0
LINE
  5
28C
100
AcDbEntity
  8
0
100
AcDbLine
 62
7
  6
CONTINUOUS
 10
45.8208063189
 20
131.1105270588
 11
47.2350139933
 21
131.9270153666
  0
LINE
  5
28D
100
AcDbEntity
  8
0
100
AcDbLine
 62
7
  6
CONTINUOUS
 10
48.188483359
 20
132.3972118625
 11
48.3299041265
 21
132.4788606933
  0
LINE
  5
28E
100
AcDbEntity
  8
0
100
AcDbLine
 62
7
  6
CONTINUOUS
 10
103.3760727983
 20
164.0168495177
 11
103.0225208797
 21
163.8127274408
  0
LINE
  5
28F
100
AcDbEntity
  8
0
100
AcDbLine
 62
7
  6
CONTINUOUS
 10
102.4200016229
 20
162.4949283734
 11
102.4568378097
 21
162.5124742776
  0
LINE
  5
290
100
AcDbEntity
  8
0
100
AcDbLine
 62
7
  6
CONTINUOUS
 10
93.7031809328
 20
50.0463144106
 11
93.2258736212
 21
50.3218816813
  0
LINE
  5
291
100
AcDbEntity
  8
0
100
AcDbLine
 62
7
  6
CONTINUOUS
 10
93.420335778
 20
50.434149607
 11
93.7031809328
 21
50.270852575
  0
LINE
  5
292
100
AcDbEntity
  8
0
100
AcDbLine
 62
7
  6
CONTINUOUS
 10
93.0208257301
 20
51.3874264386
 11
92.8086891475
 21
51.5099007809
  0
LINE
  5
293
100
AcDbEntity
  8
0
100
AcDbLine
 62
7
  6
CONTINUOUS
 10
94.1026946005
 20
50.9425789053
 11
92.9643643063
 21
51.5997793392
  0
LINE
  5
294
100
AcDbEntity
  8
0
100
AcDbLine
 62
7
  6
CONTINUOUS
 10
94.7991698006
 20
50.8627402342
 11
97.4508312699
 21
49.3318374047
  0
LINE
  5
295
100
AcDbEntity
  8
0
100
AcDbLine
 62
7
  6
CONTINUOUS
 10
93.0208257301
 20
52.0406283714
 11
92.8086891462
 21
52.1631027145
  0
LINE
  5
296
100
AcDbEntity
  8
0
100
AcDbLine
 62
7
  6
CONTINUOUS
 10
94.1026946005
 20
52.0120399938
 11
93.0208257301
 21
52.6366431469
  0
LINE
  5
297
100
AcDbEntity
  8
0
100
AcDbLine
 62
7
  6
CONTINUOUS
 10
93.0208257301
 20
52.6938303058
 11
92.8086891463
 21
52.8163046488
  0
LINE
  5
298
100
AcDbEntity
  8
0
100
AcDbLine
 62
7
  6
CONTINUOUS
 10
94.1026946005
 20
52.256990718
 11
92.9712994884
 21
52.9101872132
  0
LINE
  5
299
100
AcDbEntity
  8
0
100
AcDbLine
 62
7
  6
CONTINUOUS
 10
94.4102847701
 20
52.1896262009
 11
94.1981481875
 21
52.3121005432
  0
LINE
  5
29A
100
AcDbEntity
  8
0
100
AcDbLine
 62
7
  6
CONTINUOUS
 10
94.1026946005
 20
52.6652419266
 11
93.0208257301
 21
53.2898450797
  0
LINE
  5
29B
100
AcDbEntity
  8
0
100
AcDbLine
 62
7
  6
CONTINUOUS
 10
93.0208257301
 20
53.3470322401
 11
92.8086891475
 21
53.4695065823
  0
LINE
  5
29C
100
AcDbEntity
  8
0
100
AcDbLine
 62
7
  6
CONTINUOUS
 10
94.7991698006
 20
52.4957450687
 11
97.4508312699
 21
50.9648422392
  0
LINE
  5
29D
100
AcDbEntity
  8
0
100
AcDbLine
 62
7
  6
CONTINUOUS
 10
94.1026946005
 20
52.9101926524
 11
92.9712994898
 21
53.5633891468
  0
LINE
  5
29E
100
AcDbEntity
  8
0
100
AcDbLine
 62
7
  6
CONTINUOUS
 10
94.4102847701
 20
52.8428281337
 11
94.1981481862
 21
52.9653024768
  0
LINE
  5
29F
100
AcDbEntity
  8
0
100
AcDbLine
 62
7
  6
CONTINUOUS
 10
94.1026946005
 20
53.3184438609
 11
93.0208257301
 21
53.9430470141
  0
LINE
  5
2A0
100
AcDbEntity
  8
0
100
AcDbLine
 62
7
  6
CONTINUOUS
 10
93.0208257301
 20
54.0002341729
 11
92.8086891463
 21
54.1227085159
  0
LINE
  5
2A1
100
AcDbEntity
  8
0
100
AcDbLine
 62
7
  6
CONTINUOUS
 10
94.1026946005
 20
53.5633945866
 11
92.9712994898
 21
54.2165910811
  0
LINE
  5
2A2
100
AcDbEntity
  8
0
100
AcDbLine
 62
7
  6
CONTINUOUS
 10
94.4102847701
 20
53.4960300681
 11
94.1981481862
 21
53.6185044111
  0
LINE
  5
2A3
100
AcDbEntity
  8
0
100
AcDbLine
 62
7
  6
CONTINUOUS
 10
94.1026946005
 20
53.9716457952
 11
93.0208257301
 21
54.5962489484
  0
LINE
  5
2A4
100
AcDbEntity
  8
0
100
AcDbLine
 62
7
  6
CONTINUOUS
 10
93.0208257301
 20
54.6534361071
 11
92.8086891475
 21
54.7759104494
  0
LINE
  5
2A5
100
AcDbEntity
  8
0
100
AcDbLine
 62
7
  6
CONTINUOUS
 10
94.1026946005
 20
54.2165965194
 11
92.9712994898
 21
54.8697930139
  0
LINE
  5
2A6
100
AcDbEntity
  8
0
100
AcDbLine
 62
7
  6
CONTINUOUS
 10
94.4102847701
 20
54.1492320023
 11
94.1981481875
 21
54.2717063446
  0
LINE
  5
2A7
100
AcDbEntity
  8
0
100
AcDbLine
 62
7
  6
CONTINUOUS
 10
94.1026946005
 20
54.624847728
 11
93.0208257301
 21
55.2494508812
  0
LINE
  5
2A8
100
AcDbEntity
  8
0
100
AcDbLine
 62
7
  6
CONTINUOUS
 10
93.0208257301
 20
55.3066380411
 11
92.8086891472
 21
55.4291123836
  0
LINE
  5
2A9
100
AcDbEntity
  8
0
100
AcDbLine
 62
7
  6
CONTINUOUS
 10
84.7229622
 20
60.1506214164
 11
17.5475383111
 21
98.9334930959
  0
LINE
  5
2AA
100
AcDbEntity
  8
0
100
AcDbLine
 62
7
  6
CONTINUOUS
 10
94.1026946005
 20
54.8697984537
 11
92.9712994897
 21
55.5229949482
  0
LINE
  5
2AB
100
AcDbEntity
  8
0
100
AcDbLine
 62
7
  6
CONTINUOUS
 10
94.4102847701
 20
54.8024339351
 11
94.1981481862
 21
54.9249082782
  0
LINE
  5
2AC
100
AcDbEntity
  8
0
100
AcDbLine
 62
7
  6
CONTINUOUS
 10
94.1026946005
 20
55.2780496623
 11
93.0208257301
 21
55.9026528154
  0
LINE
  5
2AD
100
AcDbEntity
  8
0
100
AcDbLine
 62
7
  6
CONTINUOUS
 10
93.0208257301
 20
55.9598399743
 11
92.8086891463
 21
56.0823143173
  0
LINE
  5
2AE
100
AcDbEntity
  8
0
100
AcDbLine
 62
7
  6
CONTINUOUS
 10
94.1026946005
 20
55.5230003865
 11
92.9712994884
 21
56.1761968818
  0
LINE
  5
2AF
100
AcDbEntity
  8
0
100
AcDbLine
 62
7
  6
CONTINUOUS
 10
94.4102847701
 20
55.4556358694
 11
94.1981481875
 21
55.5781102117
  0
LINE
  5
2B0
100
AcDbEntity
  8
0
100
AcDbLine
 62
7
  6
CONTINUOUS
 10
94.1026946005
 20
55.9312515962
 11
93.0208257301
 21
56.5558547494
  0
LINE
  5
2B1
100
AcDbEntity
  8
0
100
AcDbLine
 62
7
  6
CONTINUOUS
 10
93.0208257301
 20
56.6130419086
 11
92.8086891475
 21
56.7355162509
  0
LINE
  5
2B2
100
AcDbEntity
  8
0
100
AcDbLine
 62
7
  6
CONTINUOUS
 10
41.5891930117
 20
146.7398391939
 11
41.5891930117
 21
156.374567716
  0
LINE
  5
2B3
100
AcDbEntity
  8
0
100
AcDbLine
 62
7
  6
CONTINUOUS
 10
42.6499100015
 20
113.2634952333
 11
42.6499100015
 21
107.1600560333
  0
LINE
  5
2B4
100
AcDbEntity
  8
0
100
AcDbLine
 62
7
  6
CONTINUOUS
 10
44.4288154027
 20
132.9476446874
 11
44.4288154027
 21
132.3224108764
  0
LINE
  5
2B5
100
AcDbEntity
  8
0
100
AcDbLine
 62
7
  6
CONTINUOUS
 10
44.4288154027
 20
130.3068377448
 11
44.4288154027
 21
129.6559521046
  0
LINE
  5
2B6
100
AcDbEntity
  8
0
100
AcDbLine
 62
7
  6
CONTINUOUS
 10
44.4288154027
 20
127.232127766
 11
44.4288154027
 21
119.857923099
  0
LINE
  5
2B7
100
AcDbEntity
  8
0
100
AcDbLine
 62
7
  6
CONTINUOUS
 10
45.4672649183
 20
129.056416559
 11
45.4672649183
 21
129.7073022007
  0
LINE
  5
2B8
100
AcDbEntity
  8
0
100
AcDbLine
 62
7
  6
CONTINUOUS
 10
45.4672649183
 20
131.7228753323
 11
45.4672649183
 21
132.3481091418
  0
LINE
  5
2B9
100
AcDbEntity
  8
0
100
AcDbLine
 62
7
  6
CONTINUOUS
 10
46.5155877998
 20
119.0471363957
 11
46.5155877998
 21
122.6531379471
  0
LINE
  5
2BA
100
AcDbEntity
  8
0
100
AcDbLine
 62
7
  6
CONTINUOUS
 10
46.5155877998
 20
125.2933798871
 11
46.5155877998
 21
125.63337177
  0
LINE
  5
2BB
100
AcDbEntity
  8
0
100
AcDbLine
 62
7
  6
CONTINUOUS
 10
54.2707798188
 20
129.9516106135
 11
54.3775947844
 21
130.1876849656
  0
LINE
  5
2BC
100
AcDbEntity
  8
0
100
AcDbLine
 62
7
  6
CONTINUOUS
 10
44.4288184592
 20
129.6559468105
 11
44.0752740021
 21
129.4518290414
  0
LINE
  5
2BD
100
AcDbEntity
  8
0
100
AcDbLine
 62
7
  6
CONTINUOUS
 10
96.0151279769
 20
159.3669599005
 11
98.3485706392
 21
160.7141656084
  0
LINE
  5
2BE
100
AcDbEntity
  8
0
100
AcDbLine
 62
7
  6
CONTINUOUS
 10
89.1279304798
 20
155.357983538
 11
89.6936135487
 21
155.6845788607
  0
LINE
  5
2BF
100
AcDbEntity
  8
0
100
AcDbLine
 62
7
  6
CONTINUOUS
 10
80.8901707757
 20
150.1773578882
 11
89.1279304798
 21
154.9333839383
  0
LINE
  5
2C0
100
AcDbEntity
  8
0
100
AcDbLine
 62
7
  6
CONTINUOUS
 10
90.4707478511
 20
155.7086552814
 11
91.7088594856
 21
156.4234750999
  0
LINE
  5
2C1
100
AcDbEntity
  8
0
100
AcDbLine
 62
7
  6
CONTINUOUS
 10
45.4672649183
 20
129.707302205
 11
45.8208093719
 21
129.9114199721
  0
LINE
  5
2C2
100
AcDbEntity
  8
0
100
AcDbLine
 62
7
  6
CONTINUOUS
 10
83.1175478635
 20
151.3571816587
 11
89.1279304798
 21
154.8272569666
  0
LINE
  5
2C3
100
AcDbEntity
  8
0
100
AcDbLine
 62
7
  6
CONTINUOUS
 10
90.6649894618
 20
155.7146730865
 11
91.0017556472
 21
155.9091039736
  0
LINE
  5
2C4
100
AcDbEntity
  8
0
100
AcDbLine
 62
7
  6
CONTINUOUS
 10
91.7088594856
 20
156.0152309458
 11
91.3512665516
 21
155.8087758015
  0
LINE
  5
2C5
100
AcDbEntity
  8
0
100
AcDbLine
 62
7
  6
CONTINUOUS
 10
46.3845039936
 20
129.5859816221
 11
45.4672649183
 21
129.0564165561
  0
LINE
  5
2C6
100
AcDbEntity
  8
0
100
AcDbLine
 62
7
  6
CONTINUOUS
 10
45.8208063189
 20
128.4440682871
 11
47.0915929041
 21
129.1777528846
  0
LINE
  5
2C7
100
AcDbEntity
  8
0
100
AcDbLine
 62
7
  6
CONTINUOUS
 10
100.4698998145
 20
159.4894433448
 11
98.1364571524
 21
158.142237637
  0
LINE
  5
2C8
100
AcDbEntity
  8
0
100
AcDbLine
 62
7
  6
CONTINUOUS
 10
49.2274115187
 20
129.5437629687
 11
48.8810000033
 21
129.3437633809
  0
LINE
  5
2C9
100
AcDbEntity
  8
0
100
AcDbLine
 62
7
  6
CONTINUOUS
 10
57.8391530266
 20
133.737765728
 11
55.5057103638
 21
132.3905600202
  0
LINE
  5
2CA
100
AcDbEntity
  8
0
100
AcDbLine
 62
7
  6
CONTINUOUS
 10
99.6072453805
 20
157.2930968675
 11
101.9406880433
 21
158.6403025752
  0
LINE
  5
2CB
100
AcDbEntity
  8
0
100
AcDbLine
 62
7
  6
CONTINUOUS
 10
41.0124618748
 20
123.4632741204
 11
39.5982542004
 21
122.6467858126
  0
LINE
  5
2CC
100
AcDbEntity
  8
0
100
AcDbLine
 62
7
  6
CONTINUOUS
 10
56.0051486697
 20
131.6511365346
 11
58.3385913325
 21
132.9983422424
  0
LINE
  5
2CD
100
AcDbEntity
  8
0
100
AcDbLine
 62
7
  6
CONTINUOUS
 10
39.9517956009
 20
122.0344375436
 11
41.3660032754
 21
122.8509258513
  0
LINE
  5
2CE
100
AcDbEntity
  8
0
100
AcDbLine
 62
7
  6
CONTINUOUS
 10
46.5155877998
 20
125.6333717742
 11
47.222676712
 21
126.0416073111
  0
LINE
  5
2CF
100
AcDbEntity
  8
0
100
AcDbLine
 62
7
  6
CONTINUOUS
 10
54.2707798188
 20
129.9516106155
 11
54.6354453682
 21
130.1621491118
  0
LINE
  5
2D0
100
AcDbEntity
  8
0
100
AcDbLine
 62
7
  6
CONTINUOUS
 10
47.5171286439
 20
125.8716163073
 11
46.5155877998
 21
125.2933798829
  0
LINE
  5
2D1
100
AcDbEntity
  8
0
100
AcDbLine
 62
7
  6
CONTINUOUS
 10
54.8202885461
 20
129.9786060382
 11
54.2707798188
 21
129.6613489204
  0
LINE
  5
2D2
100
AcDbEntity
  8
0
100
AcDbLine
 62
7
  6
CONTINUOUS
 10
54.2234379195
 20
129.0763043475
 11
54.082017152
 21
128.9946555168
  0
LINE
  5
2D3
100
AcDbEntity
  8
0
100
AcDbLine
 62
7
  6
CONTINUOUS
 10
39.5982542004
 20
120.2229614828
 11
39.9517986575
 21
120.4270792518
  0
LINE
  5
2D4
100
AcDbEntity
  8
0
100
AcDbLine
 62
7
  6
CONTINUOUS
 10
104.0620172189
 20
157.4155803118
 11
101.728574556
 21
156.0683746039
  0
LINE
  5
2D5
100
AcDbEntity
  8
0
100
AcDbLine
 62
7
  6
CONTINUOUS
 10
50.439251123
 20
126.185900397
 11
50.0857066659
 21
125.981782628
  0
LINE
  5
2D6
100
AcDbEntity
  8
0
100
AcDbLine
 62
7
  6
CONTINUOUS
 10
135.7429886165
 20
77.6071382637
 11
135.4929982814
 21
77.5823837148
  0
LINE
  5
2D7
100
AcDbEntity
  8
0
100
AcDbLine
 62
7
  6
CONTINUOUS
 10
97.6275851499
 20
54.1287216845
 11
100.2792466192
 21
52.597818855
  0
LINE
  5
2D8
100
AcDbEntity
  8
0
100
AcDbLine
 62
7
  6
CONTINUOUS
 10
94.1026946005
 20
56.1762023209
 11
92.9712994898
 21
56.8293988153
  0
LINE
  5
2D9
100
AcDbEntity
  8
0
100
AcDbLine
 62
7
  6
CONTINUOUS
 10
94.4102847701
 20
56.1088378034
 11
94.1981481872
 21
56.2313121459
  0
LINE
  5
2DA
100
AcDbEntity
  8
0
100
AcDbLine
 62
7
  6
CONTINUOUS
 10
94.1026946005
 20
56.5844535294
 11
93.0208257301
 21
57.2090566826
  0
LINE
  5
2DB
100
AcDbEntity
  8
0
100
AcDbLine
 62
7
  6
CONTINUOUS
 10
93.0208257301
 20
57.2662438414
 11
92.8086891463
 21
57.3887181844
  0
LINE
  5
2DC
100
AcDbEntity
  8
0
100
AcDbLine
 62
7
  6
CONTINUOUS
 10
94.1026946005
 20
56.8294042551
 11
92.9712994898
 21
57.4826007496
  0
LINE
  5
2DD
100
AcDbEntity
  8
0
100
AcDbLine
 62
7
  6
CONTINUOUS
 10
94.4102847701
 20
56.7620397366
 11
94.1981481862
 21
56.8845140796
  0
LINE
  5
2DE
100
AcDbEntity
  8
0
100
AcDbLine
 62
7
  6
CONTINUOUS
 10
94.1026946005
 20
57.2376554637
 11
93.0208257301
 21
57.8622586169
  0
LINE
  5
2DF
100
AcDbEntity
  8
0
100
AcDbLine
 62
7
  6
CONTINUOUS
 10
93.0208257301
 20
57.9194457757
 11
92.8086891475
 21
58.0419201179
  0
LINE
  5
2E0
100
AcDbEntity
  8
0
100
AcDbLine
 62
7
  6
CONTINUOUS
 10
94.1026946005
 20
57.482606188
 11
92.9712994898
 21
58.1358026824
  0
LINE
  5
2E1
100
AcDbEntity
  8
0
100
AcDbLine
 62
7
  6
CONTINUOUS
 10
94.4102847701
 20
57.4152416708
 11
94.1981481875
 21
57.5377160131
  0
LINE
  5
2E2
100
AcDbEntity
  8
0
100
AcDbLine
 62
7
  6
CONTINUOUS
 10
94.1026946005
 20
57.8908573965
 11
93.0208257301
 21
58.5154605497
  0
LINE
  5
2E3
100
AcDbEntity
  8
0
100
AcDbLine
 62
7
  6
CONTINUOUS
 10
93.0208257301
 20
58.5726477085
 11
92.8086891462
 21
58.6951220515
  0
LINE
  5
2E4
100
AcDbEntity
  8
0
100
AcDbLine
 62
7
  6
CONTINUOUS
 10
87.5513775489
 20
61.7835980319
 11
20.3759536599
 21
100.5664697113
  0
LINE
  5
2E5
100
AcDbEntity
  8
0
100
AcDbLine
 62
7
  6
CONTINUOUS
 10
94.1026946005
 20
58.1358081222
 11
92.9712994897
 21
58.7890046167
  0
LINE
  5
2E6
100
AcDbEntity
  8
0
100
AcDbLine
 62
7
  6
CONTINUOUS
 10
94.4102847701
 20
58.0684436037
 11
94.1981481862
 21
58.1909179467
  0
LINE
  5
2E7
100
AcDbEntity
  8
0
100
AcDbLine
 62
7
  6
CONTINUOUS
 10
94.1026946005
 20
58.5440593308
 11
93.0208257301
 21
59.168662484
  0
LINE
  5
2E8
100
AcDbEntity
  8
0
100
AcDbLine
 62
7
  6
CONTINUOUS
 10
93.0208257301
 20
59.2258496428
 11
92.8086891463
 21
59.3483239858
  0
LINE
  5
2E9
100
AcDbEntity
  8
0
100
AcDbLine
 62
7
  6
CONTINUOUS
 10
94.1026946005
 20
58.789010055
 11
92.9712994884
 21
59.4422065503
  0
LINE
  5
2EA
100
AcDbEntity
  8
0
100
AcDbLine
 62
7
  6
CONTINUOUS
 10
94.4102847701
 20
58.7216455379
 11
94.1981481875
 21
58.8441198802
  0
LINE
  5
2EB
100
AcDbEntity
  8
0
100
AcDbLine
 62
7
  6
CONTINUOUS
 10
94.1026946005
 20
59.1972612636
 11
93.0208257301
 21
59.8218644168
  0
LINE
  5
2EC
100
AcDbEntity
  8
0
100
AcDbLine
 62
7
  6
CONTINUOUS
 10
93.0208257301
 20
59.8790515771
 11
92.8086891475
 21
60.0015259194
  0
LINE
  5
2ED
100
AcDbEntity
  8
0
100
AcDbLine
 62
7
  6
CONTINUOUS
 10
94.1026946005
 20
59.4422119894
 11
92.9712994898
 21
60.0954084839
  0
LINE
  5
2EE
100
AcDbEntity
  8
0
100
AcDbLine
 62
7
  6
CONTINUOUS
 10
94.4102847701
 20
59.3748474707
 11
94.1981481862
 21
59.4973218138
  0
LINE
  5
2EF
100
AcDbEntity
  8
0
100
AcDbLine
 62
7
  6
CONTINUOUS
 10
94.1026946005
 20
59.850463198
 11
93.0208257301
 21
60.4750663511
  0
LINE
  5
2F0
100
AcDbEntity
  8
0
100
AcDbLine
 62
7
  6
CONTINUOUS
 10
93.0208257301
 20
60.5322535099
 11
92.8086891463
 21
60.6547278529
  0
LINE
  5
2F1
100
AcDbEntity
  8
0
100
AcDbLine
 62
7
  6
CONTINUOUS
 10
94.1026946005
 20
60.0954139237
 11
92.9712994898
 21
60.7486104181
  0
LINE
  5
2F2
100
AcDbEntity
  8
0
100
AcDbLine
 62
7
  6
CONTINUOUS
 10
94.4102847701
 20
60.0280494051
 11
94.1981481862
 21
60.1505237481
  0
LINE
  5
2F3
100
AcDbEntity
  8
0
100
AcDbLine
 62
7
  6
CONTINUOUS
 10
94.1026946005
 20
60.5036651322
 11
93.0208257301
 21
61.1282682854
  0
LINE
  5
2F4
100
AcDbEntity
  8
0
100
AcDbLine
 62
7
  6
CONTINUOUS
 10
93.0208257301
 20
61.1854554442
 11
92.8086891475
 21
61.3079297865
  0
LINE
  5
2F5
100
AcDbEntity
  8
0
100
AcDbLine
 62
7
  6
CONTINUOUS
 10
94.1026946005
 20
60.7486158565
 11
92.9712994898
 21
61.4018123509
  0
LINE
  5
2F6
100
AcDbEntity
  8
0
100
AcDbLine
 62
7
  6
CONTINUOUS
 10
94.4102847701
 20
60.6812513394
 11
94.1981481875
 21
60.8037256817
  0
LINE
  5
2F7
100
AcDbEntity
  8
0
100
AcDbLine
 62
7
  6
CONTINUOUS
 10
94.1026946005
 20
61.156867065
 11
93.0208257301
 21
61.7814702182
  0
LINE
  5
2F8
100
AcDbEntity
  8
0
100
AcDbLine
 62
7
  6
CONTINUOUS
 10
93.0208257301
 20
61.838657377
 11
92.8086891462
 21
61.96113172
  0
LINE
  5
2F9
100
AcDbEntity
  8
0
100
AcDbLine
 62
7
  6
CONTINUOUS
 10
94.1026946005
 20
61.4018177907
 11
92.9712994897
 21
62.0550142852
  0
LINE
  5
2FA
100
AcDbEntity
  8
0
100
AcDbLine
 62
7
  6
CONTINUOUS
 10
94.4102847701
 20
61.3344532722
 11
94.1981481862
 21
61.4569276152
  0
LINE
  5
2FB
100
AcDbEntity
  8
0
100
AcDbLine
 62
7
  6
CONTINUOUS
 10
94.1026946005
 20
61.8100689993
 11
93.0208257301
 21
62.4346721525
  0
LINE
  5
2FC
100
AcDbEntity
  8
0
100
AcDbLine
 62
7
  6
CONTINUOUS
 10
93.0208257301
 20
62.4918593113
 11
92.8086891463
 21
62.6143336544
  0
LINE
  5
2FD
100
AcDbEntity
  8
0
100
AcDbLine
 62
7
  6
CONTINUOUS
 10
94.1026946005
 20
62.0550197235
 11
92.9712994884
 21
62.7082162188
  0
LINE
  5
2FE
100
AcDbEntity
  8
0
100
AcDbLine
 62
7
  6
CONTINUOUS
 10
94.4102847701
 20
61.9876552064
 11
94.1981481875
 21
62.1101295487
  0
LINE
  5
2FF
100
AcDbEntity
  8
0
100
AcDbLine
 62
7
  6
CONTINUOUS
 10
94.1026946005
 20
62.4632709321
 11
93.0208257301
 21
63.0878740853
  0
LINE
  5
300
100
AcDbEntity
  8
0
100
AcDbLine
 62
7
  6
CONTINUOUS
 10
93.0208257301
 20
63.1450612456
 11
92.8086891475
 21
63.2675355879
  0
LINE
  5
301
100
AcDbEntity
  8
0
100
AcDbLine
 62
7
  6
CONTINUOUS
 10
94.1026946005
 20
62.7082216579
 11
92.9712994898
 21
63.3614181524
  0
LINE
  5
302
100
AcDbEntity
  8
0
100
AcDbLine
 62
7
  6
CONTINUOUS
 10
94.4102847701
 20
62.6408571393
 11
94.1981481862
 21
62.7633314823
  0
LINE
  5
303
100
AcDbEntity
  8
0
100
AcDbLine
 62
7
  6
CONTINUOUS
 10
23.911502285
 20
103.3426302005
 11
21.7901731102
 21
104.5673524637
  0
LINE
  5
304
100
AcDbEntity
  8
0
100
AcDbLine
 62
7
  6
CONTINUOUS
 10
47.2071758065
 20
137.1859158039
 11
47.2064567757
 21
137.2098761956
  0
LINE
  5
305
100
AcDbEntity
  8
0
100
AcDbLine
 62
7
  6
CONTINUOUS
 10
48.2825622271
 20
133.4088314392
 11
48.2825622271
 21
133.1185697274
  0
LINE
  5
306
100
AcDbEntity
  8
0
100
AcDbLine
 62
7
  6
CONTINUOUS
 10
49.0138975278
 20
103.4858892426
 11
49.0138975278
 21
109.5893284426
  0
LINE
  5
307
100
AcDbEntity
  8
0
100
AcDbLine
 62
7
  6
CONTINUOUS
 10
49.3440031486
 20
121.6741110554
 11
49.3440031486
 21
121.8366598584
  0
LINE
  5
308
100
AcDbEntity
  8
0
100
AcDbLine
 62
7
  6
CONTINUOUS
 10
49.721001365
 20
109.1810910875
 11
49.721001365
 21
103.8941333965
  0
LINE
  5
309
100
AcDbEntity
  8
0
100
AcDbLine
 62
7
  6
CONTINUOUS
 10
50.4392480664
 20
126.8367913313
 11
50.4392480664
 21
126.1859056912
  0
LINE
  5
30A
100
AcDbEntity
  8
0
100
AcDbLine
 62
7
  6
CONTINUOUS
 10
50.4392480664
 20
113.964052347
 11
50.4392480664
 21
111.4888621828
  0
LINE
  5
30B
100
AcDbEntity
  8
0
100
AcDbLine
 62
7
  6
CONTINUOUS
 10
51.8312524446
 20
110.6852062615
 11
51.8312524446
 21
113.1603964256
  0
LINE
  5
30C
100
AcDbEntity
  8
0
100
AcDbLine
 62
7
  6
CONTINUOUS
 10
51.8312524446
 20
125.3822497698
 11
51.8312524446
 21
126.03313541
  0
LINE
  5
30D
100
AcDbEntity
  8
0
100
AcDbLine
 62
7
  6
CONTINUOUS
 10
52.0543298025
 20
162.4165811933
 11
52.0543298025
 21
152.7818526712
  0
LINE
  5
30E
100
AcDbEntity
  8
0
100
AcDbLine
 62
7
  6
CONTINUOUS
 10
52.2300639674
 20
162.6615256461
 11
52.2300639674
 21
153.0267971239
  0
LINE
  5
30F
100
AcDbEntity
  8
0
100
AcDbLine
 62
7
  6
CONTINUOUS
 10
52.5494461535
 20
107.54812467
 11
52.5494461535
 21
101.44468547
  0
LINE
  5
310
100
AcDbEntity
  8
0
100
AcDbLine
 62
7
  6
CONTINUOUS
 10
53.2454601191
 20
111.5016945648
 11
53.2454601191
 21
112.7521573835
  0
LINE
  5
311
100
AcDbEntity
  8
0
100
AcDbLine
 62
7
  6
CONTINUOUS
 10
57.8416851084
 20
125.2038959392
 11
57.945240937
 21
125.4327736331
  0
LINE
  5
312
100
AcDbEntity
  8
0
100
AcDbLine
 62
7
  6
CONTINUOUS
 10
56.8032355927
 20
122.511738899
 11
56.6996797641
 21
122.2828612051
  0
LINE
  5
313
100
AcDbEntity
  8
0
100
AcDbLine
 62
7
  6
CONTINUOUS
 10
52.7732373458
 20
121.2043875403
 11
52.5994720368
 21
120.9644558154
  0
LINE
  5
314
100
AcDbEntity
  8
0
100
AcDbLine
 62
7
  6
CONTINUOUS
 10
53.2523865963
 20
127.6413009047
 11
54.6665942707
 21
128.4577892125
  0
LINE
  5
315
100
AcDbEntity
  8
0
100
AcDbLine
 62
7
  6
CONTINUOUS
 10
47.2226706009
 20
124.0686833448
 11
48.9313064649
 21
125.0551588324
  0
LINE
  5
316
100
AcDbEntity
  8
0
100
AcDbLine
 62
7
  6
CONTINUOUS
 10
55.3919203091
 20
128.401695987
 11
55.2504995416
 21
128.3200471563
  0
LINE
  5
317
100
AcDbEntity
  8
0
100
AcDbLine
 62
7
  6
CONTINUOUS
 10
51.8312524446
 20
126.0331354144
 11
52.1847968982
 21
126.2372531814
  0
LINE
  5
318
100
AcDbEntity
  8
0
100
AcDbLine
 62
7
  6
CONTINUOUS
 10
53.3895005078
 20
126.740838287
 11
54.8037081822
 21
127.5573265948
  0
LINE
  5
319
100
AcDbEntity
  8
0
100
AcDbLine
 62
7
  6
CONTINUOUS
 10
46.5155877998
 20
122.6531379513
 11
47.2226767111
 21
123.0613734878
  0
LINE
  5
31A
100
AcDbEntity
  8
0
100
AcDbLine
 62
7
  6
CONTINUOUS
 10
103.1993627843
 20
155.2192338345
 11
105.532805447
 21
156.5664395423
  0
LINE
  5
31B
100
AcDbEntity
  8
0
100
AcDbLine
 62
7
  6
CONTINUOUS
 10
52.74849152
 20
125.9118148314
 11
51.8312524446
 21
125.3822497654
  0
LINE
  5
31C
100
AcDbEntity
  8
0
100
AcDbLine
 62
7
  6
CONTINUOUS
 10
41.0124618748
 20
118.5642596176
 11
39.5982542004
 21
117.7477713098
  0
LINE
  5
31D
100
AcDbEntity
  8
0
100
AcDbLine
 62
7
  6
CONTINUOUS
 10
56.9111450898
 20
127.5245909937
 11
57.2646970084
 21
127.7287130706
  0
LINE
  5
31E
100
AcDbEntity
  8
0
100
AcDbLine
 62
7
  6
CONTINUOUS
 10
59.5981396712
 20
129.0759187784
 11
60.4466642758
 21
129.5658117631
  0
LINE
  5
31F
100
AcDbEntity
  8
0
100
AcDbLine
 62
7
  6
CONTINUOUS
 10
52.1847938452
 20
124.7699014964
 11
53.4555804305
 21
125.5035860939
  0
LINE
  5
320
100
AcDbEntity
  8
0
100
AcDbLine
 62
7
  6
CONTINUOUS
 10
60.4559457101
 20
129.5369079773
 11
56.9408176161
 21
127.5074599402
  0
LINE
  5
321
100
AcDbEntity
  8
0
100
AcDbLine
 62
7
  6
CONTINUOUS
 10
44.4288184592
 20
119.8579178049
 11
44.0752740021
 21
119.6538000359
  0
LINE
  5
322
100
AcDbEntity
  8
0
100
AcDbLine
 62
7
  6
CONTINUOUS
 10
39.9517956009
 20
117.1354230408
 11
41.3660032754
 21
117.9519113485
  0
LINE
  5
323
100
AcDbEntity
  8
0
100
AcDbLine
 62
7
  6
CONTINUOUS
 10
107.6541346227
 20
155.3417172788
 11
105.3206919597
 21
153.994511571
  0
LINE
  5
324
100
AcDbEntity
  8
0
100
AcDbLine
 62
7
  6
CONTINUOUS
 10
47.8233945685
 20
120.7961925228
 11
49.4847765538
 21
121.7553861336
  0
LINE
  5
325
100
AcDbEntity
  8
0
100
AcDbLine
 62
7
  6
CONTINUOUS
 10
48.3068113549
 20
120.7483105731
 11
49.7679545374
 21
121.5918969472
  0
LINE
  5
326
100
AcDbEntity
  8
0
100
AcDbLine
 62
7
  6
CONTINUOUS
 10
56.8032386493
 20
125.1781923781
 11
56.4496941922
 21
124.9740746091
  0
LINE
  5
327
100
AcDbEntity
  8
0
100
AcDbLine
 62
7
  6
CONTINUOUS
 10
47.7762983017
 20
119.7750035944
 11
46.5155877998
 21
119.0471363915
  0
LINE
  5
328
100
AcDbEntity
  8
0
100
AcDbLine
 62
7
  6
CONTINUOUS
 10
50.4750642625
 20
121.1836561927
 11
49.0139210801
 21
120.3400698185
  0
LINE
  5
329
100
AcDbEntity
  8
0
100
AcDbLine
 62
7
  6
CONTINUOUS
 10
22.4972769474
 20
104.9755966176
 11
21.7901731102
 21
104.5673524637
  0
LINE
  5
32A
100
AcDbEntity
  8
0
100
AcDbLine
 62
7
  6
CONTINUOUS
 10
59.2371473567
 20
126.181703339
 11
62.7726665427
 21
128.2229241083
  0
LINE
  5
32B
100
AcDbEntity
  8
0
100
AcDbLine
 62
7
  6
CONTINUOUS
 10
57.8416851084
 20
125.203895942
 11
58.1952295648
 21
125.4080137107
  0
LINE
  5
32C
100
AcDbEntity
  8
0
100
AcDbLine
 62
7
  6
CONTINUOUS
 10
106.791480188
 20
153.1453708016
 11
109.124922851
 21
154.4925765094
  0
LINE
  5
32D
100
AcDbEntity
  8
0
100
AcDbLine
 62
7
  6
CONTINUOUS
 10
58.7367087291
 20
125.0954011676
 11
57.8416851084
 21
124.5786621238
  0
LINE
  5
32E
100
AcDbEntity
  8
0
100
AcDbLine
 62
7
  6
CONTINUOUS
 10
52.7731626441
 20
121.2045169089
 11
54.18705195
 21
122.0208214077
  0
LINE
  5
32F
100
AcDbEntity
  8
0
100
AcDbLine
 62
7
  6
CONTINUOUS
 10
49.6710284743
 20
119.3891455773
 11
51.6271570185
 21
120.5185101775
  0
LINE
  5
330
100
AcDbEntity
  8
0
100
AcDbLine
 62
7
  6
CONTINUOUS
 10
47.2226706009
 20
117.8224398534
 11
48.9313064649
 21
118.808915341
  0
LINE
  5
331
100
AcDbEntity
  8
0
100
AcDbLine
 62
7
  6
CONTINUOUS
 10
53.256579431
 20
121.1566349599
 11
54.4702299331
 21
121.8573322215
  0
LINE
  5
332
100
AcDbEntity
  8
0
100
AcDbLine
 62
7
  6
CONTINUOUS
 10
58.1952265089
 20
123.9663138547
 11
59.4437976396
 21
124.6871724302
  0
LINE
  5
333
100
AcDbEntity
  8
0
100
AcDbLine
 62
7
  6
CONTINUOUS
 10
53.1397355024
 20
127.5818292297
 11
53.1514317903
 21
127.5883260313
  0
LINE
  5
334
100
AcDbEntity
  8
0
100
AcDbLine
 62
7
  6
CONTINUOUS
 10
53.1514317903
 20
127.5883260313
 11
53.2522482654
 21
127.6415403473
  0
LINE
  5
335
100
AcDbEntity
  8
0
100
AcDbLine
 62
7
  6
CONTINUOUS
 10
94.1026946005
 20
63.1164728665
 11
93.0208257301
 21
63.7410760196
  0
LINE
  5
336
100
AcDbEntity
  8
0
100
AcDbLine
 62
7
  6
CONTINUOUS
 10
93.0208257301
 20
63.7982631784
 11
92.8086891463
 21
63.9207375214
  0
LINE
  5
337
100
AcDbEntity
  8
0
100
AcDbLine
 62
7
  6
CONTINUOUS
 10
94.1026946005
 20
63.3614235922
 11
92.9712994898
 21
64.0146200866
  0
LINE
  5
338
100
AcDbEntity
  8
0
100
AcDbLine
 62
7
  6
CONTINUOUS
 10
94.4102847701
 20
63.2940590736
 11
94.1981481862
 21
63.4165334166
  0
LINE
  5
339
100
AcDbEntity
  8
0
100
AcDbLine
 62
7
  6
CONTINUOUS
 10
23.911502285
 20
104.1591117095
 11
22.4972769474
 21
104.9755966176
  0
LINE
  5
33A
100
AcDbEntity
  8
0
100
AcDbLine
 62
7
  6
CONTINUOUS
 10
94.1026946005
 20
63.7696748007
 11
93.0208257301
 21
64.3942779539
  0
LINE
  5
33B
100
AcDbEntity
  8
0
100
AcDbLine
 62
7
  6
CONTINUOUS
 10
92.3596836419
 20
64.8454341243
 11
90.4599144544
 21
65.942241563
  0
LINE
  5
33C
100
AcDbEntity
  8
0
100
AcDbLine
 62
7
  6
CONTINUOUS
 10
94.1026946005
 20
64.014625525
 11
93.0208257301
 21
64.6392286782
  0
LINE
  5
33D
100
AcDbEntity
  8
0
100
AcDbLine
 62
7
  6
CONTINUOUS
 10
94.4102847701
 20
63.9472610079
 11
94.1981481875
 21
64.0697353502
  0
LINE
  5
33E
100
AcDbEntity
  8
0
100
AcDbLine
 62
7
  6
CONTINUOUS
 10
94.1026946005
 20
64.4228767336
 11
93.0208257301
 21
65.0474798867
  0
LINE
  5
33F
100
AcDbEntity
  8
0
100
AcDbLine
 62
7
  6
CONTINUOUS
 10
94.1026946005
 20
64.6678274593
 11
93.1765008888
 21
65.2025535509
  0
LINE
  5
340
100
AcDbEntity
  8
0
100
AcDbLine
 62
7
  6
CONTINUOUS
 10
94.4102847701
 20
64.6004629407
 11
94.1981481862
 21
64.7229372837
  0
LINE
  5
341
100
AcDbEntity
  8
0
100
AcDbLine
 62
7
  6
CONTINUOUS
 10
108.7644885432
 20
56.3536330611
 11
109.2594653508
 21
56.067864533
  0
LINE
  5
342
100
AcDbEntity
  8
0
100
AcDbLine
 62
7
  6
CONTINUOUS
 10
91.4757852095
 20
66.5804638411
 11
93.4203393977
 21
65.4578003551
  0
LINE
  5
343
100
AcDbEntity
  8
0
100
AcDbLine
 62
7
  6
CONTINUOUS
 10
86.137158098
 20
69.8669510541
 11
84.0158289226
 21
71.0916733176
  0
LINE
  5
344
100
AcDbEntity
  8
0
100
AcDbLine
 62
7
  6
CONTINUOUS
 10
21.7901731102
 20
107.4251109236
 11
23.911502285
 21
106.2003886604
  0
LINE
  5
345
100
AcDbEntity
  8
0
100
AcDbLine
 62
7
  6
CONTINUOUS
 10
93.7031809328
 20
65.947698984
 11
91.7586303661
 21
67.0703603792
  0
LINE
  5
346
100
AcDbEntity
  8
0
100
AcDbLine
 62
7
  6
CONTINUOUS
 10
93.7031809328
 20
66.1722371489
 11
91.8034117455
 21
67.2690445876
  0
LINE
  5
347
100
AcDbEntity
  8
0
100
AcDbLine
 62
7
  6
CONTINUOUS
 10
86.137158098
 20
70.6834325631
 11
84.7229327598
 21
71.4999174715
  0
LINE
  5
348
100
AcDbEntity
  8
0
100
AcDbLine
 62
7
  6
CONTINUOUS
 10
94.7638366887
 20
66.7846033797
 11
92.8192825009
 21
67.9072668654
  0
LINE
  5
349
100
AcDbEntity
  8
0
100
AcDbLine
 62
7
  6
CONTINUOUS
 10
92.9607050776
 20
67.9889146486
 11
93.1021276547
 21
67.9072661328
  0
LINE
  5
34A
100
AcDbEntity
  8
0
100
AcDbLine
 62
7
  6
CONTINUOUS
 10
84.0158289226
 20
73.9494317776
 11
86.137158098
 21
72.724709514
  0
LINE
  5
34B
100
AcDbEntity
  8
0
100
AcDbLine
 62
7
  6
CONTINUOUS
 10
93.7970911662
 20
69.0497531567
 11
93.7495683931
 21
69.0771898218
  0
LINE
  5
34C
100
AcDbEntity
  8
0
100
AcDbLine
 62
7
  6
CONTINUOUS
 10
54.2707798188
 20
129.6613489017
 11
54.2707798188
 21
129.9516106135
  0
LINE
  5
34D
100
AcDbEntity
  8
0
100
AcDbLine
 62
7
  6
CONTINUOUS
 10
55.3778850541
 20
99.811722452
 11
55.3778850541
 21
105.915161652
  0
LINE
  5
34E
100
AcDbEntity
  8
0
100
AcDbLine
 62
7
  6
CONTINUOUS
 10
55.7549127113
 20
120.2991657211
 11
55.7549127113
 21
116.6931641696
  0
LINE
  5
34F
100
AcDbEntity
  8
0
100
AcDbLine
 62
7
  6
CONTINUOUS
 10
55.7549127113
 20
114.0529222297
 11
55.7549127113
 21
113.7129303468
  0
LINE
  5
350
100
AcDbEntity
  8
0
100
AcDbLine
 62
7
  6
CONTINUOUS
 10
56.0849888913
 20
100.2199666058
 11
56.0849888913
 21
105.5069242968
  0
LINE
  5
351
100
AcDbEntity
  8
0
100
AcDbLine
 62
7
  6
CONTINUOUS
 10
56.8032355927
 20
125.8034314818
 11
56.8032355927
 21
125.1781976723
  0
LINE
  5
352
100
AcDbEntity
  8
0
100
AcDbLine
 62
7
  6
CONTINUOUS
 10
56.8032355927
 20
123.1626245406
 11
56.8032355927
 21
122.511738899
  0
LINE
  5
353
100
AcDbEntity
  8
0
100
AcDbLine
 62
7
  6
CONTINUOUS
 10
57.8416851084
 20
112.1141743508
 11
57.8416851084
 21
119.4883790178
  0
LINE
  5
354
100
AcDbEntity
  8
0
100
AcDbLine
 62
7
  6
CONTINUOUS
 10
57.8416851084
 20
121.9122033564
 11
57.8416851084
 21
122.5630889966
  0
LINE
  5
355
100
AcDbEntity
  8
0
100
AcDbLine
 62
7
  6
CONTINUOUS
 10
57.8416851084
 20
124.5786621282
 11
57.8416851084
 21
125.2038959392
  0
LINE
  5
356
100
AcDbEntity
  8
0
100
AcDbLine
 62
7
  6
CONTINUOUS
 10
58.9134336799
 20
103.8739578794
 11
58.9134336799
 21
97.7705186794
  0
LINE
  5
357
100
AcDbEntity
  8
0
100
AcDbLine
 62
7
  6
CONTINUOUS
 10
59.2558927828
 20
112.9306626542
 11
59.2558927828
 21
119.0801399757
  0
LINE
  5
358
100
AcDbEntity
  8
0
100
AcDbLine
 62
7
  6
CONTINUOUS
 10
56.803238648
 20
122.5117336071
 11
56.4496941908
 21
122.3076158381
  0
LINE
  5
359
100
AcDbEntity
  8
0
100
AcDbLine
 62
7
  6
CONTINUOUS
 10
55.1455564554
 20
121.4307415357
 11
53.9636891561
 21
120.7483942054
  0
LINE
  5
35A
100
AcDbEntity
  8
0
100
AcDbLine
 62
7
  6
CONTINUOUS
 10
57.8416851084
 20
122.5630890009
 11
58.195229562
 21
122.767206768
  0
LINE
  5
35B
100
AcDbEntity
  8
0
100
AcDbLine
 62
7
  6
CONTINUOUS
 10
111.2462520264
 20
153.2678542459
 11
108.9128093636
 21
151.9206485381
  0
LINE
  5
35C
100
AcDbEntity
  8
0
100
AcDbLine
 62
7
  6
CONTINUOUS
 10
17.5475383111
 20
98.9334930959
 11
20.3759536599
 21
100.5664697113
  0
LINE
  5
35D
100
AcDbEntity
  8
0
100
AcDbLine
 62
7
  6
CONTINUOUS
 10
58.7589241837
 20
122.441768418
 11
57.8416851084
 21
121.912203352
  0
LINE
  5
35E
100
AcDbEntity
  8
0
100
AcDbLine
 62
7
  6
CONTINUOUS
 10
58.1952265089
 20
121.2998550829
 11
59.4660130942
 21
122.0335396805
  0
LINE
  5
35F
100
AcDbEntity
  8
0
100
AcDbLine
 62
7
  6
CONTINUOUS
 10
54.447105943
 20
119.1216612862
 11
55.7549127113
 21
119.8767193688
  0
LINE
  5
360
100
AcDbEntity
  8
0
100
AcDbLine
 62
7
  6
CONTINUOUS
 10
110.3835975918
 20
151.0715077686
 11
112.7170402548
 21
152.4187134761
  0
LINE
  5
361
100
AcDbEntity
  8
0
100
AcDbLine
 62
7
  6
CONTINUOUS
 10
40.1750200755
 20
109.4053835825
 11
39.4679162383
 21
108.9971394287
  0
LINE
  5
362
100
AcDbEntity
  8
0
100
AcDbLine
 62
7
  6
CONTINUOUS
 10
57.8416851084
 20
119.4883790221
 11
58.1952295655
 21
119.6924967912
  0
LINE
  5
363
100
AcDbEntity
  8
0
100
AcDbLine
 62
7
  6
CONTINUOUS
 10
62.6722493643
 20
121.7897941144
 11
62.3187049101
 21
121.585676347
  0
LINE
  5
364
100
AcDbEntity
  8
0
100
AcDbLine
 62
7
  6
CONTINUOUS
 10
114.8383694295
 20
151.1939912125
 11
112.5049267672
 21
149.846785505
  0
LINE
  5
365
100
AcDbEntity
  8
0
100
AcDbLine
 62
7
  6
CONTINUOUS
 10
55.7549188224
 20
116.6931535849
 11
55.0478299102
 21
116.2849180479
  0
LINE
  5
366
100
AcDbEntity
  8
0
100
AcDbLine
 62
7
  6
CONTINUOUS
 10
51.8312524446
 20
113.16039643
 11
52.1847969017
 21
113.3645141991
  0
LINE
  5
367
100
AcDbEntity
  8
0
100
AcDbLine
 62
7
  6
CONTINUOUS
 10
113.9757149955
 20
148.9976447356
 11
116.3091576585
 21
150.3448504431
  0
LINE
  5
368
100
AcDbEntity
  8
0
100
AcDbLine
 62
7
  6
CONTINUOUS
 10
92.0768379852
 20
72.6430227737
 11
92.5718147928
 21
72.3572542456
  0
LINE
  5
369
100
AcDbEntity
  8
0
100
AcDbLine
 62
7
  6
CONTINUOUS
 10
96.0365873811
 20
70.3975929684
 11
97.4508312699
 21
69.5810973501
  0
LINE
  5
36A
100
AcDbEntity
  8
0
100
AcDbLine
 62
7
  6
CONTINUOUS
 10
104.0268928344
 20
67.1723373545
 11
104.521869642
 21
66.8865688263
  0
LINE
  5
36B
100
AcDbEntity
  8
0
100
AcDbLine
 62
7
  6
CONTINUOUS
 10
92.0768379852
 20
74.6842788166
 11
92.5718147928
 21
74.3985102884
  0
LINE
  5
36C
100
AcDbEntity
  8
0
100
AcDbLine
 62
7
  6
CONTINUOUS
 10
96.3194610085
 20
74.2759852798
 11
96.8144378161
 21
73.9902167517
  0
LINE
  5
36D
100
AcDbEntity
  8
0
100
AcDbLine
 62
7
  6
CONTINUOUS
 10
113.007111567
 20
65.3351173217
 11
113.5020883746
 21
65.0493487935
  0
LINE
  5
36E
100
AcDbEntity
  8
0
100
AcDbLine
 62
7
  6
CONTINUOUS
 10
62.6722463107
 20
122.4150332265
 11
62.6722463107
 21
121.7897994034
  0
LINE
  5
36F
100
AcDbEntity
  8
0
100
AcDbLine
 62
7
  6
CONTINUOUS
 10
62.6722463107
 20
119.7742262846
 11
62.6722463107
 21
119.1233406316
  0
LINE
  5
370
100
AcDbEntity
  8
0
100
AcDbLine
 62
7
  6
CONTINUOUS
 10
62.6722463107
 20
116.6995163066
 11
62.6722463107
 21
109.325311626
  0
LINE
  5
371
100
AcDbEntity
  8
0
100
AcDbLine
 62
7
  6
CONTINUOUS
 10
62.6722463107
 20
106.901487301
 11
62.6722463107
 21
104.4262971232
  0
LINE
  5
372
100
AcDbEntity
  8
0
100
AcDbLine
 62
7
  6
CONTINUOUS
 10
65.2774212062
 20
94.0963518887
 11
65.2774212062
 21
100.1997910887
  0
LINE
  5
373
100
AcDbEntity
  8
0
100
AcDbLine
 62
7
  6
CONTINUOUS
 10
82.9690581096
 20
151.0999884329
 11
83.1175478635
 21
151.3571816587
  0
LINE
  5
374
100
AcDbEntity
  8
0
100
AcDbLine
 62
7
  6
CONTINUOUS
 10
91.576020947
 20
155.6790125442
 11
91.7088594856
 21
155.909096919
  0
LINE
  5
375
100
AcDbEntity
  8
0
100
AcDbLine
 62
7
  6
CONTINUOUS
 10
62.6722493643
 20
119.1233353426
 11
62.3187049101
 21
118.9192175752
  0
LINE
  5
376
100
AcDbEntity
  8
0
100
AcDbLine
 62
7
  6
CONTINUOUS
 10
50.439251123
 20
111.4888568887
 11
50.0857066659
 21
111.2847391197
  0
LINE
  5
377
100
AcDbEntity
  8
0
100
AcDbLine
 62
7
  6
CONTINUOUS
 10
55.7549188224
 20
113.712919762
 11
55.0478299102
 21
113.304684225
  0
LINE
  5
378
100
AcDbEntity
  8
0
100
AcDbLine
 62
7
  6
CONTINUOUS
 10
53.2454601191
 20
111.5016945648
 11
51.8312524446
 21
110.6852062571
  0
LINE
  5
379
100
AcDbEntity
  8
0
100
AcDbLine
 62
7
  6
CONTINUOUS
 10
118.4304868332
 20
149.1201281795
 11
116.097044171
 21
147.7729224721
  0
LINE
  5
37A
100
AcDbEntity
  8
0
100
AcDbLine
 62
7
  6
CONTINUOUS
 10
52.1847938452
 20
110.072857988
 11
53.5990015196
 21
110.8893462958
  0
LINE
  5
37B
100
AcDbEntity
  8
0
100
AcDbLine
 62
7
  6
CONTINUOUS
 10
117.5678323993
 20
146.9237817027
 11
119.9012750623
 21
148.2709874102
  0
LINE
  5
37C
100
AcDbEntity
  8
0
100
AcDbLine
 62
7
  6
CONTINUOUS
 10
59.2558927828
 20
112.9306626542
 11
57.8416851084
 21
112.1141743464
  0
LINE
  5
37D
100
AcDbEntity
  8
0
100
AcDbLine
 62
7
  6
CONTINUOUS
 10
58.1952265089
 20
111.5018260774
 11
59.6094341834
 21
112.3183143851
  0
LINE
  5
37E
100
AcDbEntity
  8
0
100
AcDbLine
 62
7
  6
CONTINUOUS
 10
122.022604237
 20
147.0462651466
 11
119.6891615747
 21
145.6990594391
  0
LINE
  5
37F
100
AcDbEntity
  8
0
100
AcDbLine
 62
7
  6
CONTINUOUS
 10
134.7490582571
 20
143.8301610765
 11
131.7933642166
 21
142.7255009905
  0
LINE
  5
380
100
AcDbEntity
  8
0
100
AcDbLine
 62
7
  6
CONTINUOUS
 10
68.4594149699
 20
92.259268493
 11
65.2774212062
 21
94.0963518887
  0
LINE
  5
381
100
AcDbEntity
  8
0
100
AcDbLine
 62
7
  6
CONTINUOUS
 10
58.9134336799
 20
97.7705186794
 11
55.3778850541
 21
99.811722452
  0
LINE
  5
382
100
AcDbEntity
  8
0
100
AcDbLine
 62
7
  6
CONTINUOUS
 10
52.5494461535
 20
101.44468547
 11
49.0138975278
 21
103.4858892426
  0
LINE
  5
383
100
AcDbEntity
  8
0
100
AcDbLine
 62
7
  6
CONTINUOUS
 10
42.6499100015
 20
107.1600560333
 11
39.4679162389
 21
108.9971394283
  0
LINE
  5
384
100
AcDbEntity
  8
0
100
AcDbLine
 62
7
  6
CONTINUOUS
 10
68.4594149699
 20
93.0757500021
 11
65.9845250434
 21
94.5045960426
  0
LINE
  5
385
100
AcDbEntity
  8
0
100
AcDbLine
 62
7
  6
CONTINUOUS
 10
58.9134336799
 20
98.5870001884
 11
56.0849888913
 21
100.2199666058
  0
LINE
  5
386
100
AcDbEntity
  8
0
100
AcDbLine
 62
7
  6
CONTINUOUS
 10
52.5494461535
 20
102.2611669791
 11
49.721001365
 21
103.8941333965
  0
LINE
  5
387
100
AcDbEntity
  8
0
100
AcDbLine
 62
7
  6
CONTINUOUS
 10
42.6499100015
 20
107.9765375424
 11
40.1750200755
 21
109.4053835825
  0
LINE
  5
388
100
AcDbEntity
  8
0
100
AcDbLine
 62
7
  6
CONTINUOUS
 10
96.3194610085
 20
77.1337437398
 11
96.8144378161
 21
76.8479752116
  0
LINE
  5
389
100
AcDbEntity
  8
0
100
AcDbLine
 62
7
  6
CONTINUOUS
 10
86.137158098
 20
83.7474921453
 11
84.0158289226
 21
84.9722144088
  0
LINE
  5
38A
100
AcDbEntity
  8
0
100
AcDbLine
 62
7
  6
CONTINUOUS
 10
23.911502285
 20
119.6726785431
 11
21.7901731102
 21
120.8974008063
  0
LINE
  5
38B
100
AcDbEntity
  8
0
100
AcDbLine
 62
7
  6
CONTINUOUS
 10
86.137158098
 20
84.5639736543
 11
84.7229327603
 21
85.3804585624
  0
LINE
  5
38C
100
AcDbEntity
  8
0
100
AcDbLine
 62
7
  6
CONTINUOUS
 10
23.911502285
 20
120.4891600521
 11
22.4972769468
 21
121.3056449605
  0
LINE
  5
38D
100
AcDbEntity
  8
0
100
AcDbLine
 62
7
  6
CONTINUOUS
 10
21.7901731102
 20
123.7551592662
 11
23.911502285
 21
122.530437003
  0
LINE
  5
38E
100
AcDbEntity
  8
0
100
AcDbLine
 62
7
  6
CONTINUOUS
 10
84.0158289226
 20
87.8299728688
 11
86.137158098
 21
86.6052506052
  0
LINE
  5
38F
100
AcDbEntity
  8
0
100
AcDbLine
 62
7
  6
CONTINUOUS
 10
84.7229622
 20
88.9731567418
 11
17.5475383111
 21
127.7560284212
  0
LINE
  5
390
100
AcDbEntity
  8
0
100
AcDbLine
 62
7
  6
CONTINUOUS
 10
55.2504995416
 20
128.3200471563
 11
55.6339791133
 21
127.1258339405
  0
LINE
  5
391
100
AcDbEntity
  8
0
100
AcDbLine
 62
7
  6
CONTINUOUS
 10
54.9673393984
 20
129.7239049704
 11
55.3919203091
 21
128.401695987
  0
LINE
  5
392
100
AcDbEntity
  8
0
100
AcDbLine
 62
7
  6
CONTINUOUS
 10
56.5226869403
 20
127.7488623371
 11
55.3298089753
 21
131.4636642036
  0
LINE
  5
393
100
AcDbEntity
  8
0
100
AcDbLine
 62
7
  6
CONTINUOUS
 10
57.2646970084
 20
127.7287130706
 11
56.0051486697
 21
131.6511365346
  0
LWPOLYLINE
  5
394
100
AcDbEntity
  8
0
100
AcDbPolyline
 62
7
  6
CONTINUOUS
 90
3
 70
0
 10
52.2298742701
 20
162.6610944675
 10
52.1230634088
 20
163.1206864752
 10
51.5614513275
 20
163.6983372679
  0
LINE
  5
395
100
AcDbEntity
  8
0
100
AcDbLine
 62
7
  6
CONTINUOUS
 10
65.9845250434
 20
99.7915537335
 11
65.9845250434
 21
94.5045960426
  0
LINE
  5
396
100
AcDbEntity
  8
0
100
AcDbLine
 62
7
  6
CONTINUOUS
 10
68.4594149699
 20
98.362707693
 11
68.4594149699
 21
92.259268493
  0
LINE
  5
397
100
AcDbEntity
  8
0
100
AcDbLine
 62
7
  6
CONTINUOUS
 10
49.721001365
 20
103.8941333965
 11
49.0138975278
 21
103.4858892426
  0
LINE
  5
398
100
AcDbEntity
  8
0
100
AcDbLine
 62
7
  6
CONTINUOUS
 10
121.159949803
 20
144.8499186697
 11
123.493392466
 21
146.1971243772
  0
LINE
  5
399
100
AcDbEntity
  8
0
100
AcDbLine
 62
7
  6
CONTINUOUS
 10
62.6722493643
 20
109.325306337
 11
62.3187049101
 21
109.1211885697
  0
LINE
  5
39A
100
AcDbEntity
  8
0
100
AcDbLine
 62
7
  6
CONTINUOUS
 10
125.6147216407
 20
144.9724021136
 11
123.2812789785
 21
143.6251964062
  0
LINE
  5
39B
100
AcDbEntity
  8
0
100
AcDbLine
 62
7
  6
CONTINUOUS
 10
124.7520672068
 20
142.7760556368
 11
127.0855098698
 21
144.1232613442
  0
LINE
  5
39C
100
AcDbEntity
  8
0
100
AcDbLine
 62
7
  6
CONTINUOUS
 10
79.7731764602
 20
116.6116378567
 11
106.4309911231
 21
132.0024424577
  0
LINE
  5
39D
100
AcDbEntity
  8
0
100
AcDbLine
 62
7
  6
CONTINUOUS
 10
23.9115624951
 20
83.5424954558
 11
21.7901966619
 21
82.3177316319
  0
LINE
  5
39E
100
AcDbEntity
  8
0
100
AcDbLine
 62
7
  6
CONTINUOUS
 10
134.7490582566
 20
143.8301610762
 11
134.7858944438
 21
143.8477069807
  0
LINE
  5
39F
100
AcDbEntity
  8
0
100
AcDbLine
 62
7
  6
CONTINUOUS
 10
92.0768379852
 20
86.523563865
 11
92.5718147928
 21
86.2377953368
  0
LINE
  5
3A0
100
AcDbEntity
  8
0
100
AcDbLine
 62
7
  6
CONTINUOUS
 10
62.3187049063
 20
104.2221740691
 11
52.184793849
 21
110.0728579858
  0
LINE
  5
3A1
100
AcDbEntity
  8
0
100
AcDbLine
 62
7
  6
CONTINUOUS
 10
50.0857066621
 20
111.2847391219
 11
39.9517956047
 21
117.1354230386
  0
LINE
  5
3A2
100
AcDbEntity
  8
0
100
AcDbLine
 62
7
  6
CONTINUOUS
 10
92.0768379852
 20
88.5648199078
 11
92.5718147928
 21
88.2790513796
  0
LINE
  5
3A3
100
AcDbEntity
  8
0
100
AcDbLine
 62
7
  6
CONTINUOUS
 10
62.6722463107
 20
105.6510244799
 11
53.5990015196
 21
110.8893462958
  0
LINE
  5
3A4
100
AcDbEntity
  8
0
100
AcDbLine
 62
7
  6
CONTINUOUS
 10
50.4392480664
 20
112.7135895327
 11
41.3660032754
 21
117.9519113485
  0
LINE
  5
3A5
100
AcDbEntity
  8
0
100
AcDbLine
 62
7
  6
CONTINUOUS
 10
39.9517956047
 20
120.4270845393
 11
50.0857066621
 21
114.5764006226
  0
LINE
  5
3A6
100
AcDbEntity
  8
0
100
AcDbLine
 62
7
  6
CONTINUOUS
 10
52.184793849
 20
113.3645194866
 11
62.3187049063
 21
107.5138355698
  0
LINE
  5
3A7
100
AcDbEntity
  8
0
100
AcDbLine
 62
7
  6
CONTINUOUS
 10
96.3194610085
 20
88.156526371
 11
96.8144378161
 21
87.8707578429
  0
LINE
  5
3A8
100
AcDbEntity
  8
0
100
AcDbLine
 62
7
  6
CONTINUOUS
 10
55.0478299066
 20
113.3046842271
 11
47.2226706045
 21
117.8224398513
  0
LINE
  5
3A9
100
AcDbEntity
  8
0
100
AcDbLine
 62
7
  6
CONTINUOUS
 10
62.3187049063
 20
109.1211885719
 11
58.1952265127
 21
111.5018260752
  0
LINE
  5
3AA
100
AcDbEntity
  8
0
100
AcDbLine
 62
7
  6
CONTINUOUS
 10
44.0752739983
 20
119.6538000381
 11
39.9517956047
 21
122.0344375414
  0
LINE
  5
3AB
100
AcDbEntity
  8
0
100
AcDbLine
 62
7
  6
CONTINUOUS
 10
27.4470020415
 20
164.0494918614
 11
27.2712648089
 21
164.2940070697
  0
LINE
  5
3AC
100
AcDbEntity
  8
0
100
AcDbLine
 62
7
  6
CONTINUOUS
 10
93.6203316658
 20
50.4539595193
 11
93.7031809328
 21
50.2708525744
  0
LINE
  5
3AD
100
AcDbEntity
  8
0
100
AcDbLine
 62
7
  6
CONTINUOUS
 10
58.3385913324
 20
132.9983422424
 11
59.5981396712
 21
129.0759187784
  0
LINE
  5
3AE
100
AcDbEntity
  8
0
100
AcDbLine
 62
7
  6
CONTINUOUS
 10
60.4559457101
 20
129.5369079773
 11
60.4466642759
 21
129.5658117631
  0
LINE
  5
3AF
100
AcDbEntity
  8
0
100
AcDbLine
 62
7
  6
CONTINUOUS
 10
129.2068390444
 20
142.8985390806
 11
126.8733963823
 21
141.5513333733
  0
LINE
  5
3B0
100
AcDbEntity
  8
0
100
AcDbLine
 62
7
  6
CONTINUOUS
 10
62.6722493643
 20
104.4262918343
 11
62.3187049101
 21
104.2221740669
  0
LINE
  5
3B1
100
AcDbEntity
  8
0
100
AcDbLine
 62
7
  6
CONTINUOUS
 10
56.0849888913
 20
100.2199666058
 11
55.3778850541
 21
99.811722452
  0
LINE
  5
3B2
100
AcDbEntity
  8
0
100
AcDbLine
 62
7
  6
CONTINUOUS
 10
124.3914680344
 20
139.2692520865
 11
131.123096567
 21
143.1557364327
  0
LINE
  5
3B3
100
AcDbEntity
  8
0
100
AcDbLine
 62
7
  6
CONTINUOUS
 10
135.3515775139
 20
145.1479601439
 11
135.7051294325
 21
145.3520822208
  0
LINE
  5
3B4
100
AcDbEntity
  8
0
100
AcDbLine
 62
7
  6
CONTINUOUS
 10
121.4569871139
 20
136.6932162411
 11
122.0226701829
 21
137.0198115638
  0
LINE
  5
3B5
100
AcDbEntity
  8
0
100
AcDbLine
 62
7
  6
CONTINUOUS
 10
113.2192274098
 20
131.5125905913
 11
115.0576973863
 21
132.5740253912
  0
LINE
  5
3B6
100
AcDbEntity
  8
0
100
AcDbLine
 62
7
  6
CONTINUOUS
 10
115.4466044976
 20
132.6924143618
 11
121.4569871139
 21
136.1624896697
  0
LINE
  5
3B7
100
AcDbEntity
  8
0
100
AcDbLine
 62
7
  6
CONTINUOUS
 10
122.994046096
 20
137.0499057896
 11
123.3308122815
 21
137.2443366768
  0
LINE
  5
3B8
100
AcDbEntity
  8
0
100
AcDbLine
 62
7
  6
CONTINUOUS
 10
128.3512495262
 20
139.1875623413
 11
113.2192274098
 21
130.4511374485
  0
LINE
  5
3B9
100
AcDbEntity
  8
0
100
AcDbLine
 62
7
  6
CONTINUOUS
 10
128.916937306
 20
138.8609697379
 11
115.6233851664
 21
131.1859796451
  0
LINE
  5
3BA
100
AcDbEntity
  8
0
100
AcDbLine
 62
7
  6
CONTINUOUS
 10
112.0878689238
 20
128.7365164219
 11
85.4300542622
 21
113.3457118201
  0
LINE
  5
3BB
100
AcDbEntity
  8
0
100
AcDbLine
 62
7
  6
CONTINUOUS
 10
115.9769400284
 20
130.9818592682
 11
129.2704921681
 21
138.6568493609
  0
LINE
  5
3BC
100
AcDbEntity
  8
0
100
AcDbLine
 62
7
  6
CONTINUOUS
 10
132.9095745659
 20
140.5186993708
 11
129.4776160603
 21
138.5372690313
  0
LINE
  5
3BD
100
AcDbEntity
  8
0
100
AcDbLine
 62
7
  6
CONTINUOUS
 10
129.6240470312
 20
138.4527289834
 11
133.1595662173
 21
140.4939497527
  0
LINE
  5
3BE
100
AcDbEntity
  8
0
100
AcDbLine
 62
7
  6
CONTINUOUS
 10
133.3009881618
 20
140.4123016021
 11
129.7654689757
 21
138.3710808327
  0
LINE
  5
3BF
100
AcDbEntity
  8
0
100
AcDbLine
 62
7
  6
CONTINUOUS
 10
130.472584811
 20
137.9628365506
 11
133.6545430245
 21
139.7999300158
  0
LINE
  5
3C0
100
AcDbEntity
  8
0
100
AcDbLine
 62
7
  6
CONTINUOUS
 10
84.7229622
 20
111.3044978499
 11
130.6847116189
 21
137.8403678516
  0
LINE
  5
3C1
100
AcDbEntity
  8
0
100
AcDbLine
 62
7
  6
CONTINUOUS
 10
135.1015817552
 20
67.8004172994
 11
134.4226827921
 21
68.1923709313
  0
LINE
  5
3C2
100
AcDbEntity
  8
0
100
AcDbLine
 62
7
  6
CONTINUOUS
 10
134.9980255952
 20
68.0293103735
 11
134.5471820532
 21
68.2895991254
  0
LINE
  5
3C3
100
AcDbEntity
  8
0
100
AcDbLine
 62
7
  6
CONTINUOUS
 10
134.7858917279
 20
68.4722390543
 11
134.9980255952
 21
68.3497662796
  0
LINE
  5
3C4
100
AcDbEntity
  8
0
100
AcDbLine
 62
7
  6
CONTINUOUS
 10
117.0376034394
 20
78.9298423559
 11
117.532580247
 21
78.6440738277
  0
LINE
  5
3C5
100
AcDbEntity
  8
0
100
AcDbLine
 62
7
  6
CONTINUOUS
 10
96.3194610085
 20
91.014284831
 11
96.8144378161
 21
90.7285163028
  0
LINE
  5
3C6
100
AcDbEntity
  8
0
100
AcDbLine
 62
7
  6
CONTINUOUS
 10
62.6722463107
 20
110.5500389827
 11
59.6094341834
 21
112.3183143851
  0
LINE
  5
3C7
100
AcDbEntity
  8
0
100
AcDbLine
 62
7
  6
CONTINUOUS
 10
44.4288154027
 20
121.0826504489
 11
41.3660032754
 21
122.8509258513
  0
LINE
  5
3C8
100
AcDbEntity
  8
0
100
AcDbLine
 62
7
  6
CONTINUOUS
 10
48.3068113552
 20
119.1694596041
 11
55.0478299083
 21
115.277618773
  0
LINE
  5
3C9
100
AcDbEntity
  8
0
100
AcDbLine
 62
7
  6
CONTINUOUS
 10
55.0478299083
 20
116.284918049
 11
49.6710284743
 21
119.3891455773
  0
LINE
  5
3CA
100
AcDbEntity
  8
0
100
AcDbLine
 62
7
  6
CONTINUOUS
 10
49.0139210802
 20
120.3400698185
 11
48.3068113547
 21
120.7483105732
  0
LINE
  5
3CB
100
AcDbEntity
  8
0
100
AcDbLine
 62
7
  6
CONTINUOUS
 10
25.3964562599
 20
134.9413657317
 11
21.7901966619
 21
137.0233935795
  0
LINE
  5
3CC
100
AcDbEntity
  8
0
100
AcDbLine
 62
7
  6
CONTINUOUS
 10
47.2226706027
 20
123.0613840678
 11
53.9636891562
 21
119.1695432365
  0
LINE
  5
3CD
100
AcDbEntity
  8
0
100
AcDbLine
 62
7
  6
CONTINUOUS
 10
55.7549127113
 20
119.1426188739
 11
55.119153945
 21
119.509666065
  0
LINE
  5
3CE
100
AcDbEntity
  8
0
100
AcDbLine
 62
7
  6
CONTINUOUS
 10
52.5994720368
 20
120.9644558154
 11
47.2226706027
 21
124.0686833437
  0
LINE
  5
3CF
100
AcDbEntity
  8
0
100
AcDbLine
 62
7
  6
CONTINUOUS
 10
31.831154759
 20
133.430931391
 11
25.3964562599
 21
137.1459222573
  0
LINE
  5
3D0
100
AcDbEntity
  8
0
100
AcDbLine
 62
7
  6
CONTINUOUS
 10
21.7901966619
 20
139.2279501058
 11
18.9617577613
 21
140.8609131239
  0
LINE
  5
3D1
100
AcDbEntity
  8
0
100
AcDbLine
 62
7
  6
CONTINUOUS
 10
53.963689153
 20
120.7483942072
 11
53.2565794308
 21
121.15663496
  0
LINE
  5
3D2
100
AcDbEntity
  8
0
100
AcDbLine
 62
7
  6
CONTINUOUS
 10
93.879941873
 20
68.8666487383
 11
93.7970919215
 21
69.049754465
  0
LINE
  5
3D3
100
AcDbEntity
  8
0
100
AcDbLine
 62
7
  6
CONTINUOUS
 10
78.0407752979
 20
42.4936578553
 11
78.0407752979
 21
44.1266626896
  0
LINE
  5
3D4
100
AcDbEntity
  8
0
100
AcDbLine
 62
7
  6
CONTINUOUS
 10
80.8901707757
 20
149.1159047454
 11
80.8901707757
 21
150.1773578882
  0
LINE
  5
3D5
100
AcDbEntity
  8
0
100
AcDbLine
 62
7
  6
CONTINUOUS
 10
80.9399251708
 20
48.5358186032
 11
80.9399251708
 21
52.6999809317
  0
LINE
  5
3D6
100
AcDbEntity
  8
0
100
AcDbLine
 62
7
  6
CONTINUOUS
 10
81.1874135743
 20
42.3099913323
 11
81.1874135743
 21
40.676986498
  0
LINE
  5
3D7
100
AcDbEntity
  8
0
100
AcDbLine
 62
7
  6
CONTINUOUS
 10
82.0005897585
 20
52.0876197999
 11
82.0005897585
 21
47.9234574714
  0
LINE
  5
3D8
100
AcDbEntity
  8
0
100
AcDbLine
 62
7
  6
CONTINUOUS
 10
135.9879709676
 20
139.1466610298
 11
135.9172605828
 21
139.1058366138
  0
LINE
  5
3D9
100
AcDbEntity
  8
0
100
AcDbLine
 62
7
  6
CONTINUOUS
 10
134.9980255952
 20
136.0031366
 11
133.6545430248
 21
135.2274812063
  0
LINE
  5
3DA
100
AcDbEntity
  8
0
100
AcDbLine
 62
7
  6
CONTINUOUS
 10
135.4929982807
 20
135.5540553321
 11
135.3515775139
 21
135.4724065016
  0
LINE
  5
3DB
100
AcDbEntity
  8
0
100
AcDbLine
 62
7
  6
CONTINUOUS
 10
133.6545430249
 20
133.5945116458
 11
130.6847116189
 21
131.879888919
  0
LINE
  5
3DC
100
AcDbEntity
  8
0
100
AcDbLine
 62
7
  6
CONTINUOUS
 10
65.9845250434
 20
94.5045960426
 11
65.2774212062
 21
94.0963518887
  0
LINE
  5
3DD
100
AcDbEntity
  8
0
100
AcDbLine
 62
7
  6
CONTINUOUS
 10
133.0953016866
 20
132.3585572145
 11
130.6847116189
 21
130.9668106976
  0
LINE
  5
3DE
100
AcDbEntity
  8
0
100
AcDbLine
 62
7
  6
CONTINUOUS
 10
130.6847116189
 20
77.2557839603
 11
131.745346767
 21
76.6434398251
  0
LINE
  5
3DF
100
AcDbEntity
  8
0
100
AcDbLine
 62
7
  6
CONTINUOUS
 10
24.6186120108
 20
138.656370195
 11
26.3156423594
 21
137.6766114315
  0
LINE
  5
3E0
100
AcDbEntity
  8
0
100
AcDbLine
 62
7
  6
CONTINUOUS
 10
135.9172605835
 20
74.5204954179
 11
135.8465492945
 21
74.5613196761
  0
LINE
  5
3E1
100
AcDbEntity
  8
0
100
AcDbLine
 62
7
  6
CONTINUOUS
 10
135.8465501998
 20
74.6429673043
 11
135.9879709672
 21
74.5613198333
  0
LINE
  5
3E2
100
AcDbEntity
  8
0
100
AcDbLine
 62
7
  6
CONTINUOUS
 10
136.0379701188
 20
74.5662726218
 11
135.8465501998
 21
74.6767864634
  0
LINE
  5
3E3
100
AcDbEntity
  8
0
100
AcDbLine
 62
7
  6
CONTINUOUS
 10
39.9517956047
 20
130.2251135449
 11
44.0752739983
 21
127.8444760416
  0
LINE
  5
3E4
100
AcDbEntity
  8
0
100
AcDbLine
 62
7
  6
CONTINUOUS
 10
58.1952265127
 20
119.6925020787
 11
62.3187049063
 21
117.3118645754
  0
LINE
  5
3E5
100
AcDbEntity
  8
0
100
AcDbLine
 62
7
  6
CONTINUOUS
 10
47.2226706045
 20
126.0416178896
 11
55.0478299066
 21
121.5238622654
  0
LINE
  5
3E6
100
AcDbEntity
  8
0
100
AcDbLine
 62
7
  6
CONTINUOUS
 10
18.9617577613
 20
142.983819409
 11
31.831154759
 21
135.5538376767
  0
LINE
  5
3E7
100
AcDbEntity
  8
0
100
AcDbLine
 62
7
  6
CONTINUOUS
 10
130.6847116189
 20
79.05199728
 11
134.9980255952
 21
76.5617606314
  0
LINE
  5
3E8
100
AcDbEntity
  8
0
100
AcDbLine
 62
7
  6
CONTINUOUS
 10
130.6847116189
 20
79.3785982471
 11
134.9980255952
 21
76.8883615985
  0
LINE
  5
3E9
100
AcDbEntity
  8
0
100
AcDbLine
 62
7
  6
CONTINUOUS
 10
62.3187049063
 20
118.9192175774
 11
58.1952265127
 21
121.2998550808
  0
LINE
  5
3EA
100
AcDbEntity
  8
0
100
AcDbLine
 62
7
  6
CONTINUOUS
 10
56.4496941897
 20
122.3076158387
 11
52.184793849
 21
124.7699014942
  0
LINE
  5
3EB
100
AcDbEntity
  8
0
100
AcDbLine
 62
7
  6
CONTINUOUS
 10
50.0857066621
 20
125.9817826302
 11
45.8208063214
 21
128.4440682856
  0
LINE
  5
3EC
100
AcDbEntity
  8
0
100
AcDbLine
 62
7
  6
CONTINUOUS
 10
44.0752739983
 20
129.4518290436
 11
39.9517956047
 21
131.8324665469
  0
LINE
  5
3ED
100
AcDbEntity
  8
0
100
AcDbLine
 62
7
  6
CONTINUOUS
 10
31.831154759
 20
137.0235420267
 11
30.6290682263
 21
137.7175513093
  0
LINE
  5
3EE
100
AcDbEntity
  8
0
100
AcDbLine
 62
7
  6
CONTINUOUS
 10
20.1638442936
 20
143.7595144765
 11
18.9617577613
 21
144.4535237589
  0
LINE
  5
3EF
100
AcDbEntity
  8
0
100
AcDbLine
 62
7
  6
CONTINUOUS
 10
135.3515775145
 20
77.5007348843
 11
130.6847116189
 21
80.195090211
  0
LINE
  5
3F0
100
AcDbEntity
  8
0
100
AcDbLine
 62
7
  6
CONTINUOUS
 10
130.6847116189
 20
80.3583865121
 11
135.4929982814
 21
77.5823837148
  0
LINE
  5
3F1
100
AcDbEntity
  8
0
100
AcDbLine
 62
7
  6
CONTINUOUS
 10
135.7429940396
 20
77.6071476571
 11
130.6847116189
 21
80.5274823075
  0
LINE
  5
3F2
100
AcDbEntity
  8
0
100
AcDbLine
 62
7
  6
CONTINUOUS
 10
39.9517955988
 20
133.2998235271
 11
44.0752740053
 21
130.9191860163
  0
LINE
  5
3F3
100
AcDbEntity
  8
0
100
AcDbLine
 62
7
  6
CONTINUOUS
 10
45.8208063157
 20
129.9114252657
 11
50.0857066691
 21
127.4491396029
  0
LINE
  5
3F4
100
AcDbEntity
  8
0
100
AcDbLine
 62
7
  6
CONTINUOUS
 10
52.184793842
 20
126.237258475
 11
56.4496941954
 21
123.7749728122
  0
LINE
  5
3F5
100
AcDbEntity
  8
0
100
AcDbLine
 62
7
  6
CONTINUOUS
 10
58.1952265058
 20
122.7672120616
 11
62.3187049122
 21
120.3865745508
  0
LINE
  5
3F6
100
AcDbEntity
  8
0
100
AcDbLine
 62
7
  6
CONTINUOUS
 10
62.3187049101
 20
121.585676347
 11
58.195226509
 21
123.9663138547
  0
LINE
  5
3F7
100
AcDbEntity
  8
0
100
AcDbLine
 62
7
  6
CONTINUOUS
 10
56.4496941922
 20
124.9740746091
 11
53.3895005079
 21
126.7408382869
  0
LINE
  5
3F8
100
AcDbEntity
  8
0
100
AcDbLine
 62
7
  6
CONTINUOUS
 10
48.8810000035
 20
129.3437633808
 11
45.8208063189
 21
131.1105270588
  0
LINE
  5
3F9
100
AcDbEntity
  8
0
100
AcDbLine
 62
7
  6
CONTINUOUS
 10
44.0752740021
 20
132.1182878132
 11
39.951795601
 21
134.4989253209
  0
LINE
  5
3FA
100
AcDbEntity
  8
0
100
AcDbLine
 62
7
  6
CONTINUOUS
 10
18.9617577613
 20
146.7397305275
 11
20.1638442936
 21
146.0457212452
  0
LINE
  5
3FB
100
AcDbEntity
  8
0
100
AcDbLine
 62
7
  6
CONTINUOUS
 10
30.6290682263
 20
140.003758078
 11
31.831154759
 21
139.3097487953
  0
LINE
  5
3FC
100
AcDbEntity
  8
0
100
AcDbLine
 62
7
  6
CONTINUOUS
 10
39.9517956034
 20
135.9406304656
 11
44.0752739996
 21
133.5599929607
  0
LINE
  5
3FD
100
AcDbEntity
  8
0
100
AcDbLine
 62
7
  6
CONTINUOUS
 10
45.8208063227
 20
132.5522322027
 11
46.3147459863
 21
132.2670624564
  0
LINE
  5
3FE
100
AcDbEntity
  8
0
100
AcDbLine
 62
7
  6
CONTINUOUS
 10
55.9557545234
 20
126.7009495045
 11
56.4496941871
 21
126.4157797582
  0
LINE
  5
3FF
100
AcDbEntity
  8
0
100
AcDbLine
 62
7
  6
CONTINUOUS
 10
58.1952265114
 20
125.4080189994
 11
62.3187049063
 21
123.0273814953
  0
LINE
  5
400
100
AcDbEntity
  8
0
100
AcDbLine
 62
7
  6
CONTINUOUS
 10
55.6578427564
 20
127.0642029244
 11
54.8037081822
 21
127.5573265948
  0
LINE
  5
401
100
AcDbEntity
  8
0
100
AcDbLine
 62
7
  6
CONTINUOUS
 10
48.5162197615
 20
131.1873276054
 11
47.2350139933
 21
131.9270153666
  0
LINE
  5
402
100
AcDbEntity
  8
0
100
AcDbLine
 62
7
  6
CONTINUOUS
 10
84.0158289226
 20
71.0916733176
 11
84.0158289226
 21
73.9494317776
  0
LINE
  5
403
100
AcDbEntity
  8
0
100
AcDbLine
 62
7
  6
CONTINUOUS
 10
84.0158289226
 20
84.9722144088
 11
84.0158289226
 21
87.8299728688
  0
LINE
  5
404
100
AcDbEntity
  8
0
100
AcDbLine
 62
7
  6
CONTINUOUS
 10
84.7229327603
 20
71.4999174712
 11
84.7229327603
 21
73.5411944221
  0
LINE
  5
405
100
AcDbEntity
  8
0
100
AcDbLine
 62
7
  6
CONTINUOUS
 10
84.7229327603
 20
85.3804585624
 11
84.7229327603
 21
87.4217355133
  0
LINE
  5
406
100
AcDbEntity
  8
0
100
AcDbLine
 62
7
  6
CONTINUOUS
 10
84.7229622
 20
37.8192803083
 11
84.7229622
 21
60.1506214164
  0
LINE
  5
407
100
AcDbEntity
  8
0
100
AcDbLine
 62
7
  6
CONTINUOUS
 10
84.7229622
 20
88.9731567418
 11
84.7229622
 21
111.3044978499
  0
LINE
  5
408
100
AcDbEntity
  8
0
100
AcDbLine
 62
7
  6
CONTINUOUS
 10
86.137158098
 20
86.6052506052
 11
86.137158098
 21
83.7474921453
  0
LINE
  5
409
100
AcDbEntity
  8
0
100
AcDbLine
 62
7
  6
CONTINUOUS
 10
86.137158098
 20
72.724709514
 11
86.137158098
 21
69.8669510541
  0
LINE
  5
40A
100
AcDbEntity
  8
0
100
AcDbLine
 62
7
  6
CONTINUOUS
 10
87.5513775489
 20
61.7835980319
 11
87.5513775489
 21
90.6061333572
  0
LINE
  5
40B
100
AcDbEntity
  8
0
100
AcDbLine
 62
7
  6
CONTINUOUS
 10
89.1279304798
 20
154.8272569666
 11
89.1279304798
 21
155.357983538
  0
LINE
  5
40C
100
AcDbEntity
  8
0
100
AcDbLine
 62
7
  6
CONTINUOUS
 10
89.6726890605
 20
44.8411517127
 11
89.6726890605
 21
66.7234164918
  0
LINE
  5
40D
100
AcDbEntity
  8
0
100
AcDbLine
 62
7
  6
CONTINUOUS
 10
89.7080221726
 20
65.0699500182
 11
89.7080221726
 21
51.5159971454
  0
LINE
  5
40E
100
AcDbEntity
  8
0
100
AcDbLine
 62
7
  6
CONTINUOUS
 10
102.612689282
 20
111.8350459376
 11
109.2594653508
 21
115.6725409834
  0
LINE
  5
40F
100
AcDbEntity
  8
0
100
AcDbLine
 62
7
  6
CONTINUOUS
 10
110.6736730252
 20
115.672526874
 11
113.5020883746
 21
117.3055034898
  0
LINE
  5
410
100
AcDbEntity
  8
0
100
AcDbLine
 62
7
  6
CONTINUOUS
 10
108.7644885432
 20
111.0592950088
 11
102.612689282
 21
107.5075732503
  0
LINE
  5
411
100
AcDbEntity
  8
0
100
AcDbLine
 62
7
  6
CONTINUOUS
 10
84.7229622
 20
111.3044978499
 11
55.2504995416
 21
128.3200471563
  0
LINE
  5
412
100
AcDbEntity
  8
0
100
AcDbLine
 62
7
  6
CONTINUOUS
 10
54.082017152
 20
128.9946555168
 11
48.188483359
 21
132.3972118625
  0
LINE
  5
413
100
AcDbEntity
  8
0
100
AcDbLine
 62
7
  6
CONTINUOUS
 10
47.0200009695
 20
133.071820223
 11
17.5475383111
 21
150.0873695294
  0
LINE
  5
414
100
AcDbEntity
  8
0
100
AcDbLine
 62
7
  6
CONTINUOUS
 10
56.5226869404
 20
127.7488623371
 11
55.3919203091
 21
128.401695987
  0
LINE
  5
415
100
AcDbEntity
  8
0
100
AcDbLine
 62
7
  6
CONTINUOUS
 10
54.2234379195
 20
129.0763043475
 11
48.3299041265
 21
132.4788606933
  0
LINE
  5
416
100
AcDbEntity
  8
0
100
AcDbLine
 62
7
  6
CONTINUOUS
 10
47.1614217369
 20
133.1534690538
 11
46.0306551056
 21
133.8063027037
  0
LINE
  5
417
100
AcDbEntity
  8
0
100
AcDbLine
 62
7
  6
CONTINUOUS
 10
43.6709375896
 20
135.1686554262
 11
45.6421969562
 21
134.0305740471
  0
LINE
  5
418
100
AcDbEntity
  8
0
100
AcDbLine
 62
7
  6
CONTINUOUS
 10
56.9111450898
 20
127.5245909937
 11
59.2371473567
 21
126.181703339
  0
LINE
  5
419
100
AcDbEntity
  8
0
100
AcDbLine
 62
7
  6
CONTINUOUS
 10
85.4300542622
 20
113.3457118201
 11
79.7731764602
 21
116.6116378567
  0
LINE
  5
41A
100
AcDbEntity
  8
0
100
AcDbLine
 62
7
  6
CONTINUOUS
 10
62.7522754506
 20
128.211151376
 11
60.4559457101
 21
129.5369079773
  0
LINE
  5
41B
100
AcDbEntity
  8
0
100
AcDbLine
 62
7
  6
CONTINUOUS
 10
47.5880157374
 20
136.9660427414
 11
47.2071758064
 21
137.1859158039
  0
LINE
  5
41C
100
AcDbEntity
  8
0
100
AcDbLine
 62
7
  6
CONTINUOUS
 10
62.7726665427
 20
128.2229241083
 11
60.4466642759
 21
129.5658117631
  0
LINE
  5
41D
100
AcDbEntity
  8
0
100
AcDbLine
 62
7
  6
CONTINUOUS
 10
47.6084068296
 20
136.9778154737
 11
47.2064567757
 21
137.2098761956
  0
LINE
  5
41E
100
AcDbEntity
  8
0
100
AcDbLine
 62
7
  6
CONTINUOUS
 10
90.4151330754
 20
50.7811547427
 11
90.4151330755
 21
51.107755711
  0
LINE
  5
41F
100
AcDbEntity
  8
0
100
AcDbLine
 62
7
  6
CONTINUOUS
 10
90.4151330822
 20
65.4781982552
 11
90.4151330824
 21
65.8047992517
  0
LINE
  5
420
100
AcDbEntity
  8
0
100
AcDbLine
 62
7
  6
CONTINUOUS
 10
91.7088594856
 20
157.321646101
 11
91.7088594856
 21
155.9090969191
  0
LINE
  5
421
100
AcDbEntity
  8
0
100
AcDbLine
 62
7
  6
CONTINUOUS
 10
91.7586303661
 20
66.9070640766
 11
91.7586303661
 21
67.1316022415
  0
LINE
  5
422
100
AcDbEntity
  8
0
100
AcDbLine
 62
7
  6
CONTINUOUS
 10
91.8647109556
 20
71.1325076746
 11
91.8647109556
 21
74.8067685517
  0
LINE
  5
423
100
AcDbEntity
  8
0
100
AcDbLine
 62
7
  6
CONTINUOUS
 10
91.8647109556
 20
85.0130487658
 11
91.8647109556
 21
88.6873096429
  0
LINE
  5
424
100
AcDbEntity
  8
0
100
AcDbLine
 62
7
  6
CONTINUOUS
 10
92.0768379852
 20
72.6430227737
 11
92.0768379852
 21
74.6842788166
  0
LINE
  5
425
100
AcDbEntity
  8
0
100
AcDbLine
 62
7
  6
CONTINUOUS
 10
92.0768379852
 20
86.523563865
 11
92.0768379852
 21
88.5648199078
  0
LINE
  5
426
100
AcDbEntity
  8
0
100
AcDbLine
 62
7
  6
CONTINUOUS
 10
92.3596836419
 20
64.8454341243
 11
92.3596836419
 21
49.8217896488
  0
LINE
  5
427
100
AcDbEntity
  8
0
100
AcDbLine
 62
7
  6
CONTINUOUS
 10
92.5718147928
 20
88.2790513796
 11
92.5718147928
 21
86.2377953368
  0
LINE
  5
428
100
AcDbEntity
  8
0
100
AcDbLine
 62
7
  6
CONTINUOUS
 10
92.5718147928
 20
74.3985102884
 11
92.5718147928
 21
72.3572542456
  0
LINE
  5
429
100
AcDbEntity
  8
0
100
AcDbLine
 62
7
  6
CONTINUOUS
 10
92.7132355605
 20
51.2098402315
 11
92.7132355605
 21
51.4547909557
  0
LINE
  5
42A
100
AcDbEntity
  8
0
100
AcDbLine
 62
7
  6
CONTINUOUS
 10
92.7132355605
 20
51.8630421643
 11
92.7132355605
 21
52.1079928901
  0
LINE
  5
42B
100
AcDbEntity
  8
0
100
AcDbLine
 62
7
  6
CONTINUOUS
 10
92.7132355605
 20
52.5162440986
 11
92.7132355605
 21
52.7611948244
  0
LINE
  5
42C
100
AcDbEntity
  8
0
100
AcDbLine
 62
7
  6
CONTINUOUS
 10
92.7132355605
 20
53.1694460329
 11
92.7132355605
 21
53.4143967572
  0
LINE
  5
42D
100
AcDbEntity
  8
0
100
AcDbLine
 62
7
  6
CONTINUOUS
 10
92.7132355605
 20
53.8226479657
 11
92.7132355605
 21
54.0675986914
  0
LINE
  5
42E
100
AcDbEntity
  8
0
100
AcDbLine
 62
7
  6
CONTINUOUS
 10
92.7132355605
 20
54.4758499
 11
92.7132355605
 21
54.7208006242
  0
LINE
  5
42F
100
AcDbEntity
  8
0
100
AcDbLine
 62
7
  6
CONTINUOUS
 10
92.7132355605
 20
55.1290518339
 11
92.7132355605
 21
55.3740025586
  0
LINE
  5
430
100
AcDbEntity
  8
0
100
AcDbLine
 62
7
  6
CONTINUOUS
 10
92.7132355605
 20
55.7822537672
 11
92.7132355605
 21
56.0272044929
  0
LINE
  5
431
100
AcDbEntity
  8
0
100
AcDbLine
 62
7
  6
CONTINUOUS
 10
92.7132355605
 20
56.4354557014
 11
92.7132355605
 21
56.6804064257
  0
LINE
  5
432
100
AcDbEntity
  8
0
100
AcDbLine
 62
7
  6
CONTINUOUS
 10
92.7132355605
 20
57.0886576342
 11
92.7132355605
 21
57.33360836
  0
LINE
  5
433
100
AcDbEntity
  8
0
100
AcDbLine
 62
7
  6
CONTINUOUS
 10
92.7132355605
 20
57.7418595685
 11
92.7132355605
 21
57.9868102928
  0
LINE
  5
434
100
AcDbEntity
  8
0
100
AcDbLine
 62
7
  6
CONTINUOUS
 10
92.7132355605
 20
58.3950615013
 11
92.7132355605
 21
58.6400122271
  0
LINE
  5
435
100
AcDbEntity
  8
0
100
AcDbLine
 62
7
  6
CONTINUOUS
 10
92.7132355605
 20
59.0482634357
 11
92.7132355605
 21
59.2932141614
  0
LINE
  5
436
100
AcDbEntity
  8
0
100
AcDbLine
 62
7
  6
CONTINUOUS
 10
92.7132355605
 20
59.70146537
 11
92.7132355605
 21
59.9464160942
  0
LINE
  5
437
100
AcDbEntity
  8
0
100
AcDbLine
 62
7
  6
CONTINUOUS
 10
92.7132355605
 20
60.3546673028
 11
92.7132355605
 21
60.5996180285
  0
LINE
  5
438
100
AcDbEntity
  8
0
100
AcDbLine
 62
7
  6
CONTINUOUS
 10
92.7132355605
 20
61.007869237
 11
92.7132355605
 21
61.2528199613
  0
LINE
  5
439
100
AcDbEntity
  8
0
100
AcDbLine
 62
7
  6
CONTINUOUS
 10
92.7132355605
 20
61.6610711698
 11
92.7132355605
 21
61.9060218956
  0
LINE
  5
43A
100
AcDbEntity
  8
0
100
AcDbLine
 62
7
  6
CONTINUOUS
 10
92.7132355605
 20
62.3142731042
 11
92.7132355605
 21
62.5592238299
  0
LINE
  5
43B
100
AcDbEntity
  8
0
100
AcDbLine
 62
7
  6
CONTINUOUS
 10
92.7132355605
 20
62.9674750385
 11
92.7132355605
 21
63.2124257627
  0
LINE
  5
43C
100
AcDbEntity
  8
0
100
AcDbLine
 62
7
  6
CONTINUOUS
 10
92.7132355605
 20
63.6206769713
 11
92.7132355605
 21
63.865627697
  0
LINE
  5
43D
100
AcDbEntity
  8
0
100
AcDbLine
 62
7
  6
CONTINUOUS
 10
93.0208257301
 20
50.3179653502
 11
93.0208257301
 21
51.3874264386
  0
LINE
  5
43E
100
AcDbEntity
  8
0
100
AcDbLine
 62
7
  6
CONTINUOUS
 10
93.0208257301
 20
51.6323771629
 11
93.0208257301
 21
52.0406283714
  0
LINE
  5
43F
100
AcDbEntity
  8
0
100
AcDbLine
 62
7
  6
CONTINUOUS
 10
93.0208257301
 20
52.2855790972
 11
93.0208257301
 21
52.6938303058
  0
LINE
  5
440
100
AcDbEntity
  8
0
100
AcDbLine
 62
7
  6
CONTINUOUS
 10
93.0208257301
 20
52.9387810315
 11
93.0208257301
 21
53.3470322401
  0
LINE
  5
441
100
AcDbEntity
  8
0
100
AcDbLine
 62
7
  6
CONTINUOUS
 10
93.0208257301
 20
53.5919829643
 11
93.0208257301
 21
54.0002341729
  0
LINE
  5
442
100
AcDbEntity
  8
0
100
AcDbLine
 62
7
  6
CONTINUOUS
 10
93.0208257301
 20
54.2451848986
 11
93.0208257301
 21
54.6534361071
  0
LINE
  5
443
100
AcDbEntity
  8
0
100
AcDbLine
 62
7
  6
CONTINUOUS
 10
93.0208257301
 20
54.8983868314
 11
93.0208257301
 21
55.3066380411
  0
LINE
  5
444
100
AcDbEntity
  8
0
100
AcDbLine
 62
7
  6
CONTINUOUS
 10
93.0208257301
 20
55.5515887657
 11
93.0208257301
 21
55.9598399743
  0
LINE
  5
445
100
AcDbEntity
  8
0
100
AcDbLine
 62
7
  6
CONTINUOUS
 10
93.0208257301
 20
56.2047907
 11
93.0208257301
 21
56.6130419086
  0
LINE
  5
446
100
AcDbEntity
  8
0
100
AcDbLine
 62
7
  6
CONTINUOUS
 10
93.0208257301
 20
56.8579926328
 11
93.0208257301
 21
57.2662438414
  0
LINE
  5
447
100
AcDbEntity
  8
0
100
AcDbLine
 62
7
  6
CONTINUOUS
 10
93.0208257301
 20
57.5111945671
 11
93.0208257301
 21
57.9194457757
  0
LINE
  5
448
100
AcDbEntity
  8
0
100
AcDbLine
 62
7
  6
CONTINUOUS
 10
93.0208257301
 20
58.1643964999
 11
93.0208257301
 21
58.5726477085
  0
LINE
  5
449
100
AcDbEntity
  8
0
100
AcDbLine
 62
7
  6
CONTINUOUS
 10
93.0208257301
 20
58.8175984343
 11
93.0208257301
 21
59.2258496428
  0
LINE
  5
44A
100
AcDbEntity
  8
0
100
AcDbLine
 62
7
  6
CONTINUOUS
 10
93.0208257301
 20
59.4708003685
 11
93.0208257301
 21
59.8790515771
  0
LINE
  5
44B
100
AcDbEntity
  8
0
100
AcDbLine
 62
7
  6
CONTINUOUS
 10
93.0208257301
 20
60.1240023013
 11
93.0208257301
 21
60.5322535099
  0
LINE
  5
44C
100
AcDbEntity
  8
0
100
AcDbLine
 62
7
  6
CONTINUOUS
 10
93.0208257301
 20
60.7772042356
 11
93.0208257301
 21
61.1854554442
  0
LINE
  5
44D
100
AcDbEntity
  8
0
100
AcDbLine
 62
7
  6
CONTINUOUS
 10
93.0208257301
 20
61.4304061684
 11
93.0208257301
 21
61.838657377
  0
LINE
  5
44E
100
AcDbEntity
  8
0
100
AcDbLine
 62
7
  6
CONTINUOUS
 10
93.0208257301
 20
62.0836081028
 11
93.0208257301
 21
62.4918593113
  0
LINE
  5
44F
100
AcDbEntity
  8
0
100
AcDbLine
 62
7
  6
CONTINUOUS
 10
93.0208257301
 20
62.736810037
 11
93.0208257301
 21
63.1450612456
  0
LINE
  5
450
100
AcDbEntity
  8
0
100
AcDbLine
 62
7
  6
CONTINUOUS
 10
93.0208257301
 20
63.3900119698
 11
93.0208257301
 21
63.7982631784
  0
LINE
  5
451
100
AcDbEntity
  8
0
100
AcDbLine
 62
7
  6
CONTINUOUS
 10
93.0208257301
 20
64.0432139041
 11
93.0208257301
 21
65.1126749926
  0
LINE
  5
452
100
AcDbEntity
  8
0
100
AcDbLine
 62
7
  6
CONTINUOUS
 10
93.1021276547
 20
67.9072661418
 11
93.1021276547
 21
67.7439698341
  0
LINE
  5
453
100
AcDbEntity
  8
0
100
AcDbLine
 62
7
  6
CONTINUOUS
 10
93.7031809328
 20
66.1722371489
 11
93.7031809328
 21
65.9476989851
  0
LINE
  5
454
100
AcDbEntity
  8
0
100
AcDbLine
 62
7
  6
CONTINUOUS
 10
93.7031809328
 20
50.2708525744
 11
93.7031809328
 21
50.0463144106
  0
LINE
  5
455
100
AcDbEntity
  8
0
100
AcDbLine
 62
7
  6
CONTINUOUS
 10
93.879941873
 20
68.8666487112
 11
93.8799418734
 21
67.4785946022
  0
LINE
  5
456
100
AcDbEntity
  8
0
100
AcDbLine
 62
7
  6
CONTINUOUS
 10
94.1026946005
 20
65.7372885478
 11
94.1026946005
 21
64.6678274593
  0
LINE
  5
457
100
AcDbEntity
  8
0
100
AcDbLine
 62
7
  6
CONTINUOUS
 10
94.1026946005
 20
64.4228767336
 11
94.1026946005
 21
64.014625525
  0
LINE
  5
458
100
AcDbEntity
  8
0
100
AcDbLine
 62
7
  6
CONTINUOUS
 10
94.1026946005
 20
63.7696748007
 11
94.1026946005
 21
63.3614235922
  0
LINE
  5
459
100
AcDbEntity
  8
0
100
AcDbLine
 62
7
  6
CONTINUOUS
 10
94.1026946005
 20
63.1164728665
 11
94.1026946005
 21
62.7082216579
  0
LINE
  5
45A
100
AcDbEntity
  8
0
100
AcDbLine
 62
7
  6
CONTINUOUS
 10
94.1026946005
 20
62.4632709321
 11
94.1026946005
 21
62.0550197235
  0
LINE
  5
45B
100
AcDbEntity
  8
0
100
AcDbLine
 62
7
  6
CONTINUOUS
 10
94.1026946005
 20
61.8100689993
 11
94.1026946005
 21
61.4018177907
  0
LINE
  5
45C
100
AcDbEntity
  8
0
100
AcDbLine
 62
7
  6
CONTINUOUS
 10
94.1026946005
 20
61.156867065
 11
94.1026946005
 21
60.7486158565
  0
LINE
  5
45D
100
AcDbEntity
  8
0
100
AcDbLine
 62
7
  6
CONTINUOUS
 10
94.1026946005
 20
60.5036651322
 11
94.1026946005
 21
60.0954139237
  0
LINE
  5
45E
100
AcDbEntity
  8
0
100
AcDbLine
 62
7
  6
CONTINUOUS
 10
94.1026946005
 20
59.850463198
 11
94.1026946005
 21
59.4422119894
  0
LINE
  5
45F
100
AcDbEntity
  8
0
100
AcDbLine
 62
7
  6
CONTINUOUS
 10
94.1026946005
 20
59.1972612636
 11
94.1026946005
 21
58.789010055
  0
LINE
  5
460
100
AcDbEntity
  8
0
100
AcDbLine
 62
7
  6
CONTINUOUS
 10
94.1026946005
 20
58.5440593308
 11
94.1026946005
 21
58.1358081222
  0
LINE
  5
461
100
AcDbEntity
  8
0
100
AcDbLine
 62
7
  6
CONTINUOUS
 10
94.1026946005
 20
57.8908573965
 11
94.1026946005
 21
57.482606188
  0
LINE
  5
462
100
AcDbEntity
  8
0
100
AcDbLine
 62
7
  6
CONTINUOUS
 10
94.1026946005
 20
57.2376554637
 11
94.1026946005
 21
56.8294042551
  0
LINE
  5
463
100
AcDbEntity
  8
0
100
AcDbLine
 62
7
  6
CONTINUOUS
 10
94.1026946005
 20
56.5844535294
 11
94.1026946005
 21
56.1762023209
  0
LINE
  5
464
100
AcDbEntity
  8
0
100
AcDbLine
 62
7
  6
CONTINUOUS
 10
94.1026946005
 20
55.9312515962
 11
94.1026946005
 21
55.5230003865
  0
LINE
  5
465
100
AcDbEntity
  8
0
100
AcDbLine
 62
7
  6
CONTINUOUS
 10
94.1026946005
 20
55.2780496623
 11
94.1026946005
 21
54.8697984537
  0
LINE
  5
466
100
AcDbEntity
  8
0
100
AcDbLine
 62
7
  6
CONTINUOUS
 10
94.1026946005
 20
54.624847728
 11
94.1026946005
 21
54.2165965194
  0
LINE
  5
467
100
AcDbEntity
  8
0
100
AcDbLine
 62
7
  6
CONTINUOUS
 10
94.1026946005
 20
53.9716457952
 11
94.1026946005
 21
53.5633945866
  0
LINE
  5
468
100
AcDbEntity
  8
0
100
AcDbLine
 62
7
  6
CONTINUOUS
 10
94.1026946005
 20
53.3184438609
 11
94.1026946005
 21
52.9101926524
  0
LINE
  5
469
100
AcDbEntity
  8
0
100
AcDbLine
 62
7
  6
CONTINUOUS
 10
94.1026946005
 20
52.6652419266
 11
94.1026946005
 21
52.256990718
  0
LINE
  5
46A
100
AcDbEntity
  8
0
100
AcDbLine
 62
7
  6
CONTINUOUS
 10
94.1026946005
 20
52.0120399938
 11
94.1026946005
 21
50.9425789053
  0
LINE
  5
46B
100
AcDbEntity
  8
0
100
AcDbLine
 62
7
  6
CONTINUOUS
 10
94.4102847701
 20
64.8454136664
 11
94.4102847701
 21
64.6004629407
  0
LINE
  5
46C
100
AcDbEntity
  8
0
100
AcDbLine
 62
7
  6
CONTINUOUS
 10
94.4102847701
 20
64.1922117321
 11
94.4102847701
 21
63.9472610079
  0
LINE
  5
46D
100
AcDbEntity
  8
0
100
AcDbLine
 62
7
  6
CONTINUOUS
 10
94.4102847701
 20
63.5390097993
 11
94.4102847701
 21
63.2940590736
  0
LINE
  5
46E
100
AcDbEntity
  8
0
100
AcDbLine
 62
7
  6
CONTINUOUS
 10
94.4102847701
 20
62.885807865
 11
94.4102847701
 21
62.6408571393
  0
LINE
  5
46F
100
AcDbEntity
  8
0
100
AcDbLine
 62
7
  6
CONTINUOUS
 10
94.4102847701
 20
62.2326059307
 11
94.4102847701
 21
61.9876552064
  0
LINE
  5
470
100
AcDbEntity
  8
0
100
AcDbLine
 62
7
  6
CONTINUOUS
 10
94.4102847701
 20
61.5794039979
 11
94.4102847701
 21
61.3344532722
  0
LINE
  5
471
100
AcDbEntity
  8
0
100
AcDbLine
 62
7
  6
CONTINUOUS
 10
94.4102847701
 20
60.9262020636
 11
94.4102847701
 21
60.6812513394
  0
LINE
  5
472
100
AcDbEntity
  8
0
100
AcDbLine
 62
7
  6
CONTINUOUS
 10
94.4102847701
 20
60.2730001308
 11
94.4102847701
 21
60.0280494051
  0
LINE
  5
473
100
AcDbEntity
  8
0
100
AcDbLine
 62
7
  6
CONTINUOUS
 10
94.4102847701
 20
59.6197981965
 11
94.4102847701
 21
59.3748474707
  0
LINE
  5
474
100
AcDbEntity
  8
0
100
AcDbLine
 62
7
  6
CONTINUOUS
 10
94.4102847701
 20
58.9665962622
 11
94.4102847701
 21
58.7216455379
  0
LINE
  5
475
100
AcDbEntity
  8
0
100
AcDbLine
 62
7
  6
CONTINUOUS
 10
94.4102847701
 20
58.3133943294
 11
94.4102847701
 21
58.0684436037
  0
LINE
  5
476
100
AcDbEntity
  8
0
100
AcDbLine
 62
7
  6
CONTINUOUS
 10
94.4102847701
 20
57.6601923951
 11
94.4102847701
 21
57.4152416708
  0
LINE
  5
477
100
AcDbEntity
  8
0
100
AcDbLine
 62
7
  6
CONTINUOUS
 10
94.4102847701
 20
57.0069904623
 11
94.4102847701
 21
56.7620397366
  0
LINE
  5
478
100
AcDbEntity
  8
0
100
AcDbLine
 62
7
  6
CONTINUOUS
 10
94.4102847701
 20
56.353788528
 11
94.4102847701
 21
56.1088378034
  0
LINE
  5
479
100
AcDbEntity
  8
0
100
AcDbLine
 62
7
  6
CONTINUOUS
 10
94.4102847701
 20
55.7005865937
 11
94.4102847701
 21
55.4556358694
  0
LINE
  5
47A
100
AcDbEntity
  8
0
100
AcDbLine
 62
7
  6
CONTINUOUS
 10
94.4102847701
 20
55.0473846608
 11
94.4102847701
 21
54.8024339351
  0
LINE
  5
47B
100
AcDbEntity
  8
0
100
AcDbLine
 62
7
  6
CONTINUOUS
 10
94.4102847701
 20
54.3941827266
 11
94.4102847701
 21
54.1492320023
  0
LINE
  5
47C
100
AcDbEntity
  8
0
100
AcDbLine
 62
7
  6
CONTINUOUS
 10
94.4102847701
 20
53.7409807938
 11
94.4102847701
 21
53.4960300681
  0
LINE
  5
47D
100
AcDbEntity
  8
0
100
AcDbLine
 62
7
  6
CONTINUOUS
 10
94.4102847701
 20
53.0877788595
 11
94.4102847701
 21
52.8428281337
  0
LINE
  5
47E
100
AcDbEntity
  8
0
100
AcDbLine
 62
7
  6
CONTINUOUS
 10
94.4102847701
 20
52.4345769251
 11
94.4102847701
 21
52.1896262009
  0
LINE
  5
47F
100
AcDbEntity
  8
0
100
AcDbLine
 62
7
  6
CONTINUOUS
 10
94.7638366887
 20
50.6586806414
 11
94.7638366887
 21
66.7846033797
  0
LINE
  5
480
100
AcDbEntity
  8
0
100
AcDbLine
 62
7
  6
CONTINUOUS
 10
94.7991698006
 20
52.4957450684
 11
94.7991698006
 21
50.8627402342
  0
LINE
  5
481
100
AcDbEntity
  8
0
100
AcDbLine
 62
7
  6
CONTINUOUS
 10
100.7741604254
 20
122.2044698897
 11
106.4309911231
 21
132.0024424577
  0
LINE
  5
482
100
AcDbEntity
  8
0
100
AcDbLine
 62
7
  6
CONTINUOUS
 10
109.2594653508
 20
110.7735264806
 11
102.612689282
 21
106.9360314348
  0
LINE
  5
483
100
AcDbEntity
  8
0
100
AcDbLine
 62
7
  6
CONTINUOUS
 10
110.6736730252
 20
108.8955469353
 11
113.007111567
 21
110.2427502638
  0
LINE
  5
484
100
AcDbEntity
  8
0
100
AcDbLine
 62
7
  6
CONTINUOUS
 10
113.5020883746
 20
109.9569817356
 11
110.6736730252
 21
108.3240051198
  0
LINE
  5
485
100
AcDbEntity
  8
0
100
AcDbLine
 62
7
  6
CONTINUOUS
 10
130.6847116189
 20
116.6112908968
 11
133.5131210798
 21
118.2442641129
  0
LINE
  5
486
100
AcDbEntity
  8
0
100
AcDbLine
 62
7
  6
CONTINUOUS
 10
56.6996797641
 20
122.2828612051
 11
56.4496941897
 21
122.3076158387
  0
LINE
  5
487
100
AcDbEntity
  8
0
100
AcDbLine
 62
7
  6
CONTINUOUS
 10
57.945240937
 20
125.4327736331
 11
58.1952265114
 21
125.4080189994
  0
LINE
  5
488
100
AcDbEntity
  8
0
100
AcDbLine
 62
7
  6
CONTINUOUS
 10
34.6948736916
 20
148.4340380359
 11
32.8917598782
 21
149.4750427308
  0
LINE
  5
489
100
AcDbEntity
  8
0
100
AcDbLine
 62
7
  6
CONTINUOUS
 10
28.6137300553
 20
151.9449085248
 11
26.8106162419
 21
152.9859132196
  0
LINE
  5
48A
100
AcDbEntity
  8
0
100
AcDbLine
 62
7
  6
CONTINUOUS
 10
40.5285319568
 20
146.8623093807
 11
40.7406648743
 21
146.7398371543
  0
LINE
  5
48B
100
AcDbEntity
  8
0
100
AcDbLine
 62
7
  6
CONTINUOUS
 10
117.0376034394
 20
103.4249148697
 11
117.532580247
 21
103.1391463416
  0
LINE
  5
48C
100
AcDbEntity
  8
0
100
AcDbLine
 62
7
  6
CONTINUOUS
 10
24.6185884591
 20
159.0688605883
 11
25.3256981842
 21
158.6606198338
  0
LINE
  5
48D
100
AcDbEntity
  8
0
100
AcDbLine
 62
7
  6
CONTINUOUS
 10
30.6997320953
 20
155.5579900994
 11
31.4068418205
 21
155.1497493449
  0
LINE
  5
48E
100
AcDbEntity
  8
0
100
AcDbLine
 62
7
  6
CONTINUOUS
 10
36.7808757316
 20
152.0471196106
 11
37.4879854567
 21
151.6388788561
  0
LINE
  5
48F
100
AcDbEntity
  8
0
100
AcDbLine
 62
7
  6
CONTINUOUS
 10
96.3194610085
 20
74.2759852798
 11
96.3194610085
 21
74.5209458815
  0
LINE
  5
490
100
AcDbEntity
  8
0
100
AcDbLine
 62
7
  6
CONTINUOUS
 10
96.3194610085
 20
77.1337437398
 11
96.3194610085
 21
77.3787043415
  0
LINE
  5
491
100
AcDbEntity
  8
0
100
AcDbLine
 62
7
  6
CONTINUOUS
 10
96.3194610085
 20
88.156526371
 11
96.3194610085
 21
88.4014869727
  0
LINE
  5
492
100
AcDbEntity
  8
0
100
AcDbLine
 62
7
  6
CONTINUOUS
 10
96.3194610085
 20
91.014284831
 11
96.3194610085
 21
91.2592454327
  0
LINE
  5
493
100
AcDbEntity
  8
0
100
AcDbLine
 62
7
  6
CONTINUOUS
 10
96.8144378161
 20
91.54501872
 11
96.8144378161
 21
90.7285163028
  0
LINE
  5
494
100
AcDbEntity
  8
0
100
AcDbLine
 62
7
  6
CONTINUOUS
 10
96.8144378161
 20
88.68726026
 11
96.8144378161
 21
87.8707578429
  0
LINE
  5
495
100
AcDbEntity
  8
0
100
AcDbLine
 62
7
  6
CONTINUOUS
 10
96.8144378161
 20
77.6644776288
 11
96.8144378161
 21
76.8479752116
  0
LINE
  5
496
100
AcDbEntity
  8
0
100
AcDbLine
 62
7
  6
CONTINUOUS
 10
96.8144378161
 20
74.8067191688
 11
96.8144378161
 21
73.9902167517
  0
LINE
  5
497
100
AcDbEntity
  8
0
100
AcDbLine
 62
7
  6
CONTINUOUS
 10
97.4508312699
 20
71.2141021844
 11
97.4508312699
 21
69.5810973504
  0
LINE
  5
498
100
AcDbEntity
  8
0
100
AcDbLine
 62
7
  6
CONTINUOUS
 10
97.4508312699
 20
50.9648422392
 11
97.4508312699
 21
49.3318374053
  0
LINE
  5
499
100
AcDbEntity
  8
0
100
AcDbLine
 62
7
  6
CONTINUOUS
 10
97.6275851499
 20
69.6831456415
 11
97.6275851499
 21
54.1287216845
  0
LINE
  5
49A
100
AcDbEntity
  8
0
100
AcDbLine
 62
7
  6
CONTINUOUS
 10
98.3485706449
 20
158.264700688
 11
98.3485706449
 21
160.7141656117
  0
LINE
  5
49B
100
AcDbEntity
  8
0
100
AcDbLine
 62
7
  6
CONTINUOUS
 10
100.2792466192
 20
71.2140739662
 11
100.2792466192
 21
52.597818855
  0
LINE
  5
49C
100
AcDbEntity
  8
0
100
AcDbLine
 62
7
  6
CONTINUOUS
 10
101.1984816068
 20
64.967821303
 11
101.1984816068
 21
74.7658503085
  0
LINE
  5
49D
100
AcDbEntity
  8
0
100
AcDbLine
 62
7
  6
CONTINUOUS
 10
101.9406880483
 20
156.1908376548
 11
101.9406880483
 21
158.6403025781
  0
LINE
  5
49E
100
AcDbEntity
  8
0
100
AcDbLine
 62
7
  6
CONTINUOUS
 10
115.4466044976
 20
132.6924143618
 11
115.0576973866
 21
132.0188037468
  0
LINE
  5
49F
100
AcDbEntity
  8
0
100
AcDbLine
 62
7
  6
CONTINUOUS
 10
116.2597933395
 20
107.6299223328
 11
117.532580247
 21
108.3647618101
  0
LINE
  5
4A0
100
AcDbEntity
  8
0
100
AcDbLine
 62
7
  6
CONTINUOUS
 10
87.5513775489
 20
90.6061333572
 11
84.7229622
 21
88.9731567418
  0
LINE
  5
4A1
100
AcDbEntity
  8
0
100
AcDbLine
 62
7
  6
CONTINUOUS
 10
84.7229327603
 20
85.3804585624
 11
84.0158289231
 21
84.9722144085
  0
LINE
  5
4A2
100
AcDbEntity
  8
0
100
AcDbLine
 62
7
  6
CONTINUOUS
 10
116.2597933395
 20
102.9758486797
 11
117.0376034394
 21
103.4249148697
  0
LINE
  5
4A3
100
AcDbEntity
  8
0
100
AcDbLine
 62
7
  6
CONTINUOUS
 10
91.8647109556
 20
88.6873096429
 11
96.8144378161
 21
91.54501872
  0
LINE
  5
4A4
100
AcDbEntity
  8
0
100
AcDbLine
 62
7
  6
CONTINUOUS
 10
92.0768379852
 20
88.5648199078
 11
96.3194610085
 21
91.014284831
  0
LINE
  5
4A5
100
AcDbEntity
  8
0
100
AcDbLine
 62
7
  6
CONTINUOUS
 10
117.532580247
 20
103.1391463416
 11
116.2597933395
 21
102.4043068643
  0
LINE
  5
4A6
100
AcDbEntity
  8
0
100
AcDbLine
 62
7
  6
CONTINUOUS
 10
96.8144378161
 20
90.7285163028
 11
92.5718147928
 21
88.2790513796
  0
LINE
  5
4A7
100
AcDbEntity
  8
0
100
AcDbLine
 62
7
  6
CONTINUOUS
 10
135.1015871791
 20
135.4476519528
 11
135.3515775129
 21
135.4724065011
  0
LINE
  5
4A8
100
AcDbEntity
  8
0
100
AcDbLine
 62
7
  6
CONTINUOUS
 10
49.1309115597
 20
129.3190736475
 11
48.8810000035
 21
129.3437633808
  0
LINE
  5
4A9
100
AcDbEntity
  8
0
100
AcDbLine
 62
7
  6
CONTINUOUS
 10
54.3775947844
 20
130.1876849656
 11
54.6354422174
 21
130.1621545692
  0
LINE
  5
4AA
100
AcDbEntity
  8
0
100
AcDbLine
 62
7
  6
CONTINUOUS
 10
39.7018100282
 20
133.3245781596
 11
39.9517955988
 21
133.2998235271
  0
LINE
  5
4AB
100
AcDbEntity
  8
0
100
AcDbLine
 62
7
  6
CONTINUOUS
 10
39.7018100282
 20
135.9653850997
 11
39.9517956034
 21
135.9406304656
  0
LINE
  5
4AC
100
AcDbEntity
  8
0
100
AcDbLine
 62
7
  6
CONTINUOUS
 10
108.7644885432
 20
111.0592950088
 11
109.2594653508
 21
110.7735264806
  0
LINE
  5
4AD
100
AcDbEntity
  8
0
100
AcDbLine
 62
7
  6
CONTINUOUS
 10
26.8106162421
 20
159.5179325568
 11
32.1846501532
 21
156.4153028224
  0
LINE
  5
4AE
100
AcDbEntity
  8
0
100
AcDbLine
 62
7
  6
CONTINUOUS
 10
32.8917598783
 20
156.0070620679
 11
38.2657937894
 21
152.9044323335
  0
LINE
  5
4AF
100
AcDbEntity
  8
0
100
AcDbLine
 62
7
  6
CONTINUOUS
 10
113.007111567
 20
110.2427502638
 11
113.5020883746
 21
109.9569817356
  0
LINE
  5
4B0
100
AcDbEntity
  8
0
100
AcDbLine
 62
7
  6
CONTINUOUS
 10
26.8106103541
 20
160.3344174652
 11
39.6800073518
 21
152.9044357329
  0
LINE
  5
4B1
100
AcDbEntity
  8
0
100
AcDbLine
 62
7
  6
CONTINUOUS
 10
38.9021795889
 20
153.5557952656
 11
29.2854873269
 21
159.107869527
  0
LINE
  5
4B2
100
AcDbEntity
  8
0
100
AcDbLine
 62
7
  6
CONTINUOUS
 10
27.4470020415
 20
164.0494918614
 11
29.2854873269
 21
162.9880658997
  0
LINE
  5
4B3
100
AcDbEntity
  8
0
100
AcDbLine
 62
7
  6
CONTINUOUS
 10
38.9021795889
 20
157.4359916382
 11
40.7406648743
 21
156.3745656764
  0
LINE
  5
4B4
100
AcDbEntity
  8
0
100
AcDbLine
 62
7
  6
CONTINUOUS
 10
102.6126892815
 20
52.2303694869
 11
102.6126892815
 21
57.1293839896
  0
LINE
  5
4B5
100
AcDbEntity
  8
0
100
AcDbLine
 62
7
  6
CONTINUOUS
 10
102.612689282
 20
106.9360314348
 11
102.612689282
 21
111.8350459376
  0
LINE
  5
4B6
100
AcDbEntity
  8
0
100
AcDbLine
 62
7
  6
CONTINUOUS
 10
102.6689689611
 20
163.2003541553
 11
102.6689689611
 21
162.8798982484
  0
LINE
  5
4B7
100
AcDbEntity
  8
0
100
AcDbLine
 62
7
  6
CONTINUOUS
 10
104.0268928344
 20
76.3988245446
 11
104.0268928344
 21
67.1723373545
  0
LINE
  5
4B8
100
AcDbEntity
  8
0
100
AcDbLine
 62
7
  6
CONTINUOUS
 10
104.521869642
 20
76.6845978319
 11
104.521869642
 21
66.8865688263
  0
LINE
  5
4B9
100
AcDbEntity
  8
0
100
AcDbLine
 62
7
  6
CONTINUOUS
 10
105.5328054513
 20
154.1169746214
 11
105.5328054513
 21
156.5664395447
  0
LINE
  5
4BA
100
AcDbEntity
  8
0
100
AcDbLine
 62
7
  6
CONTINUOUS
 10
124.0379161197
 20
137.2443296221
 11
123.5641565479
 21
136.4237494194
  0
LINE
  5
4BB
100
AcDbEntity
  8
0
100
AcDbLine
 62
7
  6
CONTINUOUS
 10
92.5718147928
 20
86.2377953368
 11
96.8144378161
 21
88.68726026
  0
LINE
  5
4BC
100
AcDbEntity
  8
0
100
AcDbLine
 62
7
  6
CONTINUOUS
 10
91.8647109556
 20
85.5845905812
 11
96.3194610085
 21
88.156526371
  0
LINE
  5
4BD
100
AcDbEntity
  8
0
100
AcDbLine
 62
7
  6
CONTINUOUS
 10
96.8144378161
 20
87.8707578429
 11
91.8647109556
 21
85.0130487658
  0
LINE
  5
4BE
100
AcDbEntity
  8
0
100
AcDbLine
 62
7
  6
CONTINUOUS
 10
123.4808064829
 20
137.2591894061
 11
123.3308122813
 21
137.2443366767
  0
LINE
  5
4BF
100
AcDbEntity
  8
0
100
AcDbLine
 62
7
  6
CONTINUOUS
 10
131.4730830366
 20
143.1903928012
 11
131.1230965654
 21
143.1557364318
  0
LINE
  5
4C0
100
AcDbEntity
  8
0
100
AcDbLine
 62
7
  6
CONTINUOUS
 10
122.9940460959
 20
137.0499057895
 11
122.0226701828
 21
137.0198115637
  0
LINE
  5
4C1
100
AcDbEntity
  8
0
100
AcDbLine
 62
7
  6
CONTINUOUS
 10
41.1649218775
 20
158.579102212
 11
39.9628353447
 21
159.2731114947
  0
LINE
  5
4C2
100
AcDbEntity
  8
0
100
AcDbLine
 62
7
  6
CONTINUOUS
 10
30.3461430827
 20
164.8251857562
 11
29.14405655
 21
165.5191950388
  0
LINE
  5
4C3
100
AcDbEntity
  8
0
100
AcDbLine
 62
7
  6
CONTINUOUS
 10
41.5989714827
 20
160.2177294958
 11
37.2757606879
 21
162.713679946
  0
LINE
  5
4C4
100
AcDbEntity
  8
0
100
AcDbLine
 62
7
  6
CONTINUOUS
 10
108.7644885432
 20
115.3867676961
 11
108.7644885432
 21
111.0592950088
  0
LINE
  5
4C5
100
AcDbEntity
  8
0
100
AcDbLine
 62
7
  6
CONTINUOUS
 10
108.7644885432
 20
60.6811057485
 11
108.7644885432
 21
56.3536330611
  0
LINE
  5
4C6
100
AcDbEntity
  8
0
100
AcDbLine
 62
7
  6
CONTINUOUS
 10
109.1249228543
 20
152.043111588
 11
109.1249228543
 21
154.4925765113
  0
LINE
  5
4C7
100
AcDbEntity
  8
0
100
AcDbLine
 62
7
  6
CONTINUOUS
 10
109.2594653508
 20
115.6725409834
 11
109.2594653508
 21
110.7735264806
  0
LINE
  5
4C8
100
AcDbEntity
  8
0
100
AcDbLine
 62
7
  6
CONTINUOUS
 10
109.2594653508
 20
60.9668790357
 11
109.2594653508
 21
56.067864533
  0
LINE
  5
4C9
100
AcDbEntity
  8
0
100
AcDbLine
 62
7
  6
CONTINUOUS
 10
110.6736730252
 20
63.4163721777
 11
110.6736730252
 21
70.7648939319
  0
LINE
  5
4CA
100
AcDbEntity
  8
0
100
AcDbLine
 62
7
  6
CONTINUOUS
 10
110.6736730252
 20
108.3240051198
 11
110.6736730252
 21
115.672526874
  0
LINE
  5
4CB
100
AcDbEntity
  8
0
100
AcDbLine
 62
7
  6
CONTINUOUS
 10
112.7170402577
 20
149.9692485549
 11
112.7170402577
 21
152.4187134778
  0
LINE
  5
4CC
100
AcDbEntity
  8
0
100
AcDbLine
 62
7
  6
CONTINUOUS
 10
113.007111567
 20
117.0197302025
 11
113.007111567
 21
110.2427502638
  0
LINE
  5
4CD
100
AcDbEntity
  8
0
100
AcDbLine
 62
7
  6
CONTINUOUS
 10
113.007111567
 20
72.1120972604
 11
113.007111567
 21
65.3351173217
  0
LINE
  5
4CE
100
AcDbEntity
  8
0
100
AcDbLine
 62
7
  6
CONTINUOUS
 10
113.2192274098
 20
130.4511374485
 11
113.2192274098
 21
131.5125905913
  0
LINE
  5
4CF
100
AcDbEntity
  8
0
100
AcDbLine
 62
7
  6
CONTINUOUS
 10
113.5020883746
 20
117.3055034898
 11
113.5020883746
 21
109.9569817356
  0
LINE
  5
4D0
100
AcDbEntity
  8
0
100
AcDbLine
 62
7
  6
CONTINUOUS
 10
113.5020883741
 20
72.3978705474
 11
113.5020883741
 21
65.0493487932
  0
LINE
  5
4D1
100
AcDbEntity
  8
0
100
AcDbLine
 62
7
  6
CONTINUOUS
 10
84.7229327598
 20
71.4999174715
 11
84.0158289226
 21
71.0916733176
  0
LINE
  5
4D2
100
AcDbEntity
  8
0
100
AcDbLine
 62
7
  6
CONTINUOUS
 10
91.8647109556
 20
74.8067685517
 11
96.8144378161
 21
77.6644776288
  0
LINE
  5
4D3
100
AcDbEntity
  8
0
100
AcDbLine
 62
7
  6
CONTINUOUS
 10
96.3194610085
 20
77.1337437398
 11
92.0768379852
 21
74.6842788166
  0
LINE
  5
4D4
100
AcDbEntity
  8
0
100
AcDbLine
 62
7
  6
CONTINUOUS
 10
96.8144378161
 20
76.8479752116
 11
92.5718147928
 21
74.3985102884
  0
LINE
  5
4D5
100
AcDbEntity
  8
0
100
AcDbLine
 62
7
  6
CONTINUOUS
 10
135.9551197672
 20
145.3768367691
 11
135.7051294313
 21
145.3520822201
  0
LINE
  5
4D6
100
AcDbEntity
  8
0
100
AcDbLine
 62
7
  6
CONTINUOUS
 10
52.2300639674
 20
159.6204876262
 11
57.4283136662
 21
156.6193446582
  0
LINE
  5
4D7
100
AcDbEntity
  8
0
100
AcDbLine
 62
7
  6
CONTINUOUS
 10
37.2757606879
 20
168.8259784644
 11
46.8924529499
 21
163.2739042029
  0
LINE
  5
4D8
100
AcDbEntity
  8
0
100
AcDbLine
 62
7
  6
CONTINUOUS
 10
38.3364064338
 20
170.8263690392
 11
50.3572717613
 21
163.8862762123
  0
LINE
  5
4D9
100
AcDbEntity
  8
0
100
AcDbLine
 62
7
  6
CONTINUOUS
 10
106.4309911231
 20
132.0024424577
 11
112.0878689238
 21
128.7365164219
  0
LINE
  5
4DA
100
AcDbEntity
  8
0
100
AcDbLine
 62
7
  6
CONTINUOUS
 10
51.5570424042
 20
163.7008913651
 11
38.6366105142
 21
171.1603374397
  0
LINE
  5
4DB
100
AcDbEntity
  8
0
100
AcDbLine
 62
7
  6
CONTINUOUS
 10
134.9980255948
 20
68.0293103726
 11
135.1015871783
 21
67.8004266927
  0
LINE
  5
4DC
100
AcDbEntity
  8
0
100
AcDbLine
 62
7
  6
CONTINUOUS
 10
134.9358886448
 20
68.4870964877
 11
134.9980255948
 21
68.3497662797
  0
LINE
  5
4DD
100
AcDbEntity
  8
0
100
AcDbLine
 62
7
  6
CONTINUOUS
 10
115.0576973866
 20
132.5740253914
 11
115.0576973866
 21
132.0188037468
  0
LINE
  5
4DE
100
AcDbEntity
  8
0
100
AcDbLine
 62
7
  6
CONTINUOUS
 10
116.2597933395
 20
77.9092343504
 11
116.2597933395
 21
83.1348498189
  0
LINE
  5
4DF
100
AcDbEntity
  8
0
100
AcDbLine
 62
7
  6
CONTINUOUS
 10
116.2597933395
 20
102.4043068643
 11
116.2597933395
 21
107.6299223328
  0
LINE
  5
4E0
100
AcDbEntity
  8
0
100
AcDbLine
 62
7
  6
CONTINUOUS
 10
116.3091576607
 20
147.8953855215
 11
116.3091576607
 21
150.3448504444
  0
LINE
  5
4E1
100
AcDbEntity
  8
0
100
AcDbLine
 62
7
  6
CONTINUOUS
 10
117.0376034394
 20
108.0789885228
 11
117.0376034394
 21
103.4249148697
  0
LINE
  5
4E2
100
AcDbEntity
  8
0
100
AcDbLine
 62
7
  6
CONTINUOUS
 10
117.0376034394
 20
83.5839160089
 11
117.0376034394
 21
78.9298423559
  0
LINE
  5
4E3
100
AcDbEntity
  8
0
100
AcDbLine
 62
7
  6
CONTINUOUS
 10
117.532580247
 20
108.3647618101
 11
117.532580247
 21
103.1391463416
  0
LINE
  5
4E4
100
AcDbEntity
  8
0
100
AcDbLine
 62
7
  6
CONTINUOUS
 10
117.532580247
 20
83.8696892962
 11
117.532580247
 21
78.6440738277
  0
LINE
  5
4E5
100
AcDbEntity
  8
0
100
AcDbLine
 62
7
  6
CONTINUOUS
 10
119.9012750638
 20
145.8215224881
 11
119.9012750638
 21
148.270987411
  0
LINE
  5
4E6
100
AcDbEntity
  8
0
100
AcDbLine
 62
7
  6
CONTINUOUS
 10
92.5718147928
 20
72.3572542456
 11
96.8144378161
 21
74.8067191688
  0
LINE
  5
4E7
100
AcDbEntity
  8
0
100
AcDbLine
 62
7
  6
CONTINUOUS
 10
96.3194610085
 20
74.2759852798
 11
91.8647109556
 21
71.70404949
  0
LINE
  5
4E8
100
AcDbEntity
  8
0
100
AcDbLine
 62
7
  6
CONTINUOUS
 10
96.8144378161
 20
73.9902167517
 11
91.8647109556
 21
71.1325076746
  0
LINE
  5
4E9
100
AcDbEntity
  8
0
100
AcDbLine
 62
7
  6
CONTINUOUS
 10
101.1984816068
 20
74.7658503085
 11
104.521869642
 21
76.6845978319
  0
LINE
  5
4EA
100
AcDbEntity
  8
0
100
AcDbLine
 62
7
  6
CONTINUOUS
 10
116.2597933395
 20
83.1348498189
 11
117.532580247
 21
83.8696892962
  0
LINE
  5
4EB
100
AcDbEntity
  8
0
100
AcDbLine
 62
7
  6
CONTINUOUS
 10
133.5131210798
 20
92.1161867648
 11
130.6847116189
 21
90.4832135487
  0
LINE
  5
4EC
100
AcDbEntity
  8
0
100
AcDbLine
 62
7
  6
CONTINUOUS
 10
89.6726890605
 20
66.7234164918
 11
97.4508312699
 21
71.2141021844
  0
LINE
  5
4ED
100
AcDbEntity
  8
0
100
AcDbLine
 62
7
  6
CONTINUOUS
 10
91.9000511336
 20
67.376551556
 11
92.9607068894
 21
67.9889177868
  0
LINE
  5
4EE
100
AcDbEntity
  8
0
100
AcDbLine
 62
7
  6
CONTINUOUS
 10
90.5565538429
 20
66.0497485321
 11
91.6172095987
 21
66.6621147629
  0
LINE
  5
4EF
100
AcDbEntity
  8
0
100
AcDbLine
 62
7
  6
CONTINUOUS
 10
132.4775612619
 20
89.8272570567
 11
130.6847116189
 21
88.7921610114
  0
LINE
  5
4F0
100
AcDbEntity
  8
0
100
AcDbLine
 62
7
  6
CONTINUOUS
 10
97.4508312699
 20
69.5810973504
 11
100.2792466192
 21
71.2140739662
  0
LINE
  5
4F1
100
AcDbEntity
  8
0
100
AcDbLine
 62
7
  6
CONTINUOUS
 10
93.8799418774
 20
67.4785946045
 11
93.7208629802
 21
67.3867509087
  0
LINE
  5
4F2
100
AcDbEntity
  8
0
100
AcDbLine
 62
7
  6
CONTINUOUS
 10
90.4151330751
 20
65.4781982511
 11
89.6726890605
 21
65.0495505582
  0
LINE
  5
4F3
100
AcDbEntity
  8
0
100
AcDbLine
 62
7
  6
CONTINUOUS
 10
132.9096129464
 20
140.5186328937
 11
133.1595987839
 21
140.4939309508
  0
LINE
  5
4F4
100
AcDbEntity
  8
0
100
AcDbLine
 62
7
  6
CONTINUOUS
 10
80.8901707757
 20
149.1159047454
 11
113.2192274098
 21
130.4511374485
  0
LINE
  5
4F5
100
AcDbEntity
  8
0
100
AcDbLine
 62
7
  6
CONTINUOUS
 10
80.8901707757
 20
150.1773578882
 11
113.2192274098
 21
131.5125905913
  0
LINE
  5
4F6
100
AcDbEntity
  8
0
100
AcDbLine
 62
7
  6
CONTINUOUS
 10
115.9769400284
 20
130.9818592682
 11
115.6233851664
 21
131.1859796451
  0
LINE
  5
4F7
100
AcDbEntity
  8
0
100
AcDbLine
 62
7
  6
CONTINUOUS
 10
82.7286407524
 20
151.2387926883
 11
115.0576973866
 21
132.5740253914
  0
LINE
  5
4F8
100
AcDbEntity
  8
0
100
AcDbLine
 62
7
  6
CONTINUOUS
 10
83.1175478634
 20
151.3571816587
 11
115.4466044976
 21
132.6924143618
  0
LINE
  5
4F9
100
AcDbEntity
  8
0
100
AcDbLine
 62
7
  6
CONTINUOUS
 10
135.8465502
 20
77.3782545827
 11
135.7429886165
 21
77.6071382637
  0
LINE
  5
4FA
100
AcDbEntity
  8
0
100
AcDbLine
 62
7
  6
CONTINUOUS
 10
121.4569871139
 20
136.1624896697
 11
121.4569871139
 21
136.6932162411
  0
LINE
  5
4FB
100
AcDbEntity
  8
0
100
AcDbLine
 62
7
  6
CONTINUOUS
 10
123.4933924667
 20
143.7476594547
 11
123.4933924667
 21
146.1971243776
  0
LINE
  5
4FC
100
AcDbEntity
  8
0
100
AcDbLine
 62
7
  6
CONTINUOUS
 10
123.5429434332
 20
137.1218591976
 11
123.5429434332
 21
136.411502095
  0
LINE
  5
4FD
100
AcDbEntity
  8
0
100
AcDbLine
 62
7
  6
CONTINUOUS
 10
124.0379161197
 20
137.2443296221
 11
124.0379161197
 21
138.6568788041
  0
LINE
  5
4FE
100
AcDbEntity
  8
0
100
AcDbLine
 62
7
  6
CONTINUOUS
 10
94.7638366887
 20
66.7846033797
 11
93.7031809328
 21
66.1722371489
  0
LINE
  5
4FF
100
AcDbEntity
  8
0
100
AcDbLine
 62
7
  6
CONTINUOUS
 10
93.4203393967
 20
65.4578003545
 11
92.3596836419
 21
64.8454341243
  0
LINE
  5
500
100
AcDbEntity
  8
0
100
AcDbLine
 62
7
  6
CONTINUOUS
 10
93.0208257301
 20
65.1126749926
 11
94.1026946005
 21
65.7372885478
  0
LINE
  5
501
100
AcDbEntity
  8
0
100
AcDbLine
 62
7
  6
CONTINUOUS
 10
117.0376034394
 20
78.9298423559
 11
116.2597933395
 21
78.4807761659
  0
LINE
  5
502
100
AcDbEntity
  8
0
100
AcDbLine
 62
7
  6
CONTINUOUS
 10
87.5513775489
 20
61.7835980319
 11
84.7229622
 21
60.1506214164
  0
LINE
  5
503
100
AcDbEntity
  8
0
100
AcDbLine
 62
7
  6
CONTINUOUS
 10
117.532580247
 20
78.6440738277
 11
116.2597933395
 21
77.9092343504
  0
LINE
  5
504
100
AcDbEntity
  8
0
100
AcDbLine
 62
7
  6
CONTINUOUS
 10
92.7132355605
 20
63.865627697
 11
93.0208257301
 21
64.0432139041
  0
LINE
  5
505
100
AcDbEntity
  8
0
100
AcDbLine
 62
7
  6
CONTINUOUS
 10
94.1026946005
 20
64.6678274593
 11
94.4102847701
 21
64.8454136664
  0
LINE
  5
506
100
AcDbEntity
  8
0
100
AcDbLine
 62
7
  6
CONTINUOUS
 10
94.4102847701
 20
64.6004629407
 11
94.1026946005
 21
64.4228767336
  0
LINE
  5
507
100
AcDbEntity
  8
0
100
AcDbLine
 62
7
  6
CONTINUOUS
 10
93.0208257301
 20
63.7982631784
 11
92.7132355605
 21
63.6206769713
  0
LINE
  5
508
100
AcDbEntity
  8
0
100
AcDbLine
 62
7
  6
CONTINUOUS
 10
92.7132355605
 20
63.2124257627
 11
93.0208257301
 21
63.3900119698
  0
LINE
  5
509
100
AcDbEntity
  8
0
100
AcDbLine
 62
7
  6
CONTINUOUS
 10
94.1026946005
 20
64.014625525
 11
94.4102847701
 21
64.1922117321
  0
LINE
  5
50A
100
AcDbEntity
  8
0
100
AcDbLine
 62
7
  6
CONTINUOUS
 10
94.4102847701
 20
63.9472610079
 11
94.1026946005
 21
63.7696748007
  0
LINE
  5
50B
100
AcDbEntity
  8
0
100
AcDbLine
 62
7
  6
CONTINUOUS
 10
93.0208257301
 20
63.1450612456
 11
92.7132355605
 21
62.9674750385
  0
LINE
  5
50C
100
AcDbEntity
  8
0
100
AcDbLine
 62
7
  6
CONTINUOUS
 10
92.7132355605
 20
62.5592238299
 11
93.0208257301
 21
62.736810037
  0
LINE
  5
50D
100
AcDbEntity
  8
0
100
AcDbLine
 62
7
  6
CONTINUOUS
 10
94.1026946005
 20
63.3614235922
 11
94.4102847701
 21
63.5390097993
  0
LINE
  5
50E
100
AcDbEntity
  8
0
100
AcDbLine
 62
7
  6
CONTINUOUS
 10
94.4102847701
 20
63.2940590736
 11
94.1026946005
 21
63.1164728665
  0
LINE
  5
50F
100
AcDbEntity
  8
0
100
AcDbLine
 62
7
  6
CONTINUOUS
 10
93.0208257301
 20
62.4918593113
 11
92.7132355605
 21
62.3142731042
  0
LINE
  5
510
100
AcDbEntity
  8
0
100
AcDbLine
 62
7
  6
CONTINUOUS
 10
92.7132355605
 20
61.9060218956
 11
93.0208257301
 21
62.0836081028
  0
LINE
  5
511
100
AcDbEntity
  8
0
100
AcDbLine
 62
7
  6
CONTINUOUS
 10
94.1026946005
 20
62.7082216579
 11
94.4102847701
 21
62.885807865
  0
LINE
  5
512
100
AcDbEntity
  8
0
100
AcDbLine
 62
7
  6
CONTINUOUS
 10
94.4102847701
 20
62.6408571393
 11
94.1026946005
 21
62.4632709321
  0
LINE
  5
513
100
AcDbEntity
  8
0
100
AcDbLine
 62
7
  6
CONTINUOUS
 10
93.0208257301
 20
61.838657377
 11
92.7132355605
 21
61.6610711698
  0
LINE
  5
514
100
AcDbEntity
  8
0
100
AcDbLine
 62
7
  6
CONTINUOUS
 10
92.7132355605
 20
61.2528199613
 11
93.0208257301
 21
61.4304061684
  0
LINE
  5
515
100
AcDbEntity
  8
0
100
AcDbLine
 62
7
  6
CONTINUOUS
 10
94.1026946005
 20
62.0550197235
 11
94.4102847701
 21
62.2326059307
  0
LINE
  5
516
100
AcDbEntity
  8
0
100
AcDbLine
 62
7
  6
CONTINUOUS
 10
94.4102847701
 20
61.9876552064
 11
94.1026946005
 21
61.8100689993
  0
LINE
  5
517
100
AcDbEntity
  8
0
100
AcDbLine
 62
7
  6
CONTINUOUS
 10
93.0208257301
 20
61.1854554442
 11
92.7132355605
 21
61.007869237
  0
LINE
  5
518
100
AcDbEntity
  8
0
100
AcDbLine
 62
7
  6
CONTINUOUS
 10
104.0268928344
 20
67.1723373545
 11
101.1984816068
 21
65.5393631184
  0
LINE
  5
519
100
AcDbEntity
  8
0
100
AcDbLine
 62
7
  6
CONTINUOUS
 10
92.7132355605
 20
60.5996180285
 11
93.0208257301
 21
60.7772042356
  0
LINE
  5
51A
100
AcDbEntity
  8
0
100
AcDbLine
 62
7
  6
CONTINUOUS
 10
94.1026946005
 20
61.4018177907
 11
94.4102847701
 21
61.5794039979
  0
LINE
  5
51B
100
AcDbEntity
  8
0
100
AcDbLine
 62
7
  6
CONTINUOUS
 10
110.6736730252
 20
70.7648939319
 11
113.5020883741
 21
72.3978705474
  0
LINE
  5
51C
100
AcDbEntity
  8
0
100
AcDbLine
 62
7
  6
CONTINUOUS
 10
94.4102847701
 20
61.3344532722
 11
94.1026946005
 21
61.156867065
  0
LINE
  5
51D
100
AcDbEntity
  8
0
100
AcDbLine
 62
7
  6
CONTINUOUS
 10
93.0208257301
 20
60.5322535099
 11
92.7132355605
 21
60.3546673028
  0
LINE
  5
51E
100
AcDbEntity
  8
0
100
AcDbLine
 62
7
  6
CONTINUOUS
 10
104.521869642
 20
66.8865688263
 11
101.1984816068
 21
64.967821303
  0
LINE
  5
51F
100
AcDbEntity
  8
0
100
AcDbLine
 62
7
  6
CONTINUOUS
 10
92.7132355605
 20
59.9464160942
 11
93.0208257301
 21
60.1240023013
  0
LINE
  5
520
100
AcDbEntity
  8
0
100
AcDbLine
 62
7
  6
CONTINUOUS
 10
94.1026946005
 20
60.7486158565
 11
94.4102847701
 21
60.9262020636
  0
LINE
  5
521
100
AcDbEntity
  8
0
100
AcDbLine
 62
7
  6
CONTINUOUS
 10
94.4102847701
 20
60.6812513394
 11
94.1026946005
 21
60.5036651322
  0
LINE
  5
522
100
AcDbEntity
  8
0
100
AcDbLine
 62
7
  6
CONTINUOUS
 10
93.0208257301
 20
59.8790515771
 11
92.7132355605
 21
59.70146537
  0
LINE
  5
523
100
AcDbEntity
  8
0
100
AcDbLine
 62
7
  6
CONTINUOUS
 10
92.7132355605
 20
59.2932141614
 11
93.0208257301
 21
59.4708003685
  0
LINE
  5
524
100
AcDbEntity
  8
0
100
AcDbLine
 62
7
  6
CONTINUOUS
 10
94.1026946005
 20
60.0954139237
 11
94.4102847701
 21
60.2730001308
  0
LINE
  5
525
100
AcDbEntity
  8
0
100
AcDbLine
 62
7
  6
CONTINUOUS
 10
91.0017556472
 20
155.9091039736
 11
91.1517498488
 21
155.923956703
  0
LINE
  5
526
100
AcDbEntity
  8
0
100
AcDbLine
 62
7
  6
CONTINUOUS
 10
89.6936135487
 20
155.6845788607
 11
90.6649894618
 21
155.7146730865
  0
LWPOLYLINE
  5
527
100
AcDbEntity
  8
0
100
AcDbPolyline
 62
7
  6
CONTINUOUS
 90
4
 70
0
 10
38.636307287
 20
171.1605149565
 10
38.4388657805
 20
171.2320519695
 10
38.2053678874
 20
171.2263858133
 10
38.0365615707
 20
171.160551484
  0
LINE
  5
528
100
AcDbEntity
  8
0
100
AcDbLine
 62
7
  6
CONTINUOUS
 10
89.1279304798
 20
154.8272569666
 11
121.4569871139
 21
136.1624896697
  0
LINE
  5
529
100
AcDbEntity
  8
0
100
AcDbLine
 62
7
  6
CONTINUOUS
 10
89.1279304798
 20
155.357983538
 11
121.4569871139
 21
136.6932162411
  0
LINE
  5
52A
100
AcDbEntity
  8
0
100
AcDbLine
 62
7
  6
CONTINUOUS
 10
89.6936135487
 20
155.6845788607
 11
122.0226701829
 21
137.0198115638
  0
LINE
  5
52B
100
AcDbEntity
  8
0
100
AcDbLine
 62
7
  6
CONTINUOUS
 10
90.6649894618
 20
155.7146730865
 11
122.994046096
 21
137.0499057896
  0
LINE
  5
52C
100
AcDbEntity
  8
0
100
AcDbLine
 62
7
  6
CONTINUOUS
 10
91.0017556474
 20
155.9091039737
 11
123.3308122815
 21
137.2443366768
  0
LINE
  5
52D
100
AcDbEntity
  8
0
100
AcDbLine
 62
7
  6
CONTINUOUS
 10
91.1517531026
 20
155.923962339
 11
123.4808097368
 21
137.2591950421
  0
LINE
  5
52E
100
AcDbEntity
  8
0
100
AcDbLine
 62
7
  6
CONTINUOUS
 10
127.0855098698
 20
141.6737964213
 11
127.0855098698
 21
144.1232613443
  0
LINE
  5
52F
100
AcDbEntity
  8
0
100
AcDbLine
 62
7
  6
CONTINUOUS
 10
128.916937306
 20
138.8609697379
 11
128.916937306
 21
138.4527255846
  0
LINE
  5
530
100
AcDbEntity
  8
0
100
AcDbLine
 62
7
  6
CONTINUOUS
 10
130.6847116189
 20
137.8403678516
 11
130.6847116189
 21
64.3551503099
  0
LINE
  5
531
100
AcDbEntity
  8
0
100
AcDbLine
 62
7
  6
CONTINUOUS
 10
94.4102847701
 20
60.0280494051
 11
94.1026946005
 21
59.850463198
  0
LINE
  5
532
100
AcDbEntity
  8
0
100
AcDbLine
 62
7
  6
CONTINUOUS
 10
93.0208257301
 20
59.2258496428
 11
92.7132355605
 21
59.0482634357
  0
LINE
  5
533
100
AcDbEntity
  8
0
100
AcDbLine
 62
7
  6
CONTINUOUS
 10
92.7132355605
 20
58.6400122271
 11
93.0208257301
 21
58.8175984343
  0
LINE
  5
534
100
AcDbEntity
  8
0
100
AcDbLine
 62
7
  6
CONTINUOUS
 10
94.1026946005
 20
59.4422119894
 11
94.4102847701
 21
59.6197981965
  0
LINE
  5
535
100
AcDbEntity
  8
0
100
AcDbLine
 62
7
  6
CONTINUOUS
 10
94.4102847701
 20
59.3748474707
 11
94.1026946005
 21
59.1972612636
  0
LINE
  5
536
100
AcDbEntity
  8
0
100
AcDbLine
 62
7
  6
CONTINUOUS
 10
93.0208257301
 20
58.5726477085
 11
92.7132355605
 21
58.3950615013
  0
LINE
  5
537
100
AcDbEntity
  8
0
100
AcDbLine
 62
7
  6
CONTINUOUS
 10
92.7132355605
 20
57.9868102928
 11
93.0208257301
 21
58.1643964999
  0
LINE
  5
538
100
AcDbEntity
  8
0
100
AcDbLine
 62
7
  6
CONTINUOUS
 10
94.1026946005
 20
58.789010055
 11
94.4102847701
 21
58.9665962622
  0
LINE
  5
539
100
AcDbEntity
  8
0
100
AcDbLine
 62
7
  6
CONTINUOUS
 10
94.4102847701
 20
58.7216455379
 11
94.1026946005
 21
58.5440593308
  0
LINE
  5
53A
100
AcDbEntity
  8
0
100
AcDbLine
 62
7
  6
CONTINUOUS
 10
93.0208257301
 20
57.9194457757
 11
92.7132355605
 21
57.7418595685
  0
LINE
  5
53B
100
AcDbEntity
  8
0
100
AcDbLine
 62
7
  6
CONTINUOUS
 10
92.7132355605
 20
57.33360836
 11
93.0208257301
 21
57.5111945671
  0
LINE
  5
53C
100
AcDbEntity
  8
0
100
AcDbLine
 62
7
  6
CONTINUOUS
 10
94.1026946005
 20
58.1358081222
 11
94.4102847701
 21
58.3133943294
  0
LINE
  5
53D
100
AcDbEntity
  8
0
100
AcDbLine
 62
7
  6
CONTINUOUS
 10
94.4102847701
 20
58.0684436037
 11
94.1026946005
 21
57.8908573965
  0
LINE
  5
53E
100
AcDbEntity
  8
0
100
AcDbLine
 62
7
  6
CONTINUOUS
 10
93.0208257301
 20
57.2662438414
 11
92.7132355605
 21
57.0886576342
  0
LINE
  5
53F
100
AcDbEntity
  8
0
100
AcDbLine
 62
7
  6
CONTINUOUS
 10
92.7132355605
 20
56.6804064257
 11
93.0208257301
 21
56.8579926328
  0
LINE
  5
540
100
AcDbEntity
  8
0
100
AcDbLine
 62
7
  6
CONTINUOUS
 10
94.1026946005
 20
57.482606188
 11
94.4102847701
 21
57.6601923951
  0
LINE
  5
541
100
AcDbEntity
  8
0
100
AcDbLine
 62
7
  6
CONTINUOUS
 10
94.4102847701
 20
57.4152416708
 11
94.1026946005
 21
57.2376554637
  0
LINE
  5
542
100
AcDbEntity
  8
0
100
AcDbLine
 62
7
  6
CONTINUOUS
 10
93.0208257301
 20
56.6130419086
 11
92.7132355605
 21
56.4354557014
  0
LINE
  5
543
100
AcDbEntity
  8
0
100
AcDbLine
 62
7
  6
CONTINUOUS
 10
92.7132355605
 20
56.0272044929
 11
93.0208257301
 21
56.2047907
  0
LINE
  5
544
100
AcDbEntity
  8
0
100
AcDbLine
 62
7
  6
CONTINUOUS
 10
94.1026946005
 20
56.8294042551
 11
94.4102847701
 21
57.0069904623
  0
LINE
  5
545
100
AcDbEntity
  8
0
100
AcDbLine
 62
7
  6
CONTINUOUS
 10
94.4102847701
 20
56.7620397366
 11
94.1026946005
 21
56.5844535294
  0
LINE
  5
546
100
AcDbEntity
  8
0
100
AcDbLine
 62
7
  6
CONTINUOUS
 10
93.0208257301
 20
55.9598399743
 11
92.7132355605
 21
55.7822537672
  0
LINE
  5
547
100
AcDbEntity
  8
0
100
AcDbLine
 62
7
  6
CONTINUOUS
 10
92.7132355605
 20
55.3740025586
 11
93.0208257301
 21
55.5515887657
  0
LINE
  5
548
100
AcDbEntity
  8
0
100
AcDbLine
 62
7
  6
CONTINUOUS
 10
94.1026946005
 20
56.1762023209
 11
94.4102847701
 21
56.353788528
  0
LINE
  5
549
100
AcDbEntity
  8
0
100
AcDbLine
 62
7
  6
CONTINUOUS
 10
82.0005897585
 20
49.1481899331
 11
80.9399251708
 21
48.5358186032
  0
LINE
  5
54A
100
AcDbEntity
  8
0
100
AcDbLine
 62
7
  6
CONTINUOUS
 10
92.7132355605
 20
55.1290518339
 11
93.0208257301
 21
55.3066380411
  0
LINE
  5
54B
100
AcDbEntity
  8
0
100
AcDbLine
 62
7
  6
CONTINUOUS
 10
94.1026946005
 20
55.9312515962
 11
94.4102847701
 21
56.1088378034
  0
LINE
  5
54C
100
AcDbEntity
  8
0
100
AcDbLine
 62
7
  6
CONTINUOUS
 10
92.7132355605
 20
54.7208006242
 11
93.0208257301
 21
54.8983868314
  0
LINE
  5
54D
100
AcDbEntity
  8
0
100
AcDbLine
 62
7
  6
CONTINUOUS
 10
94.1026946005
 20
55.5230003865
 11
94.4102847701
 21
55.7005865937
  0
LINE
  5
54E
100
AcDbEntity
  8
0
100
AcDbLine
 62
7
  6
CONTINUOUS
 10
94.4102847701
 20
55.4556358694
 11
94.1026946005
 21
55.2780496623
  0
LINE
  5
54F
100
AcDbEntity
  8
0
100
AcDbLine
 62
7
  6
CONTINUOUS
 10
93.0208257301
 20
54.6534361071
 11
92.7132355605
 21
54.4758499
  0
LINE
  5
550
100
AcDbEntity
  8
0
100
AcDbLine
 62
7
  6
CONTINUOUS
 10
131.745346767
 20
76.6434398251
 11
130.6847116189
 21
76.0310854921
  0
LINE
  5
551
100
AcDbEntity
  8
0
100
AcDbLine
 62
7
  6
CONTINUOUS
 10
92.7132355605
 20
54.0675986914
 11
93.0208257301
 21
54.2451848986
  0
LINE
  5
552
100
AcDbEntity
  8
0
100
AcDbLine
 62
7
  6
CONTINUOUS
 10
94.1026946005
 20
54.8697984537
 11
94.4102847701
 21
55.0473846608
  0
LINE
  5
553
100
AcDbEntity
  8
0
100
AcDbLine
 62
7
  6
CONTINUOUS
 10
94.4102847701
 20
54.8024339351
 11
94.1026946005
 21
54.624847728
  0
LINE
  5
554
100
AcDbEntity
  8
0
100
AcDbLine
 62
7
  6
CONTINUOUS
 10
93.0208257301
 20
54.0002341729
 11
92.7132355605
 21
53.8226479657
  0
LINE
  5
555
100
AcDbEntity
  8
0
100
AcDbLine
 62
7
  6
CONTINUOUS
 10
110.6736730252
 20
63.9879139932
 11
113.007111567
 21
65.3351173217
  0
LINE
  5
556
100
AcDbEntity
  8
0
100
AcDbLine
 62
7
  6
CONTINUOUS
 10
92.7132355605
 20
53.4143967572
 11
93.0208257301
 21
53.5919829643
  0
LINE
  5
557
100
AcDbEntity
  8
0
100
AcDbLine
 62
7
  6
CONTINUOUS
 10
94.1026946005
 20
54.2165965194
 11
94.4102847701
 21
54.3941827266
  0
LINE
  5
558
100
AcDbEntity
  8
0
100
AcDbLine
 62
7
  6
CONTINUOUS
 10
94.4102847701
 20
54.1492320023
 11
94.1026946005
 21
53.9716457952
  0
LINE
  5
559
100
AcDbEntity
  8
0
100
AcDbLine
 62
7
  6
CONTINUOUS
 10
93.0208257301
 20
53.3470322401
 11
92.7132355605
 21
53.1694460329
  0
LINE
  5
55A
100
AcDbEntity
  8
0
100
AcDbLine
 62
7
  6
CONTINUOUS
 10
113.5020883741
 20
65.0493487932
 11
110.6736730252
 21
63.4163721777
  0
LINE
  5
55B
100
AcDbEntity
  8
0
100
AcDbLine
 62
7
  6
CONTINUOUS
 10
135.3515775145
 20
77.5007348843
 11
135.4929982814
 21
77.5823837148
  0
LINE
  5
55C
100
AcDbEntity
  8
0
100
AcDbLine
 62
7
  6
CONTINUOUS
 10
92.7132355605
 20
52.7611948244
 11
93.0208257301
 21
52.9387810315
  0
LINE
  5
55D
100
AcDbEntity
  8
0
100
AcDbLine
 62
7
  6
CONTINUOUS
 10
94.1026946005
 20
53.5633945866
 11
94.4102847701
 21
53.7409807938
  0
LINE
  5
55E
100
AcDbEntity
  8
0
100
AcDbLine
 62
7
  6
CONTINUOUS
 10
94.4102847701
 20
53.4960300681
 11
94.1026946005
 21
53.3184438609
  0
LINE
  5
55F
100
AcDbEntity
  8
0
100
AcDbLine
 62
7
  6
CONTINUOUS
 10
93.0208257301
 20
52.6938303058
 11
92.7132355605
 21
52.5162440986
  0
LINE
  5
560
100
AcDbEntity
  8
0
100
AcDbLine
 62
7
  6
CONTINUOUS
 10
90.4151330755
 20
51.107755711
 11
89.6726890605
 21
50.679108018
  0
LINE
  5
561
100
AcDbEntity
  8
0
100
AcDbLine
 62
7
  6
CONTINUOUS
 10
98.7940399313
 20
161.8205037287
 11
99.1440264024
 21
161.8551600981
  0
LINE
  5
562
100
AcDbEntity
  8
0
100
AcDbLine
 62
7
  6
CONTINUOUS
 10
103.3760727971
 20
164.016849517
 11
103.6260631331
 21
164.041604066
  0
LINE
  5
563
100
AcDbEntity
  8
0
100
AcDbLine
 62
7
  6
CONTINUOUS
 10
91.7088594856
 20
155.9090969191
 11
124.0379161197
 21
137.2443296221
  0
LINE
  5
564
100
AcDbEntity
  8
0
100
AcDbLine
 62
7
  6
CONTINUOUS
 10
91.7088594856
 20
157.321646101
 11
124.0379161197
 21
138.6568788041
  0
LINE
  5
565
100
AcDbEntity
  8
0
100
AcDbLine
 62
7
  6
CONTINUOUS
 10
124.3914680344
 20
139.2692520865
 11
92.0624114003
 21
157.9340193835
  0
LINE
  5
566
100
AcDbEntity
  8
0
100
AcDbLine
 62
7
  6
CONTINUOUS
 10
130.6847116189
 20
137.8403678516
 11
129.7654689757
 21
138.3710808327
  0
LINE
  5
567
100
AcDbEntity
  8
0
100
AcDbLine
 62
7
  6
CONTINUOUS
 10
129.6240470312
 20
138.4527289834
 11
129.2704921681
 21
138.6568493609
  0
LINE
  5
568
100
AcDbEntity
  8
0
100
AcDbLine
 62
7
  6
CONTINUOUS
 10
128.916937306
 20
138.8609697379
 11
128.3512495262
 21
139.1875623413
  0
LINE
  5
569
100
AcDbEntity
  8
0
100
AcDbLine
 62
7
  6
CONTINUOUS
 10
93.9715392541
 20
159.0362482843
 11
63.50928773
 21
176.623239531
  0
LINE
  5
56A
100
AcDbEntity
  8
0
100
AcDbLine
 62
7
  6
CONTINUOUS
 10
134.5687244163
 20
135.7552809282
 11
135.1015817559
 21
135.4476425595
  0
LINE
  5
56B
100
AcDbEntity
  8
0
100
AcDbLine
 62
7
  6
CONTINUOUS
 10
134.9980255952
 20
135.6765356328
 11
134.7151768172
 21
135.8398347566
  0
LINE
  5
56C
100
AcDbEntity
  8
0
100
AcDbLine
 62
7
  6
CONTINUOUS
 10
126.8733963823
 20
141.5513333733
 11
124.7520672068
 21
142.7760556368
  0
LINE
  5
56D
100
AcDbEntity
  8
0
100
AcDbLine
 62
7
  6
CONTINUOUS
 10
123.2812789785
 20
143.6251964062
 11
121.159949803
 21
144.8499186697
  0
LINE
  5
56E
100
AcDbEntity
  8
0
100
AcDbLine
 62
7
  6
CONTINUOUS
 10
119.6891615747
 20
145.6990594391
 11
117.5678323993
 21
146.9237817027
  0
LINE
  5
56F
100
AcDbEntity
  8
0
100
AcDbLine
 62
7
  6
CONTINUOUS
 10
116.097044171
 20
147.7729224721
 11
113.9757149955
 21
148.9976447356
  0
LINE
  5
570
100
AcDbEntity
  8
0
100
AcDbLine
 62
7
  6
CONTINUOUS
 10
112.5049267672
 20
149.846785505
 11
110.3835975918
 21
151.0715077686
  0
LINE
  5
571
100
AcDbEntity
  8
0
100
AcDbLine
 62
7
  6
CONTINUOUS
 10
108.9128093636
 20
151.9206485381
 11
106.791480188
 21
153.1453708016
  0
LINE
  5
572
100
AcDbEntity
  8
0
100
AcDbLine
 62
7
  6
CONTINUOUS
 10
105.3206919597
 20
153.994511571
 11
103.1993627843
 21
155.2192338345
  0
LINE
  5
573
100
AcDbEntity
  8
0
100
AcDbLine
 62
7
  6
CONTINUOUS
 10
101.728574556
 20
156.0683746039
 11
99.6072453805
 21
157.2930968675
  0
LINE
  5
574
100
AcDbEntity
  8
0
100
AcDbLine
 62
7
  6
CONTINUOUS
 10
98.1364571524
 20
158.142237637
 11
96.0151279769
 21
159.3669599005
  0
LINE
  5
575
100
AcDbEntity
  8
0
100
AcDbLine
 62
7
  6
CONTINUOUS
 10
123.5429434332
 20
137.1218591978
 11
123.4808064829
 21
137.2591894061
  0
LINE
  5
576
100
AcDbEntity
  8
0
100
AcDbLine
 62
7
  6
CONTINUOUS
 10
133.5131210798
 20
92.1161867648
 11
133.5131210798
 21
118.2442641129
  0
LINE
  5
577
100
AcDbEntity
  8
0
100
AcDbLine
 62
7
  6
CONTINUOUS
 10
133.6545430246
 20
139.7999300148
 11
133.6545430249
 21
133.5943622764
  0
LINE
  5
578
100
AcDbEntity
  8
0
100
AcDbLine
 62
7
  6
CONTINUOUS
 10
133.6545430282
 20
73.3366332302
 11
133.6545430286
 21
67.1312149117
  0
LINE
  5
579
100
AcDbEntity
  8
0
100
AcDbLine
 62
7
  6
CONTINUOUS
 10
134.9980255954
 20
76.888361595
 11
134.9980255954
 21
76.5617606314
  0
LINE
  5
57A
100
AcDbEntity
  8
0
100
AcDbLine
 62
7
  6
CONTINUOUS
 10
134.9980255948
 20
68.3497662797
 11
134.9980255948
 21
68.0293103726
  0
LINE
  5
57B
100
AcDbEntity
  8
0
100
AcDbLine
 62
7
  6
CONTINUOUS
 10
134.9980255952
 20
135.6765356328
 11
134.9980255952
 21
136.0031366
  0
LINE
  5
57C
100
AcDbEntity
  8
0
100
AcDbLine
 62
7
  6
CONTINUOUS
 10
134.9980255952
 20
144.2151309515
 11
134.9980255952
 21
144.5355868584
  0
LINE
  5
57D
100
AcDbEntity
  8
0
100
AcDbLine
 62
7
  6
CONTINUOUS
 10
135.8465501993
 20
138.9833619564
 11
135.8465501993
 21
136.1664286171
  0
LINE
  5
57E
100
AcDbEntity
  8
0
100
AcDbLine
 62
7
  6
CONTINUOUS
 10
135.8465501998
 20
74.5613212441
 11
135.8465502
 21
77.3782545827
  0
LINE
  5
57F
100
AcDbEntity
  8
0
100
AcDbLine
 62
7
  6
CONTINUOUS
 10
136.0586813506
 20
145.1479530889
 11
136.0586813506
 21
139.2691356881
  0
LINE
  5
580
100
AcDbEntity
  8
0
100
AcDbLine
 62
7
  6
CONTINUOUS
 10
136.0586813506
 20
68.6416766044
 11
136.0586813506
 21
74.5204940081
  0
LINE
  5
581
100
AcDbEntity
  8
0
100
AcDbLine
 62
7
  6
CONTINUOUS
 10
134.9980255954
 20
76.5617606314
 11
132.9434646366
 21
75.3755663895
  0
LINE
  5
582
100
AcDbEntity
  8
0
100
AcDbLine
 62
7
  6
CONTINUOUS
 10
92.7132355605
 20
52.1079928901
 11
93.0208257301
 21
52.2855790972
  0
LINE
  5
583
100
AcDbEntity
  8
0
100
AcDbLine
 62
7
  6
CONTINUOUS
 10
94.1026946005
 20
52.9101926524
 11
94.4102847701
 21
53.0877788595
  0
LINE
  5
584
100
AcDbEntity
  8
0
100
AcDbLine
 62
7
  6
CONTINUOUS
 10
90.6979782312
 20
50.7811540113
 11
90.5565538427
 21
50.6995030899
  0
LINE
  5
585
100
AcDbEntity
  8
0
100
AcDbLine
 62
7
  6
CONTINUOUS
 10
94.4102847701
 20
52.8428281337
 11
94.1026946005
 21
52.6652419266
  0
LINE
  5
586
100
AcDbEntity
  8
0
100
AcDbLine
 62
7
  6
CONTINUOUS
 10
93.0208257301
 20
52.0406283714
 11
92.7132355605
 21
51.8630421643
  0
LINE
  5
587
100
AcDbEntity
  8
0
100
AcDbLine
 62
7
  6
CONTINUOUS
 10
92.7132355605
 20
51.4547909557
 11
93.0208257301
 21
51.6323771629
  0
LINE
  5
588
100
AcDbEntity
  8
0
100
AcDbLine
 62
7
  6
CONTINUOUS
 10
94.1026946005
 20
52.256990718
 11
94.4102847701
 21
52.4345769251
  0
LINE
  5
589
100
AcDbEntity
  8
0
100
AcDbLine
 62
7
  6
CONTINUOUS
 10
102.6126892815
 20
57.1293839896
 11
109.2594653508
 21
60.9668790357
  0
LINE
  5
58A
100
AcDbEntity
  8
0
100
AcDbLine
 62
7
  6
CONTINUOUS
 10
97.6275851499
 20
54.1287216845
 11
94.7991698006
 21
52.4957450687
  0
LINE
  5
58B
100
AcDbEntity
  8
0
100
AcDbLine
 62
7
  6
CONTINUOUS
 10
94.4102847701
 20
52.1896262009
 11
94.1026946005
 21
52.0120399938
  0
LINE
  5
58C
100
AcDbEntity
  8
0
100
AcDbLine
 62
7
  6
CONTINUOUS
 10
93.0208257301
 20
51.3874264386
 11
92.7132355605
 21
51.2098402315
  0
LINE
  5
58D
100
AcDbEntity
  8
0
100
AcDbLine
 62
7
  6
CONTINUOUS
 10
79.4550191866
 20
43.3101670713
 11
78.0407752979
 21
42.4936578553
  0
LINE
  5
58E
100
AcDbEntity
  8
0
100
AcDbLine
 62
7
  6
CONTINUOUS
 10
89.9201603893
 20
49.1073297258
 11
91.7586611478
 21
50.1687822976
  0
LINE
  5
58F
100
AcDbEntity
  8
0
100
AcDbLine
 62
7
  6
CONTINUOUS
 10
94.1026946005
 20
50.9425789053
 11
93.0208257301
 21
50.3179653502
  0
LINE
  5
590
100
AcDbEntity
  8
0
100
AcDbLine
 62
7
  6
CONTINUOUS
 10
92.3596836419
 20
49.8217896488
 11
93.4203394002
 21
50.434155881
  0
LINE
  5
591
100
AcDbEntity
  8
0
100
AcDbLine
 62
7
  6
CONTINUOUS
 10
130.6847116189
 20
71.6220105309
 11
133.6545430282
 21
73.3366332596
  0
LINE
  5
592
100
AcDbEntity
  8
0
100
AcDbLine
 62
7
  6
CONTINUOUS
 10
89.6726890605
 20
47.9029828669
 11
93.5441243178
 21
50.1381437127
  0
LINE
  5
593
100
AcDbEntity
  8
0
100
AcDbLine
 62
7
  6
CONTINUOUS
 10
94.7638366887
 20
50.8423407749
 11
94.7991698006
 21
50.8627402348
  0
LINE
  5
594
100
AcDbEntity
  8
0
100
AcDbLine
 62
7
  6
CONTINUOUS
 10
135.9879709672
 20
74.5613198333
 11
135.9172605835
 21
74.5204954179
  0
LINE
  5
595
100
AcDbEntity
  8
0
100
AcDbLine
 62
7
  6
CONTINUOUS
 10
93.7031809328
 20
50.0463144106
 11
94.7638366887
 21
50.6586806414
  0
LINE
  5
596
100
AcDbEntity
  8
0
100
AcDbLine
 62
7
  6
CONTINUOUS
 10
100.2792466192
 20
52.597818855
 11
97.4508312699
 21
50.9648422392
  0
LINE
  5
597
100
AcDbEntity
  8
0
100
AcDbLine
 62
7
  6
CONTINUOUS
 10
108.7644885432
 20
56.3536330611
 11
102.6126892815
 21
52.8019113023
  0
LINE
  5
598
100
AcDbEntity
  8
0
100
AcDbLine
 62
7
  6
CONTINUOUS
 10
97.4508312699
 20
49.3318374053
 11
89.6726890605
 21
44.8411517127
  0
LINE
  5
599
100
AcDbEntity
  8
0
100
AcDbLine
 62
7
  6
CONTINUOUS
 10
109.2594653508
 20
56.067864533
 11
102.6126892815
 21
52.2303694869
  0
LINE
  5
59A
100
AcDbEntity
  8
0
100
AcDbLine
 62
7
  6
CONTINUOUS
 10
133.1595987839
 20
140.4939309508
 11
133.3009881604
 21
140.4123016029
  0
LINE
  5
59B
100
AcDbEntity
  8
0
100
AcDbLine
 62
7
  6
CONTINUOUS
 10
98.3485706392
 20
160.7141656084
 11
100.4698998145
 21
159.4894433448
  0
LINE
  5
59C
100
AcDbEntity
  8
0
100
AcDbLine
 62
7
  6
CONTINUOUS
 10
101.9406880433
 20
158.6403025752
 11
104.0620172189
 21
157.4155803118
  0
LINE
  5
59D
100
AcDbEntity
  8
0
100
AcDbLine
 62
7
  6
CONTINUOUS
 10
105.532805447
 20
156.5664395423
 11
107.6541346227
 21
155.3417172788
  0
LINE
  5
59E
100
AcDbEntity
  8
0
100
AcDbLine
 62
7
  6
CONTINUOUS
 10
109.124922851
 20
154.4925765094
 11
111.2462520264
 21
153.2678542459
  0
LINE
  5
59F
100
AcDbEntity
  8
0
100
AcDbLine
 62
7
  6
CONTINUOUS
 10
112.7170402548
 20
152.4187134761
 11
114.8383694295
 21
151.1939912125
  0
LINE
  5
5A0
100
AcDbEntity
  8
0
100
AcDbLine
 62
7
  6
CONTINUOUS
 10
116.3091576585
 20
150.3448504431
 11
118.4304868332
 21
149.1201281795
  0
LINE
  5
5A1
100
AcDbEntity
  8
0
100
AcDbLine
 62
7
  6
CONTINUOUS
 10
119.9012750623
 20
148.2709874102
 11
122.022604237
 21
147.0462651466
  0
LINE
  5
5A2
100
AcDbEntity
  8
0
100
AcDbLine
 62
7
  6
CONTINUOUS
 10
123.493392466
 20
146.1971243772
 11
125.6147216407
 21
144.9724021136
  0
LINE
  5
5A3
100
AcDbEntity
  8
0
100
AcDbLine
 62
7
  6
CONTINUOUS
 10
127.0855098698
 20
144.1232613442
 11
129.2068390444
 21
142.8985390806
  0
LINE
  5
5A4
100
AcDbEntity
  8
0
100
AcDbLine
 62
7
  6
CONTINUOUS
 10
131.7933642168
 20
142.7255009905
 11
131.6288566529
 21
142.8204773281
  0
LINE
  5
5A5
100
AcDbEntity
  8
0
100
AcDbLine
 62
7
  6
CONTINUOUS
 10
98.7940399328
 20
161.8205037296
 11
131.123096567
 21
143.1557364327
  0
LINE
  5
5A6
100
AcDbEntity
  8
0
100
AcDbLine
 62
7
  6
CONTINUOUS
 10
99.1440339948
 20
161.8551732489
 11
131.4730906289
 21
143.1904059519
  0
LINE
  5
5A7
100
AcDbEntity
  8
0
100
AcDbLine
 62
7
  6
CONTINUOUS
 10
102.4200016225
 20
162.4949283732
 11
134.7490582566
 21
143.8301610762
  0
LINE
  5
5A8
100
AcDbEntity
  8
0
100
AcDbLine
 62
7
  6
CONTINUOUS
 10
102.4568378097
 20
162.5124742776
 11
134.7858944438
 21
143.8477069807
  0
LINE
  5
5A9
100
AcDbEntity
  8
0
100
AcDbLine
 62
7
  6
CONTINUOUS
 10
134.9980255952
 20
144.2151309515
 11
102.6689689611
 21
162.8798982484
  0
LINE
  5
5AA
100
AcDbEntity
  8
0
100
AcDbLine
 62
7
  6
CONTINUOUS
 10
102.6689689611
 20
163.2003541553
 11
134.9980255952
 21
144.5355868584
  0
LINE
  5
5AB
100
AcDbEntity
  8
0
100
AcDbLine
 62
7
  6
CONTINUOUS
 10
133.6545430285
 20
67.5924891215
 11
134.7490582562
 21
68.4472551506
  0
LINE
  5
5AC
100
AcDbEntity
  8
0
100
AcDbLine
 62
7
  6
CONTINUOUS
 10
133.6545430286
 20
67.1312148895
 11
130.6847116189
 21
65.4165921606
  0
LINE
  5
5AD
100
AcDbEntity
  8
0
100
AcDbLine
 62
7
  6
CONTINUOUS
 10
133.5509798135
 20
66.9023344421
 11
130.6847116189
 21
65.2475036064
  0
LINE
  5
5AE
100
AcDbEntity
  8
0
100
AcDbLine
 62
7
  6
CONTINUOUS
 10
135.3515775134
 20
67.8251812416
 11
135.7051294319
 21
68.0293033185
  0
LINE
  5
5AF
100
AcDbEntity
  8
0
100
AcDbLine
 62
7
  6
CONTINUOUS
 10
130.6847116189
 20
64.6817047156
 11
131.1230965672
 21
64.9348048727
  0
LINE
  5
5B0
100
AcDbEntity
  8
0
100
AcDbLine
 62
7
  6
CONTINUOUS
 10
130.6847116189
 20
64.3551503099
 11
84.7229622
 21
37.8192803083
  0
LINE
  5
5B1
100
AcDbEntity
  8
0
100
AcDbLine
 62
7
  6
CONTINUOUS
 10
135.3515775139
 20
145.1479601439
 11
103.0225208797
 21
163.8127274408
  0
LINE
  5
5B2
100
AcDbEntity
  8
0
100
AcDbLine
 62
7
  6
CONTINUOUS
 10
103.3760727983
 20
164.0168495177
 11
135.7051294325
 21
145.3520822208
  0
LINE
  5
5B3
100
AcDbEntity
  8
0
100
AcDbLine
 62
7
  6
CONTINUOUS
 10
103.6260685562
 20
164.0416134594
 11
135.9551251904
 21
145.3768461625
  0
LINE
  5
5B4
100
AcDbEntity
  8
0
100
AcDbLine
 62
7
  6
CONTINUOUS
 10
134.9980255952
 20
135.6765356329
 11
135.1015871791
 21
135.4476519528
  0
LINE
  5
5B5
100
AcDbEntity
  8
0
100
AcDbLine
 62
7
  6
CONTINUOUS
 10
131.6180692531
 20
142.8684046932
 11
131.4730830366
 21
143.1903928012
  0
LINE
  5
5B6
100
AcDbEntity
  8
0
100
AcDbLine
 62
7
  6
CONTINUOUS
 10
133.6545430286
 20
67.1312149117
 11
133.5509807577
 21
66.9023328068
  0
LINE
  5
5B7
100
AcDbEntity
  8
0
100
AcDbLine
 62
7
  6
CONTINUOUS
 10
136.0586813506
 20
145.1479530913
 11
135.9551197672
 21
145.3768367691
  0
SPLINE
  5
5B8
100
AcDbEntity
  8
0
100
AcDbSpline
 62
7
  6
CONTINUOUS
 70
0
 71
3
 72
17
 73
13
 74
0
 42
0.0000001
 43
0.0000001
 44
0.0000000001
 40
0.0
 40
0.0
 40
0.0
 40
0.0
 40
0.042857965
 40
0.0874854797
 40
0.1353180708
 40
0.1872814984
 40
0.3045423159
 40
0.4382097445
 40
0.5825520304
 40
0.7297107838
 40
0.8713099826
 40
1.0
 40
1.0
 40
1.0
 40
1.0
 10
20.71522076
 20
78.8723900514
 30
0.0
 10
20.7682113153
 20
78.9030123713
 30
0.0
 10
20.8850606923
 20
78.9515530616
 30
0.0
 10
21.0779173567
 20
78.9798391479
 30
0.0
 10
21.2850368341
 20
78.9645766952
 30
0.0
 10
21.5859831266
 20
78.8845535134
 30
0.0
 10
21.9706970607
 20
78.6741910732
 30
0.0
 10
22.3957425871
 20
78.2977732132
 30
0.0
 10
22.7714657165
 20
77.8168655611
 30
0.0
 10
23.0671751194
 20
77.2703154373
 30
0.0
 10
23.2590661483
 20
76.7029411713
 30
0.0
 10
23.3104825711
 20
76.3165211211
 30
0.0
 10
23.3104825711
 20
76.1327482993
 30
0.0
  0
SPLINE
  5
5B9
100
AcDbEntity
  8
0
100
AcDbSpline
 62
7
  6
CONTINUOUS
 70
0
 71
3
 72
11
 73
7
 74
0
 42
0.0000001
 43
0.0000001
 44
0.0000000001
 40
0.0
 40
0.0
 40
0.0
 40
0.0
 40
0.2176899422
 40
0.4508856506
 40
0.7106204681
 40
1.0
 40
1.0
 40
1.0
 40
1.0
 10
113.796360759
 20
124.1022512783
 30
0.0
 10
113.7551282063
 20
124.1260147624
 30
0.0
 10
113.6779757135
 20
124.1908523043
 30
0.0
 10
113.5957574223
 20
124.3251797944
 30
0.0
 10
113.5471682749
 20
124.490744673
 30
0.0
 10
113.5374435665
 20
124.6111748684
 30
0.0
 10
113.5374435665
 20
124.6744374517
 30
0.0
  0
SPLINE
  5
5BA
100
AcDbEntity
  8
0
100
AcDbSpline
 62
7
  6
CONTINUOUS
 70
0
 71
3
 72
11
 73
7
 74
0
 42
0.0000001
 43
0.0000001
 44
0.0000000001
 40
0.0
 40
0.0
 40
0.0
 40
0.0
 40
0.2176899422
 40
0.4508856506
 40
0.7106204681
 40
1.0
 40
1.0
 40
1.0
 40
1.0
 10
86.9264149448
 20
108.5889734312
 30
0.0
 10
86.8851823922
 20
108.6127369153
 30
0.0
 10
86.8080298994
 20
108.6775744572
 30
0.0
 10
86.7258116082
 20
108.8119019473
 30
0.0
 10
86.6772224608
 20
108.9774668259
 30
0.0
 10
86.6674977524
 20
109.0978970213
 30
0.0
 10
86.6674977524
 20
109.1611596046
 30
0.0
  0
SPLINE
  5
5BB
100
AcDbEntity
  8
0
100
AcDbSpline
 62
7
  6
CONTINUOUS
 70
0
 71
3
 72
11
 73
7
 74
0
 42
0.0000001
 43
0.0000001
 44
0.0000000001
 40
0.0
 40
0.0
 40
0.0
 40
0.0
 40
0.2176899422
 40
0.4508856506
 40
0.7106204681
 40
1.0
 40
1.0
 40
1.0
 40
1.0
 10
113.796360759
 20
57.1490530737
 30
0.0
 10
113.7551282063
 20
57.1728165578
 30
0.0
 10
113.6779757135
 20
57.2376540997
 30
0.0
 10
113.5957574223
 20
57.3719815898
 30
0.0
 10
113.5471682749
 20
57.5375464684
 30
0.0
 10
113.5374435665
 20
57.6579766638
 30
0.0
 10
113.5374435665
 20
57.721239247
 30
0.0
  0
SPLINE
  5
5BC
100
AcDbEntity
  8
0
100
AcDbSpline
 62
7
  6
CONTINUOUS
 70
0
 71
3
 72
11
 73
7
 74
0
 42
0.0000001
 43
0.0000001
 44
0.0000000001
 40
0.0
 40
0.0
 40
0.0
 40
0.0
 40
0.2176899422
 40
0.4508856506
 40
0.7106204681
 40
1.0
 40
1.0
 40
1.0
 40
1.0
 10
86.9264149448
 20
41.6357752266
 30
0.0
 10
86.8851823922
 20
41.6595387107
 30
0.0
 10
86.8080298994
 20
41.7243762526
 30
0.0
 10
86.7258116082
 20
41.8587037427
 30
0.0
 10
86.6772224608
 20
42.0242686213
 30
0.0
 10
86.6674977524
 20
42.1446988167
 30
0.0
 10
86.6674977524
 20
42.2079613999
 30
0.0
  0
SPLINE
  5
5BD
100
AcDbEntity
  8
0
100
AcDbSpline
 62
7
  6
CONTINUOUS
 70
0
 71
3
 72
9
 73
5
 74
0
 42
0.0000001
 43
0.0000001
 44
0.0000000001
 40
0.0
 40
0.0
 40
0.0
 40
0.0
 40
0.4519687878
 40
1.0
 40
1.0
 40
1.0
 40
1.0
 10
90.4580770161
 20
50.6922323881
 30
0.0
 10
90.4447272356
 20
50.6999397002
 30
0.0
 10
90.420777547
 20
50.7273933763
 30
0.0
 10
90.4151330754
 20
50.7624635204
 30
0.0
 10
90.4151330754
 20
50.7811547427
 30
0.0
  0
SPLINE
  5
5BE
100
AcDbEntity
  8
0
100
AcDbSpline
 62
7
  6
CONTINUOUS
 70
0
 71
3
 72
11
 73
7
 74
0
 42
0.0000001
 43
0.0000001
 44
0.0000000001
 40
0.0
 40
0.0
 40
0.0
 40
0.0
 40
0.217745073
 40
0.4508830112
 40
0.7104597664
 40
1.0
 40
1.0
 40
1.0
 40
1.0
 10
47.8234216175
 20
120.7961456732
 30
0.0
 10
47.7915351636
 20
120.7777361151
 30
0.0
 10
47.7318152642
 20
120.7276448797
 30
0.0
 10
47.6682878159
 20
120.6237279645
 30
0.0
 10
47.6306264524
 20
120.4957081878
 30
0.0
 10
47.623150872
 20
120.4025470698
 30
0.0
 10
47.623150872
 20
120.3535877227
 30
0.0
  0
SPLINE
  5
5BF
100
AcDbEntity
  8
0
100
AcDbSpline
 62
7
  6
CONTINUOUS
 70
0
 71
3
 72
17
 73
13
 74
0
 42
0.0000001
 43
0.0000001
 44
0.0000000001
 40
0.0
 40
0.0
 40
0.0
 40
0.0
 40
0.042857965
 40
0.0874854797
 40
0.1353180708
 40
0.1872814984
 40
0.3045423159
 40
0.4382097445
 40
0.5825520304
 40
0.7297107838
 40
0.8713099826
 40
1.0
 40
1.0
 40
1.0
 40
1.0
 10
79.4053279472
 20
112.758108048
 30
0.0
 10
79.4583185025
 20
112.7887303679
 30
0.0
 10
79.5751678795
 20
112.8372710581
 30
0.0
 10
79.7680245439
 20
112.8655571445
 30
0.0
 10
79.9751440213
 20
112.8502946918
 30
0.0
 10
80.2760903138
 20
112.77027151
 30
0.0
 10
80.6608042479
 20
112.5599090698
 30
0.0
 10
81.0858497743
 20
112.1834912097
 30
0.0
 10
81.4615729037
 20
111.7025835576
 30
0.0
 10
81.7572823066
 20
111.1560334339
 30
0.0
 10
81.9491733355
 20
110.5886591678
 30
0.0
 10
82.0005897583
 20
110.2022391177
 30
0.0
 10
82.0005897583
 20
110.0184662958
 30
0.0
  0
SPLINE
  5
5C0
100
AcDbEntity
  8
0
100
AcDbSpline
 62
7
  6
CONTINUOUS
 70
0
 71
3
 72
9
 73
5
 74
0
 42
0.0000001
 43
0.0000001
 44
0.0000000001
 40
0.0
 40
0.0
 40
0.0
 40
0.0
 40
0.4653007686
 40
1.0
 40
1.0
 40
1.0
 40
1.0
 10
49.7281736018
 20
138.2016641098
 30
0.0
 10
49.777736496
 20
138.2303062192
 30
0.0
 10
49.9028772574
 20
138.2616480736
 30
0.0
 10
50.0263357192
 20
138.235113383
 30
0.0
 10
50.088178182
 20
138.2126919045
 30
0.0
  0
SPLINE
  5
5C1
100
AcDbEntity
  8
0
100
AcDbSpline
 62
7
  6
CONTINUOUS
 70
0
 71
3
 72
9
 73
5
 74
0
 42
0.0000001
 43
0.0000001
 44
0.0000000001
 40
0.0
 40
0.0
 40
0.0
 40
0.0
 40
0.4991058776
 40
1.0
 40
1.0
 40
1.0
 40
1.0
 10
47.1317285269
 20
136.57512411
 30
0.0
 10
47.161047932
 20
136.6325747919
 30
0.0
 10
47.235848649
 20
136.7402923724
 30
0.0
 10
47.3386758955
 20
136.8220871758
 30
0.0
 10
47.3947344729
 20
136.8544524174
 30
0.0
  0
SPLINE
  5
5C2
100
AcDbEntity
  8
0
100
AcDbSpline
 62
7
  6
CONTINUOUS
 70
0
 71
3
 72
11
 73
7
 74
0
 42
0.0000001
 43
0.0000001
 44
0.0000000001
 40
0.0
 40
0.0
 40
0.0
 40
0.0
 40
0.2177755594
 40
0.4508967293
 40
0.7103236743
 40
1.0
 40
1.0
 40
1.0
 40
1.0
 10
50.1516881101
 20
133.3384984404
 30
0.0
 10
50.2259179016
 20
133.3813207021
 30
0.0
 10
50.3964074273
 20
133.4432673856
 30
0.0
 10
50.6796764863
 20
133.4504208632
 30
0.0
 10
50.9815382208
 20
133.377498155
 30
0.0
 10
51.1779527357
 20
133.2840835121
 30
0.0
 10
51.276671023
 20
133.2270897718
 30
0.0
  0
SPLINE
  5
5C3
100
AcDbEntity
  8
0
100
AcDbSpline
 62
7
  6
CONTINUOUS
 70
0
 71
3
 72
9
 73
5
 74
0
 42
0.0000001
 43
0.0000001
 44
0.0000000001
 40
0.0
 40
0.0
 40
0.0
 40
0.0
 40
0.4492318863
 40
1.0
 40
1.0
 40
1.0
 40
1.0
 10
47.6600561919
 20
134.0659656083
 30
0.0
 10
47.6948062771
 20
134.0861138011
 30
0.0
 10
47.7900430451
 20
134.1004385454
 30
0.0
 10
47.8752499084
 20
134.065065123
 30
0.0
 10
47.9178998285
 20
134.0404417372
 30
0.0
  0
SPLINE
  5
5C4
100
AcDbEntity
  8
0
100
AcDbSpline
 62
7
  6
CONTINUOUS
 70
0
 71
3
 72
9
 73
5
 74
0
 42
0.0000001
 43
0.0000001
 44
0.0000000001
 40
0.0
 40
0.0
 40
0.0
 40
0.0
 40
0.2940785234
 40
1.0
 40
1.0
 40
1.0
 40
1.0
 10
136.0586813506
 20
74.5204940081
 30
0.0
 10
136.0586813506
 20
74.5255353234
 30
0.0
 10
136.0574999507
 20
74.5424402336
 30
0.0
 10
136.0484605245
 20
74.5602390483
 30
0.0
 10
136.0379786697
 20
74.5662868165
 30
0.0
  0
SPLINE
  5
5C5
100
AcDbEntity
  8
0
100
AcDbSpline
 62
7
  6
CONTINUOUS
 70
0
 71
3
 72
11
 73
7
 74
0
 42
0.0000001
 43
0.0000001
 44
0.0000000001
 40
0.0
 40
0.0
 40
0.0
 40
0.0
 40
0.2372423294
 40
0.4999983821
 40
0.7627553152
 40
1.0
 40
1.0
 40
1.0
 40
1.0
 10
135.7051294319
 20
68.0293033185
 30
0.0
 10
135.755324369
 20
68.0582832059
 30
0.0
 10
135.8503070899
 20
68.1382309268
 30
0.0
 10
135.9611673291
 20
68.2897271217
 30
0.0
 10
136.0369360992
 20
68.4614839276
 30
0.0
 10
136.0586813506
 20
68.5837159946
 30
0.0
 10
136.0586813506
 20
68.6416766044
 30
0.0
  0
SPLINE
  5
5C6
100
AcDbEntity
  8
0
100
AcDbSpline
 62
7
  6
CONTINUOUS
 70
0
 71
3
 72
8
 73
4
 74
0
 42
0.0000001
 43
0.0000001
 44
0.0000000001
 40
0.0
 40
0.0
 40
0.0
 40
0.0
 40
1.0
 40
1.0
 40
1.0
 40
1.0
 10
134.7490582562
 20
68.4472551506
 30
0.0
 10
134.760752166
 20
68.4563875562
 30
0.0
 10
134.7730448616
 20
68.4648250929
 30
0.0
 10
134.7858944437
 20
68.4722437583
 30
0.0
  0
SPLINE
  5
5C7
100
AcDbEntity
  8
0
100
AcDbSpline
 62
7
  6
CONTINUOUS
 70
0
 71
3
 72
11
 73
7
 74
0
 42
0.0000001
 43
0.0000001
 44
0.0000000001
 40
0.0
 40
0.0
 40
0.0
 40
0.0
 40
0.237337845
 40
0.5001975298
 40
0.7629496694
 40
1.0
 40
1.0
 40
1.0
 40
1.0
 10
131.1230965672
 20
64.9348048727
 30
0.0
 10
131.1935303267
 20
64.9754695799
 30
0.0
 10
131.326767472
 20
65.0877076944
 30
0.0
 10
131.482194385
 20
65.3003775918
 30
0.0
 10
131.5880225602
 20
65.5413878132
 30
0.0
 10
131.6185524287
 20
65.7128533939
 30
0.0
 10
131.6180692533
 20
65.7940832114
 30
0.0
  0
SPLINE
  5
5C8
100
AcDbEntity
  8
0
100
AcDbSpline
 62
7
  6
CONTINUOUS
 70
0
 71
3
 72
9
 73
5
 74
0
 42
0.0000001
 43
0.0000001
 44
0.0000000001
 40
0.0
 40
0.0
 40
0.0
 40
0.0
 40
0.4484825336
 40
1.0
 40
1.0
 40
1.0
 40
1.0
 10
131.680184949
 20
142.7281568141
 30
0.0
 10
131.6596078312
 20
142.740007788
 30
0.0
 10
131.6243956294
 20
142.7850250314
 30
0.0
 10
131.6179427941
 20
142.8392097724
 30
0.0
 10
131.6180796666
 20
142.8684106499
 30
0.0
  0
SPLINE
  5
5C9
100
AcDbEntity
  8
0
100
AcDbSpline
 62
7
  6
CONTINUOUS
 70
0
 71
3
 72
9
 73
5
 74
0
 42
0.0000001
 43
0.0000001
 44
0.0000000001
 40
0.0
 40
0.0
 40
0.0
 40
0.0
 40
0.220660723
 40
1.0
 40
1.0
 40
1.0
 40
1.0
 10
135.8672534143
 20
74.5155281264
 30
0.0
 10
135.8639597917
 20
74.5174308499
 30
0.0
 10
135.8504922066
 20
74.5288023937
 30
0.0
 10
135.8465501998
 20
74.5478870883
 30
0.0
 10
135.8465501998
 20
74.5613212441
 30
0.0
  0
SPLINE
  5
5CA
100
AcDbEntity
  8
0
100
AcDbSpline
 62
7
  6
CONTINUOUS
 70
0
 71
3
 72
11
 73
7
 74
0
 42
0.0000001
 43
0.0000001
 44
0.0000000001
 40
0.0
 40
0.0
 40
0.0
 40
0.0
 40
0.2485866429
 40
0.5112212079
 40
0.767864962
 40
1.0
 40
1.0
 40
1.0
 40
1.0
 10
130.6864026746
 20
123.8758367208
 30
0.0
 10
131.1024963161
 20
123.5373853238
 30
0.0
 10
131.8705263979
 20
122.7308412524
 30
0.0
 10
132.7591738743
 20
121.3211397692
 30
0.0
 10
133.3495989563
 20
119.8007694812
 30
0.0
 10
133.5131210798
 20
118.7451285637
 30
0.0
 10
133.5131210798
 20
118.2442641129
 30
0.0
  0
SPLINE
  5
5CB
100
AcDbEntity
  8
0
100
AcDbSpline
 62
7
  6
CONTINUOUS
 70
0
 71
3
 72
11
 73
7
 74
0
 42
0.0000001
 43
0.0000001
 44
0.0000000001
 40
0.0
 40
0.0
 40
0.0
 40
0.0
 40
0.2897762172
 40
0.5490701576
 40
0.7822260326
 40
1.0
 40
1.0
 40
1.0
 40
1.0
 10
133.5131210798
 20
92.1161867648
 30
0.0
 10
133.5131210798
 20
91.8627804923
 30
0.0
 10
133.4748051956
 20
91.3809760815
 30
0.0
 10
133.2795439356
 20
90.7190402665
 30
0.0
 10
132.9511045568
 20
90.1819080589
 30
0.0
 10
132.6424699225
 20
89.9225089935
 30
0.0
 10
132.477542885
 20
89.8272888866
 30
0.0
  0
SPLINE
  5
5CC
100
AcDbEntity
  8
0
100
AcDbSpline
 62
7
  6
CONTINUOUS
 70
0
 71
3
 72
17
 73
13
 74
0
 42
0.0000001
 43
0.0000001
 44
0.0000000001
 40
0.0
 40
0.0
 40
0.0
 40
0.0
 40
0.128688864
 40
0.2702797703
 40
0.4174318347
 40
0.5617733576
 40
0.6954455149
 40
0.8127096012
 40
0.8646749146
 40
0.9125085807
 40
0.9571389861
 40
1.0
 40
1.0
 40
1.0
 40
1.0
 10
22.3912222644
 20
79.1129160055
 30
0.0
 10
22.3912222644
 20
78.9291449481
 30
0.0
 10
22.442635216
 20
78.5427383819
 30
0.0
 10
22.6345161687
 20
77.9753860397
 30
0.0
 10
22.930204478
 20
77.4288505841
 30
0.0
 10
23.3059176657
 20
76.9479417211
 30
0.0
 10
23.7309613459
 20
76.5715036323
 30
0.0
 10
24.1156849297
 20
76.3611366192
 30
0.0
 10
24.4166346777
 20
76.2810862908
 30
0.0
 10
24.6237623083
 20
76.2658345566
 30
0.0
 10
24.8166323909
 20
76.2941012563
 30
0.0
 10
24.9334862754
 20
76.3426556971
 30
0.0
 10
24.9864807045
 20
76.3732799374
 30
0.0
  0
SPLINE
  5
5CD
100
AcDbEntity
  8
0
100
AcDbSpline
 62
7
  6
CONTINUOUS
 70
0
 71
3
 72
11
 73
7
 74
0
 42
0.0000001
 43
0.0000001
 44
0.0000000001
 40
0.0
 40
0.0
 40
0.0
 40
0.0
 40
0.2372416436
 40
0.49999884
 40
0.7627566637
 40
1.0
 40
1.0
 40
1.0
 40
1.0
 10
131.745346767
 20
76.6434398251
 30
0.0
 10
132.0163898918
 20
76.4869346958
 30
0.0
 10
132.5293046604
 20
76.0552338773
 30
0.0
 10
133.1279492752
 20
75.2371509515
 30
0.0
 10
133.5371127538
 20
74.3096678824
 30
0.0
 10
133.6545241071
 20
73.6496182594
 30
0.0
 10
133.6545430282
 20
73.3366332302
 30
0.0
  0
SPLINE
  5
5CE
100
AcDbEntity
  8
0
100
AcDbSpline
 62
7
  6
CONTINUOUS
 70
0
 71
3
 72
11
 73
7
 74
0
 42
0.0000001
 43
0.0000001
 44
0.0000000001
 40
0.0
 40
0.0
 40
0.0
 40
0.0
 40
0.2896413964
 40
0.5491107671
 40
0.7822355979
 40
1.0
 40
1.0
 40
1.0
 40
1.0
 10
23.3104825711
 20
76.1327482993
 30
0.0
 10
23.3104825711
 20
76.023835285
 30
0.0
 10
23.2939277527
 20
75.8166569523
 30
0.0
 10
23.2100747972
 20
75.5320005819
 30
0.0
 10
23.0688248059
 20
75.3009614567
 30
0.0
 10
22.9360709799
 20
75.189512751
 30
0.0
 10
22.8651725637
 20
75.1485417899
 30
0.0
  0
SPLINE
  5
5CF
100
AcDbEntity
  8
0
100
AcDbSpline
 62
7
  6
CONTINUOUS
 70
0
 71
3
 72
15
 73
11
 74
0
 42
0.0000001
 43
0.0000001
 44
0.0000000001
 40
0.0
 40
0.0
 40
0.0
 40
0.0
 40
0.1287974769
 40
0.2706060703
 40
0.4178807568
 40
0.5623765801
 40
0.6961925898
 40
0.8135912016
 40
0.913066129
 40
1.0
 40
1.0
 40
1.0
 40
1.0
 10
86.6674977524
 20
42.2079613999
 30
0.0
 10
86.6674977524
 20
42.3147775069
 30
0.0
 10
86.6974468988
 20
42.5394458925
 30
0.0
 10
86.8089136387
 20
42.8693186276
 30
0.0
 10
86.9809333209
 20
43.1870581874
 30
0.0
 10
87.1992350402
 20
43.466596989
 30
0.0
 10
87.4465896053
 20
43.6856341108
 30
0.0
 10
87.7045268097
 20
43.8265542563
 30
0.0
 10
87.9570577435
 20
43.8771873218
 30
0.0
 10
88.1138745186
 20
43.8367586665
 30
0.0
 10
88.1763401529
 20
43.800757958
 30
0.0
  0
SPLINE
  5
5D0
100
AcDbEntity
  8
0
100
AcDbSpline
 62
7
  6
CONTINUOUS
 70
0
 71
3
 72
15
 73
11
 74
0
 42
0.0000001
 43
0.0000001
 44
0.0000000001
 40
0.0
 40
0.0
 40
0.0
 40
0.0
 40
0.1287974769
 40
0.2706060703
 40
0.4178807568
 40
0.5623765801
 40
0.6961925898
 40
0.8135912016
 40
0.913066129
 40
1.0
 40
1.0
 40
1.0
 40
1.0
 10
113.5374435665
 20
57.721239247
 30
0.0
 10
113.5374435665
 20
57.828055354
 30
0.0
 10
113.5673927129
 20
58.0527237396
 30
0.0
 10
113.6788594528
 20
58.3825964748
 30
0.0
 10
113.850879135
 20
58.7003360346
 30
0.0
 10
114.0691808543
 20
58.9798748361
 30
0.0
 10
114.3165354194
 20
59.1989119579
 30
0.0
 10
114.5744726239
 20
59.3398321034
 30
0.0
 10
114.8270035576
 20
59.3904651689
 30
0.0
 10
114.9838203327
 20
59.3500365136
 30
0.0
 10
115.046285967
 20
59.3140358051
 30
0.0
  0
SPLINE
  5
5D1
100
AcDbEntity
  8
0
100
AcDbSpline
 62
7
  6
CONTINUOUS
 70
0
 71
3
 72
15
 73
11
 74
0
 42
0.0000001
 43
0.0000001
 44
0.0000000001
 40
0.0
 40
0.0
 40
0.0
 40
0.0
 40
0.1287974769
 40
0.2706060703
 40
0.4178807568
 40
0.5623765801
 40
0.6961925898
 40
0.8135912016
 40
0.913066129
 40
1.0
 40
1.0
 40
1.0
 40
1.0
 10
86.6674977524
 20
109.1611596046
 30
0.0
 10
86.6674977524
 20
109.2679757115
 30
0.0
 10
86.6974468988
 20
109.4926440971
 30
0.0
 10
86.8089136387
 20
109.8225168323
 30
0.0
 10
86.9809333209
 20
110.1402563921
 30
0.0
 10
87.1992350402
 20
110.4197951936
 30
0.0
 10
87.4465896053
 20
110.6388323154
 30
0.0
 10
87.7045268097
 20
110.7797524609
 30
0.0
 10
87.9570577435
 20
110.8303855264
 30
0.0
 10
88.1138745186
 20
110.7899568711
 30
0.0
 10
88.1763401529
 20
110.7539561626
 30
0.0
  0
SPLINE
  5
5D2
100
AcDbEntity
  8
0
100
AcDbSpline
 62
7
  6
CONTINUOUS
 70
0
 71
3
 72
15
 73
11
 74
0
 42
0.0000001
 43
0.0000001
 44
0.0000000001
 40
0.0
 40
0.0
 40
0.0
 40
0.0
 40
0.1287974769
 40
0.2706060703
 40
0.4178807568
 40
0.5623765801
 40
0.6961925898
 40
0.8135912016
 40
0.913066129
 40
1.0
 40
1.0
 40
1.0
 40
1.0
 10
113.5374435665
 20
124.6744374517
 30
0.0
 10
113.5374435665
 20
124.7812535586
 30
0.0
 10
113.5673927129
 20
125.0059219442
 30
0.0
 10
113.6788594528
 20
125.3357946794
 30
0.0
 10
113.850879135
 20
125.6535342392
 30
0.0
 10
114.0691808543
 20
125.9330730407
 30
0.0
 10
114.3165354194
 20
126.1521101625
 30
0.0
 10
114.5744726239
 20
126.2930303081
 30
0.0
 10
114.8270035576
 20
126.3436633735
 30
0.0
 10
114.9838203327
 20
126.3032347182
 30
0.0
 10
115.046285967
 20
126.2672340097
 30
0.0
  0
SPLINE
  5
5D3
100
AcDbEntity
  8
0
100
AcDbSpline
 62
7
  6
CONTINUOUS
 70
0
 71
3
 72
13
 73
9
 74
0
 42
0.0000001
 43
0.0000001
 44
0.0000000001
 40
0.0
 40
0.0
 40
0.0
 40
0.0
 40
0.30555798
 40
0.5830719193
 40
0.7044120205
 40
0.8127439073
 40
0.9097360583
 40
1.0
 40
1.0
 40
1.0
 40
1.0
 10
49.1190687206
 20
129.9163592682
 30
0.0
 10
49.1537944717
 20
129.8597691497
 30
0.0
 10
49.2080266294
 20
129.743982152
 30
0.0
 10
49.2385209006
 20
129.591587602
 30
0.0
 10
49.2318500723
 20
129.4809814756
 30
0.0
 10
49.2128824
 20
129.4118810973
 30
0.0
 10
49.1795921339
 20
129.3558953314
 30
0.0
 10
49.1479030674
 20
129.3288706828
 30
0.0
 10
49.130919868
 20
129.3190592601
 30
0.0
  0
SPLINE
  5
5D4
100
AcDbEntity
  8
0
100
AcDbSpline
 62
7
  6
CONTINUOUS
 70
0
 71
3
 72
9
 73
5
 74
0
 42
0.0000001
 43
0.0000001
 44
0.0000000001
 40
0.0
 40
0.0
 40
0.0
 40
0.0
 40
0.4847462338
 40
1.0
 40
1.0
 40
1.0
 40
1.0
 10
48.188483359
 20
132.3972118625
 30
0.0
 10
48.2493916295
 20
131.971256173
 30
0.0
 10
48.4844317297
 20
131.1070844507
 30
0.0
 10
48.8798004734
 20
130.3061498785
 30
0.0
 10
49.1190687206
 20
129.9163592682
 30
0.0
  0
SPLINE
  5
5D5
100
AcDbEntity
  8
0
100
AcDbSpline
 62
7
  6
CONTINUOUS
 70
0
 71
3
 72
11
 73
7
 74
0
 42
0.0000001
 43
0.0000001
 44
0.0000000001
 40
0.0
 40
0.0
 40
0.0
 40
0.0
 40
0.2895391946
 40
0.5491157946
 40
0.7822541179
 40
1.0
 40
1.0
 40
1.0
 40
1.0
 10
53.9636891562
 20
119.1695432365
 30
0.0
 10
54.006088148
 20
119.145064721
 30
0.0
 10
54.0905037883
 20
119.1049602277
 30
0.0
 10
54.2201994712
 20
119.0735679027
 30
0.0
 10
54.3419547326
 20
119.0766264506
 30
0.0
 10
54.4151931746
 20
119.1032990018
 30
0.0
 10
54.447078894
 20
119.1217081358
 30
0.0
  0
SPLINE
  5
5D6
100
AcDbEntity
  8
0
100
AcDbSpline
 62
7
  6
CONTINUOUS
 70
0
 71
3
 72
11
 73
7
 74
0
 42
0.0000001
 43
0.0000001
 44
0.0000000001
 40
0.0
 40
0.0
 40
0.0
 40
0.0
 40
0.2372539655
 40
0.5000012591
 40
0.7627478694
 40
1.0
 40
1.0
 40
1.0
 40
1.0
 10
47.623150872
 20
120.3535877227
 30
0.0
 10
47.6231508721
 20
120.241506185
 30
0.0
 10
47.6651737716
 20
120.005140399
 30
0.0
 10
47.8117519619
 20
119.6730544952
 30
0.0
 10
48.0260585809
 20
119.3800728329
 30
0.0
 10
48.209746098
 20
119.2254989888
 30
0.0
 10
48.3068113552
 20
119.1694596041
 30
0.0
  0
SPLINE
  5
5D7
100
AcDbEntity
  8
0
100
AcDbSpline
 62
7
  6
CONTINUOUS
 70
0
 71
3
 72
11
 73
7
 74
0
 42
0.0000001
 43
0.0000001
 44
0.0000000001
 40
0.0
 40
0.0
 40
0.0
 40
0.0
 40
0.2896413964
 40
0.5491107671
 40
0.7822355979
 40
1.0
 40
1.0
 40
1.0
 40
1.0
 10
82.0005897583
 20
110.0184662958
 30
0.0
 10
82.0005897583
 20
109.9095532816
 30
0.0
 10
81.9840349399
 20
109.7023749489
 30
0.0
 10
81.9001819844
 20
109.4177185784
 30
0.0
 10
81.7589319931
 20
109.1866794533
 30
0.0
 10
81.6261781671
 20
109.0752307476
 30
0.0
 10
81.5552797509
 20
109.0342597865
 30
0.0
  0
SPLINE
  5
5D8
100
AcDbEntity
  8
0
100
AcDbSpline
 62
7
  6
CONTINUOUS
 70
0
 71
3
 72
9
 73
5
 74
0
 42
0.0000001
 43
0.0000001
 44
0.0000000001
 40
0.0
 40
0.0
 40
0.0
 40
0.0
 40
0.4745478231
 40
1.0
 40
1.0
 40
1.0
 40
1.0
 10
38.9021795889
 20
157.4359916382
 30
0.0
 10
38.9021795889
 20
157.6229983468
 30
0.0
 10
38.9771498827
 20
158.017086517
 30
0.0
 10
39.1464853429
 20
158.3770880133
 30
0.0
 10
39.2557315075
 20
158.5529911694
 30
0.0
  0
SPLINE
  5
5D9
100
AcDbEntity
  8
0
100
AcDbSpline
 62
7
  6
CONTINUOUS
 70
0
 71
3
 72
9
 73
5
 74
0
 42
0.0000001
 43
0.0000001
 44
0.0000000001
 40
0.0
 40
0.0
 40
0.0
 40
0.0
 40
0.5254192129
 40
1.0
 40
1.0
 40
1.0
 40
1.0
 10
39.2557315075
 20
158.5529911694
 30
0.0
 10
39.349656263
 20
158.7042244961
 30
0.0
 10
39.5579512084
 20
158.9747427034
 30
0.0
 10
39.8235774731
 20
159.1927114049
 30
0.0
 10
39.9628353447
 20
159.2731114947
 30
0.0
  0
SPLINE
  5
5DA
100
AcDbEntity
  8
0
100
AcDbSpline
 62
7
  6
CONTINUOUS
 70
0
 71
3
 72
11
 73
7
 74
0
 42
0.0000001
 43
0.0000001
 44
0.0000000001
 40
0.0
 40
0.0
 40
0.0
 40
0.0
 40
0.2897015182
 40
0.5490852068
 40
0.782212885
 40
1.0
 40
1.0
 40
1.0
 40
1.0
 10
133.6545430249
 20
133.5943622764
 30
0.0
 10
133.6545347549
 20
133.457573549
 30
0.0
 10
133.6337875704
 20
133.1974317295
 30
0.0
 10
133.5284117487
 20
132.8400129336
 30
0.0
 10
133.3510064391
 20
132.549995762
 30
0.0
 10
133.1843866901
 20
132.4099230899
 30
0.0
 10
133.0953306898
 20
132.3585069789
 30
0.0
  0
SPLINE
  5
5DB
100
AcDbEntity
  8
0
100
AcDbSpline
 62
7
  6
CONTINUOUS
 70
0
 71
3
 72
11
 73
7
 74
0
 42
0.0000001
 43
0.0000001
 44
0.0000000001
 40
0.0
 40
0.0
 40
0.0
 40
0.0
 40
0.2372431223
 40
0.4999989081
 40
0.7627552881
 40
1.0
 40
1.0
 40
1.0
 40
1.0
 10
133.3009881604
 20
140.4123016029
 30
0.0
 10
133.351181708
 20
140.3833189544
 30
0.0
 10
133.4461671738
 20
140.3033755662
 30
0.0
 10
133.5570265489
 20
140.1518782022
 30
0.0
 10
133.6327983623
 20
139.9801224712
 30
0.0
 10
133.6545395208
 20
139.8578906147
 30
0.0
 10
133.6545430246
 20
139.7999300148
 30
0.0
  0
SPLINE
  5
5DC
100
AcDbEntity
  8
0
100
AcDbSpline
 62
7
  6
CONTINUOUS
 70
0
 71
3
 72
9
 73
5
 74
0
 42
0.0000001
 43
0.0000001
 44
0.0000000001
 40
0.0
 40
0.0
 40
0.0
 40
0.0
 40
0.4995467715
 40
1.0
 40
1.0
 40
1.0
 40
1.0
 10
135.9879709672
 20
139.1466610296
 30
0.0
 10
136.0089406208
 20
139.1587677926
 30
0.0
 10
136.0421246669
 20
139.1970147013
 30
0.0
 10
136.0586813505
 20
139.2448781131
 30
0.0
 10
136.0586813506
 20
139.2691356844
 30
0.0
  0
SPLINE
  5
5DD
100
AcDbEntity
  8
0
100
AcDbSpline
 62
7
  6
CONTINUOUS
 70
0
 71
3
 72
9
 73
5
 74
0
 42
0.0000001
 43
0.0000001
 44
0.0000000001
 40
0.0
 40
0.0
 40
0.0
 40
0.0
 40
0.4995501188
 40
1.0
 40
1.0
 40
1.0
 40
1.0
 10
135.8465501993
 20
138.9833619554
 30
0.0
 10
135.8465501993
 20
139.0075757527
 30
0.0
 10
135.8630806156
 20
139.0554374441
 30
0.0
 10
135.8962530203
 20
139.0937079642
 30
0.0
 10
135.9172605848
 20
139.1058366149
 30
0.0
  0
SPLINE
  5
5DE
100
AcDbEntity
  8
0
100
AcDbSpline
 62
7
  6
CONTINUOUS
 70
0
 71
3
 72
11
 73
7
 74
0
 42
0.0000001
 43
0.0000001
 44
0.0000000001
 40
0.0
 40
0.0
 40
0.0
 40
0.0
 40
0.2372423295
 40
0.499998382
 40
0.762755315
 40
1.0
 40
1.0
 40
1.0
 40
1.0
 10
135.4929982817
 20
135.5540553327
 30
0.0
 10
135.5431932186
 20
135.5830352201
 30
0.0
 10
135.6381759391
 20
135.6629829408
 30
0.0
 10
135.7490361777
 20
135.8144791354
 30
0.0
 10
135.8248049476
 20
135.9862359405
 30
0.0
 10
135.8465501992
 20
136.1084680071
 30
0.0
 10
135.8465501993
 20
136.1664286168
 30
0.0
  0
SPLINE
  5
5DF
100
AcDbEntity
  8
0
100
AcDbSpline
 62
7
  6
CONTINUOUS
 70
0
 71
3
 72
11
 73
7
 74
0
 42
0.0000001
 43
0.0000001
 44
0.0000000001
 40
0.0
 40
0.0
 40
0.0
 40
0.0
 40
0.2372446849
 40
0.5000016178
 40
0.7627576704
 40
1.0
 40
1.0
 40
1.0
 40
1.0
 10
91.7088594856
 20
157.3216461009
 30
0.0
 10
91.7088594857
 20
157.3796067105
 30
0.0
 10
91.7306047372
 20
157.5018387768
 30
0.0
 10
91.8063735067
 20
157.6735955816
 30
0.0
 10
91.9172337446
 20
157.8250917765
 30
0.0
 10
92.0122164653
 20
157.9050394964
 30
0.0
 10
92.0624114018
 20
157.9340193844
 30
0.0
  0
SPLINE
  5
5E0
100
AcDbEntity
  8
0
100
AcDbSpline
 62
7
  6
CONTINUOUS
 70
0
 71
3
 72
11
 73
7
 74
0
 42
0.0000001
 43
0.0000001
 44
0.0000000001
 40
0.0
 40
0.0
 40
0.0
 40
0.0
 40
0.237244685
 40
0.5000016181
 40
0.7627576707
 40
1.0
 40
1.0
 40
1.0
 40
1.0
 10
102.6689689611
 20
163.2003541552
 30
0.0
 10
102.6689689613
 20
163.2583147652
 30
0.0
 10
102.690714213
 20
163.3805468323
 30
0.0
 10
102.7664829834
 20
163.5523036382
 30
0.0
 10
102.8773432228
 20
163.7037998332
 30
0.0
 10
102.9723259439
 20
163.7837475539
 30
0.0
 10
103.0225208809
 20
163.8127274415
 30
0.0
  0
SPLINE
  5
5E1
100
AcDbEntity
  8
0
100
AcDbSpline
 62
7
  6
CONTINUOUS
 70
0
 71
3
 72
11
 73
7
 74
0
 42
0.0000001
 43
0.0000001
 44
0.0000000001
 40
0.0
 40
0.0
 40
0.0
 40
0.0
 40
0.2372423295
 40
0.4999983821
 40
0.7627553151
 40
1.0
 40
1.0
 40
1.0
 40
1.0
 10
102.4568378097
 20
162.5124742776
 30
0.0
 10
102.486954772
 20
162.5298622101
 30
0.0
 10
102.5439444046
 20
162.5778308428
 30
0.0
 10
102.6104605482
 20
162.66872856
 30
0.0
 10
102.6559218102
 20
162.7717826438
 30
0.0
 10
102.668968961
 20
162.8451218841
 30
0.0
 10
102.6689689611
 20
162.8798982501
 30
0.0
  0
SPLINE
  5
5E2
100
AcDbEntity
  8
0
100
AcDbSpline
 62
7
  6
CONTINUOUS
 70
0
 71
3
 72
14
 73
10
 74
0
 42
0.0000001
 43
0.0000001
 44
0.0000000001
 40
0.0
 40
0.0
 40
0.0
 40
0.0
 40
0.1195934496
 40
0.249975293
 40
0.5245885268
 40
0.6592930685
 40
0.7855323716
 40
0.8996933535
 40
1.0
 40
1.0
 40
1.0
 40
1.0
 10
51.276671023
 20
133.2270897718
 30
0.0
 10
51.4102820417
 20
133.1499511593
 30
0.0
 10
51.6725696408
 20
132.958425148
 30
0.0
 10
52.1474041069
 20
132.4736837881
 30
0.0
 10
52.523326021
 20
131.8746543245
 30
0.0
 10
52.7653083466
 20
131.2257790708
 30
0.0
 10
52.8645119645
 20
130.749752006
 30
0.0
 10
52.8768242348
 20
130.307928254
 30
0.0
 10
52.8217860365
 20
130.0328551927
 30
0.0
 10
52.7766772681
 20
129.9115731028
 30
0.0
  0
SPLINE
  5
5E3
100
AcDbEntity
  8
0
100
AcDbSpline
 62
7
  6
CONTINUOUS
 70
0
 71
3
 72
9
 73
5
 74
0
 42
0.0000001
 43
0.0000001
 44
0.0000000001
 40
0.0
 40
0.0
 40
0.0
 40
0.0
 40
0.2424463176
 40
1.0
 40
1.0
 40
1.0
 40
1.0
 10
48.2825622271
 20
133.1185697274
 30
0.0
 10
48.2825622271
 20
133.066705066
 30
0.0
 10
48.2867327075
 20
132.8527916451
 30
0.0
 10
48.3069645157
 20
132.6392864886
 30
0.0
 10
48.3299041265
 20
132.4788606933
 30
0.0
  0
SPLINE
  5
5E4
100
AcDbEntity
  8
0
100
AcDbSpline
 62
7
  6
CONTINUOUS
 70
0
 71
3
 72
11
 73
7
 74
0
 42
0.0000001
 43
0.0000001
 44
0.0000000001
 40
0.0
 40
0.0
 40
0.0
 40
0.0
 40
0.2372428335
 40
0.4999989084
 40
0.7627555773
 40
1.0
 40
1.0
 40
1.0
 40
1.0
 10
47.9178998285
 20
134.0404417372
 30
0.0
 10
47.9696720813
 20
134.0105516893
 30
0.0
 10
48.0676396155
 20
133.9280928449
 30
0.0
 10
48.1819837463
 20
133.771837634
 30
0.0
 10
48.2601336267
 20
133.5946850917
 30
0.0
 10
48.2825622271
 20
133.4686129497
 30
0.0
 10
48.2825622271
 20
133.4088314392
 30
0.0
  0
SPLINE
  5
5E5
100
AcDbEntity
  8
0
100
AcDbSpline
 62
7
  6
CONTINUOUS
 70
0
 71
3
 72
9
 73
5
 74
0
 42
0.0000001
 43
0.0000001
 44
0.0000000001
 40
0.0
 40
0.0
 40
0.0
 40
0.0
 40
0.47969358
 40
1.0
 40
1.0
 40
1.0
 40
1.0
 10
54.6354422174
 20
130.1621545692
 30
0.0
 10
54.7127276101
 20
130.1175348364
 30
0.0
 10
54.8495240809
 20
129.9834688904
 30
0.0
 10
54.9377449924
 20
129.8160664134
 30
0.0
 10
54.9673393984
 20
129.7239049704
 30
0.0
  0
SPLINE
  5
5E6
100
AcDbEntity
  8
0
100
AcDbSpline
 62
7
  6
CONTINUOUS
 70
0
 71
3
 72
9
 73
5
 74
0
 42
0.0000001
 43
0.0000001
 44
0.0000000001
 40
0.0
 40
0.0
 40
0.0
 40
0.0
 40
0.4902777443
 40
1.0
 40
1.0
 40
1.0
 40
1.0
 10
57.8391530268
 20
133.7377657277
 30
0.0
 10
57.9546183829
 20
133.6463037216
 30
0.0
 10
58.1567025051
 20
133.4170491755
 30
0.0
 10
58.2917696781
 20
133.1441519347
 30
0.0
 10
58.3385913324
 20
132.9983422424
 30
0.0
  0
SPLINE
  5
5E7
100
AcDbEntity
  8
0
100
AcDbSpline
 62
7
  6
CONTINUOUS
 70
0
 71
3
 72
9
 73
5
 74
0
 42
0.0000001
 43
0.0000001
 44
0.0000000001
 40
0.0
 40
0.0
 40
0.0
 40
0.0
 40
0.2422259787
 40
1.0
 40
1.0
 40
1.0
 40
1.0
 10
53.9636656044
 20
136.3878771217
 30
0.0
 10
54.2921271284
 20
136.1982440625
 30
0.0
 10
55.6323128528
 20
135.3880877182
 30
0.0
 10
56.9090805585
 20
134.4744914151
 30
0.0
 10
57.8391530268
 20
133.7377657277
 30
0.0
  0
SPLINE
  5
5E8
100
AcDbEntity
  8
0
100
AcDbSpline
 62
7
  6
CONTINUOUS
 70
0
 71
3
 72
9
 73
5
 74
0
 42
0.0000001
 43
0.0000001
 44
0.0000000001
 40
0.0
 40
0.0
 40
0.0
 40
0.0
 40
0.2407827688
 40
1.0
 40
1.0
 40
1.0
 40
1.0
 10
50.088178182
 20
138.2126919045
 30
0.0
 10
50.4116364185
 20
138.0954195391
 30
0.0
 10
51.7429519479
 20
137.575355846
 30
0.0
 10
53.024138508
 20
136.9303010724
 30
0.0
 10
53.9636656044
 20
136.3878771217
 30
0.0
  0
SPLINE
  5
5E9
100
AcDbEntity
  8
0
100
AcDbSpline
 62
7
  6
CONTINUOUS
 70
0
 71
3
 72
17
 73
13
 74
0
 42
0.0000001
 43
0.0000001
 44
0.0000000001
 40
0.0
 40
0.0
 40
0.0
 40
0.0
 40
0.128688864
 40
0.2702797703
 40
0.4174318347
 40
0.5617733576
 40
0.6954455149
 40
0.8127096012
 40
0.8646749146
 40
0.9125085807
 40
0.9571389861
 40
1.0
 40
1.0
 40
1.0
 40
1.0
 10
81.0813294516
 20
112.998634002
 30
0.0
 10
81.0813294516
 20
112.8148629447
 30
0.0
 10
81.1327424032
 20
112.4284563784
 30
0.0
 10
81.3246233559
 20
111.8611040362
 30
0.0
 10
81.6203116652
 20
111.3145685807
 30
0.0
 10
81.9960248529
 20
110.8336597177
 30
0.0
 10
82.4210685331
 20
110.4572216289
 30
0.0
 10
82.8057921169
 20
110.2468546158
 30
0.0
 10
83.1067418649
 20
110.1668042873
 30
0.0
 10
83.3138694955
 20
110.1515525532
 30
0.0
 10
83.5067395781
 20
110.1798192528
 30
0.0
 10
83.6235934626
 20
110.2283736936
 30
0.0
 10
83.6765878917
 20
110.258997934
 30
0.0
  0
SPLINE
  5
5EA
100
AcDbEntity
  8
0
100
AcDbSpline
 62
7
  6
CONTINUOUS
 70
0
 71
3
 72
11
 73
7
 74
0
 42
0.0000001
 43
0.0000001
 44
0.0000000001
 40
0.0
 40
0.0
 40
0.0
 40
0.0
 40
0.2371787254
 40
0.5000015559
 40
0.7628235734
 40
1.0
 40
1.0
 40
1.0
 40
1.0
 10
90.4151330754
 20
65.8047992476
 30
0.0
 10
90.4151330796
 20
65.8279076182
 30
0.0
 10
90.4249677044
 20
65.8765401461
 30
0.0
 10
90.4559311753
 20
65.944544122
 30
0.0
 10
90.4993421683
 20
66.0053612939
 30
0.0
 10
90.536541571
 20
66.0381945105
 30
0.0
 10
90.5565538429
 20
66.0497485321
 30
0.0
  0
SPLINE
  5
5EB
100
AcDbEntity
  8
0
100
AcDbSpline
 62
7
  6
CONTINUOUS
 70
0
 71
3
 72
11
 73
7
 74
0
 42
0.0000001
 43
0.0000001
 44
0.0000000001
 40
0.0
 40
0.0
 40
0.0
 40
0.0
 40
0.2371764323
 40
0.4999984563
 40
0.7628212867
 40
1.0
 40
1.0
 40
1.0
 40
1.0
 10
91.6172095987
 20
66.6621147629
 30
0.0
 10
91.637221873
 20
66.6736687859
 30
0.0
 10
91.6744212797
 20
66.7065020074
 30
0.0
 10
91.7178322754
 20
66.767319188
 30
0.0
 10
91.7487957455
 20
66.8353231718
 30
0.0
 10
91.7586303661
 20
66.8839557049
 30
0.0
 10
91.7586303661
 20
66.9070640766
 30
0.0
  0
SPLINE
  5
5EC
100
AcDbEntity
  8
0
100
AcDbSpline
 62
7
  6
CONTINUOUS
 70
0
 71
3
 72
11
 73
7
 74
0
 42
0.0000001
 43
0.0000001
 44
0.0000000001
 40
0.0
 40
0.0
 40
0.0
 40
0.0
 40
0.2371787141
 40
0.5000015443
 40
0.7628235679
 40
1.0
 40
1.0
 40
1.0
 40
1.0
 10
91.7586303661
 20
67.1316022415
 30
0.0
 10
91.7586303661
 20
67.1547106133
 30
0.0
 10
91.7684649866
 20
67.2033431467
 30
0.0
 10
91.7994284567
 20
67.2713471307
 30
0.0
 10
91.8428394524
 20
67.3321643114
 30
0.0
 10
91.8800388592
 20
67.364997533
 30
0.0
 10
91.9000511336
 20
67.376551556
 30
0.0
  0
SPLINE
  5
5ED
100
AcDbEntity
  8
0
100
AcDbSpline
 62
7
  6
CONTINUOUS
 70
0
 71
3
 72
9
 73
5
 74
0
 42
0.0000001
 43
0.0000001
 44
0.0000000001
 40
0.0
 40
0.0
 40
0.0
 40
0.0
 40
0.5480292196
 40
1.0
 40
1.0
 40
1.0
 40
1.0
 10
92.9607068894
 20
67.9889177868
 30
0.0
 10
92.9768932247
 20
67.9982629161
 30
0.0
 10
93.0100856563
 20
68.010909084
 30
0.0
 10
93.0458344568
 20
68.0038954997
 30
0.0
 10
93.059183716
 20
67.9961884886
 30
0.0
  0
SPLINE
  5
5EE
100
AcDbEntity
  8
0
100
AcDbSpline
 62
7
  6
CONTINUOUS
 70
0
 71
3
 72
11
 73
7
 74
0
 42
0.0000001
 43
0.0000001
 44
0.0000000001
 40
0.0
 40
0.0
 40
0.0
 40
0.0
 40
0.252297581
 40
0.5146995171
 40
0.7693266243
 40
1.0
 40
1.0
 40
1.0
 40
1.0
 10
49.6710284743
 20
119.3891455773
 30
0.0
 10
49.6498711025
 20
119.4864418716
 30
0.0
 10
49.5841819682
 20
119.6803725967
 30
0.0
 10
49.4347169491
 20
119.9464850078
 30
0.0
 10
49.2448036199
 20
120.1744424814
 30
0.0
 10
49.0927610377
 20
120.2945525772
 30
0.0
 10
49.0139210802
 20
120.3400698185
 30
0.0
  0
SPLINE
  5
5EF
100
AcDbEntity
  8
0
100
AcDbSpline
 62
7
  6
CONTINUOUS
 70
0
 71
3
 72
11
 73
7
 74
0
 42
0.0000001
 43
0.0000001
 44
0.0000000001
 40
0.0
 40
0.0
 40
0.0
 40
0.0
 40
0.2895321695
 40
0.549164435
 40
0.7823190006
 40
1.0
 40
1.0
 40
1.0
 40
1.0
 10
53.2565794308
 20
121.15663496
 30
0.0
 10
53.2141814723
 20
121.1811128789
 30
0.0
 10
53.129756976
 20
121.2212136634
 30
0.0
 10
53.0000467263
 20
121.2526166912
 30
0.0
 10
52.878299123
 20
121.2495150509
 30
0.0
 10
52.8050503411
 20
121.2229006916
 30
0.0
 10
52.7731730942
 20
121.2044988327
 30
0.0
  0
SPLINE
  5
5F0
100
AcDbEntity
  8
0
100
AcDbSpline
 62
7
  6
CONTINUOUS
 70
0
 71
3
 72
11
 73
7
 74
0
 42
0.0000001
 43
0.0000001
 44
0.0000000001
 40
0.0
 40
0.0
 40
0.0
 40
0.0
 40
0.2372539656
 40
0.5000012594
 40
0.7627478696
 40
1.0
 40
1.0
 40
1.0
 40
1.0
 10
54.6473496394
 20
119.5642660873
 30
0.0
 10
54.6473496394
 20
119.6763476252
 30
0.0
 10
54.6053267395
 20
119.9127134119
 30
0.0
 10
54.4587485483
 20
120.2447993163
 30
0.0
 10
54.2444419281
 20
120.5377809787
 30
0.0
 10
54.0607544103
 20
120.6923548226
 30
0.0
 10
53.963689153
 20
120.7483942072
 30
0.0
  0
SPLINE
  5
5F1
100
AcDbEntity
  8
0
100
AcDbSpline
 62
7
  6
CONTINUOUS
 70
0
 71
3
 72
11
 73
7
 74
0
 42
0.0000001
 43
0.0000001
 44
0.0000000001
 40
0.0
 40
0.0
 40
0.0
 40
0.0
 40
0.2895391945
 40
0.5491157945
 40
0.7822541178
 40
1.0
 40
1.0
 40
1.0
 40
1.0
 10
48.3068113547
 20
120.7483105732
 30
0.0
 10
48.264412363
 20
120.7727890887
 30
0.0
 10
48.1799967228
 20
120.8128935817
 30
0.0
 10
48.05030104
 20
120.8442859064
 30
0.0
 10
47.9285457788
 20
120.8412273583
 30
0.0
 10
47.8553073369
 20
120.8145548072
 30
0.0
 10
47.8234216175
 20
120.7961456732
 30
0.0
  0
SPLINE
  5
5F2
100
AcDbEntity
  8
0
100
AcDbSpline
 62
7
  6
CONTINUOUS
 70
0
 71
3
 72
10
 73
6
 74
0
 42
0.0000001
 43
0.0000001
 44
0.0000000001
 40
0.0
 40
0.0
 40
0.0
 40
0.0
 40
0.2289293685
 40
0.4690723675
 40
1.0
 40
1.0
 40
1.0
 40
1.0
 10
47.131725312
 20
136.5751257501
 30
0.0
 10
47.1155951929
 20
136.5434983561
 30
0.0
 10
47.09451894
 20
136.4718833255
 30
0.0
 10
47.1044684478
 20
136.3147571045
 30
0.0
 10
47.1682272137
 20
136.2047172781
 30
0.0
 10
47.2235329599
 20
136.1437186856
 30
0.0
  0
SPLINE
  5
5F3
100
AcDbEntity
  8
0
100
AcDbSpline
 62
7
  6
CONTINUOUS
 70
0
 71
3
 72
17
 73
13
 74
0
 42
0.0000001
 43
0.0000001
 44
0.0000000001
 40
0.0
 40
0.0
 40
0.0
 40
0.0
 40
0.042857965
 40
0.0874854797
 40
0.1353180708
 40
0.1872814984
 40
0.3045423159
 40
0.4382097446
 40
0.5825520305
 40
0.7297107839
 40
0.8713099826
 40
1.0
 40
1.0
 40
1.0
 40
1.0
 10
22.8651725637
 20
75.1485417899
 30
0.0
 10
22.8121820083
 20
75.11791947
 30
0.0
 10
22.6953326313
 20
75.0693787798
 30
0.0
 10
22.5024759669
 20
75.0410926935
 30
0.0
 10
22.2953564894
 20
75.0563551462
 30
0.0
 10
21.9944101967
 20
75.1363783281
 30
0.0
 10
21.6096962625
 20
75.3467407686
 30
0.0
 10
21.184650736
 20
75.723158629
 30
0.0
 10
20.8089276067
 20
76.2040662814
 30
0.0
 10
20.5132182039
 20
76.7506164055
 30
0.0
 10
20.3213271754
 20
77.3179906718
 30
0.0
 10
20.2699107527
 20
77.704410722
 30
0.0
 10
20.2699107527
 20
77.8881835439
 30
0.0
  0
SPLINE
  5
5F4
100
AcDbEntity
  8
0
100
AcDbSpline
 62
7
  6
CONTINUOUS
 70
0
 71
3
 72
11
 73
7
 74
0
 42
0.0000001
 43
0.0000001
 44
0.0000000001
 40
0.0
 40
0.0
 40
0.0
 40
0.0
 40
0.2176899422
 40
0.4508856506
 40
0.7106204681
 40
1.0
 40
1.0
 40
1.0
 40
1.0
 10
88.1763401529
 20
110.7539561626
 30
0.0
 10
88.2175727055
 20
110.7301926785
 30
0.0
 10
88.2947251984
 20
110.6653551366
 30
0.0
 10
88.3769434896
 20
110.5310276465
 30
0.0
 10
88.4255326369
 20
110.3654627679
 30
0.0
 10
88.4352573454
 20
110.2450325725
 30
0.0
 10
88.4352573454
 20
110.1817699892
 30
0.0
  0
SPLINE
  5
5F5
100
AcDbEntity
  8
0
100
AcDbSpline
 62
7
  6
CONTINUOUS
 70
0
 71
3
 72
9
 73
5
 74
0
 42
0.0000001
 43
0.0000001
 44
0.0000000001
 40
0.0
 40
0.0
 40
0.0
 40
0.0
 40
0.2330666898
 40
1.0
 40
1.0
 40
1.0
 40
1.0
 10
113.6327426404
 20
57.3851261116
 30
0.0
 10
113.656867894
 20
57.3892486431
 30
0.0
 10
113.7593941642
 20
57.4126818235
 30
0.0
 10
113.8565987628
 20
57.4564162797
 30
0.0
 10
113.9263465554
 20
57.4966849461
 30
0.0
  0
SPLINE
  5
5F6
100
AcDbEntity
  8
0
100
AcDbSpline
 62
7
  6
CONTINUOUS
 70
0
 71
3
 72
11
 73
7
 74
0
 42
0.0000001
 43
0.0000001
 44
0.0000000001
 40
0.0
 40
0.0
 40
0.0
 40
0.0
 40
0.2176899422
 40
0.4508856506
 40
0.7106204681
 40
1.0
 40
1.0
 40
1.0
 40
1.0
 10
115.046285967
 20
126.2672340097
 30
0.0
 10
115.0875185196
 20
126.2434705256
 30
0.0
 10
115.1646710125
 20
126.1786329837
 30
0.0
 10
115.2468893037
 20
126.0443054936
 30
0.0
 10
115.295478451
 20
125.878740615
 30
0.0
 10
115.3052031595
 20
125.7583104196
 30
0.0
 10
115.3052031595
 20
125.6950478363
 30
0.0
  0
SPLINE
  5
5F7
100
AcDbEntity
  8
0
100
AcDbSpline
 62
7
  6
CONTINUOUS
 70
0
 71
3
 72
11
 73
7
 74
0
 42
0.0000001
 43
0.0000001
 44
0.0000000001
 40
0.0
 40
0.0
 40
0.0
 40
0.0
 40
0.2176899422
 40
0.4508856506
 40
0.7106204681
 40
1.0
 40
1.0
 40
1.0
 40
1.0
 10
115.046285967
 20
59.3140358051
 30
0.0
 10
115.0875185196
 20
59.290272321
 30
0.0
 10
115.1646710125
 20
59.2254347791
 30
0.0
 10
115.2468893037
 20
59.091107289
 30
0.0
 10
115.295478451
 20
58.9255424104
 30
0.0
 10
115.3052031595
 20
58.805112215
 30
0.0
 10
115.3052031595
 20
58.7418496317
 30
0.0
  0
SPLINE
  5
5F8
100
AcDbEntity
  8
0
100
AcDbSpline
 62
7
  6
CONTINUOUS
 70
0
 71
3
 72
11
 73
7
 74
0
 42
0.0000001
 43
0.0000001
 44
0.0000000001
 40
0.0
 40
0.0
 40
0.0
 40
0.0
 40
0.2896413964
 40
0.549110767
 40
0.7822355978
 40
1.0
 40
1.0
 40
1.0
 40
1.0
 10
78.9600179399
 20
111.7739015404
 30
0.0
 10
78.9600179399
 20
111.8828145545
 30
0.0
 10
78.9765727584
 20
112.0899928869
 30
0.0
 10
79.060425714
 20
112.3746492568
 30
0.0
 10
79.2016757053
 20
112.6056883815
 30
0.0
 10
79.3344295311
 20
112.717137087
 30
0.0
 10
79.4053279472
 20
112.758108048
 30
0.0
  0
SPLINE
  5
5F9
100
AcDbEntity
  8
0
100
AcDbSpline
 62
7
  6
CONTINUOUS
 70
0
 71
3
 72
11
 73
7
 74
0
 42
0.0000001
 43
0.0000001
 44
0.0000000001
 40
0.0
 40
0.0
 40
0.0
 40
0.0
 40
0.2372518718
 40
0.4999985497
 40
0.7627460178
 40
1.0
 40
1.0
 40
1.0
 40
1.0
 10
113.9263465554
 20
124.4498831508
 30
0.0
 10
114.0518390136
 20
124.5223358228
 30
0.0
 10
114.2893221806
 20
124.72218196
 30
0.0
 10
114.5663912364
 20
125.1009718574
 30
0.0
 10
114.7558965559
 20
125.5303178699
 30
0.0
 10
114.8102263519
 20
125.8359090828
 30
0.0
 10
114.8102263519
 20
125.9808163645
 30
0.0
  0
SPLINE
  5
5FA
100
AcDbEntity
  8
0
100
AcDbSpline
 62
7
  6
CONTINUOUS
 70
0
 71
3
 72
9
 73
5
 74
0
 42
0.0000001
 43
0.0000001
 44
0.0000000001
 40
0.0
 40
0.0
 40
0.0
 40
0.0
 40
0.2702402972
 40
1.0
 40
1.0
 40
1.0
 40
1.0
 10
114.8102263519
 20
125.9808163645
 30
0.0
 10
114.8102263519
 20
126.0125385157
 30
0.0
 10
114.8054069682
 20
126.1297084412
 30
0.0
 10
114.7803340264
 20
126.2472695026
 30
0.0
 10
114.745981507
 20
126.3257425823
 30
0.0
  0
SPLINE
  5
5FB
100
AcDbEntity
  8
0
100
AcDbSpline
 62
7
  6
CONTINUOUS
 70
0
 71
3
 72
9
 73
5
 74
0
 42
0.0000001
 43
0.0000001
 44
0.0000000001
 40
0.0
 40
0.0
 40
0.0
 40
0.0
 40
0.2702402972
 40
1.0
 40
1.0
 40
1.0
 40
1.0
 10
87.9402805378
 20
110.4675385174
 30
0.0
 10
87.9402805378
 20
110.4992606686
 30
0.0
 10
87.9354611541
 20
110.6164305941
 30
0.0
 10
87.9103882123
 20
110.7339916555
 30
0.0
 10
87.8760356928
 20
110.8124647351
 30
0.0
  0
SPLINE
  5
5FC
100
AcDbEntity
  8
0
100
AcDbSpline
 62
7
  6
CONTINUOUS
 70
0
 71
3
 72
11
 73
7
 74
0
 42
0.0000001
 43
0.0000001
 44
0.0000000001
 40
0.0
 40
0.0
 40
0.0
 40
0.0
 40
0.2372428732
 40
0.4999994739
 40
0.7627563609
 40
1.0
 40
1.0
 40
1.0
 40
1.0
 10
41.5891930117
 20
146.7398391939
 30
0.0
 10
41.5289590203
 20
146.7050632903
 30
0.0
 10
41.3888851216
 20
146.6543232538
 30
0.0
 10
41.16492961
 20
146.6300109533
 30
0.0
 10
40.9409737605
 20
146.6543222318
 30
0.0
 10
40.800899311
 20
146.7050615728
 30
0.0
 10
40.7406648743
 20
146.7398371543
 30
0.0
  0
SPLINE
  5
5FD
100
AcDbEntity
  8
0
100
AcDbSpline
 62
7
  6
CONTINUOUS
 70
0
 71
3
 72
9
 73
5
 74
0
 42
0.0000001
 43
0.0000001
 44
0.0000000001
 40
0.0
 40
0.0
 40
0.0
 40
0.0
 40
0.2647098316
 40
1.0
 40
1.0
 40
1.0
 40
1.0
 10
50.3572717613
 20
163.8862762123
 30
0.0
 10
50.4643000995
 20
163.9017251059
 30
0.0
 10
50.8705069983
 20
163.9334168737
 30
0.0
 10
51.2970383687
 20
163.8510109267
 30
0.0
 10
51.5571700585
 20
163.7008201563
 30
0.0
  0
SPLINE
  5
5FE
100
AcDbEntity
  8
0
100
AcDbSpline
 62
7
  6
CONTINUOUS
 70
0
 71
3
 72
13
 73
9
 74
0
 42
0.0000001
 43
0.0000001
 44
0.0000000001
 40
0.0
 40
0.0
 40
0.0
 40
0.0
 40
0.3773590678
 40
0.663221694
 40
0.7715717579
 40
0.8588763184
 40
0.9309771555
 40
1.0
 40
1.0
 40
1.0
 40
1.0
 10
38.3364064338
 20
170.8263690392
 30
0.0
 10
38.3606581355
 20
170.8823738477
 30
0.0
 10
38.4069971958
 20
170.979144674
 30
0.0
 10
38.4748095453
 20
171.0850600188
 30
0.0
 10
38.5298433899
 20
171.1406394472
 30
0.0
 10
38.5665172853
 20
171.1645950159
 30
0.0
 10
38.6037092204
 20
171.173133366
 30
0.0
 10
38.6266319021
 20
171.1660886696
 30
0.0
 10
38.6363047363
 20
171.160516426
 30
0.0
  0
SPLINE
  5
5FF
100
AcDbEntity
  8
0
100
AcDbSpline
 62
7
  6
CONTINUOUS
 70
0
 71
3
 72
13
 73
9
 74
0
 42
0.0000001
 43
0.0000001
 44
0.0000000001
 40
0.0
 40
0.0
 40
0.0
 40
0.0
 40
0.3773254974
 40
0.6631924661
 40
0.7715576224
 40
0.8588811815
 40
0.9309930819
 40
1.0
 40
1.0
 40
1.0
 40
1.0
 10
38.3364064338
 20
170.8263690392
 30
0.0
 10
38.3121596131
 20
170.8823605944
 30
0.0
 10
38.2658286484
 20
170.9791134095
 30
0.0
 10
38.1980309923
 20
171.0850127145
 30
0.0
 10
38.143010356
 20
171.1405979072
 30
0.0
 10
38.1063448329
 20
171.1645661384
 30
0.0
 10
38.0691646643
 20
171.1731316888
 30
0.0
 10
38.0462387967
 20
171.166113857
 30
0.0
 10
38.036564211
 20
171.1605530017
 30
0.0
  0
SPLINE
  5
600
100
AcDbEntity
  8
0
100
AcDbSpline
 62
7
  6
CONTINUOUS
 70
0
 71
3
 72
9
 73
5
 74
0
 42
0.0000001
 43
0.0000001
 44
0.0000000001
 40
0.0
 40
0.0
 40
0.0
 40
0.0
 40
0.2647096856
 40
1.0
 40
1.0
 40
1.0
 40
1.0
 10
29.14405655
 20
165.5191950388
 30
0.0
 10
29.0370274246
 20
165.5346434993
 30
0.0
 10
28.6308174401
 20
165.5663333416
 30
0.0
 10
28.2042833668
 20
165.483924106
 30
0.0
 10
27.9441508283
 20
165.33373037
 30
0.0
  0
SPLINE
  5
601
100
AcDbEntity
  8
0
100
AcDbSpline
 62
7
  6
CONTINUOUS
 70
0
 71
3
 72
11
 73
7
 74
0
 42
0.0000001
 43
0.0000001
 44
0.0000000001
 40
0.0
 40
0.0
 40
0.0
 40
0.0
 40
0.2037590511
 40
0.4586579064
 40
0.7392442554
 40
1.0
 40
1.0
 40
1.0
 40
1.0
 10
41.1649218775
 20
158.579102212
 30
0.0
 10
41.1040401155
 20
158.4385070711
 30
0.0
 10
40.9945658398
 20
158.110362035
 30
0.0
 10
40.8651289835
 20
157.5693729374
 30
0.0
 10
40.7712224782
 20
156.9775623136
 30
0.0
 10
40.7406648743
 20
156.5706336518
 30
0.0
 10
40.7406648743
 20
156.3745656764
 30
0.0
  0
SPLINE
  5
602
100
AcDbEntity
  8
0
100
AcDbSpline
 62
7
  6
CONTINUOUS
 70
0
 71
3
 72
11
 73
7
 74
0
 42
0.0000001
 43
0.0000001
 44
0.0000000001
 40
0.0
 40
0.0
 40
0.0
 40
0.0
 40
0.2372167448
 40
0.4999994744
 40
0.7627824897
 40
1.0
 40
1.0
 40
1.0
 40
1.0
 10
41.5891930117
 20
156.374567716
 30
0.0
 10
41.5289686291
 20
156.3397973601
 30
0.0
 10
41.3888839263
 20
156.2890871563
 30
0.0
 10
41.1649296094
 20
156.2648752435
 30
0.0
 10
40.9409749551
 20
156.2890861342
 30
0.0
 10
40.800889702
 20
156.3397956426
 30
0.0
 10
40.7406648743
 20
156.3745656764
 30
0.0
  0
SPLINE
  5
603
100
AcDbEntity
  8
0
100
AcDbSpline
 62
7
  6
CONTINUOUS
 70
0
 71
3
 72
11
 73
7
 74
0
 42
0.0000001
 43
0.0000001
 44
0.0000000001
 40
0.0
 40
0.0
 40
0.0
 40
0.0
 40
0.2037593669
 40
0.4586582604
 40
0.7392444583
 40
1.0
 40
1.0
 40
1.0
 40
1.0
 10
41.1649218775
 20
158.579102212
 30
0.0
 10
41.2258055851
 20
158.4385075533
 30
0.0
 10
41.3352835115
 20
158.1103631692
 30
0.0
 10
41.4647247167
 20
157.5693745767
 30
0.0
 10
41.5586343847
 20
156.9775642939
 30
0.0
 10
41.5891930117
 20
156.5706356581
 30
0.0
 10
41.5891930117
 20
156.374567716
 30
0.0
  0
SPLINE
  5
604
100
AcDbEntity
  8
0
100
AcDbSpline
 62
7
  6
CONTINUOUS
 70
0
 71
3
 72
9
 73
5
 74
0
 42
0.0000001
 43
0.0000001
 44
0.0000000001
 40
0.0
 40
0.0
 40
0.0
 40
0.0
 40
0.2491713929
 40
1.0
 40
1.0
 40
1.0
 40
1.0
 10
50.3572717613
 20
163.8862762123
 30
0.0
 10
50.4512964852
 20
163.8727047922
 30
0.0
 10
50.8249414904
 20
163.7962590406
 30
0.0
 10
51.1826536649
 20
163.6339013346
 30
0.0
 10
51.4149870438
 20
163.4666692614
 30
0.0
  0
SPLINE
  5
605
100
AcDbEntity
  8
0
100
AcDbSpline
 62
7
  6
CONTINUOUS
 70
0
 71
3
 72
11
 73
7
 74
0
 42
0.0000001
 43
0.0000001
 44
0.0000000001
 40
0.0
 40
0.0
 40
0.0
 40
0.0
 40
0.2677883947
 40
0.5257015058
 40
0.77006456
 40
1.0
 40
1.0
 40
1.0
 40
1.0
 10
51.4149870438
 20
163.4666692614
 30
0.0
 10
51.5071665057
 20
163.400319077
 30
0.0
 10
51.6781217486
 20
163.2551539763
 30
0.0
 10
51.8841717948
 20
162.9987745457
 30
0.0
 10
52.0202687561
 20
162.7161545464
 30
0.0
 10
52.0543298025
 20
162.5141023672
 30
0.0
 10
52.0543298025
 20
162.4165811933
 30
0.0
  0
SPLINE
  5
606
100
AcDbEntity
  8
0
100
AcDbSpline
 62
7
  6
CONTINUOUS
 70
0
 71
3
 72
9
 73
5
 74
0
 42
0.0000001
 43
0.0000001
 44
0.0000000001
 40
0.0
 40
0.0
 40
0.0
 40
0.0
 40
0.5254521769
 40
1.0
 40
1.0
 40
1.0
 40
1.0
 10
29.6390392455
 20
164.1050654309
 30
0.0
 10
29.5297930809
 20
163.9291622748
 30
0.0
 10
29.3604576207
 20
163.5691607785
 30
0.0
 10
29.2854873269
 20
163.1750726083
 30
0.0
 10
29.2854873269
 20
162.9880658997
 30
0.0
  0
SPLINE
  5
607
100
AcDbEntity
  8
0
100
AcDbSpline
 62
7
  6
CONTINUOUS
 70
0
 71
3
 72
9
 73
5
 74
0
 42
0.0000001
 43
0.0000001
 44
0.0000000001
 40
0.0
 40
0.0
 40
0.0
 40
0.0
 40
0.2491727536
 40
1.0
 40
1.0
 40
1.0
 40
1.0
 10
29.14405655
 20
165.5191950388
 30
0.0
 10
29.0500051935
 20
165.5056192942
 30
0.0
 10
28.6762578666
 20
165.4291442672
 30
0.0
 10
28.3184522978
 20
165.2667092031
 30
0.0
 10
28.0860810874
 20
165.09939411
 30
0.0
  0
SPLINE
  5
608
100
AcDbEntity
  8
0
100
AcDbSpline
 62
7
  6
CONTINUOUS
 70
0
 71
3
 72
11
 73
7
 74
0
 42
0.0000001
 43
0.0000001
 44
0.0000000001
 40
0.0
 40
0.0
 40
0.0
 40
0.0
 40
0.2677873359
 40
0.5256987181
 40
0.7700615783
 40
1.0
 40
1.0
 40
1.0
 40
1.0
 10
28.0860810874
 20
165.09939411
 30
0.0
 10
27.9939356607
 20
165.033046301
 30
0.0
 10
27.823046011
 20
164.8878933705
 30
0.0
 10
27.6170816479
 20
164.6315535347
 30
0.0
 10
27.4810461991
 20
164.3489920997
 30
0.0
 10
27.4470020415
 20
164.146989776
 30
0.0
 10
27.4470020415
 20
164.0494918614
 30
0.0
  0
SPLINE
  5
609
100
AcDbEntity
  8
0
100
AcDbSpline
 62
7
  6
CONTINUOUS
 70
0
 71
3
 72
9
 73
5
 74
0
 42
0.0000001
 43
0.0000001
 44
0.0000000001
 40
0.0
 40
0.0
 40
0.0
 40
0.0
 40
0.4745807871
 40
1.0
 40
1.0
 40
1.0
 40
1.0
 10
30.3461430827
 20
164.8251857562
 30
0.0
 10
30.2068852111
 20
164.7447856664
 30
0.0
 10
29.9412589464
 20
164.5268169649
 30
0.0
 10
29.732964001
 20
164.2562987576
 30
0.0
 10
29.6390392455
 20
164.1050654308
 30
0.0
  0
SPLINE
  5
60A
100
AcDbEntity
  8
0
100
AcDbSpline
 62
7
  6
CONTINUOUS
 70
0
 71
3
 72
11
 73
7
 74
0
 42
0.0000001
 43
0.0000001
 44
0.0000000001
 40
0.0
 40
0.0
 40
0.0
 40
0.0
 40
0.2372518718
 40
0.4999985497
 40
0.7627460178
 40
1.0
 40
1.0
 40
1.0
 40
1.0
 10
113.9263465554
 20
57.4966849461
 30
0.0
 10
114.0518390136
 20
57.5691376182
 30
0.0
 10
114.2893221806
 20
57.7689837554
 30
0.0
 10
114.5663912364
 20
58.1477736528
 30
0.0
 10
114.7558965559
 20
58.5771196652
 30
0.0
 10
114.8102263519
 20
58.8827108782
 30
0.0
 10
114.8102263519
 20
59.0276181599
 30
0.0
  0
SPLINE
  5
60B
100
AcDbEntity
  8
0
100
AcDbSpline
 62
7
  6
CONTINUOUS
 70
0
 71
3
 72
9
 73
5
 74
0
 42
0.0000001
 43
0.0000001
 44
0.0000000001
 40
0.0
 40
0.0
 40
0.0
 40
0.0
 40
0.2702402972
 40
1.0
 40
1.0
 40
1.0
 40
1.0
 10
114.8102263519
 20
59.0276181599
 30
0.0
 10
114.8102263519
 20
59.0593403111
 30
0.0
 10
114.8054069682
 20
59.1765102366
 30
0.0
 10
114.7803340264
 20
59.294071298
 30
0.0
 10
114.745981507
 20
59.3725443776
 30
0.0
  0
SPLINE
  5
60C
100
AcDbEntity
  8
0
100
AcDbSpline
 62
7
  6
CONTINUOUS
 70
0
 71
3
 72
9
 73
5
 74
0
 42
0.0000001
 43
0.0000001
 44
0.0000000001
 40
0.0
 40
0.0
 40
0.0
 40
0.0
 40
0.2702402972
 40
1.0
 40
1.0
 40
1.0
 40
1.0
 10
87.9402805378
 20
43.5143403128
 30
0.0
 10
87.9402805378
 20
43.546062464
 30
0.0
 10
87.9354611541
 20
43.6632323895
 30
0.0
 10
87.9103882123
 20
43.7807934508
 30
0.0
 10
87.8760356928
 20
43.8592665305
 30
0.0
  0
SPLINE
  5
60D
100
AcDbEntity
  8
0
100
AcDbSpline
 62
7
  6
CONTINUOUS
 70
0
 71
3
 72
11
 73
7
 74
0
 42
0.0000001
 43
0.0000001
 44
0.0000000001
 40
0.0
 40
0.0
 40
0.0
 40
0.0
 40
0.2278682272
 40
0.4656335305
 40
0.7214338057
 40
1.0
 40
1.0
 40
1.0
 40
1.0
 10
53.2523733674
 20
127.6413237219
 30
0.0
 10
53.3600415894
 20
127.7035361776
 30
0.0
 10
53.5639173482
 20
127.8608755467
 30
0.0
 10
53.8068490098
 20
128.1753099519
 30
0.0
 10
53.9851183186
 20
128.5603342895
 30
0.0
 10
54.0563549843
 20
128.8448212499
 30
0.0
 10
54.082017152
 20
128.9946555168
 30
0.0
  0
SPLINE
  5
60E
100
AcDbEntity
  8
0
100
AcDbSpline
 62
7
  6
CONTINUOUS
 70
0
 71
3
 72
11
 73
7
 74
0
 42
0.0000001
 43
0.0000001
 44
0.0000000001
 40
0.0
 40
0.0
 40
0.0
 40
0.0
 40
0.2176899422
 40
0.4508856506
 40
0.7106204681
 40
1.0
 40
1.0
 40
1.0
 40
1.0
 10
88.1763401529
 20
43.800757958
 30
0.0
 10
88.2175727055
 20
43.7769944739
 30
0.0
 10
88.2947251984
 20
43.712156932
 30
0.0
 10
88.3769434896
 20
43.5778294419
 30
0.0
 10
88.4255326369
 20
43.4122645633
 30
0.0
 10
88.4352573454
 20
43.2918343678
 30
0.0
 10
88.4352573454
 20
43.2285717846
 30
0.0
  0
SPLINE
  5
60F
100
AcDbEntity
  8
0
100
AcDbSpline
 62
7
  6
CONTINUOUS
 70
0
 71
3
 72
11
 73
7
 74
0
 42
0.0000001
 43
0.0000001
 44
0.0000000001
 40
0.0
 40
0.0
 40
0.0
 40
0.0
 40
0.2372423296
 40
0.4999983822
 40
0.7627553151
 40
1.0
 40
1.0
 40
1.0
 40
1.0
 10
124.391468036
 20
139.2692520874
 30
0.0
 10
124.3412730995
 20
139.2402721995
 30
0.0
 10
124.2462903788
 20
139.1603244796
 30
0.0
 10
124.1354301409
 20
139.0088282847
 30
0.0
 10
124.0596613713
 20
138.8370714799
 30
0.0
 10
124.0379161199
 20
138.7148394136
 30
0.0
 10
124.0379161197
 20
138.656878804
 30
0.0
  0
SPLINE
  5
610
100
AcDbEntity
  8
0
100
AcDbSpline
 62
7
  6
CONTINUOUS
 70
0
 71
3
 72
9
 73
5
 74
0
 42
0.0000001
 43
0.0000001
 44
0.0000000001
 40
0.0
 40
0.0
 40
0.0
 40
0.0
 40
0.534496838
 40
1.0
 40
1.0
 40
1.0
 40
1.0
 10
131.7933642166
 20
142.7255009905
 30
0.0
 10
131.7740007485
 20
142.7182640945
 30
0.0
 10
131.7352578293
 20
142.7096972419
 30
0.0
 10
131.6957858601
 20
142.7191717855
 30
0.0
 10
131.680184949
 20
142.7281568141
 30
0.0
  0
SPLINE
  5
611
100
AcDbEntity
  8
0
100
AcDbSpline
 62
7
  6
CONTINUOUS
 70
0
 71
3
 72
11
 73
7
 74
0
 42
0.0000001
 43
0.0000001
 44
0.0000000001
 40
0.0
 40
0.0
 40
0.0
 40
0.0
 40
0.2372446849
 40
0.5000016179
 40
0.7627576705
 40
1.0
 40
1.0
 40
1.0
 40
1.0
 10
134.9980255952
 20
144.2151309531
 30
0.0
 10
134.9980255952
 20
144.1803545872
 30
0.0
 10
134.9849784443
 20
144.1070153468
 30
0.0
 10
134.9395171824
 20
144.0039612631
 30
0.0
 10
134.8730010388
 20
143.9130635459
 30
0.0
 10
134.8160114061
 20
143.8650949132
 30
0.0
 10
134.7858944438
 20
143.8477069807
 30
0.0
  0
SPLINE
  5
612
100
AcDbEntity
  8
0
100
AcDbSpline
 62
7
  6
CONTINUOUS
 70
0
 71
3
 72
11
 73
7
 74
0
 42
0.0000001
 43
0.0000001
 44
0.0000000001
 40
0.0
 40
0.0
 40
0.0
 40
0.0
 40
0.2372423293
 40
0.4999983819
 40
0.762755315
 40
1.0
 40
1.0
 40
1.0
 40
1.0
 10
135.3515775151
 20
145.1479601446
 30
0.0
 10
135.301382578
 20
145.118980257
 30
0.0
 10
135.2063998569
 20
145.0390325363
 30
0.0
 10
135.0955396175
 20
144.8875363413
 30
0.0
 10
135.0197708472
 20
144.7157795354
 30
0.0
 10
134.9980255954
 20
144.5935474682
 30
0.0
 10
134.9980255952
 20
144.5355868583
 30
0.0
  0
SPLINE
  5
613
100
AcDbEntity
  8
0
100
AcDbSpline
 62
7
  6
CONTINUOUS
 70
0
 71
3
 72
11
 73
7
 74
0
 42
0.0000001
 43
0.0000001
 44
0.0000000001
 40
0.0
 40
0.0
 40
0.0
 40
0.0
 40
0.2896413964
 40
0.549110767
 40
0.7822355978
 40
1.0
 40
1.0
 40
1.0
 40
1.0
 10
20.2699107527
 20
77.8881835439
 30
0.0
 10
20.2699107527
 20
77.997096558
 30
0.0
 10
20.2864655712
 20
78.2042748903
 30
0.0
 10
20.3703185268
 20
78.4889312603
 30
0.0
 10
20.5115685181
 20
78.7199703849
 30
0.0
 10
20.6443223439
 20
78.8314190904
 30
0.0
 10
20.71522076
 20
78.8723900514
 30
0.0
  0
SPLINE
  5
614
100
AcDbEntity
  8
0
100
AcDbSpline
 62
7
  6
CONTINUOUS
 70
0
 71
3
 72
11
 73
7
 74
0
 42
0.0000001
 43
0.0000001
 44
0.0000000001
 40
0.0
 40
0.0
 40
0.0
 40
0.0
 40
0.2253709002
 40
0.4875899527
 40
0.7566874432
 40
1.0
 40
1.0
 40
1.0
 40
1.0
 10
86.8995620027
 20
41.9090703498
 30
0.0
 10
87.040765833
 20
41.9611992942
 30
0.0
 10
87.3180562612
 20
42.148146194
 30
0.0
 10
87.6435590523
 20
42.5405007898
 30
0.0
 10
87.8725475111
 20
43.0095417642
 30
0.0
 10
87.9402805378
 20
43.3518386505
 30
0.0
 10
87.9402805378
 20
43.5143403128
 30
0.0
  0
SPLINE
  5
615
100
AcDbEntity
  8
0
100
AcDbSpline
 62
7
  6
CONTINUOUS
 70
0
 71
3
 72
11
 73
7
 74
0
 42
0.0000001
 43
0.0000001
 44
0.0000000001
 40
0.0
 40
0.0
 40
0.0
 40
0.0
 40
0.2372423297
 40
0.4999983826
 40
0.7627553156
 40
1.0
 40
1.0
 40
1.0
 40
1.0
 10
135.3515775131
 20
77.5007348836
 30
0.0
 10
135.3013825758
 20
77.4717549961
 30
0.0
 10
135.2063998547
 20
77.3918072745
 30
0.0
 10
135.0955396155
 20
77.2403110788
 30
0.0
 10
135.0197708461
 20
77.0685542722
 30
0.0
 10
134.9980255952
 20
76.9463222049
 30
0.0
 10
134.9980255954
 20
76.888361595
 30
0.0
  0
SPLINE
  5
616
100
AcDbEntity
  8
0
100
AcDbSpline
 62
7
  6
CONTINUOUS
 70
0
 71
3
 72
9
 73
5
 74
0
 42
0.0000001
 43
0.0000001
 44
0.0000000001
 40
0.0
 40
0.0
 40
0.0
 40
0.0
 40
0.2770209267
 40
1.0
 40
1.0
 40
1.0
 40
1.0
 10
135.9172605835
 20
74.5204954179
 30
0.0
 10
135.9143737331
 20
74.518828704
 30
0.0
 10
135.9036694507
 20
74.5134077207
 30
0.0
 10
135.8913980312
 20
74.5103876231
 30
0.0
 10
135.8827170488
 20
74.5109585693
 30
0.0
  0
SPLINE
  5
617
100
AcDbEntity
  8
0
100
AcDbSpline
 62
7
  6
CONTINUOUS
 70
0
 71
3
 72
8
 73
4
 74
0
 42
0.0000001
 43
0.0000001
 44
0.0000000001
 40
0.0
 40
0.0
 40
0.0
 40
0.0
 40
1.0
 40
1.0
 40
1.0
 40
1.0
 10
135.8827170488
 20
74.5109585693
 30
0.0
 10
135.8773537477
 20
74.5113113124
 30
0.0
 10
135.8719075008
 20
74.5128394638
 30
0.0
 10
135.8672534143
 20
74.5155281264
 30
0.0
  0
SPLINE
  5
618
100
AcDbEntity
  8
0
100
AcDbSpline
 62
7
  6
CONTINUOUS
 70
0
 71
3
 72
9
 73
5
 74
0
 42
0.0000001
 43
0.0000001
 44
0.0000000001
 40
0.0
 40
0.0
 40
0.0
 40
0.0
 40
0.2330666898
 40
1.0
 40
1.0
 40
1.0
 40
1.0
 10
113.6327426404
 20
124.3383243162
 30
0.0
 10
113.656867894
 20
124.3424468477
 30
0.0
 10
113.7593941642
 20
124.3658800281
 30
0.0
 10
113.8565987628
 20
124.4096144843
 30
0.0
 10
113.9263465554
 20
124.4498831508
 30
0.0
  0
SPLINE
  5
619
100
AcDbEntity
  8
0
100
AcDbSpline
 62
7
  6
CONTINUOUS
 70
0
 71
3
 72
9
 73
5
 74
0
 42
0.0000001
 43
0.0000001
 44
0.0000000001
 40
0.0
 40
0.0
 40
0.0
 40
0.0
 40
0.2377384259
 40
1.0
 40
1.0
 40
1.0
 40
1.0
 10
93.7970919215
 20
69.049754465
 30
0.0
 10
93.7895178302
 20
69.0541272679
 30
0.0
 10
93.7558154816
 20
69.0694121649
 30
0.0
 10
93.7167934885
 20
69.0702947559
 30
0.0
 10
93.6892003066
 20
69.0653002632
 30
0.0
  0
SPLINE
  5
61A
100
AcDbEntity
  8
0
100
AcDbSpline
 62
7
  6
CONTINUOUS
 70
0
 71
3
 72
9
 73
5
 74
0
 42
0.0000001
 43
0.0000001
 44
0.0000000001
 40
0.0
 40
0.0
 40
0.0
 40
0.0
 40
0.2410879958
 40
1.0
 40
1.0
 40
1.0
 40
1.0
 10
54.2234379195
 20
129.0763043475
 30
0.0
 10
54.2314061793
 20
129.1228288025
 30
0.0
 10
54.2598926126
 20
129.3165781722
 30
0.0
 10
54.2707798188
 20
129.5127638257
 30
0.0
 10
54.2707798188
 20
129.6613489017
 30
0.0
  0
SPLINE
  5
61B
100
AcDbEntity
  8
0
100
AcDbSpline
 62
7
  6
CONTINUOUS
 70
0
 71
3
 72
15
 73
11
 74
0
 42
0.0000001
 43
0.0000001
 44
0.0000000001
 40
0.0
 40
0.0
 40
0.0
 40
0.0
 40
0.1287974769
 40
0.2706060703
 40
0.4178807568
 40
0.5623765801
 40
0.6961925898
 40
0.8135912016
 40
0.913066129
 40
1.0
 40
1.0
 40
1.0
 40
1.0
 10
88.4352573454
 20
43.2285717846
 30
0.0
 10
88.4352573454
 20
43.1217556777
 30
0.0
 10
88.405308199
 20
42.8970872921
 30
0.0
 10
88.293841459
 20
42.5672145569
 30
0.0
 10
88.1218217769
 20
42.2494749971
 30
0.0
 10
87.9035200576
 20
41.9699361955
 30
0.0
 10
87.6561654925
 20
41.7508990738
 30
0.0
 10
87.398228288
 20
41.6099789282
 30
0.0
 10
87.1456973542
 20
41.5593458627
 30
0.0
 10
86.9888805791
 20
41.5997745181
 30
0.0
 10
86.9264149448
 20
41.6357752266
 30
0.0
  0
SPLINE
  5
61C
100
AcDbEntity
  8
0
100
AcDbSpline
 62
7
  6
CONTINUOUS
 70
0
 71
3
 72
12
 73
8
 74
0
 42
0.0000001
 43
0.0000001
 44
0.0000000001
 40
0.0
 40
0.0
 40
0.0
 40
0.0
 40
0.304057798
 40
0.5706794872
 40
0.7980479922
 40
0.9008966626
 40
1.0
 40
1.0
 40
1.0
 40
1.0
 10
49.7766647779
 20
131.643591938
 30
0.0
 10
49.7294195239
 20
131.8251711951
 30
0.0
 10
49.6700696756
 20
132.175118295
 30
0.0
 10
49.69653775
 20
132.6715271969
 30
0.0
 10
49.8290147985
 20
133.0252442017
 30
0.0
 10
49.9981774
 20
133.2318703372
 30
0.0
 10
50.0987168357
 20
133.3079399579
 30
0.0
 10
50.1516881101
 20
133.3384984404
 30
0.0
  0
SPLINE
  5
61D
100
AcDbEntity
  8
0
100
AcDbSpline
 62
7
  6
CONTINUOUS
 70
0
 71
3
 72
10
 73
6
 74
0
 42
0.0000001
 43
0.0000001
 44
0.0000000001
 40
0.0
 40
0.0
 40
0.0
 40
0.0
 40
0.5194376895
 40
0.7534827287
 40
1.0
 40
1.0
 40
1.0
 40
1.0
 10
47.4658369419
 20
136.2226701642
 30
0.0
 10
47.4205333249
 20
136.2390953088
 30
0.0
 10
47.3437269823
 20
136.2488400592
 30
0.0
 10
47.2609577369
 20
136.201116487
 30
0.0
 10
47.2339288484
 20
136.1640891834
 30
0.0
 10
47.2235329601
 20
136.1437186857
 30
0.0
  0
SPLINE
  5
61E
100
AcDbEntity
  8
0
100
AcDbSpline
 62
7
  6
CONTINUOUS
 70
0
 71
3
 72
9
 73
5
 74
0
 42
0.0000001
 43
0.0000001
 44
0.0000000001
 40
0.0
 40
0.0
 40
0.0
 40
0.0
 40
0.5229067242
 40
1.0
 40
1.0
 40
1.0
 40
1.0
 10
55.0875048017
 20
131.8223977861
 30
0.0
 10
53.8812204731
 20
132.7779154247
 30
0.0
 10
51.4535167682
 20
134.4601328912
 30
0.0
 10
48.7858098653
 20
135.744103479
 30
0.0
 10
47.4658369419
 20
136.2226701642
 30
0.0
  0
SPLINE
  5
61F
100
AcDbEntity
  8
0
100
AcDbSpline
 62
7
  6
CONTINUOUS
 70
0
 71
3
 72
9
 73
5
 74
0
 42
0.0000001
 43
0.0000001
 44
0.0000000001
 40
0.0
 40
0.0
 40
0.0
 40
0.0
 40
0.5097222904
 40
1.0
 40
1.0
 40
1.0
 40
1.0
 10
55.3298089753
 20
131.4636642036
 30
0.0
 10
55.3070933001
 20
131.5344042418
 30
0.0
 10
55.2415649349
 20
131.666801158
 30
0.0
 10
55.1435231828
 20
131.7780247108
 30
0.0
 10
55.0875048017
 20
131.8223977861
 30
0.0
  0
SPLINE
  5
620
100
AcDbEntity
  8
0
100
AcDbSpline
 62
7
  6
CONTINUOUS
 70
0
 71
3
 72
9
 73
5
 74
0
 42
0.0000001
 43
0.0000001
 44
0.0000000001
 40
0.0
 40
0.0
 40
0.0
 40
0.0
 40
0.4519687936
 40
1.0
 40
1.0
 40
1.0
 40
1.0
 10
93.059183716
 20
67.9961884886
 30
0.0
 10
93.0725334955
 20
67.9884811771
 30
0.0
 10
93.0964831826
 20
67.9610275042
 30
0.0
 10
93.1021276557
 20
67.9259573635
 30
0.0
 10
93.1021276568
 20
67.907266143
 30
0.0
  0
SPLINE
  5
621
100
AcDbEntity
  8
0
100
AcDbSpline
 62
7
  6
CONTINUOUS
 70
0
 71
3
 72
11
 73
7
 74
0
 42
0.0000001
 43
0.0000001
 44
0.0000000001
 40
0.0
 40
0.0
 40
0.0
 40
0.0
 40
0.2177450729
 40
0.4508830112
 40
0.7104597664
 40
1.0
 40
1.0
 40
1.0
 40
1.0
 10
54.447078894
 20
119.1217081358
 30
0.0
 10
54.478965348
 20
119.1401176939
 30
0.0
 10
54.5386852474
 20
119.1902089294
 30
0.0
 10
54.6022126956
 20
119.2941258449
 30
0.0
 10
54.639874059
 20
119.4221456219
 30
0.0
 10
54.6473496394
 20
119.5153067401
 30
0.0
 10
54.6473496394
 20
119.5642660873
 30
0.0
  0
SPLINE
  5
622
100
AcDbEntity
  8
0
100
AcDbSpline
 62
7
  6
CONTINUOUS
 70
0
 71
3
 72
9
 73
5
 74
0
 42
0.0000001
 43
0.0000001
 44
0.0000000001
 40
0.0
 40
0.0
 40
0.0
 40
0.0
 40
0.5255746475
 40
1.0
 40
1.0
 40
1.0
 40
1.0
 10
46.9850099946
 20
132.1909070271
 30
0.0
 10
47.0171099056
 20
132.135308659
 30
0.0
 10
47.0898481625
 20
132.0358744542
 30
0.0
 10
47.1848261441
 20
131.9559906794
 30
0.0
 10
47.2350139933
 20
131.9270153666
 30
0.0
  0
SPLINE
  5
623
100
AcDbEntity
  8
0
100
AcDbSpline
 62
7
  6
CONTINUOUS
 70
0
 71
3
 72
9
 73
5
 74
0
 42
0.0000001
 43
0.0000001
 44
0.0000000001
 40
0.0
 40
0.0
 40
0.0
 40
0.0
 40
0.2400891082
 40
1.0
 40
1.0
 40
1.0
 40
1.0
 10
46.8924712599
 20
132.4319471085
 30
0.0
 10
46.8964535872
 20
132.4116174837
 30
0.0
 10
46.917101314
 20
132.3277626511
 30
0.0
 10
46.9522255459
 20
132.2476910428
 30
0.0
 10
46.9850099946
 20
132.1909070271
 30
0.0
  0
SPLINE
  5
624
100
AcDbEntity
  8
0
100
AcDbSpline
 62
7
  6
CONTINUOUS
 70
0
 71
3
 72
9
 73
5
 74
0
 42
0.0000001
 43
0.0000001
 44
0.0000000001
 40
0.0
 40
0.0
 40
0.0
 40
0.0
 40
0.263633185
 40
1.0
 40
1.0
 40
1.0
 40
1.0
 10
48.0507290719
 20
133.1368893651
 30
0.0
 10
48.0464583552
 20
133.1285209965
 30
0.0
 10
48.0284329887
 20
133.0977807313
 30
0.0
 10
48.0016883752
 20
133.0718757248
 30
0.0
 10
47.9789630403
 20
133.0587531166
 30
0.0
  0
SPLINE
  5
625
100
AcDbEntity
  8
0
100
AcDbSpline
 62
7
  6
CONTINUOUS
 70
0
 71
3
 72
15
 73
11
 74
0
 42
0.0000001
 43
0.0000001
 44
0.0000000001
 40
0.0
 40
0.0
 40
0.0
 40
0.0
 40
0.1287974769
 40
0.2706060703
 40
0.4178807568
 40
0.5623765801
 40
0.6961925898
 40
0.8135912016
 40
0.913066129
 40
1.0
 40
1.0
 40
1.0
 40
1.0
 10
115.3052031595
 20
58.7418496317
 30
0.0
 10
115.3052031595
 20
58.6350335248
 30
0.0
 10
115.2752540131
 20
58.4103651392
 30
0.0
 10
115.1637872732
 20
58.080492404
 30
0.0
 10
114.991767591
 20
57.7627528442
 30
0.0
 10
114.7734658717
 20
57.4832140427
 30
0.0
 10
114.5261113066
 20
57.2641769209
 30
0.0
 10
114.2681741021
 20
57.1232567753
 30
0.0
 10
114.0156431684
 20
57.0726237099
 30
0.0
 10
113.8588263932
 20
57.1130523652
 30
0.0
 10
113.796360759
 20
57.1490530737
 30
0.0
  0
SPLINE
  5
626
100
AcDbEntity
  8
0
100
AcDbSpline
 62
7
  6
CONTINUOUS
 70
0
 71
3
 72
9
 73
5
 74
0
 42
0.0000001
 43
0.0000001
 44
0.0000000001
 40
0.0
 40
0.0
 40
0.0
 40
0.0
 40
0.5097229296
 40
1.0
 40
1.0
 40
1.0
 40
1.0
 10
56.0051486696
 20
131.6511365347
 30
0.0
 10
55.9583268858
 20
131.7969466301
 30
0.0
 10
55.8232672622
 20
132.0698488079
 30
0.0
 10
55.6211757302
 20
132.2990980111
 30
0.0
 10
55.5057103638
 20
132.3905600202
 30
0.0
  0
SPLINE
  5
627
100
AcDbEntity
  8
0
100
AcDbSpline
 62
7
  6
CONTINUOUS
 70
0
 71
3
 72
11
 73
7
 74
0
 42
0.0000001
 43
0.0000001
 44
0.0000000001
 40
0.0
 40
0.0
 40
0.0
 40
0.0
 40
0.2124590174
 40
0.4741294041
 40
0.7494173234
 40
1.0
 40
1.0
 40
1.0
 40
1.0
 10
55.329809086
 20
131.4636638591
 30
0.0
 10
55.3798538306
 20
131.4610745272
 30
0.0
 10
55.492102305
 20
131.4709998862
 30
0.0
 10
55.6649015203
 20
131.5092057601
 30
0.0
 10
55.8411716743
 20
131.5689045884
 30
0.0
 10
55.9539632613
 20
131.6215848017
 30
0.0
 10
56.0051486697
 20
131.6511365346
 30
0.0
  0
SPLINE
  5
628
100
AcDbEntity
  8
0
100
AcDbSpline
 62
7
  6
CONTINUOUS
 70
0
 71
3
 72
9
 73
5
 74
0
 42
0.0000001
 43
0.0000001
 44
0.0000000001
 40
0.0
 40
0.0
 40
0.0
 40
0.0
 40
0.2594028122
 40
1.0
 40
1.0
 40
1.0
 40
1.0
 10
51.6302229416
 20
135.0406714139
 30
0.0
 10
51.3092249198
 20
135.2259955156
 30
0.0
 10
50.0579801753
 20
135.9159288934
 30
0.0
 10
48.7495893886
 20
136.5047939985
 30
0.0
 10
47.7547355194
 20
136.8654861967
 30
0.0
  0
SPLINE
  5
629
100
AcDbEntity
  8
0
100
AcDbSpline
 62
7
  6
CONTINUOUS
 70
0
 71
3
 72
9
 73
5
 74
0
 42
0.0000001
 43
0.0000001
 44
0.0000000001
 40
0.0
 40
0.0
 40
0.0
 40
0.0
 40
0.2577378413
 40
1.0
 40
1.0
 40
1.0
 40
1.0
 10
55.5057103638
 20
132.3905600201
 30
0.0
 10
55.1893760749
 20
132.6411336088
 30
0.0
 10
53.9459341192
 20
133.5926789365
 30
0.0
 10
52.6367190747
 20
134.4595837465
 30
0.0
 10
51.6302229416
 20
135.0406714139
 30
0.0
  0
SPLINE
  5
62A
100
AcDbEntity
  8
0
100
AcDbSpline
 62
7
  6
CONTINUOUS
 70
0
 71
3
 72
11
 73
7
 74
0
 42
0.0000001
 43
0.0000001
 44
0.0000000001
 40
0.0
 40
0.0
 40
0.0
 40
0.0
 40
0.225985884
 40
0.488242504
 40
0.7568011531
 40
1.0
 40
1.0
 40
1.0
 40
1.0
 10
55.0875048015
 20
131.8223977863
 30
0.0
 10
55.0970196194
 20
131.8759721572
 30
0.0
 10
55.1376949625
 20
131.9879893872
 30
0.0
 10
55.2332008634
 20
132.1441124852
 30
0.0
 10
55.3569790011
 20
132.2845909548
 30
0.0
 10
55.4549981782
 20
132.3612815566
 30
0.0
 10
55.5057103231
 20
132.3905600524
 30
0.0
  0
SPLINE
  5
62B
100
AcDbEntity
  8
0
100
AcDbSpline
 62
7
  6
CONTINUOUS
 70
0
 71
3
 72
9
 73
5
 74
0
 42
0.0000001
 43
0.0000001
 44
0.0000000001
 40
0.0
 40
0.0
 40
0.0
 40
0.0
 40
0.5347023465
 40
1.0
 40
1.0
 40
1.0
 40
1.0
 10
47.7547355194
 20
136.8654861967
 30
0.0
 10
47.6928919963
 20
136.88790803
 30
0.0
 10
47.5694339745
 20
136.9144487519
 30
0.0
 10
47.4442898382
 20
136.8831080737
 30
0.0
 10
47.3947274936
 20
136.8544645019
 30
0.0
  0
SPLINE
  5
62C
100
AcDbEntity
  8
0
100
AcDbSpline
 62
7
  6
CONTINUOUS
 70
0
 71
3
 72
10
 73
6
 74
0
 42
0.0000001
 43
0.0000001
 44
0.0000000001
 40
0.0
 40
0.0
 40
0.0
 40
0.0
 40
0.248768919
 40
0.642362754
 40
1.0
 40
1.0
 40
1.0
 40
1.0
 10
47.4658369421
 20
136.2226701642
 30
0.0
 10
47.4569219723
 20
136.2831606559
 30
0.0
 10
47.4612627702
 20
136.4436722043
 30
0.0
 10
47.5481875187
 20
136.6790712647
 30
0.0
 10
47.6786093266
 20
136.8215354894
 30
0.0
 10
47.7547349787
 20
136.8654863928
 30
0.0
  0
SPLINE
  5
62D
100
AcDbEntity
  8
0
100
AcDbSpline
 62
7
  6
CONTINUOUS
 70
0
 71
3
 72
15
 73
11
 74
0
 42
0.0000001
 43
0.0000001
 44
0.0000000001
 40
0.0
 40
0.0
 40
0.0
 40
0.0
 40
0.1287974769
 40
0.2706060703
 40
0.4178807568
 40
0.5623765801
 40
0.6961925898
 40
0.8135912016
 40
0.913066129
 40
1.0
 40
1.0
 40
1.0
 40
1.0
 10
88.4352573454
 20
110.1817699892
 30
0.0
 10
88.4352573454
 20
110.0749538823
 30
0.0
 10
88.405308199
 20
109.8502854967
 30
0.0
 10
88.293841459
 20
109.5204127615
 30
0.0
 10
88.1218217769
 20
109.2026732017
 30
0.0
 10
87.9035200576
 20
108.9231344002
 30
0.0
 10
87.6561654925
 20
108.7040972784
 30
0.0
 10
87.398228288
 20
108.5631771328
 30
0.0
 10
87.1456973542
 20
108.5125440674
 30
0.0
 10
86.9888805791
 20
108.5529727227
 30
0.0
 10
86.9264149448
 20
108.5889734312
 30
0.0
  0
SPLINE
  5
62E
100
AcDbEntity
  8
0
100
AcDbSpline
 62
7
  6
CONTINUOUS
 70
0
 71
3
 72
15
 73
11
 74
0
 42
0.0000001
 43
0.0000001
 44
0.0000000001
 40
0.0
 40
0.0
 40
0.0
 40
0.0
 40
0.1287974769
 40
0.2706060703
 40
0.4178807568
 40
0.5623765801
 40
0.6961925898
 40
0.8135912016
 40
0.913066129
 40
1.0
 40
1.0
 40
1.0
 40
1.0
 10
115.3052031595
 20
125.6950478363
 30
0.0
 10
115.3052031595
 20
125.5882317294
 30
0.0
 10
115.2752540131
 20
125.3635633438
 30
0.0
 10
115.1637872732
 20
125.0336906086
 30
0.0
 10
114.991767591
 20
124.7159510488
 30
0.0
 10
114.7734658717
 20
124.4364122473
 30
0.0
 10
114.5261113066
 20
124.2173751255
 30
0.0
 10
114.2681741021
 20
124.07645498
 30
0.0
 10
114.0156431684
 20
124.0258219145
 30
0.0
 10
113.8588263932
 20
124.0662505698
 30
0.0
 10
113.796360759
 20
124.1022512783
 30
0.0
  0
SPLINE
  5
62F
100
AcDbEntity
  8
0
100
AcDbSpline
 62
7
  6
CONTINUOUS
 70
0
 71
3
 72
9
 73
5
 74
0
 42
0.0000001
 43
0.0000001
 44
0.0000000001
 40
0.0
 40
0.0
 40
0.0
 40
0.0
 40
0.5111220668
 40
1.0
 40
1.0
 40
1.0
 40
1.0
 10
55.2126419848
 20
129.0073333296
 30
0.0
 10
55.144276134
 20
128.8931585412
 30
0.0
 10
54.9852600522
 20
128.6833634584
 30
0.0
 10
54.7768009036
 20
128.5214786231
 30
0.0
 10
54.666584081
 20
128.4578068023
 30
0.0
  0
SPLINE
  5
630
100
AcDbEntity
  8
0
100
AcDbSpline
 62
7
  6
CONTINUOUS
 70
0
 71
3
 72
11
 73
7
 74
0
 42
0.0000001
 43
0.0000001
 44
0.0000000001
 40
0.0
 40
0.0
 40
0.0
 40
0.0
 40
0.2372368346
 40
0.4999850922
 40
0.7627414624
 40
1.0
 40
1.0
 40
1.0
 40
1.0
 10
54.4502216494
 20
128.1696832188
 30
0.0
 10
54.4502216494
 20
128.111729102
 30
0.0
 10
54.4719611596
 20
127.9895106514
 30
0.0
 10
54.5477133596
 20
127.8177674578
 30
0.0
 10
54.6585535324
 20
127.6662729798
 30
0.0
 10
54.7535199261
 20
127.5863168197
 30
0.0
 10
54.8037081824
 20
127.5573265947
 30
0.0
  0
SPLINE
  5
631
100
AcDbEntity
  8
0
100
AcDbSpline
 62
7
  6
CONTINUOUS
 70
0
 71
3
 72
9
 73
5
 74
0
 42
0.0000001
 43
0.0000001
 44
0.0000000001
 40
0.0
 40
0.0
 40
0.0
 40
0.0
 40
0.2206621209
 40
1.0
 40
1.0
 40
1.0
 40
1.0
 10
136.0379786697
 20
74.5662868165
 30
0.0
 10
136.0346841222
 20
74.5681876881
 30
0.0
 10
136.0181028768
 20
74.5741647161
 30
0.0
 10
135.999604828
 20
74.5680366059
 30
0.0
 10
135.9879709672
 20
74.5613198333
 30
0.0
  0
SPLINE
  5
632
100
AcDbEntity
  8
0
100
AcDbSpline
 62
7
  6
CONTINUOUS
 70
0
 71
3
 72
17
 73
13
 74
0
 42
0.0000001
 43
0.0000001
 44
0.0000000001
 40
0.0
 40
0.0
 40
0.0
 40
0.0
 40
0.042857965
 40
0.0874854797
 40
0.1353180708
 40
0.1872814984
 40
0.3045423159
 40
0.4382097446
 40
0.5825520305
 40
0.7297107839
 40
0.8713099826
 40
1.0
 40
1.0
 40
1.0
 40
1.0
 10
81.5552797509
 20
109.0342597865
 30
0.0
 10
81.5022891955
 20
109.0036374666
 30
0.0
 10
81.3854398185
 20
108.9550967764
 30
0.0
 10
81.1925831541
 20
108.92681069
 30
0.0
 10
80.9854636766
 20
108.9420731428
 30
0.0
 10
80.6845173839
 20
109.0220963247
 30
0.0
 10
80.2998034497
 20
109.2324587652
 30
0.0
 10
79.8747579232
 20
109.6088766256
 30
0.0
 10
79.4990347939
 20
110.089784278
 30
0.0
 10
79.2033253911
 20
110.6363344021
 30
0.0
 10
79.0114343626
 20
111.2037086684
 30
0.0
 10
78.9600179399
 20
111.5901287186
 30
0.0
 10
78.9600179399
 20
111.7739015404
 30
0.0
  0
SPLINE
  5
633
100
AcDbEntity
  8
0
100
AcDbSpline
 62
7
  6
CONTINUOUS
 70
0
 71
3
 72
11
 73
7
 74
0
 42
0.0000001
 43
0.0000001
 44
0.0000000001
 40
0.0
 40
0.0
 40
0.0
 40
0.0
 40
0.2372446848
 40
0.5000016179
 40
0.7627576706
 40
1.0
 40
1.0
 40
1.0
 40
1.0
 10
93.7031809328
 20
65.9476989851
 30
0.0
 10
93.7031809328
 20
65.9013304971
 30
0.0
 10
93.6857847317
 20
65.8035448431
 30
0.0
 10
93.6251697155
 20
65.6661393978
 30
0.0
 10
93.5364815236
 20
65.5449424414
 30
0.0
 10
93.4604953465
 20
65.4809842646
 30
0.0
 10
93.4203393967
 20
65.4578003545
 30
0.0
  0
SPLINE
  5
634
100
AcDbEntity
  8
0
100
AcDbSpline
 62
7
  6
CONTINUOUS
 70
0
 71
3
 72
9
 73
5
 74
0
 42
0.0000001
 43
0.0000001
 44
0.0000000001
 40
0.0
 40
0.0
 40
0.0
 40
0.0
 40
0.2361808484
 40
1.0
 40
1.0
 40
1.0
 40
1.0
 10
54.4637239166
 20
128.2736314943
 30
0.0
 10
54.461443881
 20
128.2656843227
 30
0.0
 10
54.4531999319
 20
128.2316337087
 30
0.0
 10
54.4502216494
 20
128.1964215625
 30
0.0
 10
54.4502216494
 20
128.1696832188
 30
0.0
  0
SPLINE
  5
635
100
AcDbEntity
  8
0
100
AcDbSpline
 62
7
  6
CONTINUOUS
 70
0
 71
3
 72
9
 73
5
 74
0
 42
0.0000001
 43
0.0000001
 44
0.0000000001
 40
0.0
 40
0.0
 40
0.0
 40
0.0
 40
0.4744264594
 40
1.0
 40
1.0
 40
1.0
 40
1.0
 10
53.2454601191
 20
111.5016945692
 30
0.0
 10
53.2454601191
 20
111.4437425713
 30
0.0
 10
53.2671533932
 20
111.3215470018
 30
0.0
 10
53.316897537
 20
111.2088364514
 30
0.0
 10
53.3489975209
 20
111.1532379569
 30
0.0
  0
SPLINE
  5
636
100
AcDbEntity
  8
0
100
AcDbSpline
 62
7
  6
CONTINUOUS
 70
0
 71
3
 72
9
 73
5
 74
0
 42
0.0000001
 43
0.0000001
 44
0.0000000001
 40
0.0
 40
0.0
 40
0.0
 40
0.0
 40
0.5255746477
 40
1.0
 40
1.0
 40
1.0
 40
1.0
 10
53.3489975209
 20
111.1532379569
 30
0.0
 10
53.3810974323
 20
111.0976395881
 30
0.0
 10
53.4538356904
 20
110.998205382
 30
0.0
 10
53.5488136736
 20
110.9183216067
 30
0.0
 10
53.5990015234
 20
110.8893462936
 30
0.0
  0
SPLINE
  5
637
100
AcDbEntity
  8
0
100
AcDbSpline
 62
7
  6
CONTINUOUS
 70
0
 71
3
 72
9
 73
5
 74
0
 42
0.0000001
 43
0.0000001
 44
0.0000000001
 40
0.0
 40
0.0
 40
0.0
 40
0.0
 40
0.2710239438
 40
1.0
 40
1.0
 40
1.0
 40
1.0
 10
89.6527971441
 20
49.1730816732
 30
0.0
 10
89.6561632139
 20
49.1637175533
 30
0.0
 10
89.6707892051
 20
49.1300770471
 30
0.0
 10
89.6969898485
 20
49.1009093519
 30
0.0
 10
89.7201688106
 20
49.0875272802
 30
0.0
  0
SPLINE
  5
638
100
AcDbEntity
  8
0
100
AcDbSpline
 62
7
  6
CONTINUOUS
 70
0
 71
3
 72
11
 73
7
 74
0
 42
0.0000001
 43
0.0000001
 44
0.0000000001
 40
0.0
 40
0.0
 40
0.0
 40
0.0
 40
0.2253709002
 40
0.4875899527
 40
0.7566874432
 40
1.0
 40
1.0
 40
1.0
 40
1.0
 10
86.8995620027
 20
108.8622685545
 30
0.0
 10
87.040765833
 20
108.9143974988
 30
0.0
 10
87.3180562612
 20
109.1013443986
 30
0.0
 10
87.6435590523
 20
109.4936989944
 30
0.0
 10
87.8725475111
 20
109.9627399688
 30
0.0
 10
87.9402805378
 20
110.3050368551
 30
0.0
 10
87.9402805378
 20
110.4675385174
 30
0.0
  0
SPLINE
  5
639
100
AcDbEntity
  8
0
100
AcDbSpline
 62
7
  6
CONTINUOUS
 70
0
 71
3
 72
9
 73
5
 74
0
 42
0.0000001
 43
0.0000001
 44
0.0000000001
 40
0.0
 40
0.0
 40
0.0
 40
0.0
 40
0.5255746477
 40
1.0
 40
1.0
 40
1.0
 40
1.0
 10
59.3594301847
 20
112.5822060462
 30
0.0
 10
59.3915300961
 20
112.5266076774
 30
0.0
 10
59.4642683541
 20
112.4271734714
 30
0.0
 10
59.5592463373
 20
112.3472896961
 30
0.0
 10
59.6094341871
 20
112.318314383
 30
0.0
  0
SPLINE
  5
63A
100
AcDbEntity
  8
0
100
AcDbSpline
 62
7
  6
CONTINUOUS
 70
0
 71
3
 72
9
 73
5
 74
0
 42
0.0000001
 43
0.0000001
 44
0.0000000001
 40
0.0
 40
0.0
 40
0.0
 40
0.0
 40
0.4744264594
 40
1.0
 40
1.0
 40
1.0
 40
1.0
 10
59.2558927828
 20
112.9306626585
 30
0.0
 10
59.2558927829
 20
112.8727106607
 30
0.0
 10
59.2775860569
 20
112.7505150912
 30
0.0
 10
59.3273302007
 20
112.6378045408
 30
0.0
 10
59.3594301847
 20
112.5822060462
 30
0.0
  0
SPLINE
  5
63B
100
AcDbEntity
  8
0
100
AcDbSpline
 62
7
  6
CONTINUOUS
 70
0
 71
3
 72
9
 73
5
 74
0
 42
0.0000001
 43
0.0000001
 44
0.0000000001
 40
0.0
 40
0.0
 40
0.0
 40
0.0
 40
0.5480292197
 40
1.0
 40
1.0
 40
1.0
 40
1.0
 10
90.5565538427
 20
50.6995030899
 30
0.0
 10
90.5403675074
 20
50.6901579607
 30
0.0
 10
90.5071750758
 20
50.6775117927
 30
0.0
 10
90.4714262753
 20
50.684525377
 30
0.0
 10
90.4580770161
 20
50.6922323881
 30
0.0
  0
SPLINE
  5
63C
100
AcDbEntity
  8
0
100
AcDbSpline
 62
7
  6
CONTINUOUS
 70
0
 71
3
 72
9
 73
5
 74
0
 42
0.0000001
 43
0.0000001
 44
0.0000000001
 40
0.0
 40
0.0
 40
0.0
 40
0.0
 40
0.5255746478
 40
1.0
 40
1.0
 40
1.0
 40
1.0
 10
41.1159992759
 20
123.1148175129
 30
0.0
 10
41.1480991873
 20
123.0592191439
 30
0.0
 10
41.2208374456
 20
122.9597849376
 30
0.0
 10
41.3158154291
 20
122.8799011622
 30
0.0
 10
41.3660032791
 20
122.8509258491
 30
0.0
  0
SPLINE
  5
63D
100
AcDbEntity
  8
0
100
AcDbSpline
 62
7
  6
CONTINUOUS
 70
0
 71
3
 72
9
 73
5
 74
0
 42
0.0000001
 43
0.0000001
 44
0.0000000001
 40
0.0
 40
0.0
 40
0.0
 40
0.0
 40
0.4744264597
 40
1.0
 40
1.0
 40
1.0
 40
1.0
 10
41.0124618748
 20
123.4632741179
 30
0.0
 10
41.0124618748
 20
123.4053221212
 30
0.0
 10
41.0341551496
 20
123.2831265542
 30
0.0
 10
41.0838992926
 20
123.1704160063
 30
0.0
 10
41.1159992759
 20
123.1148175129
 30
0.0
  0
SPLINE
  5
63E
100
AcDbEntity
  8
0
100
AcDbSpline
 62
7
  6
CONTINUOUS
 70
0
 71
3
 72
13
 73
9
 74
0
 42
0.0000001
 43
0.0000001
 44
0.0000000001
 40
0.0
 40
0.0
 40
0.0
 40
0.0
 40
0.2699213669
 40
0.561282195
 40
0.6954003054
 40
0.8130386733
 40
0.9128103868
 40
1.0
 40
1.0
 40
1.0
 40
1.0
 10
53.3895005079
 20
126.7408382869
 30
0.0
 10
53.3121564467
 20
126.7855145101
 30
0.0
 10
53.1764114631
 20
126.9206237612
 30
0.0
 10
53.0697656257
 20
127.1289811258
 30
0.0
 10
53.0335287686
 20
127.3062060021
 30
0.0
 10
53.0362618599
 20
127.4237459301
 30
0.0
 10
53.0692580335
 20
127.5213530298
 30
0.0
 10
53.1146193081
 20
127.5676274513
 30
0.0
 10
53.1395835249
 20
127.5820921499
 30
0.0
  0
SPLINE
  5
63F
100
AcDbEntity
  8
0
100
AcDbSpline
 62
7
  6
CONTINUOUS
 70
0
 71
3
 72
9
 73
5
 74
0
 42
0.0000001
 43
0.0000001
 44
0.0000000001
 40
0.0
 40
0.0
 40
0.0
 40
0.0
 40
0.2431469823
 40
1.0
 40
1.0
 40
1.0
 40
1.0
 10
89.8280619177
 20
66.8360848731
 30
0.0
 10
89.8177735865
 20
66.8260673117
 30
0.0
 10
89.7770599339
 20
66.7832430126
 30
0.0
 10
89.7425151703
 20
66.7346611049
 30
0.0
 10
89.7201662497
 20
66.6959514241
 30
0.0
  0
SPLINE
  5
640
100
AcDbEntity
  8
0
100
AcDbSpline
 62
7
  6
CONTINUOUS
 70
0
 71
3
 72
9
 73
5
 74
0
 42
0.0000001
 43
0.0000001
 44
0.0000000001
 40
0.0
 40
0.0
 40
0.0
 40
0.0
 40
0.2554138352
 40
1.0
 40
1.0
 40
1.0
 40
1.0
 10
89.7201662497
 20
66.6959514241
 30
0.0
 10
89.7126320112
 20
66.6829016678
 30
0.0
 10
89.6848310706
 20
66.6308636628
 30
0.0
 10
89.6636131706
 20
66.5751856329
 30
0.0
 10
89.6527976597
 20
66.5326098603
 30
0.0
  0
SPLINE
  5
641
100
AcDbEntity
  8
0
100
AcDbSpline
 62
7
  6
CONTINUOUS
 70
0
 71
3
 72
9
 73
5
 74
0
 42
0.0000001
 43
0.0000001
 44
0.0000000001
 40
0.0
 40
0.0
 40
0.0
 40
0.0
 40
0.4744264597
 40
1.0
 40
1.0
 40
1.0
 40
1.0
 10
41.0124618748
 20
118.5642596151
 30
0.0
 10
41.0124618748
 20
118.5063076184
 30
0.0
 10
41.0341551496
 20
118.3841120514
 30
0.0
 10
41.0838992926
 20
118.2714015035
 30
0.0
 10
41.1159992759
 20
118.2158030101
 30
0.0
  0
SPLINE
  5
642
100
AcDbEntity
  8
0
100
AcDbSpline
 62
7
  6
CONTINUOUS
 70
0
 71
3
 72
9
 73
5
 74
0
 42
0.0000001
 43
0.0000001
 44
0.0000000001
 40
0.0
 40
0.0
 40
0.0
 40
0.0
 40
0.5255746478
 40
1.0
 40
1.0
 40
1.0
 40
1.0
 10
41.1159992759
 20
118.2158030101
 30
0.0
 10
41.1480991873
 20
118.1602046411
 30
0.0
 10
41.2208374456
 20
118.0607704348
 30
0.0
 10
41.3158154291
 20
117.9808866595
 30
0.0
 10
41.3660032791
 20
117.9519113464
 30
0.0
  0
ELLIPSE
  5
643
100
AcDbEntity
  8
0
100
AcDbEllipse
 62
7
  6
CONTINUOUS
 10
56.4496672669
 20
126.0075285455
 30
0.0
 11
-0.2499988803
 21
0.4330133484
 31
0.0
 40
0.5774007686
 41
3.9270375246
 42
5.4977577229
  0
ELLIPSE
  5
644
100
AcDbEntity
  8
0
100
AcDbEllipse
 62
7
  6
CONTINUOUS
 10
55.9557718565
 20
127.1092062511
 30
0.0
 11
-0.2499911189
 21
0.4330192262
 31
0.0
 40
0.5773850953
 41
1.2126059344
 42
2.3562009212
  0
ELLIPSE
  5
645
100
AcDbEntity
  8
0
100
AcDbEllipse
 62
7
  6
CONTINUOUS
 10
55.04777606
 20
120.7073598442
 30
0.0
 11
-0.4999977606
 21
0.8660266967
 31
0.0
 40
0.5774007686
 41
-2.3561477775
 42
-0.785427593
  0
ELLIPSE
  5
646
100
AcDbEntity
  8
0
100
AcDbEllipse
 62
7
  6
CONTINUOUS
 10
55.04777606
 20
114.4611163532
 30
0.0
 11
-0.4999977606
 21
0.8660266967
 31
0.0
 40
0.5774007686
 41
-2.3561477779
 42
-0.7854275956
  0
ELLIPSE
  5
647
100
AcDbEntity
  8
0
100
AcDbEllipse
 62
7
  6
CONTINUOUS
 10
62.3186779856
 20
107.1055843575
 30
0.0
 11
-0.2499988803
 21
0.4330133484
 31
0.0
 40
0.5774007686
 41
3.9270375414
 42
5.4977577213
  0
ELLIPSE
  5
648
100
AcDbEntity
  8
0
100
AcDbEllipse
 62
7
  6
CONTINUOUS
 10
62.3186779856
 20
116.9036133631
 30
0.0
 11
-0.2499988803
 21
0.4330133484
 31
0.0
 40
0.5774007686
 41
3.9270375414
 42
5.4977577213
  0
ELLIPSE
  5
649
100
AcDbEntity
  8
0
100
AcDbEllipse
 62
7
  6
CONTINUOUS
 10
44.0752470768
 20
127.4362248297
 30
0.0
 11
-0.2499988803
 21
0.4330133484
 31
0.0
 40
0.5774007686
 41
3.9270375246
 42
5.4977577191
  0
ELLIPSE
  5
64A
100
AcDbEntity
  8
0
100
AcDbEllipse
 62
7
  6
CONTINUOUS
 10
50.0856797405
 20
127.0408883961
 30
0.0
 11
-0.2499988803
 21
0.4330133484
 31
0.0
 40
0.5774007686
 41
3.927037522
 42
5.4977576994
  0
ELLIPSE
  5
64B
100
AcDbEntity
  8
0
100
AcDbEllipse
 62
7
  6
CONTINUOUS
 10
44.0752470768
 20
130.5109348095
 30
0.0
 11
-0.2499988803
 21
0.4330133484
 31
0.0
 40
0.5774007686
 41
-2.3561477851
 42
-0.7854276078
  0
ELLIPSE
  5
64C
100
AcDbEntity
  8
0
100
AcDbEllipse
 62
7
  6
CONTINUOUS
 10
56.4496672669
 20
123.3667216054
 30
0.0
 11
-0.2499988803
 21
0.4330133484
 31
0.0
 40
0.5774007686
 41
3.927037522
 42
5.4977576994
  0
ELLIPSE
  5
64D
100
AcDbEntity
  8
0
100
AcDbEllipse
 62
7
  6
CONTINUOUS
 10
62.3186779856
 20
119.9783233429
 30
0.0
 11
-0.2499988803
 21
0.4330133484
 31
0.0
 40
0.5774007686
 41
-2.3561477705
 42
-0.7854276025
  0
ELLIPSE
  5
64E
100
AcDbEntity
  8
0
100
AcDbEllipse
 62
7
  6
CONTINUOUS
 10
62.3186779856
 20
122.619130283
 30
0.0
 11
-0.2499988803
 21
0.4330133484
 31
0.0
 40
0.5774007686
 41
3.9270375414
 42
5.4977577213
  0
ELLIPSE
  5
64F
100
AcDbEntity
  8
0
100
AcDbEllipse
 62
7
  6
CONTINUOUS
 10
44.0752470768
 20
133.1517417496
 30
0.0
 11
-0.2499988803
 21
0.4330133484
 31
0.0
 40
0.5774007686
 41
-2.3561477788
 42
-0.7854275917
  0
ELLIPSE
  5
650
100
AcDbEntity
  8
0
100
AcDbEllipse
 62
7
  6
CONTINUOUS
 10
50.0856797405
 20
114.1681494107
 30
0.0
 11
-0.2499988803
 21
0.4330133484
 31
0.0
 40
0.5774007686
 41
3.9270375246
 42
5.4977577191
  0
ELLIPSE
  5
651
100
AcDbEntity
  8
0
100
AcDbEllipse
 62
7
  6
CONTINUOUS
 10
47.2227244511
 20
125.2250532931
 30
0.0
 11
-0.50003584
 21
0.8660926481
 31
0.0
 40
0.5773128343
 41
5.4978338538
 42
7.0685540383
  0
ELLIPSE
  5
652
100
AcDbEntity
  8
0
100
AcDbEllipse
 62
7
  6
CONTINUOUS
 10
47.2227244511
 20
124.8851857636
 30
0.0
 11
-0.4999977606
 21
0.8660266967
 31
0.0
 40
0.5774007686
 41
0.7854448757
 42
2.356165058
  0
ELLIPSE
  5
653
100
AcDbEntity
  8
0
100
AcDbEllipse
 62
7
  6
CONTINUOUS
 10
47.2227244511
 20
122.2448194706
 30
0.0
 11
-0.50003584
 21
0.8660926481
 31
0.0
 40
0.5773128343
 41
5.4978338563
 42
7.0685540387
  0
ELLIPSE
  5
654
100
AcDbEntity
  8
0
100
AcDbEllipse
 62
7
  6
CONTINUOUS
 10
47.2227244511
 20
118.6389422726
 30
0.0
 11
-0.4999977606
 21
0.8660266967
 31
0.0
 40
0.5774007686
 41
0.7854448761
 42
2.3561650605
  0
ELLIPSE
  5
655
100
AcDbEntity
  8
0
100
AcDbEllipse
 62
7
  6
CONTINUOUS
 10
62.3186779856
 20
119.3274998745
 30
0.0
 11
-0.25001792
 21
0.4330463241
 31
0.0
 40
0.5773128343
 41
-3.9269441142
 42
-2.3562239342
  0
ELLIPSE
  5
656
100
AcDbEntity
  8
0
100
AcDbEllipse
 62
7
  6
CONTINUOUS
 10
52.1848207705
 20
112.9562371891
 30
0.0
 11
-0.25001792
 21
0.4330463241
 31
0.0
 40
0.5773128343
 41
5.4978338488
 42
7.0685540433
  0
ELLIPSE
  5
657
100
AcDbEntity
  8
0
100
AcDbEllipse
 62
7
  6
CONTINUOUS
 10
52.1848207705
 20
110.4811091977
 30
0.0
 11
-0.2499988803
 21
0.4330133484
 31
0.0
 40
0.5774007686
 41
0.7854448711
 42
2.3561650656
  0
ELLIPSE
  5
658
100
AcDbEntity
  8
0
100
AcDbEllipse
 62
7
  6
CONTINUOUS
 10
58.1952534343
 20
119.2842197812
 30
0.0
 11
-0.25001792
 21
0.4330463241
 31
0.0
 40
0.5773128343
 41
5.4978338488
 42
7.0685540433
  0
ELLIPSE
  5
659
100
AcDbEntity
  8
0
100
AcDbEllipse
 62
7
  6
CONTINUOUS
 10
58.1952534343
 20
111.9100772871
 30
0.0
 11
-0.2499988803
 21
0.4330133484
 31
0.0
 40
0.5774007686
 41
0.7854448711
 42
2.3561650656
  0
ELLIPSE
  5
65A
100
AcDbEntity
  8
0
100
AcDbEllipse
 62
7
  6
CONTINUOUS
 10
39.9518225255
 20
129.8168312479
 30
0.0
 11
-0.25001792
 21
0.4330463241
 31
0.0
 40
0.5773128343
 41
5.4978338466
 42
7.0685540266
  0
ELLIPSE
  5
65B
100
AcDbEntity
  8
0
100
AcDbEllipse
 62
7
  6
CONTINUOUS
 10
39.9518225255
 20
122.4426887537
 30
0.0
 11
-0.2499988803
 21
0.4330133484
 31
0.0
 40
0.5774007686
 41
0.7854448878
 42
2.3561650678
  0
ELLIPSE
  5
65C
100
AcDbEntity
  8
0
100
AcDbEllipse
 62
7
  6
CONTINUOUS
 10
45.8208332442
 20
128.8523194968
 30
0.0
 11
-0.2499988803
 21
0.4330133484
 31
0.0
 40
0.5774007686
 41
0.7854448747
 42
2.3561650619
  0
ELLIPSE
  5
65D
100
AcDbEntity
  8
0
100
AcDbEllipse
 62
7
  6
CONTINUOUS
 10
45.8208332442
 20
129.5031429652
 30
0.0
 11
-0.25001792
 21
0.4330463241
 31
0.0
 40
0.5773128343
 41
5.4978338686
 42
7.0685540459
  0
ELLIPSE
  5
65E
100
AcDbEntity
  8
0
100
AcDbEllipse
 62
7
  6
CONTINUOUS
 10
39.9518225255
 20
132.2407177593
 30
0.0
 11
-0.2499988803
 21
0.4330133484
 31
0.0
 40
0.5774007686
 41
0.7854448878
 42
2.3561650678
  0
ELLIPSE
  5
65F
100
AcDbEntity
  8
0
100
AcDbEllipse
 62
7
  6
CONTINUOUS
 10
46.3147286546
 20
132.6753392162
 30
0.0
 11
-0.2500033731
 21
0.4330404469
 31
0.0
 40
0.5773285046
 41
2.3562499517
 42
3.4998449421
  0
ELLIPSE
  5
660
100
AcDbEntity
  8
0
100
AcDbEllipse
 62
7
  6
CONTINUOUS
 10
52.1848207705
 20
125.8289761745
 30
0.0
 11
-0.25001792
 21
0.4330463241
 31
0.0
 40
0.5773128343
 41
5.4978338686
 42
7.0685540459
  0
ELLIPSE
  5
661
100
AcDbEntity
  8
0
100
AcDbEllipse
 62
7
  6
CONTINUOUS
 10
52.1848207705
 20
125.1781527061
 30
0.0
 11
-0.2499988803
 21
0.4330133484
 31
0.0
 40
0.5774007686
 41
0.7854448711
 42
2.3561650656
  0
ELLIPSE
  5
662
100
AcDbEntity
  8
0
100
AcDbEllipse
 62
7
  6
CONTINUOUS
 10
58.1952534343
 20
122.3589297611
 30
0.0
 11
-0.25001792
 21
0.4330463241
 31
0.0
 40
0.5773128343
 41
5.4978338686
 42
7.0685540459
  0
ELLIPSE
  5
663
100
AcDbEntity
  8
0
100
AcDbEllipse
 62
7
  6
CONTINUOUS
 10
58.1952534343
 20
121.7081062926
 30
0.0
 11
-0.2499988803
 21
0.4330133484
 31
0.0
 40
0.5774007686
 41
0.7854448711
 42
2.3561650656
  0
ELLIPSE
  5
664
100
AcDbEntity
  8
0
100
AcDbEllipse
 62
7
  6
CONTINUOUS
 10
58.1952534343
 20
124.3745650639
 30
0.0
 11
-0.2499988803
 21
0.4330133484
 31
0.0
 40
0.5774007686
 41
0.7854448697
 42
2.3561650549
  0
ELLIPSE
  5
665
100
AcDbEntity
  8
0
100
AcDbEllipse
 62
7
  6
CONTINUOUS
 10
39.9518225255
 20
134.9071765305
 30
0.0
 11
-0.2499988803
 21
0.4330133484
 31
0.0
 40
0.5774007686
 41
0.7854448864
 42
2.3561650571
  0
ELLIPSE
  5
666
100
AcDbEntity
  8
0
100
AcDbEllipse
 62
7
  6
CONTINUOUS
 10
39.9518225255
 20
120.0188022423
 30
0.0
 11
-0.25001792
 21
0.4330463241
 31
0.0
 40
0.5773128343
 41
5.4978338466
 42
7.0685540266
  0
ELLIPSE
  5
667
100
AcDbEntity
  8
0
100
AcDbEllipse
 62
7
  6
CONTINUOUS
 10
39.9518225255
 20
117.5436742509
 30
0.0
 11
-0.2499988803
 21
0.4330133484
 31
0.0
 40
0.5774007686
 41
0.7854448878
 42
2.3561650678
  0
ELLIPSE
  5
668
100
AcDbEntity
  8
0
100
AcDbEllipse
 62
7
  6
CONTINUOUS
 10
56.876238859
 20
127.952984414
 30
0.0
 11
0.5247004774
 21
-0.0423752275
 31
0.0
 40
0.572287516
 41
-2.2630008203
 42
-0.6922044933
  0
ELLIPSE
  5
669
100
AcDbEntity
  8
0
100
AcDbEllipse
 62
7
  6
CONTINUOUS
 10
46.3842070241
 20
134.0104247807
 30
0.0
 11
0.5247004774
 21
-0.0423752275
 31
0.0
 40
0.572287516
 41
2.9097252634
 42
4.0201844873
  0
ELLIPSE
  5
66A
100
AcDbEntity
  8
0
100
AcDbEllipse
 62
7
  6
CONTINUOUS
 10
44.0752470768
 20
129.8601113411
 30
0.0
 11
-0.25001792
 21
0.4330463241
 31
0.0
 40
0.5773128343
 41
-3.926944112
 42
-2.3562239175
  0
ELLIPSE
  5
66B
100
AcDbEntity
  8
0
100
AcDbEllipse
 62
7
  6
CONTINUOUS
 10
50.0856797405
 20
126.3900649277
 30
0.0
 11
-0.25001792
 21
0.4330463241
 31
0.0
 40
0.5773128343
 41
-3.926944112
 42
-2.3562239175
  0
ELLIPSE
  5
66C
100
AcDbEntity
  8
0
100
AcDbEllipse
 62
7
  6
CONTINUOUS
 10
44.0752470768
 20
120.0620823355
 30
0.0
 11
-0.25001792
 21
0.4330463241
 31
0.0
 40
0.5773128343
 41
-3.926944112
 42
-2.3562239175
  0
ELLIPSE
  5
66D
100
AcDbEntity
  8
0
100
AcDbEllipse
 62
7
  6
CONTINUOUS
 10
62.3186779856
 20
109.5294708689
 30
0.0
 11
-0.25001792
 21
0.4330463241
 31
0.0
 40
0.5773128343
 41
-3.9269441142
 42
-2.3562239342
  0
ELLIPSE
  5
66E
100
AcDbEntity
  8
0
100
AcDbEllipse
 62
7
  6
CONTINUOUS
 10
62.3186779856
 20
104.6304563661
 30
0.0
 11
-0.25001792
 21
0.4330463241
 31
0.0
 40
0.5773128343
 41
-3.9269441142
 42
-2.3562239342
  0
ELLIPSE
  5
66F
100
AcDbEntity
  8
0
100
AcDbEllipse
 62
7
  6
CONTINUOUS
 10
55.04777606
 20
117.1014826462
 30
0.0
 11
-0.50003584
 21
0.8660926481
 31
0.0
 40
0.5773128343
 41
-3.9269441044
 42
-2.3562239221
  0
ELLIPSE
  5
670
100
AcDbEntity
  8
0
100
AcDbEllipse
 62
7
  6
CONTINUOUS
 10
50.0856797405
 20
111.6930214193
 30
0.0
 11
-0.25001792
 21
0.4330463241
 31
0.0
 40
0.5773128343
 41
-3.926944112
 42
-2.3562239175
  0
ELLIPSE
  5
671
100
AcDbEntity
  8
0
100
AcDbEllipse
 62
7
  6
CONTINUOUS
 10
55.04777606
 20
114.1212488237
 30
0.0
 11
-0.50003584
 21
0.8660926481
 31
0.0
 40
0.5773128343
 41
-3.9269441069
 42
-2.3562239225
  0
ELLIPSE
  5
672
100
AcDbEntity
  8
0
100
AcDbEllipse
 62
7
  6
CONTINUOUS
 10
44.0752470768
 20
132.5265701123
 30
0.0
 11
-0.25001792
 21
0.4330463241
 31
0.0
 40
0.5773128343
 41
-3.9269441013
 42
-2.3562239161
  0
ELLIPSE
  5
673
100
AcDbEntity
  8
0
100
AcDbEllipse
 62
7
  6
CONTINUOUS
 10
62.3186779856
 20
121.9939586457
 30
0.0
 11
-0.25001792
 21
0.4330463241
 31
0.0
 40
0.5773128343
 41
-3.9269441035
 42
-2.3562239328
  0
ELLIPSE
  5
674
100
AcDbEntity
  8
0
100
AcDbEllipse
 62
7
  6
CONTINUOUS
 10
45.8208332442
 20
132.1439499052
 30
0.0
 11
-0.25001792
 21
0.4330463241
 31
0.0
 40
0.5773128343
 41
5.4978338488
 42
7.0685540433
  0
ELLIPSE
  5
675
100
AcDbEntity
  8
0
100
AcDbEllipse
 62
7
  6
CONTINUOUS
 10
45.8208332442
 20
131.518778268
 30
0.0
 11
-0.2499988803
 21
0.4330133484
 31
0.0
 40
0.5774007686
 41
0.7854448697
 42
2.3561650549
  0
ELLIPSE
  5
676
100
AcDbEntity
  8
0
100
AcDbEllipse
 62
7
  6
CONTINUOUS
 10
56.4496672669
 20
125.3823569082
 30
0.0
 11
-0.25001792
 21
0.4330463241
 31
0.0
 40
0.5773128343
 41
-3.9269441013
 42
-2.3562239161
  0
ENDSEC
  0
SECTION
  2
OBJECTS
  0
DICTIONARY
  5
C
100
AcDbDictionary
280
0
281
1
  3
ACAD_GROUP
350
D
  3
ACAD_MLINESTYLE
350
17
  3
ACAD_LAYOUT
350
1A
  3
ACAD_PLOTSETTINGS
350
19
  3
ACAD_PLOTSTYLENAME
350
E
  0
DICTIONARY
  5
D
102
{ACAD_REACTORS
330
C
102
}
100
AcDbDictionary
280
0
281
1
  0
ACDBDICTIONARYWDFLT
  5
E
102
{ACAD_REACTORS
330
C
102
}
100
AcDbDictionary
281
1
  3
Normal
350
F
100
AcDbDictionaryWithDefault
340
F
  0
DICTIONARY
  5
17
102
{ACAD_REACTORS
330
C
102
}
100
AcDbDictionary
280
0
281
1
  3
Standard
350
18
  0
DICTIONARY
  5
19
102
{ACAD_REACTORS
330
C
102
}
100
AcDbDictionary
281
1
  0
DICTIONARY
  5
1A
102
{ACAD_REACTORS
330
C
102
}
100
AcDbDictionary
281
1
  3
Model
350
677
  3
Layout1
350
678
  0
ACDBPLACEHOLDER
  5
F
102
{ACAD_REACTORS
330
E
102
}
  0
MLINESTYLE
  5
18
102
{ACAD_REACTORS
330
17
102
}
100
AcDbMlineStyle
  2
STANDARD
 70
0
  3

 62
256
 51
90.0
 52
90.0
 71
2
 49
0.5
 62
256
  6
BYLAYER
 49
-0.5
 62
256
  6
BYLAYER
  0
LAYOUT
  5
677
102
{ACAD_REACTORS
330
1A
102
}
100
AcDbPlotSettings
  1

  2
none_device
  4

  6

 40
0.0
 41
0.0
 42
0.0
 43
0.0
 44
210.0
 45
297.0
 46
0.0
 47
0.0
 48
0.0
 49
0.0
140
0.0
141
0.0
142
1.0
143
1.0
 70
1024
 72
1
 73
0
 74
0
  7

 75
0
147
1.0
148
0.0
149
0.0
100
AcDbLayout
  1
Model
 70
0
 71
0
 10
0.0
 20
0.0
 11
210.0
 21
297.0
 12
0.0
 22
0.0
 32
0.0
 14
0.0
 24
0.0
 34
0.0
 15
0.0
 25
0.0
 35
0.0
146
0.0
 13
0.0
 23
0.0
 33
0.0
 16
1.0
 26
0.0
 36
0.0
 17
0.0
 27
1.0
 37
0.0
 76
0
330
210
345
0
346
0
  0
LAYOUT
  5
678
102
{ACAD_REACTORS
330
1A
102
}
100
AcDbPlotSettings
  1

  2
none_device
  4

  6

 40
0.0
 41
0.0
 42
0.0
 43
0.0
 44
210.0
 45
297.0
 46
0.0
 47
0.0
 48
0.0
 49
0.0
140
0.0
141
0.0
142
1.0
143
1.0
 70
0
 72
1
 73
0
 74
0
  7

 75
0
147
1.0
148
0.0
149
0.0
100
AcDbLayout
  1
Layout1
 70
0
 71
1
 10
0.0
 20
0.0
 11
210.0
 21
297.0
 12
0.0
 22
0.0
 32
0.0
 14
0.0
 24
0.0
 34
0.0
 15
0.0
 25
0.0
 35
0.0
146
0.0
 13
0.0
 23
0.0
 33
0.0
 16
1.0
 26
0.0
 36
0.0
 17
0.0
 27
1.0
 37
0.0
 76
0
330
211
345
0
346
0
  0
ENDSEC
  0
EOF
