  0
SECTION
  2
HEADER
  9
$ACADVER
  1
AC1009
  9
$INSBASE
 10
0.0
 20
0.0
 30
0.0
  9
$EXTMIN
 10
231.21277
 20
131.505525
 30
0.0
  9
$EXTMAX
 10
251.304017
 20
143.537613
 30
0.0
  9
$LIMMIN
 10
0.0
 20
0.0
  9
$LIMMAX
 10
420.0
 20
297.0
  9
$ORTHOMODE
 70
     0
  9
$REGENMODE
 70
     1
  9
$FILLMODE
 70
     1
  9
$QTEXTMODE
 70
     0
  9
$MIRRTEXT
 70
     1
  9
$DRAGMODE
 70
     2
  9
$LTSCALE
 40
1.0
  9
$OSMODE
 70
     0
  9
$ATTMODE
 70
     1
  9
$TEXTSIZE
 40
2.5
  9
$TRACEWID
 40
1.0
  9
$TEXTSTYLE
  7
WMF-ARIAL1
  9
$CLAYER
  8
0
  9
$CELTYPE
  6
BYLAYER
  9
$CECOLOR
 62
   256
  9
$DIMSCALE
 40
1.0
  9
$DIMASZ
 40
2.5
  9
$DIMEXO
 40
0.625
  9
$DIMDLI
 40
3.75
  9
$DIMRND
 40
0.0
  9
$DIMDLE
 40
0.0
  9
$DIMEXE
 40
1.25
  9
$DIMTP
 40
0.0
  9
$DIMTM
 40
0.0
  9
$DIMTXT
 40
2.5
  9
$DIMCEN
 40
2.5
  9
$DIMTSZ
 40
0.0
  9
$DIMTOL
 70
     0
  9
$DIMLIM
 70
     0
  9
$DIMTIH
 70
     0
  9
$DIMTOH
 70
     0
  9
$DIMSE1
 70
     0
  9
$DIMSE2
 70
     0
  9
$DIMTAD
 70
     1
  9
$DIMZIN
 70
     8
  9
$DIMBLK
  1

  9
$DIMASO
 70
     1
  9
$DIMSHO
 70
     1
  9
$DIMPOST
  1

  9
$DIMAPOST
  1

  9
$DIMALT
 70
     0
  9
$DIMALTD
 70
     4
  9
$DIMALTF
 40
0.0394
  9
$DIMLFAC
 40
1.0
  9
$DIMTOFL
 70
     1
  9
$DIMTVP
 40
0.0
  9
$DIMTIX
 70
     0
  9
$DIMSOXD
 70
     0
  9
$DIMSAH
 70
     0
  9
$DIMBLK1
  1

  9
$DIMBLK2
  1

  9
$DIMSTYLE
  2
STANDARD
  9
$DIMCLRD
 70
     0
  9
$DIMCLRE
 70
     0
  9
$DIMCLRT
 70
     0
  9
$DIMTFAC
 40
1.0
  9
$DIMGAP
 40
0.625
  9
$LUNITS
 70
     2
  9
$LUPREC
 70
     4
  9
$SKETCHINC
 40
1.0
  9
$FILLETRAD
 40
10.0
  9
$AUNITS
 70
     0
  9
$AUPREC
 70
     0
  9
$MENU
  1
acad
  9
$ELEVATION
 40
0.0
  9
$PELEVATION
 40
0.0
  9
$THICKNESS
 40
0.0
  9
$LIMCHECK
 70
     0
  9
$BLIPMODE
 70
     0
  9
$CHAMFERA
 40
10.0
  9
$CHAMFERB
 40
10.0
  9
$SKPOLY
 70
     0
  9
$TDCREATE
 40
2452397.404554
  9
$TDUPDATE
 40
2452397.653429
  9
$TDINDWG
 40
0.016359
  9
$TDUSRTIMER
 40
0.016359
  9
$USRTIMER
 70
     1
  9
$ANGBASE
 50
0.0
  9
$ANGDIR
 70
     0
  9
$PDMODE
 70
     0
  9
$PDSIZE
 40
0.0
  9
$PLINEWID
 40
0.0
  9
$COORDS
 70
     1
  9
$SPLFRAME
 70
     0
  9
$SPLINETYPE
 70
     6
  9
$SPLINESEGS
 70
     8
  9
$ATTDIA
 70
     0
  9
$ATTREQ
 70
     1
  9
$HANDLING
 70
     1
  9
$HANDSEED
  5
11B7
  9
$SURFTAB1
 70
     6
  9
$SURFTAB2
 70
     6
  9
$SURFTYPE
 70
     6
  9
$SURFU
 70
     6
  9
$SURFV
 70
     6
  9
$UCSNAME
  2

  9
$UCSORG
 10
0.0
 20
0.0
 30
0.0
  9
$UCSXDIR
 10
1.0
 20
0.0
 30
0.0
  9
$UCSYDIR
 10
0.0
 20
1.0
 30
0.0
  9
$PUCSNAME
  2

  9
$PUCSORG
 10
0.0
 20
0.0
 30
0.0
  9
$PUCSXDIR
 10
1.0
 20
0.0
 30
0.0
  9
$PUCSYDIR
 10
0.0
 20
1.0
 30
0.0
  9
$USERI1
 70
     0
  9
$USERI2
 70
     0
  9
$USERI3
 70
     0
  9
$USERI4
 70
     0
  9
$USERI5
 70
     0
  9
$USERR1
 40
0.0
  9
$USERR2
 40
0.0
  9
$USERR3
 40
0.0
  9
$USERR4
 40
0.0
  9
$USERR5
 40
0.0
  9
$WORLDVIEW
 70
     1
  9
$SHADEDGE
 70
     3
  9
$SHADEDIF
 70
    70
  9
$TILEMODE
 70
     1
  9
$MAXACTVP
 70
    48
  9
$PLIMCHECK
 70
     0
  9
$PEXTMIN
 10
1.000000E+020
 20
1.000000E+020
 30
1.000000E+020
  9
$PEXTMAX
 10
-1.000000E+020
 20
-1.000000E+020
 30
-1.000000E+020
  9
$PLIMMIN
 10
0.0
 20
0.0
  9
$PLIMMAX
 10
420.0
 20
297.0
  9
$UNITMODE
 70
     0
  9
$VISRETAIN
 70
     1
  9
$PLINEGEN
 70
     0
  9
$PSLTSCALE
 70
     1
  0
ENDSEC
  0
SECTION
  2
TABLES
  0
TABLE
  2
VPORT
 70
     2
  0
VPORT
  2
*ACTIVE
 70
     0
 10
0.0
 20
0.0
 11
1.0
 21
1.0
 12
241.258393
 22
137.521569
 13
0.0
 23
0.0
 14
10.0
 24
10.0
 15
10.0
 25
10.0
 16
0.0
 26
0.0
 36
1.0
 17
0.0
 27
0.0
 37
0.0
 40
12.419321
 41
1.628676
 42
50.0
 43
0.0
 44
0.0
 50
0.0
 51
0.0
 71
     0
 72
   100
 73
     1
 74
     1
 75
     0
 76
     0
 77
     0
 78
     0
  0
ENDTAB
  0
TABLE
  2
LTYPE
 70
     1
  0
LTYPE
  2
CONTINUOUS
 70
     0
  3
Solid line
 72
    65
 73
     0
 40
0.0
  0
ENDTAB
  0
TABLE
  2
LAYER
 70
     2
  0
LAYER
  2
0
 70
     0
 62
     7
  6
CONTINUOUS
  0
ENDTAB
  0
TABLE
  2
STYLE
 70
     6
  0
STYLE
  2
STANDARD
 70
     0
 40
0.0
 41
1.0
 50
0.0
 71
     0
 42
2.5
  3
txt
  4

  0
STYLE
  2
STYLE_STD
 70
     0
 40
0.0
 41
1.0
 50
0.0
 71
     0
 42
2.5
  3
txt
  4

  0
STYLE
  2
STYLE_ITALIQUE
 70
     0
 40
0.0
 41
1.0
 50
0.0
 71
     0
 42
2.5
  3
txt
  4

  0
STYLE
  2
WMF-ARIAL1
 70
     0
 40
0.0
 41
1.0
 50
0.0
 71
     0
 42
2.5
  3
txt
  4

  0
STYLE
  2
WMF-ARIAL0
 70
     0
 40
0.0
 41
1.0
 50
0.0
 71
     0
 42
2.5
  3
txt
  4

  0
ENDTAB
  0
TABLE
  2
VIEW
 70
     0
  0
ENDTAB
  0
TABLE
  2
UCS
 70
     0
  0
ENDTAB
  0
TABLE
  2
APPID
 70
     1
  0
APPID
  2
ACAD
 70
     0
  0
ENDTAB
  0
TABLE
  2
DIMSTYLE
 70
     1
  0
DIMSTYLE
  2
STANDARD
 70
     0
  3

  4

  5

  6

  7

 40
1.0
 41
0.18
 42
0.0625
 43
0.38
 44
0.18
 45
0.0
 46
0.0
 47
0.0
 48
0.0
140
0.18
141
0.09
142
0.0
143
25.4
144
1.0
145
0.0
146
1.0
147
0.09
 71
     0
 72
     0
 73
     1
 74
     1
 75
     0
 76
     0
 77
     0
 78
     0
170
     0
171
     2
172
     0
173
     0
174
     0
175
     0
176
     0
177
     0
178
     0
  0
ENDTAB
  0
ENDSEC
  0
SECTION
  2
BLOCKS
  0
BLOCK
  8
0
  2
$MODEL_SPACE
 70
     0
 10
0.0
 20
0.0
 30
0.0
  3
$MODEL_SPACE
  1

  0
ENDBLK
  5
A75
  8
0
  0
BLOCK
 67
     1
  8
0
  2
$PAPER_SPACE
 70
     0
 10
0.0
 20
0.0
 30
0.0
  3
$PAPER_SPACE
  1

  0
ENDBLK
  5
A73
 67
     1
  8
0
  0
ENDSEC
  0
SECTION
  2
ENTITIES
  0
POLYLINE
  5
DD8
  8
0
 62
     7
 66
     1
 10
0.0
 20
0.0
 30
0.0
  0
VERTEX
  5
DD9
  8
0
 62
     7
 10
241.274132
 20
135.912996
 30
0.0
 40
0.067103
 41
0.067103
  0
VERTEX
  5
DDA
  8
0
 62
     7
 10
241.274132
 20
135.376168
 30
0.0
 40
0.067103
 41
0.067103
  0
SEQEND
  5
DDB
  8
0
 62
     7
  0
POLYLINE
  5
DDC
  8
0
 62
     7
 66
     1
 10
0.0
 20
0.0
 30
0.0
  0
VERTEX
  5
DDD
  8
0
 62
     7
 10
231.409921
 20
136.114306
 30
0.0
 40
0.067103
 41
0.067103
  0
VERTEX
  5
DDE
  8
0
 62
     7
 10
231.409921
 20
135.577478
 30
0.0
 40
0.067103
 41
0.067103
  0
SEQEND
  5
DDF
  8
0
 62
     7
  0
POLYLINE
  5
DE0
  8
0
 62
     7
 66
     1
 10
0.0
 20
0.0
 30
0.0
  0
VERTEX
  5
DE1
  8
0
 62
     7
 10
250.534412
 20
131.551269
 30
0.0
 40
0.067103
 41
0.067103
  0
VERTEX
  5
DE2
  8
0
 62
     7
 10
251.07124
 20
131.551269
 30
0.0
 40
0.067103
 41
0.067103
  0
SEQEND
  5
DE3
  8
0
 62
     7
  0
TEXT
  5
DE4
  8
0
 62
     7
 10
234.362474
 20
133.966995
 30
0.0
 40
1.019973
  1
41/NC
  7
STYLE_STD
  0
POLYLINE
  5
DE5
  8
0
 62
     7
 66
     1
 10
0.0
 20
0.0
 30
0.0
  0
VERTEX
  5
DE6
  8
0
 62
     7
 10
233.389473
 20
133.530822
 30
0.0
 40
0.067103
 41
0.067103
  0
VERTEX
  5
DE7
  8
0
 62
     7
 10
239.328131
 20
133.530822
 30
0.0
 40
0.067103
 41
0.067103
  0
SEQEND
  5
DE8
  8
0
 62
     7
  0
POLYLINE
  5
DE9
  8
0
 62
     7
 66
     1
 10
0.0
 20
0.0
 30
0.0
  0
VERTEX
  5
DEA
  8
0
 62
     7
 10
231.409921
 20
132.289408
 30
0.0
 40
0.067103
 41
0.067103
  0
VERTEX
  5
DEB
  8
0
 62
     7
 10
231.409921
 20
131.75258
 30
0.0
 40
0.067103
 41
0.067103
  0
SEQEND
  5
DEC
  8
0
 62
     7
  0
POLYLINE
  5
DED
  8
0
 62
     7
 66
     1
 10
0.0
 20
0.0
 30
0.0
  0
VERTEX
  5
DEE
  8
0
 62
     7
 10
231.409921
 20
132.692028
 30
0.0
 40
0.067103
 41
0.067103
  0
VERTEX
  5
DEF
  8
0
 62
     7
 10
231.409921
 20
132.624925
 30
0.0
 40
0.067103
 41
0.067103
  0
SEQEND
  5
DF0
  8
0
 62
     7
  0
POLYLINE
  5
DF1
  8
0
 62
     7
 66
     1
 10
0.0
 20
0.0
 30
0.0
  0
VERTEX
  5
DF2
  8
0
 62
     7
 10
231.409921
 20
133.564374
 30
0.0
 40
0.067103
 41
0.067103
  0
VERTEX
  5
DF3
  8
0
 62
     7
 10
231.409921
 20
133.027546
 30
0.0
 40
0.067103
 41
0.067103
  0
SEQEND
  5
DF4
  8
0
 62
     7
  0
POLYLINE
  5
DF5
  8
0
 62
     7
 66
     1
 10
0.0
 20
0.0
 30
0.0
  0
VERTEX
  5
DF6
  8
0
 62
     7
 10
231.409921
 20
133.966995
 30
0.0
 40
0.067103
 41
0.067103
  0
VERTEX
  5
DF7
  8
0
 62
     7
 10
231.409921
 20
133.899891
 30
0.0
 40
0.067103
 41
0.067103
  0
SEQEND
  5
DF8
  8
0
 62
     7
  0
POLYLINE
  5
DF9
  8
0
 62
     7
 66
     1
 10
0.0
 20
0.0
 30
0.0
  0
VERTEX
  5
DFA
  8
0
 62
     7
 10
231.409921
 20
134.83934
 30
0.0
 40
0.067103
 41
0.067103
  0
VERTEX
  5
DFB
  8
0
 62
     7
 10
231.409921
 20
134.302512
 30
0.0
 40
0.067103
 41
0.067103
  0
SEQEND
  5
DFC
  8
0
 62
     7
  0
POLYLINE
  5
DFD
  8
0
 62
     7
 66
     1
 10
0.0
 20
0.0
 30
0.0
  0
VERTEX
  5
DFE
  8
0
 62
     7
 10
231.409921
 20
135.241961
 30
0.0
 40
0.067103
 41
0.067103
  0
VERTEX
  5
DFF
  8
0
 62
     7
 10
231.409921
 20
135.174857
 30
0.0
 40
0.067103
 41
0.067103
  0
SEQEND
  5
E00
  8
0
 62
     7
  0
POLYLINE
  5
E01
  8
0
 62
     7
 66
     1
 10
0.0
 20
0.0
 30
0.0
  0
VERTEX
  5
E02
  8
0
 62
     7
 10
233.959853
 20
131.551269
 30
0.0
 40
0.067103
 41
0.067103
  0
VERTEX
  5
E03
  8
0
 62
     7
 10
234.496681
 20
131.551269
 30
0.0
 40
0.067103
 41
0.067103
  0
SEQEND
  5
E04
  8
0
 62
     7
  0
POLYLINE
  5
E05
  8
0
 62
     7
 66
     1
 10
0.0
 20
0.0
 30
0.0
  0
VERTEX
  5
E06
  8
0
 62
     7
 10
233.557232
 20
131.551269
 30
0.0
 40
0.067103
 41
0.067103
  0
VERTEX
  5
E07
  8
0
 62
     7
 10
233.624335
 20
131.551269
 30
0.0
 40
0.067103
 41
0.067103
  0
SEQEND
  5
E08
  8
0
 62
     7
  0
POLYLINE
  5
E09
  8
0
 62
     7
 66
     1
 10
0.0
 20
0.0
 30
0.0
  0
VERTEX
  5
E0A
  8
0
 62
     7
 10
232.684887
 20
131.551269
 30
0.0
 40
0.067103
 41
0.067103
  0
VERTEX
  5
E0B
  8
0
 62
     7
 10
233.221715
 20
131.551269
 30
0.0
 40
0.067103
 41
0.067103
  0
SEQEND
  5
E0C
  8
0
 62
     7
  0
POLYLINE
  5
E0D
  8
0
 62
     7
 66
     1
 10
0.0
 20
0.0
 30
0.0
  0
VERTEX
  5
E0E
  8
0
 62
     7
 10
232.282266
 20
131.551269
 30
0.0
 40
0.067103
 41
0.067103
  0
VERTEX
  5
E0F
  8
0
 62
     7
 10
232.349369
 20
131.551269
 30
0.0
 40
0.067103
 41
0.067103
  0
SEQEND
  5
E10
  8
0
 62
     7
  0
POLYLINE
  5
E11
  8
0
 62
     7
 66
     1
 10
0.0
 20
0.0
 30
0.0
  0
VERTEX
  5
E12
  8
0
 62
     7
 10
231.409921
 20
131.551269
 30
0.0
 40
0.067103
 41
0.067103
  0
VERTEX
  5
E13
  8
0
 62
     7
 10
231.946748
 20
131.551269
 30
0.0
 40
0.067103
 41
0.067103
  0
SEQEND
  5
E14
  8
0
 62
     7
  0
POLYLINE
  5
E15
  8
0
 62
     7
 66
     1
 10
0.0
 20
0.0
 30
0.0
  0
VERTEX
  5
E16
  8
0
 62
     7
 10
239.328131
 20
133.530822
 30
0.0
 40
0.067103
 41
0.067103
  0
VERTEX
  5
E17
  8
0
 62
     7
 10
244.092478
 20
135.510375
 30
0.0
 40
0.067103
 41
0.067103
  0
SEQEND
  5
E18
  8
0
 62
     7
  0
POLYLINE
  5
E19
  8
0
 62
     7
 66
     1
 10
0.0
 20
0.0
 30
0.0
  0
VERTEX
  5
E1A
  8
0
 62
     7
 10
237.784751
 20
131.551269
 30
0.0
 40
0.067103
 41
0.067103
  0
VERTEX
  5
E1B
  8
0
 62
     7
 10
238.321579
 20
131.551269
 30
0.0
 40
0.067103
 41
0.067103
  0
SEQEND
  5
E1C
  8
0
 62
     7
  0
POLYLINE
  5
E1D
  8
0
 62
     7
 66
     1
 10
0.0
 20
0.0
 30
0.0
  0
VERTEX
  5
E1E
  8
0
 62
     7
 10
237.38213
 20
131.551269
 30
0.0
 40
0.067103
 41
0.067103
  0
VERTEX
  5
E1F
  8
0
 62
     7
 10
237.449234
 20
131.551269
 30
0.0
 40
0.067103
 41
0.067103
  0
SEQEND
  5
E20
  8
0
 62
     7
  0
POLYLINE
  5
E21
  8
0
 62
     7
 66
     1
 10
0.0
 20
0.0
 30
0.0
  0
VERTEX
  5
E22
  8
0
 62
     7
 10
236.509785
 20
131.551269
 30
0.0
 40
0.067103
 41
0.067103
  0
VERTEX
  5
E23
  8
0
 62
     7
 10
237.046613
 20
131.551269
 30
0.0
 40
0.067103
 41
0.067103
  0
SEQEND
  5
E24
  8
0
 62
     7
  0
POLYLINE
  5
E25
  8
0
 62
     7
 66
     1
 10
0.0
 20
0.0
 30
0.0
  0
VERTEX
  5
E26
  8
0
 62
     7
 10
236.107164
 20
131.551269
 30
0.0
 40
0.067103
 41
0.067103
  0
VERTEX
  5
E27
  8
0
 62
     7
 10
236.174268
 20
131.551269
 30
0.0
 40
0.067103
 41
0.067103
  0
SEQEND
  5
E28
  8
0
 62
     7
  0
POLYLINE
  5
E29
  8
0
 62
     7
 66
     1
 10
0.0
 20
0.0
 30
0.0
  0
VERTEX
  5
E2A
  8
0
 62
     7
 10
235.234819
 20
131.551269
 30
0.0
 40
0.067103
 41
0.067103
  0
VERTEX
  5
E2B
  8
0
 62
     7
 10
235.771647
 20
131.551269
 30
0.0
 40
0.067103
 41
0.067103
  0
SEQEND
  5
E2C
  8
0
 62
     7
  0
POLYLINE
  5
E2D
  8
0
 62
     7
 66
     1
 10
0.0
 20
0.0
 30
0.0
  0
VERTEX
  5
E2E
  8
0
 62
     7
 10
234.832198
 20
131.551269
 30
0.0
 40
0.067103
 41
0.067103
  0
VERTEX
  5
E2F
  8
0
 62
     7
 10
234.899301
 20
131.551269
 30
0.0
 40
0.067103
 41
0.067103
  0
SEQEND
  5
E30
  8
0
 62
     7
  0
POLYLINE
  5
E31
  8
0
 62
     7
 66
     1
 10
0.0
 20
0.0
 30
0.0
  0
VERTEX
  5
E32
  8
0
 62
     7
 10
241.274132
 20
135.04065
 30
0.0
 40
0.067103
 41
0.067103
  0
VERTEX
  5
E33
  8
0
 62
     7
 10
241.274132
 20
134.503822
 30
0.0
 40
0.067103
 41
0.067103
  0
SEQEND
  5
E34
  8
0
 62
     7
  0
POLYLINE
  5
E35
  8
0
 62
     7
 66
     1
 10
0.0
 20
0.0
 30
0.0
  0
VERTEX
  5
E36
  8
0
 62
     7
 10
242.481995
 20
131.551269
 30
0.0
 40
0.067103
 41
0.067103
  0
VERTEX
  5
E37
  8
0
 62
     7
 10
242.549098
 20
131.551269
 30
0.0
 40
0.067103
 41
0.067103
  0
SEQEND
  5
E38
  8
0
 62
     7
  0
POLYLINE
  5
E39
  8
0
 62
     7
 66
     1
 10
0.0
 20
0.0
 30
0.0
  0
VERTEX
  5
E3A
  8
0
 62
     7
 10
241.609649
 20
131.551269
 30
0.0
 40
0.067103
 41
0.067103
  0
VERTEX
  5
E3B
  8
0
 62
     7
 10
242.146477
 20
131.551269
 30
0.0
 40
0.067103
 41
0.067103
  0
SEQEND
  5
E3C
  8
0
 62
     7
  0
POLYLINE
  5
E3D
  8
0
 62
     7
 66
     1
 10
0.0
 20
0.0
 30
0.0
  0
VERTEX
  5
E3E
  8
0
 62
     7
 10
241.207029
 20
131.551269
 30
0.0
 40
0.067103
 41
0.067103
  0
VERTEX
  5
E3F
  8
0
 62
     7
 10
241.274132
 20
131.551269
 30
0.0
 40
0.067103
 41
0.067103
  0
SEQEND
  5
E40
  8
0
 62
     7
  0
POLYLINE
  5
E41
  8
0
 62
     7
 66
     1
 10
0.0
 20
0.0
 30
0.0
  0
VERTEX
  5
E42
  8
0
 62
     7
 10
240.334683
 20
131.551269
 30
0.0
 40
0.067103
 41
0.067103
  0
VERTEX
  5
E43
  8
0
 62
     7
 10
240.871511
 20
131.551269
 30
0.0
 40
0.067103
 41
0.067103
  0
SEQEND
  5
E44
  8
0
 62
     7
  0
POLYLINE
  5
E45
  8
0
 62
     7
 66
     1
 10
0.0
 20
0.0
 30
0.0
  0
VERTEX
  5
E46
  8
0
 62
     7
 10
239.932062
 20
131.551269
 30
0.0
 40
0.067103
 41
0.067103
  0
VERTEX
  5
E47
  8
0
 62
     7
 10
239.999166
 20
131.551269
 30
0.0
 40
0.067103
 41
0.067103
  0
SEQEND
  5
E48
  8
0
 62
     7
  0
POLYLINE
  5
E49
  8
0
 62
     7
 66
     1
 10
0.0
 20
0.0
 30
0.0
  0
VERTEX
  5
E4A
  8
0
 62
     7
 10
239.059717
 20
131.551269
 30
0.0
 40
0.067103
 41
0.067103
  0
VERTEX
  5
E4B
  8
0
 62
     7
 10
239.596545
 20
131.551269
 30
0.0
 40
0.067103
 41
0.067103
  0
SEQEND
  5
E4C
  8
0
 62
     7
  0
POLYLINE
  5
E4D
  8
0
 62
     7
 66
     1
 10
0.0
 20
0.0
 30
0.0
  0
VERTEX
  5
E4E
  8
0
 62
     7
 10
238.657096
 20
131.551269
 30
0.0
 40
0.067103
 41
0.067103
  0
VERTEX
  5
E4F
  8
0
 62
     7
 10
238.7242
 20
131.551269
 30
0.0
 40
0.067103
 41
0.067103
  0
SEQEND
  5
E50
  8
0
 62
     7
  0
POLYLINE
  5
E51
  8
0
 62
     7
 66
     1
 10
0.0
 20
0.0
 30
0.0
  0
VERTEX
  5
E52
  8
0
 62
     7
 10
246.709514
 20
131.551269
 30
0.0
 40
0.067103
 41
0.067103
  0
VERTEX
  5
E53
  8
0
 62
     7
 10
247.246342
 20
131.551269
 30
0.0
 40
0.067103
 41
0.067103
  0
SEQEND
  5
E54
  8
0
 62
     7
  0
TEXT
  5
E55
  8
0
 62
     7
 10
244.260237
 20
133.966995
 30
0.0
 40
1.019973
  1
42/NC
  7
STYLE_STD
  0
POLYLINE
  5
E56
  8
0
 62
     7
 66
     1
 10
0.0
 20
0.0
 30
0.0
  0
VERTEX
  5
E57
  8
0
 62
     7
 10
243.287236
 20
135.510375
 30
0.0
 40
0.067103
 41
0.067103
  0
VERTEX
  5
E58
  8
0
 62
     7
 10
243.287236
 20
133.530822
 30
0.0
 40
0.067103
 41
0.067103
  0
VERTEX
  5
E59
  8
0
 62
     7
 10
249.225894
 20
133.530822
 30
0.0
 40
0.067103
 41
0.067103
  0
SEQEND
  5
E5A
  8
0
 62
     7
  0
POLYLINE
  5
E5B
  8
0
 62
     7
 66
     1
 10
0.0
 20
0.0
 30
0.0
  0
VERTEX
  5
E5C
  8
0
 62
     7
 10
246.306893
 20
131.551269
 30
0.0
 40
0.067103
 41
0.067103
  0
VERTEX
  5
E5D
  8
0
 62
     7
 10
246.373996
 20
131.551269
 30
0.0
 40
0.067103
 41
0.067103
  0
SEQEND
  5
E5E
  8
0
 62
     7
  0
POLYLINE
  5
E5F
  8
0
 62
     7
 66
     1
 10
0.0
 20
0.0
 30
0.0
  0
VERTEX
  5
E60
  8
0
 62
     7
 10
245.434548
 20
131.551269
 30
0.0
 40
0.067103
 41
0.067103
  0
VERTEX
  5
E61
  8
0
 62
     7
 10
245.971376
 20
131.551269
 30
0.0
 40
0.067103
 41
0.067103
  0
SEQEND
  5
E62
  8
0
 62
     7
  0
POLYLINE
  5
E63
  8
0
 62
     7
 66
     1
 10
0.0
 20
0.0
 30
0.0
  0
VERTEX
  5
E64
  8
0
 62
     7
 10
245.031927
 20
131.551269
 30
0.0
 40
0.067103
 41
0.067103
  0
VERTEX
  5
E65
  8
0
 62
     7
 10
245.09903
 20
131.551269
 30
0.0
 40
0.067103
 41
0.067103
  0
SEQEND
  5
E66
  8
0
 62
     7
  0
POLYLINE
  5
E67
  8
0
 62
     7
 66
     1
 10
0.0
 20
0.0
 30
0.0
  0
VERTEX
  5
E68
  8
0
 62
     7
 10
244.159582
 20
131.551269
 30
0.0
 40
0.067103
 41
0.067103
  0
VERTEX
  5
E69
  8
0
 62
     7
 10
244.696409
 20
131.551269
 30
0.0
 40
0.067103
 41
0.067103
  0
SEQEND
  5
E6A
  8
0
 62
     7
  0
POLYLINE
  5
E6B
  8
0
 62
     7
 66
     1
 10
0.0
 20
0.0
 30
0.0
  0
VERTEX
  5
E6C
  8
0
 62
     7
 10
243.756961
 20
131.551269
 30
0.0
 40
0.067103
 41
0.067103
  0
VERTEX
  5
E6D
  8
0
 62
     7
 10
243.824064
 20
131.551269
 30
0.0
 40
0.067103
 41
0.067103
  0
SEQEND
  5
E6E
  8
0
 62
     7
  0
POLYLINE
  5
E6F
  8
0
 62
     7
 66
     1
 10
0.0
 20
0.0
 30
0.0
  0
VERTEX
  5
E70
  8
0
 62
     7
 10
242.884616
 20
131.551269
 30
0.0
 40
0.067103
 41
0.067103
  0
VERTEX
  5
E71
  8
0
 62
     7
 10
243.421443
 20
131.551269
 30
0.0
 40
0.067103
 41
0.067103
  0
SEQEND
  5
E72
  8
0
 62
     7
  0
POLYLINE
  5
E73
  8
0
 62
     7
 66
     1
 10
0.0
 20
0.0
 30
0.0
  0
VERTEX
  5
E74
  8
0
 62
     7
 10
250.131791
 20
131.551269
 30
0.0
 40
0.067103
 41
0.067103
  0
VERTEX
  5
E75
  8
0
 62
     7
 10
250.198895
 20
131.551269
 30
0.0
 40
0.067103
 41
0.067103
  0
SEQEND
  5
E76
  8
0
 62
     7
  0
POLYLINE
  5
E77
  8
0
 62
     7
 66
     1
 10
0.0
 20
0.0
 30
0.0
  0
VERTEX
  5
E78
  8
0
 62
     7
 10
249.259446
 20
131.551269
 30
0.0
 40
0.067103
 41
0.067103
  0
VERTEX
  5
E79
  8
0
 62
     7
 10
249.796274
 20
131.551269
 30
0.0
 40
0.067103
 41
0.067103
  0
SEQEND
  5
E7A
  8
0
 62
     7
  0
POLYLINE
  5
E7B
  8
0
 62
     7
 66
     1
 10
0.0
 20
0.0
 30
0.0
  0
VERTEX
  5
E7C
  8
0
 62
     7
 10
248.856825
 20
131.551269
 30
0.0
 40
0.067103
 41
0.067103
  0
VERTEX
  5
E7D
  8
0
 62
     7
 10
248.923929
 20
131.551269
 30
0.0
 40
0.067103
 41
0.067103
  0
SEQEND
  5
E7E
  8
0
 62
     7
  0
POLYLINE
  5
E7F
  8
0
 62
     7
 66
     1
 10
0.0
 20
0.0
 30
0.0
  0
VERTEX
  5
E80
  8
0
 62
     7
 10
247.98448
 20
131.551269
 30
0.0
 40
0.067103
 41
0.067103
  0
VERTEX
  5
E81
  8
0
 62
     7
 10
248.521308
 20
131.551269
 30
0.0
 40
0.067103
 41
0.067103
  0
SEQEND
  5
E82
  8
0
 62
     7
  0
POLYLINE
  5
E83
  8
0
 62
     7
 66
     1
 10
0.0
 20
0.0
 30
0.0
  0
VERTEX
  5
E84
  8
0
 62
     7
 10
247.581859
 20
131.551269
 30
0.0
 40
0.067103
 41
0.067103
  0
VERTEX
  5
E85
  8
0
 62
     7
 10
247.648963
 20
131.551269
 30
0.0
 40
0.067103
 41
0.067103
  0
SEQEND
  5
E86
  8
0
 62
     7
  0
POLYLINE
  5
E87
  8
0
 62
     7
 66
     1
 10
0.0
 20
0.0
 30
0.0
  0
VERTEX
  5
E88
  8
0
 62
     7
 10
251.205447
 20
135.577478
 30
0.0
 40
0.067103
 41
0.067103
  0
VERTEX
  5
E89
  8
0
 62
     7
 10
251.205447
 20
135.644582
 30
0.0
 40
0.067103
 41
0.067103
  0
SEQEND
  5
E8A
  8
0
 62
     7
  0
POLYLINE
  5
E8B
  8
0
 62
     7
 66
     1
 10
0.0
 20
0.0
 30
0.0
  0
VERTEX
  5
E8C
  8
0
 62
     7
 10
251.205447
 20
134.705133
 30
0.0
 40
0.067103
 41
0.067103
  0
VERTEX
  5
E8D
  8
0
 62
     7
 10
251.205447
 20
135.241961
 30
0.0
 40
0.067103
 41
0.067103
  0
SEQEND
  5
E8E
  8
0
 62
     7
  0
POLYLINE
  5
E8F
  8
0
 62
     7
 66
     1
 10
0.0
 20
0.0
 30
0.0
  0
VERTEX
  5
E90
  8
0
 62
     7
 10
251.205447
 20
134.302512
 30
0.0
 40
0.067103
 41
0.067103
  0
VERTEX
  5
E91
  8
0
 62
     7
 10
251.205447
 20
134.369615
 30
0.0
 40
0.067103
 41
0.067103
  0
SEQEND
  5
E92
  8
0
 62
     7
  0
POLYLINE
  5
E93
  8
0
 62
     7
 66
     1
 10
0.0
 20
0.0
 30
0.0
  0
VERTEX
  5
E94
  8
0
 62
     7
 10
251.205447
 20
133.430167
 30
0.0
 40
0.067103
 41
0.067103
  0
VERTEX
  5
E95
  8
0
 62
     7
 10
251.205447
 20
133.966995
 30
0.0
 40
0.067103
 41
0.067103
  0
SEQEND
  5
E96
  8
0
 62
     7
  0
POLYLINE
  5
E97
  8
0
 62
     7
 66
     1
 10
0.0
 20
0.0
 30
0.0
  0
VERTEX
  5
E98
  8
0
 62
     7
 10
251.205447
 20
133.027546
 30
0.0
 40
0.067103
 41
0.067103
  0
VERTEX
  5
E99
  8
0
 62
     7
 10
251.205447
 20
133.094649
 30
0.0
 40
0.067103
 41
0.067103
  0
SEQEND
  5
E9A
  8
0
 62
     7
  0
POLYLINE
  5
E9B
  8
0
 62
     7
 66
     1
 10
0.0
 20
0.0
 30
0.0
  0
VERTEX
  5
E9C
  8
0
 62
     7
 10
251.205447
 20
132.155201
 30
0.0
 40
0.067103
 41
0.067103
  0
VERTEX
  5
E9D
  8
0
 62
     7
 10
251.205447
 20
132.692028
 30
0.0
 40
0.067103
 41
0.067103
  0
SEQEND
  5
E9E
  8
0
 62
     7
  0
POLYLINE
  5
E9F
  8
0
 62
     7
 66
     1
 10
0.0
 20
0.0
 30
0.0
  0
VERTEX
  5
EA0
  8
0
 62
     7
 10
251.205447
 20
131.75258
 30
0.0
 40
0.067103
 41
0.067103
  0
VERTEX
  5
EA1
  8
0
 62
     7
 10
251.205447
 20
131.819683
 30
0.0
 40
0.067103
 41
0.067103
  0
SEQEND
  5
EA2
  8
0
 62
     7
  0
POLYLINE
  5
EA3
  8
0
 62
     7
 66
     1
 10
0.0
 20
0.0
 30
0.0
  0
VERTEX
  5
EA4
  8
0
 62
     7
 10
251.173653
 20
143.528756
 30
0.0
 40
0.20131
 41
0.20131
  0
VERTEX
  5
EA5
  8
0
 62
     7
 10
251.171895
 20
141.449033
 30
0.0
 40
0.20131
 41
0.20131
  0
VERTEX
  5
EA6
  8
0
 62
     7
 10
231.342817
 20
141.449033
 30
0.0
 40
0.20131
 41
0.20131
  0
SEQEND
  5
EA7
  8
0
 62
     7
  0
POLYLINE
  5
EA8
  8
0
 62
     7
 66
     1
 10
0.0
 20
0.0
 30
0.0
  0
VERTEX
  5
EA9
  8
0
 62
     7
 10
231.342841
 20
141.348321
 30
0.0
 40
0.20131
 41
0.20131
  0
VERTEX
  5
EAA
  8
0
 62
     7
 10
231.342817
 20
143.428585
 30
0.0
 40
0.20131
 41
0.20131
  0
VERTEX
  5
EAB
  8
0
 62
     7
 10
251.171895
 20
143.428585
 30
0.0
 40
0.20131
 41
0.20131
  0
SEQEND
  5
EAC
  8
0
 62
     7
  0
TEXT
  5
EB5
  8
0
 62
     7
 10
231.678334
 20
141.885205
 30
0.0
 40
1.019973
  1
LUFN02
  7
STYLE_STD
  0
POLYLINE
  5
EB6
  8
0
 62
     7
 66
     1
 10
0.0
 20
0.0
 30
0.0
  0
VERTEX
  5
EB7
  8
0
 62
     7
 10
234.999957
 20
141.449033
 30
0.0
 40
0.067103
 41
0.067103
  0
VERTEX
  5
EB8
  8
0
 62
     7
 10
234.463129
 20
141.449033
 30
0.0
 40
0.067103
 41
0.067103
  0
SEQEND
  5
EB9
  8
0
 62
     7
  0
TEXT
  5
EBA
  8
0
 62
     7
 10
234.362474
 20
139.905653
 30
0.0
 40
1.019973
  1
31/NC
  7
STYLE_STD
  0
POLYLINE
  5
EBB
  8
0
 62
     7
 66
     1
 10
0.0
 20
0.0
 30
0.0
  0
VERTEX
  5
EBC
  8
0
 62
     7
 10
233.389473
 20
139.46948
 30
0.0
 40
0.067103
 41
0.067103
  0
VERTEX
  5
EBD
  8
0
 62
     7
 10
239.328131
 20
139.46948
 30
0.0
 40
0.067103
 41
0.067103
  0
SEQEND
  5
EBE
  8
0
 62
     7
  0
POLYLINE
  5
EBF
  8
0
 62
     7
 66
     1
 10
0.0
 20
0.0
 30
0.0
  0
VERTEX
  5
EC0
  8
0
 62
     7
 10
231.409921
 20
136.516927
 30
0.0
 40
0.067103
 41
0.067103
  0
VERTEX
  5
EC1
  8
0
 62
     7
 10
231.409921
 20
136.449823
 30
0.0
 40
0.067103
 41
0.067103
  0
SEQEND
  5
EC2
  8
0
 62
     7
  0
POLYLINE
  5
EC3
  8
0
 62
     7
 66
     1
 10
0.0
 20
0.0
 30
0.0
  0
VERTEX
  5
EC4
  8
0
 62
     7
 10
231.409921
 20
137.389272
 30
0.0
 40
0.067103
 41
0.067103
  0
VERTEX
  5
EC5
  8
0
 62
     7
 10
231.409921
 20
136.852444
 30
0.0
 40
0.067103
 41
0.067103
  0
SEQEND
  5
EC6
  8
0
 62
     7
  0
POLYLINE
  5
EC7
  8
0
 62
     7
 66
     1
 10
0.0
 20
0.0
 30
0.0
  0
VERTEX
  5
EC8
  8
0
 62
     7
 10
231.409921
 20
137.791893
 30
0.0
 40
0.067103
 41
0.067103
  0
VERTEX
  5
EC9
  8
0
 62
     7
 10
231.409921
 20
137.724789
 30
0.0
 40
0.067103
 41
0.067103
  0
SEQEND
  5
ECA
  8
0
 62
     7
  0
POLYLINE
  5
ECB
  8
0
 62
     7
 66
     1
 10
0.0
 20
0.0
 30
0.0
  0
VERTEX
  5
ECC
  8
0
 62
     7
 10
231.409921
 20
138.664238
 30
0.0
 40
0.067103
 41
0.067103
  0
VERTEX
  5
ECD
  8
0
 62
     7
 10
231.409921
 20
138.12741
 30
0.0
 40
0.067103
 41
0.067103
  0
SEQEND
  5
ECE
  8
0
 62
     7
  0
POLYLINE
  5
ECF
  8
0
 62
     7
 66
     1
 10
0.0
 20
0.0
 30
0.0
  0
VERTEX
  5
ED0
  8
0
 62
     7
 10
231.409921
 20
139.066859
 30
0.0
 40
0.067103
 41
0.067103
  0
VERTEX
  5
ED1
  8
0
 62
     7
 10
231.409921
 20
138.999756
 30
0.0
 40
0.067103
 41
0.067103
  0
SEQEND
  5
ED2
  8
0
 62
     7
  0
POLYLINE
  5
ED3
  8
0
 62
     7
 66
     1
 10
0.0
 20
0.0
 30
0.0
  0
VERTEX
  5
ED4
  8
0
 62
     7
 10
231.409921
 20
139.939204
 30
0.0
 40
0.067103
 41
0.067103
  0
VERTEX
  5
ED5
  8
0
 62
     7
 10
231.409921
 20
139.402376
 30
0.0
 40
0.067103
 41
0.067103
  0
SEQEND
  5
ED6
  8
0
 62
     7
  0
POLYLINE
  5
ED7
  8
0
 62
     7
 66
     1
 10
0.0
 20
0.0
 30
0.0
  0
VERTEX
  5
ED8
  8
0
 62
     7
 10
231.409921
 20
140.341825
 30
0.0
 40
0.067103
 41
0.067103
  0
VERTEX
  5
ED9
  8
0
 62
     7
 10
231.409921
 20
140.274722
 30
0.0
 40
0.067103
 41
0.067103
  0
SEQEND
  5
EDA
  8
0
 62
     7
  0
POLYLINE
  5
EDB
  8
0
 62
     7
 66
     1
 10
0.0
 20
0.0
 30
0.0
  0
VERTEX
  5
EDC
  8
0
 62
     7
 10
231.409921
 20
141.21417
 30
0.0
 40
0.067103
 41
0.067103
  0
VERTEX
  5
EDD
  8
0
 62
     7
 10
231.409921
 20
140.677343
 30
0.0
 40
0.067103
 41
0.067103
  0
SEQEND
  5
EDE
  8
0
 62
     7
  0
POLYLINE
  5
EDF
  8
0
 62
     7
 66
     1
 10
0.0
 20
0.0
 30
0.0
  0
VERTEX
  5
EE0
  8
0
 62
     7
 10
231.577679
 20
141.449033
 30
0.0
 40
0.067103
 41
0.067103
  0
VERTEX
  5
EE1
  8
0
 62
     7
 10
231.510576
 20
141.449033
 30
0.0
 40
0.067103
 41
0.067103
  0
SEQEND
  5
EE2
  8
0
 62
     7
  0
POLYLINE
  5
EE3
  8
0
 62
     7
 66
     1
 10
0.0
 20
0.0
 30
0.0
  0
VERTEX
  5
EE4
  8
0
 62
     7
 10
232.450024
 20
141.449033
 30
0.0
 40
0.067103
 41
0.067103
  0
VERTEX
  5
EE5
  8
0
 62
     7
 10
231.913197
 20
141.449033
 30
0.0
 40
0.067103
 41
0.067103
  0
SEQEND
  5
EE6
  8
0
 62
     7
  0
POLYLINE
  5
EE7
  8
0
 62
     7
 66
     1
 10
0.0
 20
0.0
 30
0.0
  0
VERTEX
  5
EE8
  8
0
 62
     7
 10
232.852645
 20
141.449033
 30
0.0
 40
0.067103
 41
0.067103
  0
VERTEX
  5
EE9
  8
0
 62
     7
 10
232.785542
 20
141.449033
 30
0.0
 40
0.067103
 41
0.067103
  0
SEQEND
  5
EEA
  8
0
 62
     7
  0
POLYLINE
  5
EEB
  8
0
 62
     7
 66
     1
 10
0.0
 20
0.0
 30
0.0
  0
VERTEX
  5
EEC
  8
0
 62
     7
 10
233.724991
 20
141.449033
 30
0.0
 40
0.067103
 41
0.067103
  0
VERTEX
  5
EED
  8
0
 62
     7
 10
233.188163
 20
141.449033
 30
0.0
 40
0.067103
 41
0.067103
  0
SEQEND
  5
EEE
  8
0
 62
     7
  0
POLYLINE
  5
EEF
  8
0
 62
     7
 66
     1
 10
0.0
 20
0.0
 30
0.0
  0
VERTEX
  5
EF0
  8
0
 62
     7
 10
234.127611
 20
141.449033
 30
0.0
 40
0.067103
 41
0.067103
  0
VERTEX
  5
EF1
  8
0
 62
     7
 10
234.060508
 20
141.449033
 30
0.0
 40
0.067103
 41
0.067103
  0
SEQEND
  5
EF2
  8
0
 62
     7
  0
POLYLINE
  5
EF3
  8
0
 62
     7
 66
     1
 10
0.0
 20
0.0
 30
0.0
  0
VERTEX
  5
EF4
  8
0
 62
     7
 10
239.328131
 20
139.46948
 30
0.0
 40
0.067103
 41
0.067103
  0
VERTEX
  5
EF5
  8
0
 62
     7
 10
244.461547
 20
141.449033
 30
0.0
 40
0.067103
 41
0.067103
  0
SEQEND
  5
EF6
  8
0
 62
     7
  0
POLYLINE
  5
EF7
  8
0
 62
     7
 66
     1
 10
0.0
 20
0.0
 30
0.0
  0
VERTEX
  5
EF8
  8
0
 62
     7
 10
238.824855
 20
141.449033
 30
0.0
 40
0.067103
 41
0.067103
  0
VERTEX
  5
EF9
  8
0
 62
     7
 10
238.288027
 20
141.449033
 30
0.0
 40
0.067103
 41
0.067103
  0
SEQEND
  5
EFA
  8
0
 62
     7
  0
POLYLINE
  5
EFB
  8
0
 62
     7
 66
     1
 10
0.0
 20
0.0
 30
0.0
  0
VERTEX
  5
EFC
  8
0
 62
     7
 10
235.402578
 20
141.449033
 30
0.0
 40
0.067103
 41
0.067103
  0
VERTEX
  5
EFD
  8
0
 62
     7
 10
235.335474
 20
141.449033
 30
0.0
 40
0.067103
 41
0.067103
  0
SEQEND
  5
EFE
  8
0
 62
     7
  0
POLYLINE
  5
EFF
  8
0
 62
     7
 66
     1
 10
0.0
 20
0.0
 30
0.0
  0
VERTEX
  5
F00
  8
0
 62
     7
 10
236.274923
 20
141.449033
 30
0.0
 40
0.067103
 41
0.067103
  0
VERTEX
  5
F01
  8
0
 62
     7
 10
235.738095
 20
141.449033
 30
0.0
 40
0.067103
 41
0.067103
  0
SEQEND
  5
F02
  8
0
 62
     7
  0
POLYLINE
  5
F03
  8
0
 62
     7
 66
     1
 10
0.0
 20
0.0
 30
0.0
  0
VERTEX
  5
F04
  8
0
 62
     7
 10
236.677544
 20
141.449033
 30
0.0
 40
0.067103
 41
0.067103
  0
VERTEX
  5
F05
  8
0
 62
     7
 10
236.61044
 20
141.449033
 30
0.0
 40
0.067103
 41
0.067103
  0
SEQEND
  5
F06
  8
0
 62
     7
  0
POLYLINE
  5
F07
  8
0
 62
     7
 66
     1
 10
0.0
 20
0.0
 30
0.0
  0
VERTEX
  5
F08
  8
0
 62
     7
 10
237.549889
 20
141.449033
 30
0.0
 40
0.067103
 41
0.067103
  0
VERTEX
  5
F09
  8
0
 62
     7
 10
237.013061
 20
141.449033
 30
0.0
 40
0.067103
 41
0.067103
  0
SEQEND
  5
F0A
  8
0
 62
     7
  0
POLYLINE
  5
F0B
  8
0
 62
     7
 66
     1
 10
0.0
 20
0.0
 30
0.0
  0
VERTEX
  5
F0C
  8
0
 62
     7
 10
237.95251
 20
141.449033
 30
0.0
 40
0.067103
 41
0.067103
  0
VERTEX
  5
F0D
  8
0
 62
     7
 10
237.885406
 20
141.449033
 30
0.0
 40
0.067103
 41
0.067103
  0
SEQEND
  5
F0E
  8
0
 62
     7
  0
POLYLINE
  5
F0F
  8
0
 62
     7
 66
     1
 10
0.0
 20
0.0
 30
0.0
  0
VERTEX
  5
F10
  8
0
 62
     7
 10
241.274132
 20
136.785341
 30
0.0
 40
0.067103
 41
0.067103
  0
VERTEX
  5
F11
  8
0
 62
     7
 10
241.274132
 20
136.248513
 30
0.0
 40
0.067103
 41
0.067103
  0
SEQEND
  5
F12
  8
0
 62
     7
  0
POLYLINE
  5
F13
  8
0
 62
     7
 66
     1
 10
0.0
 20
0.0
 30
0.0
  0
VERTEX
  5
F14
  8
0
 62
     7
 10
241.274132
 20
137.657686
 30
0.0
 40
0.067103
 41
0.067103
  0
VERTEX
  5
F15
  8
0
 62
     7
 10
241.274132
 20
137.120858
 30
0.0
 40
0.067103
 41
0.067103
  0
SEQEND
  5
F16
  8
0
 62
     7
  0
POLYLINE
  5
F17
  8
0
 62
     7
 66
     1
 10
0.0
 20
0.0
 30
0.0
  0
VERTEX
  5
F18
  8
0
 62
     7
 10
241.274132
 20
138.530031
 30
0.0
 40
0.067103
 41
0.067103
  0
VERTEX
  5
F19
  8
0
 62
     7
 10
241.274132
 20
137.993203
 30
0.0
 40
0.067103
 41
0.067103
  0
SEQEND
  5
F1A
  8
0
 62
     7
  0
POLYLINE
  5
F1B
  8
0
 62
     7
 66
     1
 10
0.0
 20
0.0
 30
0.0
  0
VERTEX
  5
F1C
  8
0
 62
     7
 10
241.274132
 20
139.402376
 30
0.0
 40
0.067103
 41
0.067103
  0
VERTEX
  5
F1D
  8
0
 62
     7
 10
241.274132
 20
138.865549
 30
0.0
 40
0.067103
 41
0.067103
  0
SEQEND
  5
F1E
  8
0
 62
     7
  0
POLYLINE
  5
F1F
  8
0
 62
     7
 66
     1
 10
0.0
 20
0.0
 30
0.0
  0
VERTEX
  5
F20
  8
0
 62
     7
 10
241.274132
 20
140.274722
 30
0.0
 40
0.067103
 41
0.067103
  0
VERTEX
  5
F21
  8
0
 62
     7
 10
241.274132
 20
139.737894
 30
0.0
 40
0.067103
 41
0.067103
  0
SEQEND
  5
F22
  8
0
 62
     7
  0
POLYLINE
  5
F23
  8
0
 62
     7
 66
     1
 10
0.0
 20
0.0
 30
0.0
  0
VERTEX
  5
F24
  8
0
 62
     7
 10
239.227476
 20
141.449033
 30
0.0
 40
0.067103
 41
0.067103
  0
VERTEX
  5
F25
  8
0
 62
     7
 10
239.160372
 20
141.449033
 30
0.0
 40
0.067103
 41
0.067103
  0
SEQEND
  5
F26
  8
0
 62
     7
  0
POLYLINE
  5
F27
  8
0
 62
     7
 66
     1
 10
0.0
 20
0.0
 30
0.0
  0
VERTEX
  5
F28
  8
0
 62
     7
 10
240.099821
 20
141.449033
 30
0.0
 40
0.067103
 41
0.067103
  0
VERTEX
  5
F29
  8
0
 62
     7
 10
239.562993
 20
141.449033
 30
0.0
 40
0.067103
 41
0.067103
  0
SEQEND
  5
F2A
  8
0
 62
     7
  0
POLYLINE
  5
F2B
  8
0
 62
     7
 66
     1
 10
0.0
 20
0.0
 30
0.0
  0
VERTEX
  5
F2C
  8
0
 62
     7
 10
240.502442
 20
141.449033
 30
0.0
 40
0.067103
 41
0.067103
  0
VERTEX
  5
F2D
  8
0
 62
     7
 10
240.435339
 20
141.449033
 30
0.0
 40
0.067103
 41
0.067103
  0
SEQEND
  5
F2E
  8
0
 62
     7
  0
POLYLINE
  5
F2F
  8
0
 62
     7
 66
     1
 10
0.0
 20
0.0
 30
0.0
  0
VERTEX
  5
F30
  8
0
 62
     7
 10
241.374787
 20
141.449033
 30
0.0
 40
0.067103
 41
0.067103
  0
VERTEX
  5
F31
  8
0
 62
     7
 10
240.837959
 20
141.449033
 30
0.0
 40
0.067103
 41
0.067103
  0
SEQEND
  5
F32
  8
0
 62
     7
  0
POLYLINE
  5
F33
  8
0
 62
     7
 66
     1
 10
0.0
 20
0.0
 30
0.0
  0
VERTEX
  5
F34
  8
0
 62
     7
 10
241.777408
 20
141.449033
 30
0.0
 40
0.067103
 41
0.067103
  0
VERTEX
  5
F35
  8
0
 62
     7
 10
241.710305
 20
141.449033
 30
0.0
 40
0.067103
 41
0.067103
  0
SEQEND
  5
F36
  8
0
 62
     7
  0
POLYLINE
  5
F37
  8
0
 62
     7
 66
     1
 10
0.0
 20
0.0
 30
0.0
  0
VERTEX
  5
F38
  8
0
 62
     7
 10
242.649753
 20
141.449033
 30
0.0
 40
0.067103
 41
0.067103
  0
VERTEX
  5
F39
  8
0
 62
     7
 10
242.112926
 20
141.449033
 30
0.0
 40
0.067103
 41
0.067103
  0
SEQEND
  5
F3A
  8
0
 62
     7
  0
POLYLINE
  5
F3B
  8
0
 62
     7
 66
     1
 10
0.0
 20
0.0
 30
0.0
  0
VERTEX
  5
F3C
  8
0
 62
     7
 10
246.877273
 20
141.449033
 30
0.0
 40
0.067103
 41
0.067103
  0
VERTEX
  5
F3D
  8
0
 62
     7
 10
246.810169
 20
141.449033
 30
0.0
 40
0.067103
 41
0.067103
  0
SEQEND
  5
F3E
  8
0
 62
     7
  0
TEXT
  5
F3F
  8
0
 62
     7
 10
244.260237
 20
139.905653
 30
0.0
 40
1.019973
  1
32/NC
  7
STYLE_STD
  0
POLYLINE
  5
F40
  8
0
 62
     7
 66
     1
 10
0.0
 20
0.0
 30
0.0
  0
VERTEX
  5
F41
  8
0
 62
     7
 10
243.287236
 20
141.449033
 30
0.0
 40
0.067103
 41
0.067103
  0
VERTEX
  5
F42
  8
0
 62
     7
 10
243.287236
 20
139.46948
 30
0.0
 40
0.067103
 41
0.067103
  0
VERTEX
  5
F43
  8
0
 62
     7
 10
249.225894
 20
139.46948
 30
0.0
 40
0.067103
 41
0.067103
  0
SEQEND
  5
F44
  8
0
 62
     7
  0
POLYLINE
  5
F45
  8
0
 62
     7
 66
     1
 10
0.0
 20
0.0
 30
0.0
  0
VERTEX
  5
F46
  8
0
 62
     7
 10
243.052374
 20
141.449033
 30
0.0
 40
0.067103
 41
0.067103
  0
VERTEX
  5
F47
  8
0
 62
     7
 10
242.985271
 20
141.449033
 30
0.0
 40
0.067103
 41
0.067103
  0
SEQEND
  5
F48
  8
0
 62
     7
  0
POLYLINE
  5
F49
  8
0
 62
     7
 66
     1
 10
0.0
 20
0.0
 30
0.0
  0
VERTEX
  5
F4A
  8
0
 62
     7
 10
243.924719
 20
141.449033
 30
0.0
 40
0.067103
 41
0.067103
  0
VERTEX
  5
F4B
  8
0
 62
     7
 10
243.387892
 20
141.449033
 30
0.0
 40
0.067103
 41
0.067103
  0
SEQEND
  5
F4C
  8
0
 62
     7
  0
POLYLINE
  5
F4D
  8
0
 62
     7
 66
     1
 10
0.0
 20
0.0
 30
0.0
  0
VERTEX
  5
F4E
  8
0
 62
     7
 10
244.32734
 20
141.449033
 30
0.0
 40
0.067103
 41
0.067103
  0
VERTEX
  5
F4F
  8
0
 62
     7
 10
244.260237
 20
141.449033
 30
0.0
 40
0.067103
 41
0.067103
  0
SEQEND
  5
F50
  8
0
 62
     7
  0
POLYLINE
  5
F51
  8
0
 62
     7
 66
     1
 10
0.0
 20
0.0
 30
0.0
  0
VERTEX
  5
F52
  8
0
 62
     7
 10
245.199686
 20
141.449033
 30
0.0
 40
0.067103
 41
0.067103
  0
VERTEX
  5
F53
  8
0
 62
     7
 10
244.662858
 20
141.449033
 30
0.0
 40
0.067103
 41
0.067103
  0
SEQEND
  5
F54
  8
0
 62
     7
  0
POLYLINE
  5
F55
  8
0
 62
     7
 66
     1
 10
0.0
 20
0.0
 30
0.0
  0
VERTEX
  5
F56
  8
0
 62
     7
 10
245.602306
 20
141.449033
 30
0.0
 40
0.067103
 41
0.067103
  0
VERTEX
  5
F57
  8
0
 62
     7
 10
245.535203
 20
141.449033
 30
0.0
 40
0.067103
 41
0.067103
  0
SEQEND
  5
F58
  8
0
 62
     7
  0
POLYLINE
  5
F59
  8
0
 62
     7
 66
     1
 10
0.0
 20
0.0
 30
0.0
  0
VERTEX
  5
F5A
  8
0
 62
     7
 10
246.474652
 20
141.449033
 30
0.0
 40
0.067103
 41
0.067103
  0
VERTEX
  5
F5B
  8
0
 62
     7
 10
245.937824
 20
141.449033
 30
0.0
 40
0.067103
 41
0.067103
  0
SEQEND
  5
F5C
  8
0
 62
     7
  0
POLYLINE
  5
F5D
  8
0
 62
     7
 66
     1
 10
0.0
 20
0.0
 30
0.0
  0
VERTEX
  5
F5E
  8
0
 62
     7
 10
247.749618
 20
141.449033
 30
0.0
 40
0.067103
 41
0.067103
  0
VERTEX
  5
F5F
  8
0
 62
     7
 10
247.21279
 20
141.449033
 30
0.0
 40
0.067103
 41
0.067103
  0
SEQEND
  5
F60
  8
0
 62
     7
  0
POLYLINE
  5
F61
  8
0
 62
     7
 66
     1
 10
0.0
 20
0.0
 30
0.0
  0
VERTEX
  5
F62
  8
0
 62
     7
 10
248.152239
 20
141.449033
 30
0.0
 40
0.067103
 41
0.067103
  0
VERTEX
  5
F63
  8
0
 62
     7
 10
248.085135
 20
141.449033
 30
0.0
 40
0.067103
 41
0.067103
  0
SEQEND
  5
F64
  8
0
 62
     7
  0
POLYLINE
  5
F65
  8
0
 62
     7
 66
     1
 10
0.0
 20
0.0
 30
0.0
  0
VERTEX
  5
F66
  8
0
 62
     7
 10
249.024584
 20
141.449033
 30
0.0
 40
0.067103
 41
0.067103
  0
VERTEX
  5
F67
  8
0
 62
     7
 10
248.487756
 20
141.449033
 30
0.0
 40
0.067103
 41
0.067103
  0
SEQEND
  5
F68
  8
0
 62
     7
  0
POLYLINE
  5
F69
  8
0
 62
     7
 66
     1
 10
0.0
 20
0.0
 30
0.0
  0
VERTEX
  5
F6A
  8
0
 62
     7
 10
249.427205
 20
141.449033
 30
0.0
 40
0.067103
 41
0.067103
  0
VERTEX
  5
F6B
  8
0
 62
     7
 10
249.360101
 20
141.449033
 30
0.0
 40
0.067103
 41
0.067103
  0
SEQEND
  5
F6C
  8
0
 62
     7
  0
POLYLINE
  5
F6D
  8
0
 62
     7
 66
     1
 10
0.0
 20
0.0
 30
0.0
  0
VERTEX
  5
F6E
  8
0
 62
     7
 10
250.29955
 20
141.449033
 30
0.0
 40
0.067103
 41
0.067103
  0
VERTEX
  5
F6F
  8
0
 62
     7
 10
249.762722
 20
141.449033
 30
0.0
 40
0.067103
 41
0.067103
  0
SEQEND
  5
F70
  8
0
 62
     7
  0
POLYLINE
  5
F71
  8
0
 62
     7
 66
     1
 10
0.0
 20
0.0
 30
0.0
  0
VERTEX
  5
F72
  8
0
 62
     7
 10
250.702171
 20
141.449033
 30
0.0
 40
0.067103
 41
0.067103
  0
VERTEX
  5
F73
  8
0
 62
     7
 10
250.635067
 20
141.449033
 30
0.0
 40
0.067103
 41
0.067103
  0
SEQEND
  5
F74
  8
0
 62
     7
  0
POLYLINE
  5
F75
  8
0
 62
     7
 66
     1
 10
0.0
 20
0.0
 30
0.0
  0
VERTEX
  5
F76
  8
0
 62
     7
 10
251.205447
 20
141.449033
 30
0.0
 40
0.067103
 41
0.067103
  0
VERTEX
  5
F77
  8
0
 62
     7
 10
251.037688
 20
141.449033
 30
0.0
 40
0.067103
 41
0.067103
  0
SEQEND
  5
F78
  8
0
 62
     7
  0
POLYLINE
  5
F79
  8
0
 62
     7
 66
     1
 10
0.0
 20
0.0
 30
0.0
  0
VERTEX
  5
F7A
  8
0
 62
     7
 10
251.205447
 20
141.079963
 30
0.0
 40
0.067103
 41
0.067103
  0
VERTEX
  5
F7B
  8
0
 62
     7
 10
251.205447
 20
141.449033
 30
0.0
 40
0.067103
 41
0.067103
  0
SEQEND
  5
F7C
  8
0
 62
     7
  0
POLYLINE
  5
F7D
  8
0
 62
     7
 66
     1
 10
0.0
 20
0.0
 30
0.0
  0
VERTEX
  5
F7E
  8
0
 62
     7
 10
251.205447
 20
140.677343
 30
0.0
 40
0.067103
 41
0.067103
  0
VERTEX
  5
F7F
  8
0
 62
     7
 10
251.205447
 20
140.744446
 30
0.0
 40
0.067103
 41
0.067103
  0
SEQEND
  5
F80
  8
0
 62
     7
  0
POLYLINE
  5
F81
  8
0
 62
     7
 66
     1
 10
0.0
 20
0.0
 30
0.0
  0
VERTEX
  5
F82
  8
0
 62
     7
 10
251.205447
 20
139.804997
 30
0.0
 40
0.067103
 41
0.067103
  0
VERTEX
  5
F83
  8
0
 62
     7
 10
251.205447
 20
140.341825
 30
0.0
 40
0.067103
 41
0.067103
  0
SEQEND
  5
F84
  8
0
 62
     7
  0
POLYLINE
  5
F85
  8
0
 62
     7
 66
     1
 10
0.0
 20
0.0
 30
0.0
  0
VERTEX
  5
F86
  8
0
 62
     7
 10
251.205447
 20
139.402376
 30
0.0
 40
0.067103
 41
0.067103
  0
VERTEX
  5
F87
  8
0
 62
     7
 10
251.205447
 20
139.46948
 30
0.0
 40
0.067103
 41
0.067103
  0
SEQEND
  5
F88
  8
0
 62
     7
  0
POLYLINE
  5
F89
  8
0
 62
     7
 66
     1
 10
0.0
 20
0.0
 30
0.0
  0
VERTEX
  5
F8A
  8
0
 62
     7
 10
251.205447
 20
138.530031
 30
0.0
 40
0.067103
 41
0.067103
  0
VERTEX
  5
F8B
  8
0
 62
     7
 10
251.205447
 20
139.066859
 30
0.0
 40
0.067103
 41
0.067103
  0
SEQEND
  5
F8C
  8
0
 62
     7
  0
POLYLINE
  5
F8D
  8
0
 62
     7
 66
     1
 10
0.0
 20
0.0
 30
0.0
  0
VERTEX
  5
F8E
  8
0
 62
     7
 10
251.205447
 20
138.12741
 30
0.0
 40
0.067103
 41
0.067103
  0
VERTEX
  5
F8F
  8
0
 62
     7
 10
251.205447
 20
138.194514
 30
0.0
 40
0.067103
 41
0.067103
  0
SEQEND
  5
F90
  8
0
 62
     7
  0
POLYLINE
  5
F91
  8
0
 62
     7
 66
     1
 10
0.0
 20
0.0
 30
0.0
  0
VERTEX
  5
F92
  8
0
 62
     7
 10
251.205447
 20
137.255065
 30
0.0
 40
0.067103
 41
0.067103
  0
VERTEX
  5
F93
  8
0
 62
     7
 10
251.205447
 20
137.791893
 30
0.0
 40
0.067103
 41
0.067103
  0
SEQEND
  5
F94
  8
0
 62
     7
  0
POLYLINE
  5
F95
  8
0
 62
     7
 66
     1
 10
0.0
 20
0.0
 30
0.0
  0
VERTEX
  5
F96
  8
0
 62
     7
 10
251.205447
 20
136.852444
 30
0.0
 40
0.067103
 41
0.067103
  0
VERTEX
  5
F97
  8
0
 62
     7
 10
251.205447
 20
136.919548
 30
0.0
 40
0.067103
 41
0.067103
  0
SEQEND
  5
F98
  8
0
 62
     7
  0
POLYLINE
  5
F99
  8
0
 62
     7
 66
     1
 10
0.0
 20
0.0
 30
0.0
  0
VERTEX
  5
F9A
  8
0
 62
     7
 10
251.205447
 20
135.980099
 30
0.0
 40
0.067103
 41
0.067103
  0
VERTEX
  5
F9B
  8
0
 62
     7
 10
251.205447
 20
136.516927
 30
0.0
 40
0.067103
 41
0.067103
  0
SEQEND
  5
F9C
  8
0
 62
     7
  0
ENDSEC
  0
EOF
