  0
SECTION
  2
HEADER
  9
$ACADVER
  1
AC1009
  9
$INSBASE
 10
0.0
 20
0.0
 30
0.0
  9
$EXTMIN
 10
231.661378
 20
130.281922
 30
0.0
  9
$EXTMAX
 10
263.608704
 20
141.158387
 30
0.0
  9
$LIMMIN
 10
0.0
 20
0.0
  9
$LIMMAX
 10
420.0
 20
297.0
  9
$ORTHOMODE
 70
     0
  9
$REGENMODE
 70
     1
  9
$FILLMODE
 70
     1
  9
$QTEXTMODE
 70
     0
  9
$MIRRTEXT
 70
     1
  9
$DRAGMODE
 70
     2
  9
$LTSCALE
 40
1.0
  9
$OSMODE
 70
     0
  9
$ATTMODE
 70
     1
  9
$TEXTSIZE
 40
2.5
  9
$TRACEWID
 40
1.0
  9
$TEXTSTYLE
  7
WMF-ARIAL1
  9
$CLAYER
  8
0
  9
$CELTYPE
  6
BYLAYER
  9
$CECOLOR
 62
   256
  9
$DIMSCALE
 40
1.0
  9
$DIMASZ
 40
2.5
  9
$DIMEXO
 40
0.625
  9
$DIMDLI
 40
3.75
  9
$DIMRND
 40
0.0
  9
$DIMDLE
 40
0.0
  9
$DIMEXE
 40
1.25
  9
$DIMTP
 40
0.0
  9
$DIMTM
 40
0.0
  9
$DIMTXT
 40
2.5
  9
$DIMCEN
 40
2.5
  9
$DIMTSZ
 40
0.0
  9
$DIMTOL
 70
     0
  9
$DIMLIM
 70
     0
  9
$DIMTIH
 70
     0
  9
$DIMTOH
 70
     0
  9
$DIMSE1
 70
     0
  9
$DIMSE2
 70
     0
  9
$DIMTAD
 70
     1
  9
$DIMZIN
 70
     8
  9
$DIMBLK
  1

  9
$DIMASO
 70
     1
  9
$DIMSHO
 70
     1
  9
$DIMPOST
  1

  9
$DIMAPOST
  1

  9
$DIMALT
 70
     0
  9
$DIMALTD
 70
     4
  9
$DIMALTF
 40
0.0394
  9
$DIMLFAC
 40
1.0
  9
$DIMTOFL
 70
     1
  9
$DIMTVP
 40
0.0
  9
$DIMTIX
 70
     0
  9
$DIMSOXD
 70
     0
  9
$DIMSAH
 70
     0
  9
$DIMBLK1
  1

  9
$DIMBLK2
  1

  9
$DIMSTYLE
  2
STANDARD
  9
$DIMCLRD
 70
     0
  9
$DIMCLRE
 70
     0
  9
$DIMCLRT
 70
     0
  9
$DIMTFAC
 40
1.0
  9
$DIMGAP
 40
0.625
  9
$LUNITS
 70
     2
  9
$LUPREC
 70
     4
  9
$SKETCHINC
 40
1.0
  9
$FILLETRAD
 40
10.0
  9
$AUNITS
 70
     0
  9
$AUPREC
 70
     0
  9
$MENU
  1
acad
  9
$ELEVATION
 40
0.0
  9
$PELEVATION
 40
0.0
  9
$THICKNESS
 40
0.0
  9
$LIMCHECK
 70
     0
  9
$BLIPMODE
 70
     0
  9
$CHAMFERA
 40
10.0
  9
$CHAMFERB
 40
10.0
  9
$SKPOLY
 70
     0
  9
$TDCREATE
 40
2452397.404554
  9
$TDUPDATE
 40
2452397.664141
  9
$TDINDWG
 40
0.022841
  9
$TDUSRTIMER
 40
0.022841
  9
$USRTIMER
 70
     1
  9
$ANGBASE
 50
0.0
  9
$ANGDIR
 70
     0
  9
$PDMODE
 70
     0
  9
$PDSIZE
 40
0.0
  9
$PLINEWID
 40
0.0
  9
$COORDS
 70
     1
  9
$SPLFRAME
 70
     0
  9
$SPLINETYPE
 70
     6
  9
$SPLINESEGS
 70
     8
  9
$ATTDIA
 70
     0
  9
$ATTREQ
 70
     1
  9
$HANDLING
 70
     1
  9
$HANDSEED
  5
15EA
  9
$SURFTAB1
 70
     6
  9
$SURFTAB2
 70
     6
  9
$SURFTYPE
 70
     6
  9
$SURFU
 70
     6
  9
$SURFV
 70
     6
  9
$UCSNAME
  2

  9
$UCSORG
 10
0.0
 20
0.0
 30
0.0
  9
$UCSXDIR
 10
1.0
 20
0.0
 30
0.0
  9
$UCSYDIR
 10
0.0
 20
1.0
 30
0.0
  9
$PUCSNAME
  2

  9
$PUCSORG
 10
0.0
 20
0.0
 30
0.0
  9
$PUCSXDIR
 10
1.0
 20
0.0
 30
0.0
  9
$PUCSYDIR
 10
0.0
 20
1.0
 30
0.0
  9
$USERI1
 70
     0
  9
$USERI2
 70
     0
  9
$USERI3
 70
     0
  9
$USERI4
 70
     0
  9
$USERI5
 70
     0
  9
$USERR1
 40
0.0
  9
$USERR2
 40
0.0
  9
$USERR3
 40
0.0
  9
$USERR4
 40
0.0
  9
$USERR5
 40
0.0
  9
$WORLDVIEW
 70
     1
  9
$SHADEDGE
 70
     3
  9
$SHADEDIF
 70
    70
  9
$TILEMODE
 70
     1
  9
$MAXACTVP
 70
    48
  9
$PLIMCHECK
 70
     0
  9
$PEXTMIN
 10
1.000000E+020
 20
1.000000E+020
 30
1.000000E+020
  9
$PEXTMAX
 10
-1.000000E+020
 20
-1.000000E+020
 30
-1.000000E+020
  9
$PLIMMIN
 10
0.0
 20
0.0
  9
$PLIMMAX
 10
420.0
 20
297.0
  9
$UNITMODE
 70
     0
  9
$VISRETAIN
 70
     1
  9
$PLINEGEN
 70
     0
  9
$PSLTSCALE
 70
     1
  0
ENDSEC
  0
SECTION
  2
TABLES
  0
TABLE
  2
VPORT
 70
     2
  0
VPORT
  2
*ACTIVE
 70
     0
 10
0.0
 20
0.0
 11
1.0
 21
1.0
 12
247.635041
 22
135.720154
 13
0.0
 23
0.0
 14
10.0
 24
10.0
 15
10.0
 25
10.0
 16
0.0
 26
0.0
 36
1.0
 17
0.0
 27
0.0
 37
0.0
 40
19.748107
 41
1.628676
 42
50.0
 43
0.0
 44
0.0
 50
0.0
 51
0.0
 71
     0
 72
   100
 73
     1
 74
     1
 75
     0
 76
     0
 77
     0
 78
     0
  0
ENDTAB
  0
TABLE
  2
LTYPE
 70
     1
  0
LTYPE
  2
CONTINUOUS
 70
     0
  3
Solid line
 72
    65
 73
     0
 40
0.0
  0
ENDTAB
  0
TABLE
  2
LAYER
 70
     2
  0
LAYER
  2
0
 70
     0
 62
     7
  6
CONTINUOUS
  0
ENDTAB
  0
TABLE
  2
STYLE
 70
     6
  0
STYLE
  2
STANDARD
 70
     0
 40
0.0
 41
1.0
 50
0.0
 71
     0
 42
2.5
  3
txt
  4

  0
STYLE
  2
STYLE_GRAS
 70
     0
 40
0.0
 41
1.0
 50
0.0
 71
     0
 42
2.5
  3
txt
  4

  0
STYLE
  2
STYLE_STD
 70
     0
 40
0.0
 41
1.0
 50
0.0
 71
     0
 42
2.5
  3
txt
  4

  0
STYLE
  2
STYLE_ITALIQUE
 70
     0
 40
0.0
 41
1.0
 50
0.0
 71
     0
 42
2.5
  3
txt
  4

  0
STYLE
  2
WMF-ARIAL1
 70
     0
 40
0.0
 41
1.0
 50
0.0
 71
     0
 42
2.5
  3
txt
  4

  0
STYLE
  2
WMF-ARIAL0
 70
     0
 40
0.0
 41
1.0
 50
0.0
 71
     0
 42
2.5
  3
txt
  4

  0
ENDTAB
  0
TABLE
  2
VIEW
 70
     0
  0
ENDTAB
  0
TABLE
  2
UCS
 70
     0
  0
ENDTAB
  0
TABLE
  2
APPID
 70
     1
  0
APPID
  2
ACAD
 70
     0
  0
ENDTAB
  0
TABLE
  2
DIMSTYLE
 70
     1
  0
DIMSTYLE
  2
STANDARD
 70
     0
  3

  4

  5

  6

  7

 40
1.0
 41
0.18
 42
0.0625
 43
0.38
 44
0.18
 45
0.0
 46
0.0
 47
0.0
 48
0.0
140
0.18
141
0.09
142
0.0
143
25.4
144
1.0
145
0.0
146
1.0
147
0.09
 71
     0
 72
     0
 73
     1
 74
     1
 75
     0
 76
     0
 77
     0
 78
     0
170
     0
171
     2
172
     0
173
     0
174
     0
175
     0
176
     0
177
     0
178
     0
  0
ENDTAB
  0
ENDSEC
  0
SECTION
  2
BLOCKS
  0
BLOCK
  8
0
  2
$MODEL_SPACE
 70
     0
 10
0.0
 20
0.0
 30
0.0
  3
$MODEL_SPACE
  1

  0
ENDBLK
  5
A75
  8
0
  0
BLOCK
 67
     1
  8
0
  2
$PAPER_SPACE
 70
     0
 10
0.0
 20
0.0
 30
0.0
  3
$PAPER_SPACE
  1

  0
ENDBLK
  5
A73
 67
     1
  8
0
  0
BLOCK
  8
0
  2
A$C21D93EB5
 70
     0
 10
0.0
 20
0.0
 30
0.0
  3
A$C21D93EB5
  1

  0
TEXT
  5
13C8
  8
0
 62
     7
 10
1.335776
 20
0.262925
 30
0.0
 40
0.807498
  1
Sys
  7
STYLE_ITALIQUE
  0
TEXT
  5
13C9
  8
0
 62
     7
 10
0.026329
 20
0.316959
 30
0.0
 40
0.807498
  1
Te
  7
STYLE_STD
  0
TEXT
  5
13CA
  8
0
 62
     7
 10
3.587215
 20
0.293745
 30
0.0
 40
0.807498
  1
U
  7
STYLE_STD
  0
ENDBLK
  5
13CC
  8
0
  0
ENDSEC
  0
SECTION
  2
ENTITIES
  0
POLYLINE
  5
FED
  8
0
 62
     7
 66
     1
 10
0.0
 20
0.0
 30
0.0
  0
VERTEX
  5
FEE
  8
0
 62
     7
 10
243.664966
 20
134.883288
 30
0.0
 40
0.20131
 41
0.20131
  0
VERTEX
  5
FEF
  8
0
 62
     7
 10
243.667918
 20
131.193076
 30
0.0
 40
0.20131
 41
0.20131
  0
VERTEX
  5
FF0
  8
0
 62
     7
 10
231.790603
 20
131.193076
 30
0.0
 40
0.20131
 41
0.20131
  0
SEQEND
  5
FF1
  8
0
 62
     7
  0
POLYLINE
  5
FF2
  8
0
 62
     7
 66
     1
 10
0.0
 20
0.0
 30
0.0
  0
VERTEX
  5
FF3
  8
0
 62
     7
 10
231.789354
 20
131.095037
 30
0.0
 40
0.20131
 41
0.20131
  0
VERTEX
  5
FF4
  8
0
 62
     7
 10
231.790603
 20
134.783112
 30
0.0
 40
0.20131
 41
0.20131
  0
VERTEX
  5
FF5
  8
0
 62
     7
 10
243.667918
 20
134.783112
 30
0.0
 40
0.20131
 41
0.20131
  0
SEQEND
  5
FF6
  8
0
 62
     7
  0
TEXT
  5
FF7
  8
0
 62
     7
 10
232.360982
 20
131.729904
 30
0.0
 40
1.046814
  1
Pre wired coil
  7
STYLE_STD
  0
POLYLINE
  5
FF8
  8
0
 62
     7
 66
     1
 10
0.0
 20
0.0
 30
0.0
  0
VERTEX
  5
FF9
  8
0
 62
     7
 10
239.07133
 20
134.783112
 30
0.0
 40
0.067103
 41
0.067103
  0
VERTEX
  5
FFA
  8
0
 62
     7
 10
238.534502
 20
134.783112
 30
0.0
 40
0.067103
 41
0.067103
  0
SEQEND
  5
FFB
  8
0
 62
     7
  0
POLYLINE
  5
FFC
  8
0
 62
     7
 66
     1
 10
0.0
 20
0.0
 30
0.0
  0
VERTEX
  5
FFD
  8
0
 62
     7
 10
238.769364
 20
131.193076
 30
0.0
 40
0.067103
 41
0.067103
  0
VERTEX
  5
FFE
  8
0
 62
     7
 10
239.306192
 20
131.193076
 30
0.0
 40
0.067103
 41
0.067103
  0
SEQEND
  5
FFF
  8
0
 62
     7
  0
POLYLINE
  5
1008
  8
0
 62
     7
 66
     1
 10
0.0
 20
0.0
 30
0.0
  0
VERTEX
  5
1009
  8
0
 62
     7
 10
263.496039
 20
139.243018
 30
0.0
 40
0.20131
 41
0.20131
  0
VERTEX
  5
100A
  8
0
 62
     7
 10
263.496997
 20
137.131734
 30
0.0
 40
0.20131
 41
0.20131
  0
VERTEX
  5
100B
  8
0
 62
     7
 10
231.790603
 20
137.131734
 30
0.0
 40
0.20131
 41
0.20131
  0
SEQEND
  5
100C
  8
0
 62
     7
  0
POLYLINE
  5
100D
  8
0
 62
     7
 66
     1
 10
0.0
 20
0.0
 30
0.0
  0
VERTEX
  5
100E
  8
0
 62
     7
 10
231.788613
 20
137.033226
 30
0.0
 40
0.20131
 41
0.20131
  0
VERTEX
  5
100F
  8
0
 62
     7
 10
231.790603
 20
139.144838
 30
0.0
 40
0.20131
 41
0.20131
  0
VERTEX
  5
1010
  8
0
 62
     7
 10
263.496997
 20
139.144838
 30
0.0
 40
0.20131
 41
0.20131
  0
SEQEND
  5
1011
  8
0
 62
     7
  0
POLYLINE
  5
1012
  8
0
 62
     7
 66
     1
 10
0.0
 20
0.0
 30
0.0
  0
VERTEX
  5
1013
  8
0
 62
     7
 10
238.802916
 20
137.131734
 30
0.0
 40
0.067103
 41
0.067103
  0
VERTEX
  5
1014
  8
0
 62
     7
 10
239.339744
 20
137.131734
 30
0.0
 40
0.067103
 41
0.067103
  0
SEQEND
  5
1015
  8
0
 62
     7
  0
POLYLINE
  5
101E
  8
0
 62
     7
 66
     1
 10
0.0
 20
0.0
 30
0.0
  0
VERTEX
  5
101F
  8
0
 62
     7
 10
238.769364
 20
131.193076
 30
0.0
 40
0.067103
 41
0.067103
  0
VERTEX
  5
1020
  8
0
 62
     7
 10
239.306192
 20
131.193076
 30
0.0
 40
0.067103
 41
0.067103
  0
SEQEND
  5
1021
  8
0
 62
     7
  0
POLYLINE
  5
102A
  8
0
 62
     7
 66
     1
 10
0.0
 20
0.0
 30
0.0
  0
VERTEX
  5
102B
  8
0
 62
     7
 10
231.790603
 20
135.957423
 30
0.0
 40
0.067103
 41
0.067103
  0
VERTEX
  5
102C
  8
0
 62
     7
 10
231.790603
 20
135.420595
 30
0.0
 40
0.067103
 41
0.067103
  0
SEQEND
  5
102D
  8
0
 62
     7
  0
TEXT
  5
102E
  8
0
 62
     7
 10
232.360982
 20
133.407491
 30
0.0
 40
1.019973
  1
LU9BN11C
  7
STYLE_STD
  0
POLYLINE
  5
102F
  8
0
 62
     7
 66
     1
 10
0.0
 20
0.0
 30
0.0
  0
VERTEX
  5
1030
  8
0
 62
     7
 10
234.407638
 20
131.193076
 30
0.0
 40
0.067103
 41
0.067103
  0
VERTEX
  5
1031
  8
0
 62
     7
 10
234.944466
 20
131.193076
 30
0.0
 40
0.067103
 41
0.067103
  0
SEQEND
  5
1032
  8
0
 62
     7
  0
POLYLINE
  5
1033
  8
0
 62
     7
 66
     1
 10
0.0
 20
0.0
 30
0.0
  0
VERTEX
  5
1034
  8
0
 62
     7
 10
234.407638
 20
131.193076
 30
0.0
 40
0.067103
 41
0.067103
  0
VERTEX
  5
1035
  8
0
 62
     7
 10
234.944466
 20
131.193076
 30
0.0
 40
0.067103
 41
0.067103
  0
SEQEND
  5
1036
  8
0
 62
     7
  0
POLYLINE
  5
1037
  8
0
 62
     7
 66
     1
 10
0.0
 20
0.0
 30
0.0
  0
VERTEX
  5
1038
  8
0
 62
     7
 10
231.790603
 20
131.595697
 30
0.0
 40
0.067103
 41
0.067103
  0
VERTEX
  5
1039
  8
0
 62
     7
 10
231.790603
 20
131.193076
 30
0.0
 40
0.067103
 41
0.067103
  0
SEQEND
  5
103A
  8
0
 62
     7
  0
POLYLINE
  5
103B
  8
0
 62
     7
 66
     1
 10
0.0
 20
0.0
 30
0.0
  0
VERTEX
  5
103C
  8
0
 62
     7
 10
231.790603
 20
132.468042
 30
0.0
 40
0.067103
 41
0.067103
  0
VERTEX
  5
103D
  8
0
 62
     7
 10
231.790603
 20
131.931214
 30
0.0
 40
0.067103
 41
0.067103
  0
SEQEND
  5
103E
  8
0
 62
     7
  0
POLYLINE
  5
103F
  8
0
 62
     7
 66
     1
 10
0.0
 20
0.0
 30
0.0
  0
VERTEX
  5
1040
  8
0
 62
     7
 10
231.790603
 20
133.340387
 30
0.0
 40
0.067103
 41
0.067103
  0
VERTEX
  5
1041
  8
0
 62
     7
 10
231.790603
 20
132.80356
 30
0.0
 40
0.067103
 41
0.067103
  0
SEQEND
  5
1042
  8
0
 62
     7
  0
POLYLINE
  5
1043
  8
0
 62
     7
 66
     1
 10
0.0
 20
0.0
 30
0.0
  0
VERTEX
  5
1044
  8
0
 62
     7
 10
231.790603
 20
134.212733
 30
0.0
 40
0.067103
 41
0.067103
  0
VERTEX
  5
1045
  8
0
 62
     7
 10
231.790603
 20
133.675905
 30
0.0
 40
0.067103
 41
0.067103
  0
SEQEND
  5
1046
  8
0
 62
     7
  0
POLYLINE
  5
1047
  8
0
 62
     7
 66
     1
 10
0.0
 20
0.0
 30
0.0
  0
VERTEX
  5
1048
  8
0
 62
     7
 10
231.790603
 20
134.783112
 30
0.0
 40
0.067103
 41
0.067103
  0
VERTEX
  5
1049
  8
0
 62
     7
 10
231.790603
 20
134.54825
 30
0.0
 40
0.067103
 41
0.067103
  0
SEQEND
  5
104A
  8
0
 62
     7
  0
POLYLINE
  5
104B
  8
0
 62
     7
 66
     1
 10
0.0
 20
0.0
 30
0.0
  0
VERTEX
  5
104C
  8
0
 62
     7
 10
232.092568
 20
134.783112
 30
0.0
 40
0.067103
 41
0.067103
  0
VERTEX
  5
104D
  8
0
 62
     7
 10
231.790603
 20
134.783112
 30
0.0
 40
0.067103
 41
0.067103
  0
SEQEND
  5
104E
  8
0
 62
     7
  0
POLYLINE
  5
104F
  8
0
 62
     7
 66
     1
 10
0.0
 20
0.0
 30
0.0
  0
VERTEX
  5
1050
  8
0
 62
     7
 10
232.964913
 20
134.783112
 30
0.0
 40
0.067103
 41
0.067103
  0
VERTEX
  5
1051
  8
0
 62
     7
 10
232.428086
 20
134.783112
 30
0.0
 40
0.067103
 41
0.067103
  0
SEQEND
  5
1052
  8
0
 62
     7
  0
POLYLINE
  5
1053
  8
0
 62
     7
 66
     1
 10
0.0
 20
0.0
 30
0.0
  0
VERTEX
  5
1054
  8
0
 62
     7
 10
233.837259
 20
134.783112
 30
0.0
 40
0.067103
 41
0.067103
  0
VERTEX
  5
1055
  8
0
 62
     7
 10
233.300431
 20
134.783112
 30
0.0
 40
0.067103
 41
0.067103
  0
SEQEND
  5
1056
  8
0
 62
     7
  0
POLYLINE
  5
1057
  8
0
 62
     7
 66
     1
 10
0.0
 20
0.0
 30
0.0
  0
VERTEX
  5
1058
  8
0
 62
     7
 10
234.709604
 20
134.783112
 30
0.0
 40
0.067103
 41
0.067103
  0
VERTEX
  5
1059
  8
0
 62
     7
 10
234.172776
 20
134.783112
 30
0.0
 40
0.067103
 41
0.067103
  0
SEQEND
  5
105A
  8
0
 62
     7
  0
POLYLINE
  5
105B
  8
0
 62
     7
 66
     1
 10
0.0
 20
0.0
 30
0.0
  0
VERTEX
  5
105C
  8
0
 62
     7
 10
233.535293
 20
131.193076
 30
0.0
 40
0.067103
 41
0.067103
  0
VERTEX
  5
105D
  8
0
 62
     7
 10
234.072121
 20
131.193076
 30
0.0
 40
0.067103
 41
0.067103
  0
SEQEND
  5
105E
  8
0
 62
     7
  0
POLYLINE
  5
105F
  8
0
 62
     7
 66
     1
 10
0.0
 20
0.0
 30
0.0
  0
VERTEX
  5
1060
  8
0
 62
     7
 10
232.662948
 20
131.193076
 30
0.0
 40
0.067103
 41
0.067103
  0
VERTEX
  5
1061
  8
0
 62
     7
 10
233.199776
 20
131.193076
 30
0.0
 40
0.067103
 41
0.067103
  0
SEQEND
  5
1062
  8
0
 62
     7
  0
POLYLINE
  5
1063
  8
0
 62
     7
 66
     1
 10
0.0
 20
0.0
 30
0.0
  0
VERTEX
  5
1064
  8
0
 62
     7
 10
231.790603
 20
131.193076
 30
0.0
 40
0.067103
 41
0.067103
  0
VERTEX
  5
1065
  8
0
 62
     7
 10
232.32743
 20
131.193076
 30
0.0
 40
0.067103
 41
0.067103
  0
SEQEND
  5
1066
  8
0
 62
     7
  0
POLYLINE
  5
1067
  8
0
 62
     7
 66
     1
 10
0.0
 20
0.0
 30
0.0
  0
VERTEX
  5
1068
  8
0
 62
     7
 10
231.790603
 20
131.595697
 30
0.0
 40
0.067103
 41
0.067103
  0
VERTEX
  5
1069
  8
0
 62
     7
 10
231.790603
 20
131.193076
 30
0.0
 40
0.067103
 41
0.067103
  0
SEQEND
  5
106A
  8
0
 62
     7
  0
POLYLINE
  5
106B
  8
0
 62
     7
 66
     1
 10
0.0
 20
0.0
 30
0.0
  0
VERTEX
  5
106C
  8
0
 62
     7
 10
231.790603
 20
132.468042
 30
0.0
 40
0.067103
 41
0.067103
  0
VERTEX
  5
106D
  8
0
 62
     7
 10
231.790603
 20
131.931214
 30
0.0
 40
0.067103
 41
0.067103
  0
SEQEND
  5
106E
  8
0
 62
     7
  0
POLYLINE
  5
106F
  8
0
 62
     7
 66
     1
 10
0.0
 20
0.0
 30
0.0
  0
VERTEX
  5
1070
  8
0
 62
     7
 10
231.790603
 20
133.340387
 30
0.0
 40
0.067103
 41
0.067103
  0
VERTEX
  5
1071
  8
0
 62
     7
 10
231.790603
 20
132.80356
 30
0.0
 40
0.067103
 41
0.067103
  0
SEQEND
  5
1072
  8
0
 62
     7
  0
POLYLINE
  5
1073
  8
0
 62
     7
 66
     1
 10
0.0
 20
0.0
 30
0.0
  0
VERTEX
  5
1074
  8
0
 62
     7
 10
231.790603
 20
134.212733
 30
0.0
 40
0.067103
 41
0.067103
  0
VERTEX
  5
1075
  8
0
 62
     7
 10
231.790603
 20
133.675905
 30
0.0
 40
0.067103
 41
0.067103
  0
SEQEND
  5
1076
  8
0
 62
     7
  0
POLYLINE
  5
1077
  8
0
 62
     7
 66
     1
 10
0.0
 20
0.0
 30
0.0
  0
VERTEX
  5
1078
  8
0
 62
     7
 10
231.790603
 20
135.085078
 30
0.0
 40
0.067103
 41
0.067103
  0
VERTEX
  5
1079
  8
0
 62
     7
 10
231.790603
 20
134.54825
 30
0.0
 40
0.067103
 41
0.067103
  0
SEQEND
  5
107A
  8
0
 62
     7
  0
POLYLINE
  5
107B
  8
0
 62
     7
 66
     1
 10
0.0
 20
0.0
 30
0.0
  0
VERTEX
  5
107C
  8
0
 62
     7
 10
233.535293
 20
131.193076
 30
0.0
 40
0.067103
 41
0.067103
  0
VERTEX
  5
107D
  8
0
 62
     7
 10
234.072121
 20
131.193076
 30
0.0
 40
0.067103
 41
0.067103
  0
SEQEND
  5
107E
  8
0
 62
     7
  0
POLYLINE
  5
107F
  8
0
 62
     7
 66
     1
 10
0.0
 20
0.0
 30
0.0
  0
VERTEX
  5
1080
  8
0
 62
     7
 10
232.662948
 20
131.193076
 30
0.0
 40
0.067103
 41
0.067103
  0
VERTEX
  5
1081
  8
0
 62
     7
 10
233.199776
 20
131.193076
 30
0.0
 40
0.067103
 41
0.067103
  0
SEQEND
  5
1082
  8
0
 62
     7
  0
POLYLINE
  5
1083
  8
0
 62
     7
 66
     1
 10
0.0
 20
0.0
 30
0.0
  0
VERTEX
  5
1084
  8
0
 62
     7
 10
231.790603
 20
131.193076
 30
0.0
 40
0.067103
 41
0.067103
  0
VERTEX
  5
1085
  8
0
 62
     7
 10
232.32743
 20
131.193076
 30
0.0
 40
0.067103
 41
0.067103
  0
SEQEND
  5
1086
  8
0
 62
     7
  0
POLYLINE
  5
1087
  8
0
 62
     7
 66
     1
 10
0.0
 20
0.0
 30
0.0
  0
VERTEX
  5
1088
  8
0
 62
     7
 10
235.581949
 20
134.783112
 30
0.0
 40
0.067103
 41
0.067103
  0
VERTEX
  5
1089
  8
0
 62
     7
 10
235.045121
 20
134.783112
 30
0.0
 40
0.067103
 41
0.067103
  0
SEQEND
  5
108A
  8
0
 62
     7
  0
POLYLINE
  5
108B
  8
0
 62
     7
 66
     1
 10
0.0
 20
0.0
 30
0.0
  0
VERTEX
  5
108C
  8
0
 62
     7
 10
236.454294
 20
134.783112
 30
0.0
 40
0.067103
 41
0.067103
  0
VERTEX
  5
108D
  8
0
 62
     7
 10
235.917467
 20
134.783112
 30
0.0
 40
0.067103
 41
0.067103
  0
SEQEND
  5
108E
  8
0
 62
     7
  0
POLYLINE
  5
108F
  8
0
 62
     7
 66
     1
 10
0.0
 20
0.0
 30
0.0
  0
VERTEX
  5
1090
  8
0
 62
     7
 10
237.32664
 20
134.783112
 30
0.0
 40
0.067103
 41
0.067103
  0
VERTEX
  5
1091
  8
0
 62
     7
 10
236.789812
 20
134.783112
 30
0.0
 40
0.067103
 41
0.067103
  0
SEQEND
  5
1092
  8
0
 62
     7
  0
POLYLINE
  5
1093
  8
0
 62
     7
 66
     1
 10
0.0
 20
0.0
 30
0.0
  0
VERTEX
  5
1094
  8
0
 62
     7
 10
238.198985
 20
134.783112
 30
0.0
 40
0.067103
 41
0.067103
  0
VERTEX
  5
1095
  8
0
 62
     7
 10
237.662157
 20
134.783112
 30
0.0
 40
0.067103
 41
0.067103
  0
SEQEND
  5
1096
  8
0
 62
     7
  0
POLYLINE
  5
1097
  8
0
 62
     7
 66
     1
 10
0.0
 20
0.0
 30
0.0
  0
VERTEX
  5
1098
  8
0
 62
     7
 10
237.897019
 20
131.193076
 30
0.0
 40
0.067103
 41
0.067103
  0
VERTEX
  5
1099
  8
0
 62
     7
 10
238.433847
 20
131.193076
 30
0.0
 40
0.067103
 41
0.067103
  0
SEQEND
  5
109A
  8
0
 62
     7
  0
POLYLINE
  5
109B
  8
0
 62
     7
 66
     1
 10
0.0
 20
0.0
 30
0.0
  0
VERTEX
  5
109C
  8
0
 62
     7
 10
237.024674
 20
131.193076
 30
0.0
 40
0.067103
 41
0.067103
  0
VERTEX
  5
109D
  8
0
 62
     7
 10
237.561502
 20
131.193076
 30
0.0
 40
0.067103
 41
0.067103
  0
SEQEND
  5
109E
  8
0
 62
     7
  0
POLYLINE
  5
109F
  8
0
 62
     7
 66
     1
 10
0.0
 20
0.0
 30
0.0
  0
VERTEX
  5
10A0
  8
0
 62
     7
 10
236.152329
 20
131.193076
 30
0.0
 40
0.067103
 41
0.067103
  0
VERTEX
  5
10A1
  8
0
 62
     7
 10
236.689157
 20
131.193076
 30
0.0
 40
0.067103
 41
0.067103
  0
SEQEND
  5
10A2
  8
0
 62
     7
  0
POLYLINE
  5
10A3
  8
0
 62
     7
 66
     1
 10
0.0
 20
0.0
 30
0.0
  0
VERTEX
  5
10A4
  8
0
 62
     7
 10
235.279984
 20
131.193076
 30
0.0
 40
0.067103
 41
0.067103
  0
VERTEX
  5
10A5
  8
0
 62
     7
 10
235.816811
 20
131.193076
 30
0.0
 40
0.067103
 41
0.067103
  0
SEQEND
  5
10A6
  8
0
 62
     7
  0
POLYLINE
  5
10A7
  8
0
 62
     7
 66
     1
 10
0.0
 20
0.0
 30
0.0
  0
VERTEX
  5
10A8
  8
0
 62
     7
 10
237.897019
 20
131.193076
 30
0.0
 40
0.067103
 41
0.067103
  0
VERTEX
  5
10A9
  8
0
 62
     7
 10
238.433847
 20
131.193076
 30
0.0
 40
0.067103
 41
0.067103
  0
SEQEND
  5
10AA
  8
0
 62
     7
  0
POLYLINE
  5
10AB
  8
0
 62
     7
 66
     1
 10
0.0
 20
0.0
 30
0.0
  0
VERTEX
  5
10AC
  8
0
 62
     7
 10
237.024674
 20
131.193076
 30
0.0
 40
0.067103
 41
0.067103
  0
VERTEX
  5
10AD
  8
0
 62
     7
 10
237.561502
 20
131.193076
 30
0.0
 40
0.067103
 41
0.067103
  0
SEQEND
  5
10AE
  8
0
 62
     7
  0
POLYLINE
  5
10AF
  8
0
 62
     7
 66
     1
 10
0.0
 20
0.0
 30
0.0
  0
VERTEX
  5
10B0
  8
0
 62
     7
 10
236.152329
 20
131.193076
 30
0.0
 40
0.067103
 41
0.067103
  0
VERTEX
  5
10B1
  8
0
 62
     7
 10
236.689157
 20
131.193076
 30
0.0
 40
0.067103
 41
0.067103
  0
SEQEND
  5
10B2
  8
0
 62
     7
  0
POLYLINE
  5
10B3
  8
0
 62
     7
 66
     1
 10
0.0
 20
0.0
 30
0.0
  0
VERTEX
  5
10B4
  8
0
 62
     7
 10
235.279984
 20
131.193076
 30
0.0
 40
0.067103
 41
0.067103
  0
VERTEX
  5
10B5
  8
0
 62
     7
 10
235.816811
 20
131.193076
 30
0.0
 40
0.067103
 41
0.067103
  0
SEQEND
  5
10B6
  8
0
 62
     7
  0
TEXT
  5
10B8
  8
0
 62
     7
 10
232.394534
 20
137.702114
 30
0.0
 40
1.019973
  1
LUFC00    
  7
STYLE_STD
  0
POLYLINE
  5
10B9
  8
0
 62
     7
 66
     1
 10
0.0
 20
0.0
 30
0.0
  0
VERTEX
  5
10BA
  8
0
 62
     7
 10
235.246432
 20
139.144838
 30
0.0
 40
0.067103
 41
0.067103
  0
VERTEX
  5
10BB
  8
0
 62
     7
 10
234.709604
 20
139.144838
 30
0.0
 40
0.067103
 41
0.067103
  0
SEQEND
  5
10BC
  8
0
 62
     7
  0
POLYLINE
  5
10BD
  8
0
 62
     7
 66
     1
 10
0.0
 20
0.0
 30
0.0
  0
VERTEX
  5
10BE
  8
0
 62
     7
 10
234.44119
 20
137.131734
 30
0.0
 40
0.067103
 41
0.067103
  0
VERTEX
  5
10BF
  8
0
 62
     7
 10
234.978018
 20
137.131734
 30
0.0
 40
0.067103
 41
0.067103
  0
SEQEND
  5
10C0
  8
0
 62
     7
  0
POLYLINE
  5
10C1
  8
0
 62
     7
 66
     1
 10
0.0
 20
0.0
 30
0.0
  0
VERTEX
  5
10C2
  8
0
 62
     7
 10
235.347087
 20
141.124391
 30
0.0
 40
0.067103
 41
0.067103
  0
VERTEX
  5
10C3
  8
0
 62
     7
 10
234.810259
 20
141.124391
 30
0.0
 40
0.067103
 41
0.067103
  0
SEQEND
  5
10C4
  8
0
 62
     7
  0
POLYLINE
  5
10C5
  8
0
 62
     7
 66
     1
 10
0.0
 20
0.0
 30
0.0
  0
VERTEX
  5
10C6
  8
0
 62
     7
 10
231.824154
 20
137.333044
 30
0.0
 40
0.067103
 41
0.067103
  0
VERTEX
  5
10C7
  8
0
 62
     7
 10
231.824154
 20
137.131734
 30
0.0
 40
0.067103
 41
0.067103
  0
SEQEND
  5
10C8
  8
0
 62
     7
  0
POLYLINE
  5
10C9
  8
0
 62
     7
 66
     1
 10
0.0
 20
0.0
 30
0.0
  0
VERTEX
  5
10CA
  8
0
 62
     7
 10
231.824154
 20
138.20539
 30
0.0
 40
0.067103
 41
0.067103
  0
VERTEX
  5
10CB
  8
0
 62
     7
 10
231.824154
 20
137.668562
 30
0.0
 40
0.067103
 41
0.067103
  0
SEQEND
  5
10CC
  8
0
 62
     7
  0
POLYLINE
  5
10CD
  8
0
 62
     7
 66
     1
 10
0.0
 20
0.0
 30
0.0
  0
VERTEX
  5
10CE
  8
0
 62
     7
 10
231.824154
 20
139.077735
 30
0.0
 40
0.067103
 41
0.067103
  0
VERTEX
  5
10CF
  8
0
 62
     7
 10
231.824154
 20
138.540907
 30
0.0
 40
0.067103
 41
0.067103
  0
SEQEND
  5
10D0
  8
0
 62
     7
  0
POLYLINE
  5
10D1
  8
0
 62
     7
 66
     1
 10
0.0
 20
0.0
 30
0.0
  0
VERTEX
  5
10D2
  8
0
 62
     7
 10
232.629396
 20
139.144838
 30
0.0
 40
0.067103
 41
0.067103
  0
VERTEX
  5
10D3
  8
0
 62
     7
 10
232.092568
 20
139.144838
 30
0.0
 40
0.067103
 41
0.067103
  0
SEQEND
  5
10D4
  8
0
 62
     7
  0
POLYLINE
  5
10D5
  8
0
 62
     7
 66
     1
 10
0.0
 20
0.0
 30
0.0
  0
VERTEX
  5
10D6
  8
0
 62
     7
 10
233.501741
 20
139.144838
 30
0.0
 40
0.067103
 41
0.067103
  0
VERTEX
  5
10D7
  8
0
 62
     7
 10
232.964913
 20
139.144838
 30
0.0
 40
0.067103
 41
0.067103
  0
SEQEND
  5
10D8
  8
0
 62
     7
  0
POLYLINE
  5
10D9
  8
0
 62
     7
 66
     1
 10
0.0
 20
0.0
 30
0.0
  0
VERTEX
  5
10DA
  8
0
 62
     7
 10
234.374087
 20
139.144838
 30
0.0
 40
0.067103
 41
0.067103
  0
VERTEX
  5
10DB
  8
0
 62
     7
 10
233.837259
 20
139.144838
 30
0.0
 40
0.067103
 41
0.067103
  0
SEQEND
  5
10DC
  8
0
 62
     7
  0
POLYLINE
  5
10DD
  8
0
 62
     7
 66
     1
 10
0.0
 20
0.0
 30
0.0
  0
VERTEX
  5
10DE
  8
0
 62
     7
 10
233.568845
 20
137.131734
 30
0.0
 40
0.067103
 41
0.067103
  0
VERTEX
  5
10DF
  8
0
 62
     7
 10
234.105673
 20
137.131734
 30
0.0
 40
0.067103
 41
0.067103
  0
SEQEND
  5
10E0
  8
0
 62
     7
  0
POLYLINE
  5
10E1
  8
0
 62
     7
 66
     1
 10
0.0
 20
0.0
 30
0.0
  0
VERTEX
  5
10E2
  8
0
 62
     7
 10
232.6965
 20
137.131734
 30
0.0
 40
0.067103
 41
0.067103
  0
VERTEX
  5
10E3
  8
0
 62
     7
 10
233.233327
 20
137.131734
 30
0.0
 40
0.067103
 41
0.067103
  0
SEQEND
  5
10E4
  8
0
 62
     7
  0
POLYLINE
  5
10E5
  8
0
 62
     7
 66
     1
 10
0.0
 20
0.0
 30
0.0
  0
VERTEX
  5
10E6
  8
0
 62
     7
 10
231.824154
 20
137.131734
 30
0.0
 40
0.067103
 41
0.067103
  0
VERTEX
  5
10E7
  8
0
 62
     7
 10
232.360982
 20
137.131734
 30
0.0
 40
0.067103
 41
0.067103
  0
SEQEND
  5
10E8
  8
0
 62
     7
  0
POLYLINE
  5
10E9
  8
0
 62
     7
 66
     1
 10
0.0
 20
0.0
 30
0.0
  0
VERTEX
  5
10EA
  8
0
 62
     7
 10
231.790603
 20
136.829768
 30
0.0
 40
0.067103
 41
0.067103
  0
VERTEX
  5
10EB
  8
0
 62
     7
 10
231.790603
 20
136.292941
 30
0.0
 40
0.067103
 41
0.067103
  0
SEQEND
  5
10EC
  8
0
 62
     7
  0
POLYLINE
  5
10ED
  8
0
 62
     7
 66
     1
 10
0.0
 20
0.0
 30
0.0
  0
VERTEX
  5
10EE
  8
0
 62
     7
 10
231.790603
 20
137.702114
 30
0.0
 40
0.067103
 41
0.067103
  0
VERTEX
  5
10EF
  8
0
 62
     7
 10
231.790603
 20
137.165286
 30
0.0
 40
0.067103
 41
0.067103
  0
SEQEND
  5
10F0
  8
0
 62
     7
  0
POLYLINE
  5
10F1
  8
0
 62
     7
 66
     1
 10
0.0
 20
0.0
 30
0.0
  0
VERTEX
  5
10F2
  8
0
 62
     7
 10
231.790603
 20
138.574459
 30
0.0
 40
0.067103
 41
0.067103
  0
VERTEX
  5
10F3
  8
0
 62
     7
 10
231.790603
 20
138.037631
 30
0.0
 40
0.067103
 41
0.067103
  0
SEQEND
  5
10F4
  8
0
 62
     7
  0
POLYLINE
  5
10F5
  8
0
 62
     7
 66
     1
 10
0.0
 20
0.0
 30
0.0
  0
VERTEX
  5
10F6
  8
0
 62
     7
 10
231.790603
 20
139.446804
 30
0.0
 40
0.067103
 41
0.067103
  0
VERTEX
  5
10F7
  8
0
 62
     7
 10
231.790603
 20
138.909976
 30
0.0
 40
0.067103
 41
0.067103
  0
SEQEND
  5
10F8
  8
0
 62
     7
  0
POLYLINE
  5
10F9
  8
0
 62
     7
 66
     1
 10
0.0
 20
0.0
 30
0.0
  0
VERTEX
  5
10FA
  8
0
 62
     7
 10
231.790603
 20
140.319149
 30
0.0
 40
0.067103
 41
0.067103
  0
VERTEX
  5
10FB
  8
0
 62
     7
 10
231.790603
 20
139.782321
 30
0.0
 40
0.067103
 41
0.067103
  0
SEQEND
  5
10FC
  8
0
 62
     7
  0
POLYLINE
  5
10FD
  8
0
 62
     7
 66
     1
 10
0.0
 20
0.0
 30
0.0
  0
VERTEX
  5
10FE
  8
0
 62
     7
 10
231.790603
 20
141.124391
 30
0.0
 40
0.067103
 41
0.067103
  0
VERTEX
  5
10FF
  8
0
 62
     7
 10
231.790603
 20
140.654667
 30
0.0
 40
0.067103
 41
0.067103
  0
SEQEND
  5
1100
  8
0
 62
     7
  0
POLYLINE
  5
1101
  8
0
 62
     7
 66
     1
 10
0.0
 20
0.0
 30
0.0
  0
VERTEX
  5
1102
  8
0
 62
     7
 10
231.857706
 20
141.124391
 30
0.0
 40
0.067103
 41
0.067103
  0
VERTEX
  5
1103
  8
0
 62
     7
 10
231.790603
 20
141.124391
 30
0.0
 40
0.067103
 41
0.067103
  0
SEQEND
  5
1104
  8
0
 62
     7
  0
POLYLINE
  5
1105
  8
0
 62
     7
 66
     1
 10
0.0
 20
0.0
 30
0.0
  0
VERTEX
  5
1106
  8
0
 62
     7
 10
232.730051
 20
141.124391
 30
0.0
 40
0.067103
 41
0.067103
  0
VERTEX
  5
1107
  8
0
 62
     7
 10
232.193223
 20
141.124391
 30
0.0
 40
0.067103
 41
0.067103
  0
SEQEND
  5
1108
  8
0
 62
     7
  0
POLYLINE
  5
1109
  8
0
 62
     7
 66
     1
 10
0.0
 20
0.0
 30
0.0
  0
VERTEX
  5
110A
  8
0
 62
     7
 10
233.602397
 20
141.124391
 30
0.0
 40
0.067103
 41
0.067103
  0
VERTEX
  5
110B
  8
0
 62
     7
 10
233.065569
 20
141.124391
 30
0.0
 40
0.067103
 41
0.067103
  0
SEQEND
  5
110C
  8
0
 62
     7
  0
POLYLINE
  5
110D
  8
0
 62
     7
 66
     1
 10
0.0
 20
0.0
 30
0.0
  0
VERTEX
  5
110E
  8
0
 62
     7
 10
234.474742
 20
141.124391
 30
0.0
 40
0.067103
 41
0.067103
  0
VERTEX
  5
110F
  8
0
 62
     7
 10
233.937914
 20
141.124391
 30
0.0
 40
0.067103
 41
0.067103
  0
SEQEND
  5
1110
  8
0
 62
     7
  0
POLYLINE
  5
1111
  8
0
 62
     7
 66
     1
 10
0.0
 20
0.0
 30
0.0
  0
VERTEX
  5
1112
  8
0
 62
     7
 10
236.118777
 20
139.144838
 30
0.0
 40
0.067103
 41
0.067103
  0
VERTEX
  5
1113
  8
0
 62
     7
 10
235.581949
 20
139.144838
 30
0.0
 40
0.067103
 41
0.067103
  0
SEQEND
  5
1114
  8
0
 62
     7
  0
POLYLINE
  5
1115
  8
0
 62
     7
 66
     1
 10
0.0
 20
0.0
 30
0.0
  0
VERTEX
  5
1116
  8
0
 62
     7
 10
236.991122
 20
139.144838
 30
0.0
 40
0.067103
 41
0.067103
  0
VERTEX
  5
1117
  8
0
 62
     7
 10
236.454294
 20
139.144838
 30
0.0
 40
0.067103
 41
0.067103
  0
SEQEND
  5
1118
  8
0
 62
     7
  0
POLYLINE
  5
1119
  8
0
 62
     7
 66
     1
 10
0.0
 20
0.0
 30
0.0
  0
VERTEX
  5
111A
  8
0
 62
     7
 10
237.863467
 20
139.144838
 30
0.0
 40
0.067103
 41
0.067103
  0
VERTEX
  5
111B
  8
0
 62
     7
 10
237.32664
 20
139.144838
 30
0.0
 40
0.067103
 41
0.067103
  0
SEQEND
  5
111C
  8
0
 62
     7
  0
POLYLINE
  5
111D
  8
0
 62
     7
 66
     1
 10
0.0
 20
0.0
 30
0.0
  0
VERTEX
  5
111E
  8
0
 62
     7
 10
238.735813
 20
139.144838
 30
0.0
 40
0.067103
 41
0.067103
  0
VERTEX
  5
111F
  8
0
 62
     7
 10
238.198985
 20
139.144838
 30
0.0
 40
0.067103
 41
0.067103
  0
SEQEND
  5
1120
  8
0
 62
     7
  0
POLYLINE
  5
1121
  8
0
 62
     7
 66
     1
 10
0.0
 20
0.0
 30
0.0
  0
VERTEX
  5
1122
  8
0
 62
     7
 10
237.930571
 20
137.131734
 30
0.0
 40
0.067103
 41
0.067103
  0
VERTEX
  5
1123
  8
0
 62
     7
 10
238.467399
 20
137.131734
 30
0.0
 40
0.067103
 41
0.067103
  0
SEQEND
  5
1124
  8
0
 62
     7
  0
POLYLINE
  5
1125
  8
0
 62
     7
 66
     1
 10
0.0
 20
0.0
 30
0.0
  0
VERTEX
  5
1126
  8
0
 62
     7
 10
237.058226
 20
137.131734
 30
0.0
 40
0.067103
 41
0.067103
  0
VERTEX
  5
1127
  8
0
 62
     7
 10
237.595054
 20
137.131734
 30
0.0
 40
0.067103
 41
0.067103
  0
SEQEND
  5
1128
  8
0
 62
     7
  0
POLYLINE
  5
1129
  8
0
 62
     7
 66
     1
 10
0.0
 20
0.0
 30
0.0
  0
VERTEX
  5
112A
  8
0
 62
     7
 10
236.18588
 20
137.131734
 30
0.0
 40
0.067103
 41
0.067103
  0
VERTEX
  5
112B
  8
0
 62
     7
 10
236.722708
 20
137.131734
 30
0.0
 40
0.067103
 41
0.067103
  0
SEQEND
  5
112C
  8
0
 62
     7
  0
POLYLINE
  5
112D
  8
0
 62
     7
 66
     1
 10
0.0
 20
0.0
 30
0.0
  0
VERTEX
  5
112E
  8
0
 62
     7
 10
235.313535
 20
137.131734
 30
0.0
 40
0.067103
 41
0.067103
  0
VERTEX
  5
112F
  8
0
 62
     7
 10
235.850363
 20
137.131734
 30
0.0
 40
0.067103
 41
0.067103
  0
SEQEND
  5
1130
  8
0
 62
     7
  0
POLYLINE
  5
1131
  8
0
 62
     7
 66
     1
 10
0.0
 20
0.0
 30
0.0
  0
VERTEX
  5
1132
  8
0
 62
     7
 10
236.219432
 20
141.124391
 30
0.0
 40
0.067103
 41
0.067103
  0
VERTEX
  5
1133
  8
0
 62
     7
 10
235.682604
 20
141.124391
 30
0.0
 40
0.067103
 41
0.067103
  0
SEQEND
  5
1134
  8
0
 62
     7
  0
POLYLINE
  5
1135
  8
0
 62
     7
 66
     1
 10
0.0
 20
0.0
 30
0.0
  0
VERTEX
  5
1136
  8
0
 62
     7
 10
237.091777
 20
141.124391
 30
0.0
 40
0.067103
 41
0.067103
  0
VERTEX
  5
1137
  8
0
 62
     7
 10
236.55495
 20
141.124391
 30
0.0
 40
0.067103
 41
0.067103
  0
SEQEND
  5
1138
  8
0
 62
     7
  0
POLYLINE
  5
1139
  8
0
 62
     7
 66
     1
 10
0.0
 20
0.0
 30
0.0
  0
VERTEX
  5
113A
  8
0
 62
     7
 10
237.964123
 20
141.124391
 30
0.0
 40
0.067103
 41
0.067103
  0
VERTEX
  5
113B
  8
0
 62
     7
 10
237.427295
 20
141.124391
 30
0.0
 40
0.067103
 41
0.067103
  0
SEQEND
  5
113C
  8
0
 62
     7
  0
POLYLINE
  5
113D
  8
0
 62
     7
 66
     1
 10
0.0
 20
0.0
 30
0.0
  0
VERTEX
  5
113E
  8
0
 62
     7
 10
238.836468
 20
141.124391
 30
0.0
 40
0.067103
 41
0.067103
  0
VERTEX
  5
113F
  8
0
 62
     7
 10
238.29964
 20
141.124391
 30
0.0
 40
0.067103
 41
0.067103
  0
SEQEND
  5
1140
  8
0
 62
     7
  0
TEXT
  5
1141
  8
0
 62
     7
 10
248.935542
 20
133.00487
 30
0.0
 40
1.019973
  1
RJ45 Liaison //
  7
STYLE_STD
  0
TEXT
  5
1142
  8
0
 62
     7
 10
239.205537
 20
137.702114
 30
0.0
 40
1.046814
  1
                         Parallel bus Module
  7
STYLE_GRAS
  0
POLYLINE
  5
1143
  8
0
 62
     7
 66
     1
 10
0.0
 20
0.0
 30
0.0
  0
VERTEX
  5
1144
  8
0
 62
     7
 10
255.377476
 20
137.131734
 30
0.0
 40
0.067103
 41
0.067103
  0
VERTEX
  5
1145
  8
0
 62
     7
 10
255.914303
 20
137.131734
 30
0.0
 40
0.067103
 41
0.067103
  0
SEQEND
  5
1146
  8
0
 62
     7
  0
POLYLINE
  5
1147
  8
0
 62
     7
 66
     1
 10
0.0
 20
0.0
 30
0.0
  0
VERTEX
  5
1148
  8
0
 62
     7
 10
253.599233
 20
130.320731
 30
0.0
 40
0.067103
 41
0.067103
  0
VERTEX
  5
1149
  8
0
 62
     7
 10
255.578786
 20
130.320731
 30
0.0
 40
0.067103
 41
0.067103
  0
VERTEX
  5
114A
  8
0
 62
     7
 10
255.578786
 20
132.300284
 30
0.0
 40
0.067103
 41
0.067103
  0
VERTEX
  5
114B
  8
0
 62
     7
 10
253.599233
 20
132.300284
 30
0.0
 40
0.067103
 41
0.067103
  0
VERTEX
  5
114C
  8
0
 62
     7
 10
253.599233
 20
130.320731
 30
0.0
 40
0.067103
 41
0.067103
  0
VERTEX
  5
114D
  8
0
 62
     7
 10
253.599233
 20
130.320731
 30
0.0
 40
0.067103
 41
0.067103
  0
SEQEND
  5
114E
  8
0
 62
     7
  0
POLYLINE
  5
114F
  8
0
 62
     7
 66
     1
 10
0.0
 20
0.0
 30
0.0
  0
VERTEX
  5
1150
  8
0
 62
     7
 10
255.411027
 20
141.124391
 30
0.0
 40
0.067103
 41
0.067103
  0
VERTEX
  5
1151
  8
0
 62
     7
 10
254.8742
 20
141.124391
 30
0.0
 40
0.067103
 41
0.067103
  0
SEQEND
  5
1152
  8
0
 62
     7
  0
POLYLINE
  5
1157
  8
0
 62
     7
 66
     1
 10
0.0
 20
0.0
 30
0.0
  0
VERTEX
  5
1158
  8
0
 62
     7
 10
247.459265
 20
139.144838
 30
0.0
 40
0.067103
 41
0.067103
  0
VERTEX
  5
1159
  8
0
 62
     7
 10
246.922437
 20
139.144838
 30
0.0
 40
0.067103
 41
0.067103
  0
SEQEND
  5
115A
  8
0
 62
     7
  0
POLYLINE
  5
115B
  8
0
 62
     7
 66
     1
 10
0.0
 20
0.0
 30
0.0
  0
VERTEX
  5
115C
  8
0
 62
     7
 10
245.647471
 20
130.320731
 30
0.0
 40
0.067103
 41
0.067103
  0
VERTEX
  5
115D
  8
0
 62
     7
 10
247.660575
 20
130.320731
 30
0.0
 40
0.067103
 41
0.067103
  0
VERTEX
  5
115E
  8
0
 62
     7
 10
247.660575
 20
132.300284
 30
0.0
 40
0.067103
 41
0.067103
  0
VERTEX
  5
115F
  8
0
 62
     7
 10
245.647471
 20
132.300284
 30
0.0
 40
0.067103
 41
0.067103
  0
VERTEX
  5
1160
  8
0
 62
     7
 10
245.647471
 20
130.320731
 30
0.0
 40
0.067103
 41
0.067103
  0
VERTEX
  5
1161
  8
0
 62
     7
 10
245.647471
 20
130.320731
 30
0.0
 40
0.067103
 41
0.067103
  0
SEQEND
  5
1162
  8
0
 62
     7
  0
POLYLINE
  5
1163
  8
0
 62
     7
 66
     1
 10
0.0
 20
0.0
 30
0.0
  0
VERTEX
  5
1164
  8
0
 62
     7
 10
247.55992
 20
141.124391
 30
0.0
 40
0.067103
 41
0.067103
  0
VERTEX
  5
1165
  8
0
 62
     7
 10
247.023092
 20
141.124391
 30
0.0
 40
0.067103
 41
0.067103
  0
SEQEND
  5
1166
  8
0
 62
     7
  0
POLYLINE
  5
1167
  8
0
 62
     7
 66
     1
 10
0.0
 20
0.0
 30
0.0
  0
VERTEX
  5
1168
  8
0
 62
     7
 10
243.433056
 20
134.783112
 30
0.0
 40
0.067103
 41
0.067103
  0
VERTEX
  5
1169
  8
0
 62
     7
 10
242.896228
 20
134.783112
 30
0.0
 40
0.067103
 41
0.067103
  0
SEQEND
  5
116A
  8
0
 62
     7
  0
POLYLINE
  5
116B
  8
0
 62
     7
 66
     1
 10
0.0
 20
0.0
 30
0.0
  0
VERTEX
  5
116C
  8
0
 62
     7
 10
239.943675
 20
134.783112
 30
0.0
 40
0.067103
 41
0.067103
  0
VERTEX
  5
116D
  8
0
 62
     7
 10
239.406848
 20
134.783112
 30
0.0
 40
0.067103
 41
0.067103
  0
SEQEND
  5
116E
  8
0
 62
     7
  0
POLYLINE
  5
116F
  8
0
 62
     7
 66
     1
 10
0.0
 20
0.0
 30
0.0
  0
VERTEX
  5
1170
  8
0
 62
     7
 10
240.816021
 20
134.783112
 30
0.0
 40
0.067103
 41
0.067103
  0
VERTEX
  5
1171
  8
0
 62
     7
 10
240.279193
 20
134.783112
 30
0.0
 40
0.067103
 41
0.067103
  0
SEQEND
  5
1172
  8
0
 62
     7
  0
POLYLINE
  5
1173
  8
0
 62
     7
 66
     1
 10
0.0
 20
0.0
 30
0.0
  0
VERTEX
  5
1174
  8
0
 62
     7
 10
241.688366
 20
134.783112
 30
0.0
 40
0.067103
 41
0.067103
  0
VERTEX
  5
1175
  8
0
 62
     7
 10
241.151538
 20
134.783112
 30
0.0
 40
0.067103
 41
0.067103
  0
SEQEND
  5
1176
  8
0
 62
     7
  0
POLYLINE
  5
1177
  8
0
 62
     7
 66
     1
 10
0.0
 20
0.0
 30
0.0
  0
VERTEX
  5
1178
  8
0
 62
     7
 10
242.560711
 20
134.783112
 30
0.0
 40
0.067103
 41
0.067103
  0
VERTEX
  5
1179
  8
0
 62
     7
 10
242.023883
 20
134.783112
 30
0.0
 40
0.067103
 41
0.067103
  0
SEQEND
  5
117A
  8
0
 62
     7
  0
POLYLINE
  5
117B
  8
0
 62
     7
 66
     1
 10
0.0
 20
0.0
 30
0.0
  0
VERTEX
  5
117C
  8
0
 62
     7
 10
242.258745
 20
131.193076
 30
0.0
 40
0.067103
 41
0.067103
  0
VERTEX
  5
117D
  8
0
 62
     7
 10
242.795573
 20
131.193076
 30
0.0
 40
0.067103
 41
0.067103
  0
SEQEND
  5
117E
  8
0
 62
     7
  0
POLYLINE
  5
117F
  8
0
 62
     7
 66
     1
 10
0.0
 20
0.0
 30
0.0
  0
VERTEX
  5
1180
  8
0
 62
     7
 10
241.3864
 20
131.193076
 30
0.0
 40
0.067103
 41
0.067103
  0
VERTEX
  5
1181
  8
0
 62
     7
 10
241.923228
 20
131.193076
 30
0.0
 40
0.067103
 41
0.067103
  0
SEQEND
  5
1182
  8
0
 62
     7
  0
POLYLINE
  5
1183
  8
0
 62
     7
 66
     1
 10
0.0
 20
0.0
 30
0.0
  0
VERTEX
  5
1184
  8
0
 62
     7
 10
240.514055
 20
131.193076
 30
0.0
 40
0.067103
 41
0.067103
  0
VERTEX
  5
1185
  8
0
 62
     7
 10
241.050883
 20
131.193076
 30
0.0
 40
0.067103
 41
0.067103
  0
SEQEND
  5
1186
  8
0
 62
     7
  0
POLYLINE
  5
1187
  8
0
 62
     7
 66
     1
 10
0.0
 20
0.0
 30
0.0
  0
VERTEX
  5
1188
  8
0
 62
     7
 10
239.64171
 20
131.193076
 30
0.0
 40
0.067103
 41
0.067103
  0
VERTEX
  5
1189
  8
0
 62
     7
 10
240.178538
 20
131.193076
 30
0.0
 40
0.067103
 41
0.067103
  0
SEQEND
  5
118A
  8
0
 62
     7
  0
POLYLINE
  5
118B
  8
0
 62
     7
 66
     1
 10
0.0
 20
0.0
 30
0.0
  0
VERTEX
  5
118C
  8
0
 62
     7
 10
242.258745
 20
131.193076
 30
0.0
 40
0.067103
 41
0.067103
  0
VERTEX
  5
118D
  8
0
 62
     7
 10
242.795573
 20
131.193076
 30
0.0
 40
0.067103
 41
0.067103
  0
SEQEND
  5
118E
  8
0
 62
     7
  0
POLYLINE
  5
118F
  8
0
 62
     7
 66
     1
 10
0.0
 20
0.0
 30
0.0
  0
VERTEX
  5
1190
  8
0
 62
     7
 10
241.3864
 20
131.193076
 30
0.0
 40
0.067103
 41
0.067103
  0
VERTEX
  5
1191
  8
0
 62
     7
 10
241.923228
 20
131.193076
 30
0.0
 40
0.067103
 41
0.067103
  0
SEQEND
  5
1192
  8
0
 62
     7
  0
POLYLINE
  5
1193
  8
0
 62
     7
 66
     1
 10
0.0
 20
0.0
 30
0.0
  0
VERTEX
  5
1194
  8
0
 62
     7
 10
240.514055
 20
131.193076
 30
0.0
 40
0.067103
 41
0.067103
  0
VERTEX
  5
1195
  8
0
 62
     7
 10
241.050883
 20
131.193076
 30
0.0
 40
0.067103
 41
0.067103
  0
SEQEND
  5
1196
  8
0
 62
     7
  0
POLYLINE
  5
1197
  8
0
 62
     7
 66
     1
 10
0.0
 20
0.0
 30
0.0
  0
VERTEX
  5
1198
  8
0
 62
     7
 10
239.64171
 20
131.193076
 30
0.0
 40
0.067103
 41
0.067103
  0
VERTEX
  5
1199
  8
0
 62
     7
 10
240.178538
 20
131.193076
 30
0.0
 40
0.067103
 41
0.067103
  0
SEQEND
  5
119A
  8
0
 62
     7
  0
POLYLINE
  5
119B
  8
0
 62
     7
 66
     1
 10
0.0
 20
0.0
 30
0.0
  0
VERTEX
  5
119C
  8
0
 62
     7
 10
243.667918
 20
134.145629
 30
0.0
 40
0.067103
 41
0.067103
  0
VERTEX
  5
119D
  8
0
 62
     7
 10
243.667918
 20
134.682457
 30
0.0
 40
0.067103
 41
0.067103
  0
SEQEND
  5
119E
  8
0
 62
     7
  0
POLYLINE
  5
119F
  8
0
 62
     7
 66
     1
 10
0.0
 20
0.0
 30
0.0
  0
VERTEX
  5
11A0
  8
0
 62
     7
 10
243.667918
 20
133.273284
 30
0.0
 40
0.067103
 41
0.067103
  0
VERTEX
  5
11A1
  8
0
 62
     7
 10
243.667918
 20
133.810112
 30
0.0
 40
0.067103
 41
0.067103
  0
SEQEND
  5
11A2
  8
0
 62
     7
  0
POLYLINE
  5
11A3
  8
0
 62
     7
 66
     1
 10
0.0
 20
0.0
 30
0.0
  0
VERTEX
  5
11A4
  8
0
 62
     7
 10
243.667918
 20
132.400939
 30
0.0
 40
0.067103
 41
0.067103
  0
VERTEX
  5
11A5
  8
0
 62
     7
 10
243.667918
 20
132.937767
 30
0.0
 40
0.067103
 41
0.067103
  0
SEQEND
  5
11A6
  8
0
 62
     7
  0
POLYLINE
  5
11A7
  8
0
 62
     7
 66
     1
 10
0.0
 20
0.0
 30
0.0
  0
VERTEX
  5
11A8
  8
0
 62
     7
 10
243.667918
 20
131.528594
 30
0.0
 40
0.067103
 41
0.067103
  0
VERTEX
  5
11A9
  8
0
 62
     7
 10
243.667918
 20
132.065421
 30
0.0
 40
0.067103
 41
0.067103
  0
SEQEND
  5
11AA
  8
0
 62
     7
  0
POLYLINE
  5
11AB
  8
0
 62
     7
 66
     1
 10
0.0
 20
0.0
 30
0.0
  0
VERTEX
  5
11AC
  8
0
 62
     7
 10
243.131091
 20
131.193076
 30
0.0
 40
0.067103
 41
0.067103
  0
VERTEX
  5
11AD
  8
0
 62
     7
 10
243.667918
 20
131.193076
 30
0.0
 40
0.067103
 41
0.067103
  0
SEQEND
  5
11AE
  8
0
 62
     7
  0
TEXT
  5
11AF
  8
0
 62
     7
 10
246.251402
 20
130.756904
 30
0.0
 40
1.019973
  1
1
  7
STYLE_STD
  0
POLYLINE
  5
11B8
  8
0
 62
     7
 66
     1
 10
0.0
 20
0.0
 30
0.0
  0
VERTEX
  5
11B9
  8
0
 62
     7
 10
244.875781
 20
131.193076
 30
0.0
 40
0.067103
 41
0.067103
  0
VERTEX
  5
11BA
  8
0
 62
     7
 10
245.412609
 20
131.193076
 30
0.0
 40
0.067103
 41
0.067103
  0
SEQEND
  5
11BB
  8
0
 62
     7
  0
POLYLINE
  5
11BC
  8
0
 62
     7
 66
     1
 10
0.0
 20
0.0
 30
0.0
  0
VERTEX
  5
11BD
  8
0
 62
     7
 10
244.003436
 20
131.193076
 30
0.0
 40
0.067103
 41
0.067103
  0
VERTEX
  5
11BE
  8
0
 62
     7
 10
244.540264
 20
131.193076
 30
0.0
 40
0.067103
 41
0.067103
  0
SEQEND
  5
11BF
  8
0
 62
     7
  0
POLYLINE
  5
11C0
  8
0
 62
     7
 66
     1
 10
0.0
 20
0.0
 30
0.0
  0
VERTEX
  5
11C1
  8
0
 62
     7
 10
243.131091
 20
131.193076
 30
0.0
 40
0.067103
 41
0.067103
  0
VERTEX
  5
11C2
  8
0
 62
     7
 10
243.667918
 20
131.193076
 30
0.0
 40
0.067103
 41
0.067103
  0
SEQEND
  5
11C3
  8
0
 62
     7
  0
POLYLINE
  5
11C4
  8
0
 62
     7
 66
     1
 10
0.0
 20
0.0
 30
0.0
  0
VERTEX
  5
11C5
  8
0
 62
     7
 10
243.198194
 20
141.124391
 30
0.0
 40
0.067103
 41
0.067103
  0
VERTEX
  5
11C6
  8
0
 62
     7
 10
242.661366
 20
141.124391
 30
0.0
 40
0.067103
 41
0.067103
  0
SEQEND
  5
11C7
  8
0
 62
     7
  0
POLYLINE
  5
11C8
  8
0
 62
     7
 66
     1
 10
0.0
 20
0.0
 30
0.0
  0
VERTEX
  5
11C9
  8
0
 62
     7
 10
239.608158
 20
139.144838
 30
0.0
 40
0.067103
 41
0.067103
  0
VERTEX
  5
11CA
  8
0
 62
     7
 10
239.07133
 20
139.144838
 30
0.0
 40
0.067103
 41
0.067103
  0
SEQEND
  5
11CB
  8
0
 62
     7
  0
POLYLINE
  5
11CC
  8
0
 62
     7
 66
     1
 10
0.0
 20
0.0
 30
0.0
  0
VERTEX
  5
11CD
  8
0
 62
     7
 10
240.480503
 20
139.144838
 30
0.0
 40
0.067103
 41
0.067103
  0
VERTEX
  5
11CE
  8
0
 62
     7
 10
239.943675
 20
139.144838
 30
0.0
 40
0.067103
 41
0.067103
  0
SEQEND
  5
11CF
  8
0
 62
     7
  0
POLYLINE
  5
11D0
  8
0
 62
     7
 66
     1
 10
0.0
 20
0.0
 30
0.0
  0
VERTEX
  5
11D1
  8
0
 62
     7
 10
241.352848
 20
139.144838
 30
0.0
 40
0.067103
 41
0.067103
  0
VERTEX
  5
11D2
  8
0
 62
     7
 10
240.816021
 20
139.144838
 30
0.0
 40
0.067103
 41
0.067103
  0
SEQEND
  5
11D3
  8
0
 62
     7
  0
POLYLINE
  5
11D4
  8
0
 62
     7
 66
     1
 10
0.0
 20
0.0
 30
0.0
  0
VERTEX
  5
11D5
  8
0
 62
     7
 10
242.225194
 20
139.144838
 30
0.0
 40
0.067103
 41
0.067103
  0
VERTEX
  5
11D6
  8
0
 62
     7
 10
241.688366
 20
139.144838
 30
0.0
 40
0.067103
 41
0.067103
  0
SEQEND
  5
11D7
  8
0
 62
     7
  0
POLYLINE
  5
11D8
  8
0
 62
     7
 66
     1
 10
0.0
 20
0.0
 30
0.0
  0
VERTEX
  5
11D9
  8
0
 62
     7
 10
243.097539
 20
139.144838
 30
0.0
 40
0.067103
 41
0.067103
  0
VERTEX
  5
11DA
  8
0
 62
     7
 10
242.560711
 20
139.144838
 30
0.0
 40
0.067103
 41
0.067103
  0
SEQEND
  5
11DB
  8
0
 62
     7
  0
POLYLINE
  5
11DC
  8
0
 62
     7
 66
     1
 10
0.0
 20
0.0
 30
0.0
  0
VERTEX
  5
11DD
  8
0
 62
     7
 10
242.292297
 20
137.131734
 30
0.0
 40
0.067103
 41
0.067103
  0
VERTEX
  5
11DE
  8
0
 62
     7
 10
242.829125
 20
137.131734
 30
0.0
 40
0.067103
 41
0.067103
  0
SEQEND
  5
11DF
  8
0
 62
     7
  0
POLYLINE
  5
11E0
  8
0
 62
     7
 66
     1
 10
0.0
 20
0.0
 30
0.0
  0
VERTEX
  5
11E1
  8
0
 62
     7
 10
241.419952
 20
137.131734
 30
0.0
 40
0.067103
 41
0.067103
  0
VERTEX
  5
11E2
  8
0
 62
     7
 10
241.95678
 20
137.131734
 30
0.0
 40
0.067103
 41
0.067103
  0
SEQEND
  5
11E3
  8
0
 62
     7
  0
POLYLINE
  5
11E4
  8
0
 62
     7
 66
     1
 10
0.0
 20
0.0
 30
0.0
  0
VERTEX
  5
11E5
  8
0
 62
     7
 10
240.547607
 20
137.131734
 30
0.0
 40
0.067103
 41
0.067103
  0
VERTEX
  5
11E6
  8
0
 62
     7
 10
241.084434
 20
137.131734
 30
0.0
 40
0.067103
 41
0.067103
  0
SEQEND
  5
11E7
  8
0
 62
     7
  0
POLYLINE
  5
11E8
  8
0
 62
     7
 66
     1
 10
0.0
 20
0.0
 30
0.0
  0
VERTEX
  5
11E9
  8
0
 62
     7
 10
239.675261
 20
137.131734
 30
0.0
 40
0.067103
 41
0.067103
  0
VERTEX
  5
11EA
  8
0
 62
     7
 10
240.212089
 20
137.131734
 30
0.0
 40
0.067103
 41
0.067103
  0
SEQEND
  5
11EB
  8
0
 62
     7
  0
POLYLINE
  5
11EC
  8
0
 62
     7
 66
     1
 10
0.0
 20
0.0
 30
0.0
  0
VERTEX
  5
11ED
  8
0
 62
     7
 10
239.708813
 20
141.124391
 30
0.0
 40
0.067103
 41
0.067103
  0
VERTEX
  5
11EE
  8
0
 62
     7
 10
239.171985
 20
141.124391
 30
0.0
 40
0.067103
 41
0.067103
  0
SEQEND
  5
11EF
  8
0
 62
     7
  0
POLYLINE
  5
11F0
  8
0
 62
     7
 66
     1
 10
0.0
 20
0.0
 30
0.0
  0
VERTEX
  5
11F1
  8
0
 62
     7
 10
240.581158
 20
141.124391
 30
0.0
 40
0.067103
 41
0.067103
  0
VERTEX
  5
11F2
  8
0
 62
     7
 10
240.044331
 20
141.124391
 30
0.0
 40
0.067103
 41
0.067103
  0
SEQEND
  5
11F3
  8
0
 62
     7
  0
POLYLINE
  5
11F4
  8
0
 62
     7
 66
     1
 10
0.0
 20
0.0
 30
0.0
  0
VERTEX
  5
11F5
  8
0
 62
     7
 10
241.453504
 20
141.124391
 30
0.0
 40
0.067103
 41
0.067103
  0
VERTEX
  5
11F6
  8
0
 62
     7
 10
240.916676
 20
141.124391
 30
0.0
 40
0.067103
 41
0.067103
  0
SEQEND
  5
11F7
  8
0
 62
     7
  0
POLYLINE
  5
11F8
  8
0
 62
     7
 66
     1
 10
0.0
 20
0.0
 30
0.0
  0
VERTEX
  5
11F9
  8
0
 62
     7
 10
242.325849
 20
141.124391
 30
0.0
 40
0.067103
 41
0.067103
  0
VERTEX
  5
11FA
  8
0
 62
     7
 10
241.789021
 20
141.124391
 30
0.0
 40
0.067103
 41
0.067103
  0
SEQEND
  5
11FB
  8
0
 62
     7
  0
POLYLINE
  5
11FC
  8
0
 62
     7
 66
     1
 10
0.0
 20
0.0
 30
0.0
  0
VERTEX
  5
11FD
  8
0
 62
     7
 10
243.969884
 20
139.144838
 30
0.0
 40
0.067103
 41
0.067103
  0
VERTEX
  5
11FE
  8
0
 62
     7
 10
243.433056
 20
139.144838
 30
0.0
 40
0.067103
 41
0.067103
  0
SEQEND
  5
11FF
  8
0
 62
     7
  0
POLYLINE
  5
1200
  8
0
 62
     7
 66
     1
 10
0.0
 20
0.0
 30
0.0
  0
VERTEX
  5
1201
  8
0
 62
     7
 10
244.842229
 20
139.144838
 30
0.0
 40
0.067103
 41
0.067103
  0
VERTEX
  5
1202
  8
0
 62
     7
 10
244.305402
 20
139.144838
 30
0.0
 40
0.067103
 41
0.067103
  0
SEQEND
  5
1203
  8
0
 62
     7
  0
POLYLINE
  5
1204
  8
0
 62
     7
 66
     1
 10
0.0
 20
0.0
 30
0.0
  0
VERTEX
  5
1205
  8
0
 62
     7
 10
245.714575
 20
139.144838
 30
0.0
 40
0.067103
 41
0.067103
  0
VERTEX
  5
1206
  8
0
 62
     7
 10
245.177747
 20
139.144838
 30
0.0
 40
0.067103
 41
0.067103
  0
SEQEND
  5
1207
  8
0
 62
     7
  0
POLYLINE
  5
1208
  8
0
 62
     7
 66
     1
 10
0.0
 20
0.0
 30
0.0
  0
VERTEX
  5
1209
  8
0
 62
     7
 10
246.58692
 20
139.144838
 30
0.0
 40
0.067103
 41
0.067103
  0
VERTEX
  5
120A
  8
0
 62
     7
 10
246.050092
 20
139.144838
 30
0.0
 40
0.067103
 41
0.067103
  0
SEQEND
  5
120B
  8
0
 62
     7
  0
POLYLINE
  5
120C
  8
0
 62
     7
 66
     1
 10
0.0
 20
0.0
 30
0.0
  0
VERTEX
  5
120D
  8
0
 62
     7
 10
246.654023
 20
137.131734
 30
0.0
 40
0.067103
 41
0.067103
  0
VERTEX
  5
120E
  8
0
 62
     7
 10
247.190851
 20
137.131734
 30
0.0
 40
0.067103
 41
0.067103
  0
SEQEND
  5
120F
  8
0
 62
     7
  0
POLYLINE
  5
1210
  8
0
 62
     7
 66
     1
 10
0.0
 20
0.0
 30
0.0
  0
VERTEX
  5
1211
  8
0
 62
     7
 10
245.781678
 20
137.131734
 30
0.0
 40
0.067103
 41
0.067103
  0
VERTEX
  5
1212
  8
0
 62
     7
 10
246.318506
 20
137.131734
 30
0.0
 40
0.067103
 41
0.067103
  0
SEQEND
  5
1213
  8
0
 62
     7
  0
POLYLINE
  5
1214
  8
0
 62
     7
 66
     1
 10
0.0
 20
0.0
 30
0.0
  0
VERTEX
  5
1215
  8
0
 62
     7
 10
244.909333
 20
137.131734
 30
0.0
 40
0.067103
 41
0.067103
  0
VERTEX
  5
1216
  8
0
 62
     7
 10
245.446161
 20
137.131734
 30
0.0
 40
0.067103
 41
0.067103
  0
SEQEND
  5
1217
  8
0
 62
     7
  0
POLYLINE
  5
1218
  8
0
 62
     7
 66
     1
 10
0.0
 20
0.0
 30
0.0
  0
VERTEX
  5
1219
  8
0
 62
     7
 10
244.036988
 20
137.131734
 30
0.0
 40
0.067103
 41
0.067103
  0
VERTEX
  5
121A
  8
0
 62
     7
 10
244.573815
 20
137.131734
 30
0.0
 40
0.067103
 41
0.067103
  0
SEQEND
  5
121B
  8
0
 62
     7
  0
POLYLINE
  5
121C
  8
0
 62
     7
 66
     1
 10
0.0
 20
0.0
 30
0.0
  0
VERTEX
  5
121D
  8
0
 62
     7
 10
243.164642
 20
137.131734
 30
0.0
 40
0.067103
 41
0.067103
  0
VERTEX
  5
121E
  8
0
 62
     7
 10
243.70147
 20
137.131734
 30
0.0
 40
0.067103
 41
0.067103
  0
SEQEND
  5
121F
  8
0
 62
     7
  0
POLYLINE
  5
1220
  8
0
 62
     7
 66
     1
 10
0.0
 20
0.0
 30
0.0
  0
VERTEX
  5
1221
  8
0
 62
     7
 10
244.070539
 20
141.124391
 30
0.0
 40
0.067103
 41
0.067103
  0
VERTEX
  5
1222
  8
0
 62
     7
 10
243.533711
 20
141.124391
 30
0.0
 40
0.067103
 41
0.067103
  0
SEQEND
  5
1223
  8
0
 62
     7
  0
POLYLINE
  5
1224
  8
0
 62
     7
 66
     1
 10
0.0
 20
0.0
 30
0.0
  0
VERTEX
  5
1225
  8
0
 62
     7
 10
244.942885
 20
141.124391
 30
0.0
 40
0.067103
 41
0.067103
  0
VERTEX
  5
1226
  8
0
 62
     7
 10
244.406057
 20
141.124391
 30
0.0
 40
0.067103
 41
0.067103
  0
SEQEND
  5
1227
  8
0
 62
     7
  0
POLYLINE
  5
1228
  8
0
 62
     7
 66
     1
 10
0.0
 20
0.0
 30
0.0
  0
VERTEX
  5
1229
  8
0
 62
     7
 10
245.81523
 20
141.124391
 30
0.0
 40
0.067103
 41
0.067103
  0
VERTEX
  5
122A
  8
0
 62
     7
 10
245.278402
 20
141.124391
 30
0.0
 40
0.067103
 41
0.067103
  0
SEQEND
  5
122B
  8
0
 62
     7
  0
POLYLINE
  5
122C
  8
0
 62
     7
 66
     1
 10
0.0
 20
0.0
 30
0.0
  0
VERTEX
  5
122D
  8
0
 62
     7
 10
246.687575
 20
141.124391
 30
0.0
 40
0.067103
 41
0.067103
  0
VERTEX
  5
122E
  8
0
 62
     7
 10
246.150747
 20
141.124391
 30
0.0
 40
0.067103
 41
0.067103
  0
SEQEND
  5
122F
  8
0
 62
     7
  0
POLYLINE
  5
1230
  8
0
 62
     7
 66
     1
 10
0.0
 20
0.0
 30
0.0
  0
VERTEX
  5
1231
  8
0
 62
     7
 10
249.640128
 20
130.320731
 30
0.0
 40
0.067103
 41
0.067103
  0
VERTEX
  5
1232
  8
0
 62
     7
 10
251.619681
 20
130.320731
 30
0.0
 40
0.067103
 41
0.067103
  0
VERTEX
  5
1233
  8
0
 62
     7
 10
251.619681
 20
132.300284
 30
0.0
 40
0.067103
 41
0.067103
  0
VERTEX
  5
1234
  8
0
 62
     7
 10
249.640128
 20
132.300284
 30
0.0
 40
0.067103
 41
0.067103
  0
VERTEX
  5
1235
  8
0
 62
     7
 10
249.640128
 20
130.320731
 30
0.0
 40
0.067103
 41
0.067103
  0
VERTEX
  5
1236
  8
0
 62
     7
 10
249.640128
 20
130.320731
 30
0.0
 40
0.067103
 41
0.067103
  0
SEQEND
  5
1237
  8
0
 62
     7
  0
TEXT
  5
123C
  8
0
 62
     7
 10
250.210508
 20
130.756904
 30
0.0
 40
1.019973
  1
3
  7
STYLE_STD
  0
TEXT
  5
123D
  8
0
 62
     7
 10
248.230955
 20
130.756904
 30
0.0
 40
1.019973
  1
2
  7
STYLE_STD
  0
POLYLINE
  5
123E
  8
0
 62
     7
 66
     1
 10
0.0
 20
0.0
 30
0.0
  0
VERTEX
  5
123F
  8
0
 62
     7
 10
247.660575
 20
130.320731
 30
0.0
 40
0.067103
 41
0.067103
  0
VERTEX
  5
1240
  8
0
 62
     7
 10
249.640128
 20
130.320731
 30
0.0
 40
0.067103
 41
0.067103
  0
VERTEX
  5
1241
  8
0
 62
     7
 10
249.640128
 20
132.300284
 30
0.0
 40
0.067103
 41
0.067103
  0
VERTEX
  5
1242
  8
0
 62
     7
 10
247.660575
 20
132.300284
 30
0.0
 40
0.067103
 41
0.067103
  0
VERTEX
  5
1243
  8
0
 62
     7
 10
247.660575
 20
130.320731
 30
0.0
 40
0.067103
 41
0.067103
  0
VERTEX
  5
1244
  8
0
 62
     7
 10
247.660575
 20
130.320731
 30
0.0
 40
0.067103
 41
0.067103
  0
SEQEND
  5
1245
  8
0
 62
     7
  0
TEXT
  5
1256
  8
0
 62
     7
 10
254.203165
 20
130.756904
 30
0.0
 40
1.019973
  1
5
  7
STYLE_STD
  0
TEXT
  5
1257
  8
0
 62
     7
 10
252.223612
 20
130.756904
 30
0.0
 40
1.019973
  1
4
  7
STYLE_STD
  0
POLYLINE
  5
1258
  8
0
 62
     7
 66
     1
 10
0.0
 20
0.0
 30
0.0
  0
VERTEX
  5
1259
  8
0
 62
     7
 10
251.619681
 20
130.320731
 30
0.0
 40
0.067103
 41
0.067103
  0
VERTEX
  5
125A
  8
0
 62
     7
 10
253.599233
 20
130.320731
 30
0.0
 40
0.067103
 41
0.067103
  0
VERTEX
  5
125B
  8
0
 62
     7
 10
253.599233
 20
132.300284
 30
0.0
 40
0.067103
 41
0.067103
  0
VERTEX
  5
125C
  8
0
 62
     7
 10
251.619681
 20
132.300284
 30
0.0
 40
0.067103
 41
0.067103
  0
VERTEX
  5
125D
  8
0
 62
     7
 10
251.619681
 20
130.320731
 30
0.0
 40
0.067103
 41
0.067103
  0
VERTEX
  5
125E
  8
0
 62
     7
 10
251.619681
 20
130.320731
 30
0.0
 40
0.067103
 41
0.067103
  0
SEQEND
  5
125F
  8
0
 62
     7
  0
POLYLINE
  5
1270
  8
0
 62
     7
 66
     1
 10
0.0
 20
0.0
 30
0.0
  0
VERTEX
  5
1271
  8
0
 62
     7
 10
251.820991
 20
139.144838
 30
0.0
 40
0.067103
 41
0.067103
  0
VERTEX
  5
1272
  8
0
 62
     7
 10
251.284163
 20
139.144838
 30
0.0
 40
0.067103
 41
0.067103
  0
SEQEND
  5
1273
  8
0
 62
     7
  0
POLYLINE
  5
1274
  8
0
 62
     7
 66
     1
 10
0.0
 20
0.0
 30
0.0
  0
VERTEX
  5
1275
  8
0
 62
     7
 10
251.015749
 20
137.131734
 30
0.0
 40
0.067103
 41
0.067103
  0
VERTEX
  5
1276
  8
0
 62
     7
 10
251.552577
 20
137.131734
 30
0.0
 40
0.067103
 41
0.067103
  0
SEQEND
  5
1277
  8
0
 62
     7
  0
POLYLINE
  5
1278
  8
0
 62
     7
 66
     1
 10
0.0
 20
0.0
 30
0.0
  0
VERTEX
  5
1279
  8
0
 62
     7
 10
248.33161
 20
139.144838
 30
0.0
 40
0.067103
 41
0.067103
  0
VERTEX
  5
127A
  8
0
 62
     7
 10
247.794782
 20
139.144838
 30
0.0
 40
0.067103
 41
0.067103
  0
SEQEND
  5
127B
  8
0
 62
     7
  0
POLYLINE
  5
127C
  8
0
 62
     7
 66
     1
 10
0.0
 20
0.0
 30
0.0
  0
VERTEX
  5
127D
  8
0
 62
     7
 10
249.203956
 20
139.144838
 30
0.0
 40
0.067103
 41
0.067103
  0
VERTEX
  5
127E
  8
0
 62
     7
 10
248.667128
 20
139.144838
 30
0.0
 40
0.067103
 41
0.067103
  0
SEQEND
  5
127F
  8
0
 62
     7
  0
POLYLINE
  5
1280
  8
0
 62
     7
 66
     1
 10
0.0
 20
0.0
 30
0.0
  0
VERTEX
  5
1281
  8
0
 62
     7
 10
250.076301
 20
139.144838
 30
0.0
 40
0.067103
 41
0.067103
  0
VERTEX
  5
1282
  8
0
 62
     7
 10
249.539473
 20
139.144838
 30
0.0
 40
0.067103
 41
0.067103
  0
SEQEND
  5
1283
  8
0
 62
     7
  0
POLYLINE
  5
1284
  8
0
 62
     7
 66
     1
 10
0.0
 20
0.0
 30
0.0
  0
VERTEX
  5
1285
  8
0
 62
     7
 10
250.948646
 20
139.144838
 30
0.0
 40
0.067103
 41
0.067103
  0
VERTEX
  5
1286
  8
0
 62
     7
 10
250.411818
 20
139.144838
 30
0.0
 40
0.067103
 41
0.067103
  0
SEQEND
  5
1287
  8
0
 62
     7
  0
POLYLINE
  5
1288
  8
0
 62
     7
 66
     1
 10
0.0
 20
0.0
 30
0.0
  0
VERTEX
  5
1289
  8
0
 62
     7
 10
250.143404
 20
137.131734
 30
0.0
 40
0.067103
 41
0.067103
  0
VERTEX
  5
128A
  8
0
 62
     7
 10
250.680232
 20
137.131734
 30
0.0
 40
0.067103
 41
0.067103
  0
SEQEND
  5
128B
  8
0
 62
     7
  0
POLYLINE
  5
128C
  8
0
 62
     7
 66
     1
 10
0.0
 20
0.0
 30
0.0
  0
VERTEX
  5
128D
  8
0
 62
     7
 10
249.271059
 20
137.131734
 30
0.0
 40
0.067103
 41
0.067103
  0
VERTEX
  5
128E
  8
0
 62
     7
 10
249.807887
 20
137.131734
 30
0.0
 40
0.067103
 41
0.067103
  0
SEQEND
  5
128F
  8
0
 62
     7
  0
POLYLINE
  5
1290
  8
0
 62
     7
 66
     1
 10
0.0
 20
0.0
 30
0.0
  0
VERTEX
  5
1291
  8
0
 62
     7
 10
248.398714
 20
137.131734
 30
0.0
 40
0.067103
 41
0.067103
  0
VERTEX
  5
1292
  8
0
 62
     7
 10
248.935542
 20
137.131734
 30
0.0
 40
0.067103
 41
0.067103
  0
SEQEND
  5
1293
  8
0
 62
     7
  0
POLYLINE
  5
1294
  8
0
 62
     7
 66
     1
 10
0.0
 20
0.0
 30
0.0
  0
VERTEX
  5
1295
  8
0
 62
     7
 10
247.526369
 20
137.131734
 30
0.0
 40
0.067103
 41
0.067103
  0
VERTEX
  5
1296
  8
0
 62
     7
 10
248.063196
 20
137.131734
 30
0.0
 40
0.067103
 41
0.067103
  0
SEQEND
  5
1297
  8
0
 62
     7
  0
POLYLINE
  5
1298
  8
0
 62
     7
 66
     1
 10
0.0
 20
0.0
 30
0.0
  0
VERTEX
  5
1299
  8
0
 62
     7
 10
248.432265
 20
141.124391
 30
0.0
 40
0.067103
 41
0.067103
  0
VERTEX
  5
129A
  8
0
 62
     7
 10
247.895438
 20
141.124391
 30
0.0
 40
0.067103
 41
0.067103
  0
SEQEND
  5
129B
  8
0
 62
     7
  0
POLYLINE
  5
129C
  8
0
 62
     7
 66
     1
 10
0.0
 20
0.0
 30
0.0
  0
VERTEX
  5
129D
  8
0
 62
     7
 10
249.304611
 20
141.124391
 30
0.0
 40
0.067103
 41
0.067103
  0
VERTEX
  5
129E
  8
0
 62
     7
 10
248.767783
 20
141.124391
 30
0.0
 40
0.067103
 41
0.067103
  0
SEQEND
  5
129F
  8
0
 62
     7
  0
POLYLINE
  5
12A0
  8
0
 62
     7
 66
     1
 10
0.0
 20
0.0
 30
0.0
  0
VERTEX
  5
12A1
  8
0
 62
     7
 10
250.176956
 20
141.124391
 30
0.0
 40
0.067103
 41
0.067103
  0
VERTEX
  5
12A2
  8
0
 62
     7
 10
249.640128
 20
141.124391
 30
0.0
 40
0.067103
 41
0.067103
  0
SEQEND
  5
12A3
  8
0
 62
     7
  0
POLYLINE
  5
12A4
  8
0
 62
     7
 66
     1
 10
0.0
 20
0.0
 30
0.0
  0
VERTEX
  5
12A5
  8
0
 62
     7
 10
251.049301
 20
141.124391
 30
0.0
 40
0.067103
 41
0.067103
  0
VERTEX
  5
12A6
  8
0
 62
     7
 10
250.512473
 20
141.124391
 30
0.0
 40
0.067103
 41
0.067103
  0
SEQEND
  5
12A7
  8
0
 62
     7
  0
POLYLINE
  5
12A8
  8
0
 62
     7
 66
     1
 10
0.0
 20
0.0
 30
0.0
  0
VERTEX
  5
12A9
  8
0
 62
     7
 10
252.693336
 20
139.144838
 30
0.0
 40
0.067103
 41
0.067103
  0
VERTEX
  5
12AA
  8
0
 62
     7
 10
252.156509
 20
139.144838
 30
0.0
 40
0.067103
 41
0.067103
  0
SEQEND
  5
12AB
  8
0
 62
     7
  0
POLYLINE
  5
12AC
  8
0
 62
     7
 66
     1
 10
0.0
 20
0.0
 30
0.0
  0
VERTEX
  5
12AD
  8
0
 62
     7
 10
253.565682
 20
139.144838
 30
0.0
 40
0.067103
 41
0.067103
  0
VERTEX
  5
12AE
  8
0
 62
     7
 10
253.028854
 20
139.144838
 30
0.0
 40
0.067103
 41
0.067103
  0
SEQEND
  5
12AF
  8
0
 62
     7
  0
POLYLINE
  5
12B0
  8
0
 62
     7
 66
     1
 10
0.0
 20
0.0
 30
0.0
  0
VERTEX
  5
12B1
  8
0
 62
     7
 10
254.438027
 20
139.144838
 30
0.0
 40
0.067103
 41
0.067103
  0
VERTEX
  5
12B2
  8
0
 62
     7
 10
253.901199
 20
139.144838
 30
0.0
 40
0.067103
 41
0.067103
  0
SEQEND
  5
12B3
  8
0
 62
     7
  0
POLYLINE
  5
12B4
  8
0
 62
     7
 66
     1
 10
0.0
 20
0.0
 30
0.0
  0
VERTEX
  5
12B5
  8
0
 62
     7
 10
255.310372
 20
139.144838
 30
0.0
 40
0.067103
 41
0.067103
  0
VERTEX
  5
12B6
  8
0
 62
     7
 10
254.773544
 20
139.144838
 30
0.0
 40
0.067103
 41
0.067103
  0
SEQEND
  5
12B7
  8
0
 62
     7
  0
POLYLINE
  5
12B8
  8
0
 62
     7
 66
     1
 10
0.0
 20
0.0
 30
0.0
  0
VERTEX
  5
12B9
  8
0
 62
     7
 10
254.50513
 20
137.131734
 30
0.0
 40
0.067103
 41
0.067103
  0
VERTEX
  5
12BA
  8
0
 62
     7
 10
255.041958
 20
137.131734
 30
0.0
 40
0.067103
 41
0.067103
  0
SEQEND
  5
12BB
  8
0
 62
     7
  0
POLYLINE
  5
12BC
  8
0
 62
     7
 66
     1
 10
0.0
 20
0.0
 30
0.0
  0
VERTEX
  5
12BD
  8
0
 62
     7
 10
253.632785
 20
137.131734
 30
0.0
 40
0.067103
 41
0.067103
  0
VERTEX
  5
12BE
  8
0
 62
     7
 10
254.169613
 20
137.131734
 30
0.0
 40
0.067103
 41
0.067103
  0
SEQEND
  5
12BF
  8
0
 62
     7
  0
POLYLINE
  5
12C0
  8
0
 62
     7
 66
     1
 10
0.0
 20
0.0
 30
0.0
  0
VERTEX
  5
12C1
  8
0
 62
     7
 10
252.76044
 20
137.131734
 30
0.0
 40
0.067103
 41
0.067103
  0
VERTEX
  5
12C2
  8
0
 62
     7
 10
253.297268
 20
137.131734
 30
0.0
 40
0.067103
 41
0.067103
  0
SEQEND
  5
12C3
  8
0
 62
     7
  0
POLYLINE
  5
12C4
  8
0
 62
     7
 66
     1
 10
0.0
 20
0.0
 30
0.0
  0
VERTEX
  5
12C5
  8
0
 62
     7
 10
251.888095
 20
137.131734
 30
0.0
 40
0.067103
 41
0.067103
  0
VERTEX
  5
12C6
  8
0
 62
     7
 10
252.424923
 20
137.131734
 30
0.0
 40
0.067103
 41
0.067103
  0
SEQEND
  5
12C7
  8
0
 62
     7
  0
POLYLINE
  5
12C8
  8
0
 62
     7
 66
     1
 10
0.0
 20
0.0
 30
0.0
  0
VERTEX
  5
12C9
  8
0
 62
     7
 10
251.921646
 20
141.124391
 30
0.0
 40
0.067103
 41
0.067103
  0
VERTEX
  5
12CA
  8
0
 62
     7
 10
251.384819
 20
141.124391
 30
0.0
 40
0.067103
 41
0.067103
  0
SEQEND
  5
12CB
  8
0
 62
     7
  0
POLYLINE
  5
12CC
  8
0
 62
     7
 66
     1
 10
0.0
 20
0.0
 30
0.0
  0
VERTEX
  5
12CD
  8
0
 62
     7
 10
252.793992
 20
141.124391
 30
0.0
 40
0.067103
 41
0.067103
  0
VERTEX
  5
12CE
  8
0
 62
     7
 10
252.257164
 20
141.124391
 30
0.0
 40
0.067103
 41
0.067103
  0
SEQEND
  5
12CF
  8
0
 62
     7
  0
POLYLINE
  5
12D0
  8
0
 62
     7
 66
     1
 10
0.0
 20
0.0
 30
0.0
  0
VERTEX
  5
12D1
  8
0
 62
     7
 10
253.666337
 20
141.124391
 30
0.0
 40
0.067103
 41
0.067103
  0
VERTEX
  5
12D2
  8
0
 62
     7
 10
253.129509
 20
141.124391
 30
0.0
 40
0.067103
 41
0.067103
  0
SEQEND
  5
12D3
  8
0
 62
     7
  0
POLYLINE
  5
12D4
  8
0
 62
     7
 66
     1
 10
0.0
 20
0.0
 30
0.0
  0
VERTEX
  5
12D5
  8
0
 62
     7
 10
254.538682
 20
141.124391
 30
0.0
 40
0.067103
 41
0.067103
  0
VERTEX
  5
12D6
  8
0
 62
     7
 10
254.001854
 20
141.124391
 30
0.0
 40
0.067103
 41
0.067103
  0
SEQEND
  5
12D7
  8
0
 62
     7
  0
POLYLINE
  5
12D8
  8
0
 62
     7
 66
     1
 10
0.0
 20
0.0
 30
0.0
  0
VERTEX
  5
12D9
  8
0
 62
     7
 10
259.537891
 20
130.320731
 30
0.0
 40
0.067103
 41
0.067103
  0
VERTEX
  5
12DA
  8
0
 62
     7
 10
261.517444
 20
130.320731
 30
0.0
 40
0.067103
 41
0.067103
  0
VERTEX
  5
12DB
  8
0
 62
     7
 10
261.517444
 20
132.300284
 30
0.0
 40
0.067103
 41
0.067103
  0
VERTEX
  5
12DC
  8
0
 62
     7
 10
259.537891
 20
132.300284
 30
0.0
 40
0.067103
 41
0.067103
  0
VERTEX
  5
12DD
  8
0
 62
     7
 10
259.537891
 20
130.320731
 30
0.0
 40
0.067103
 41
0.067103
  0
VERTEX
  5
12DE
  8
0
 62
     7
 10
259.537891
 20
130.320731
 30
0.0
 40
0.067103
 41
0.067103
  0
SEQEND
  5
12DF
  8
0
 62
     7
  0
POLYLINE
  5
12E0
  8
0
 62
     7
 66
     1
 10
0.0
 20
0.0
 30
0.0
  0
VERTEX
  5
12E1
  8
0
 62
     7
 10
257.558339
 20
130.320731
 30
0.0
 40
0.067103
 41
0.067103
  0
VERTEX
  5
12E2
  8
0
 62
     7
 10
259.537891
 20
130.320731
 30
0.0
 40
0.067103
 41
0.067103
  0
VERTEX
  5
12E3
  8
0
 62
     7
 10
259.537891
 20
132.300284
 30
0.0
 40
0.067103
 41
0.067103
  0
VERTEX
  5
12E4
  8
0
 62
     7
 10
257.558339
 20
132.300284
 30
0.0
 40
0.067103
 41
0.067103
  0
VERTEX
  5
12E5
  8
0
 62
     7
 10
257.558339
 20
130.320731
 30
0.0
 40
0.067103
 41
0.067103
  0
VERTEX
  5
12E6
  8
0
 62
     7
 10
257.558339
 20
130.320731
 30
0.0
 40
0.067103
 41
0.067103
  0
SEQEND
  5
12E7
  8
0
 62
     7
  0
TEXT
  5
12E8
  8
0
 62
     7
 10
258.16227
 20
130.756904
 30
0.0
 40
1.019973
  1
7
  7
STYLE_STD
  0
TEXT
  5
12E9
  8
0
 62
     7
 10
256.182717
 20
130.756904
 30
0.0
 40
1.019973
  1
6
  7
STYLE_STD
  0
POLYLINE
  5
12EA
  8
0
 62
     7
 66
     1
 10
0.0
 20
0.0
 30
0.0
  0
VERTEX
  5
12EB
  8
0
 62
     7
 10
255.578786
 20
130.320731
 30
0.0
 40
0.067103
 41
0.067103
  0
VERTEX
  5
12EC
  8
0
 62
     7
 10
257.558339
 20
130.320731
 30
0.0
 40
0.067103
 41
0.067103
  0
VERTEX
  5
12ED
  8
0
 62
     7
 10
257.558339
 20
132.300284
 30
0.0
 40
0.067103
 41
0.067103
  0
VERTEX
  5
12EE
  8
0
 62
     7
 10
255.578786
 20
132.300284
 30
0.0
 40
0.067103
 41
0.067103
  0
VERTEX
  5
12EF
  8
0
 62
     7
 10
255.578786
 20
130.320731
 30
0.0
 40
0.067103
 41
0.067103
  0
VERTEX
  5
12F0
  8
0
 62
     7
 10
255.578786
 20
130.320731
 30
0.0
 40
0.067103
 41
0.067103
  0
SEQEND
  5
12F1
  8
0
 62
     7
  0
TEXT
  5
1302
  8
0
 62
     7
 10
260.141823
 20
130.756904
 30
0.0
 40
1.019973
  1
8
  7
STYLE_STD
  0
POLYLINE
  5
1303
  8
0
 62
     7
 66
     1
 10
0.0
 20
0.0
 30
0.0
  0
VERTEX
  5
1304
  8
0
 62
     7
 10
263.496997
 20
135.252837
 30
0.0
 40
0.067103
 41
0.067103
  0
VERTEX
  5
1305
  8
0
 62
     7
 10
263.496997
 20
135.789664
 30
0.0
 40
0.067103
 41
0.067103
  0
SEQEND
  5
1306
  8
0
 62
     7
  0
POLYLINE
  5
1307
  8
0
 62
     7
 66
     1
 10
0.0
 20
0.0
 30
0.0
  0
VERTEX
  5
1308
  8
0
 62
     7
 10
263.496997
 20
134.380491
 30
0.0
 40
0.067103
 41
0.067103
  0
VERTEX
  5
1309
  8
0
 62
     7
 10
263.496997
 20
134.917319
 30
0.0
 40
0.067103
 41
0.067103
  0
SEQEND
  5
130A
  8
0
 62
     7
  0
POLYLINE
  5
130B
  8
0
 62
     7
 66
     1
 10
0.0
 20
0.0
 30
0.0
  0
VERTEX
  5
130C
  8
0
 62
     7
 10
263.496997
 20
133.508146
 30
0.0
 40
0.067103
 41
0.067103
  0
VERTEX
  5
130D
  8
0
 62
     7
 10
263.496997
 20
134.044974
 30
0.0
 40
0.067103
 41
0.067103
  0
SEQEND
  5
130E
  8
0
 62
     7
  0
POLYLINE
  5
130F
  8
0
 62
     7
 66
     1
 10
0.0
 20
0.0
 30
0.0
  0
VERTEX
  5
1310
  8
0
 62
     7
 10
263.496997
 20
132.635801
 30
0.0
 40
0.067103
 41
0.067103
  0
VERTEX
  5
1311
  8
0
 62
     7
 10
263.496997
 20
133.172629
 30
0.0
 40
0.067103
 41
0.067103
  0
SEQEND
  5
1312
  8
0
 62
     7
  0
POLYLINE
  5
1313
  8
0
 62
     7
 66
     1
 10
0.0
 20
0.0
 30
0.0
  0
VERTEX
  5
1314
  8
0
 62
     7
 10
263.496997
 20
131.763456
 30
0.0
 40
0.067103
 41
0.067103
  0
VERTEX
  5
1315
  8
0
 62
     7
 10
263.496997
 20
132.300284
 30
0.0
 40
0.067103
 41
0.067103
  0
SEQEND
  5
1316
  8
0
 62
     7
  0
POLYLINE
  5
1317
  8
0
 62
     7
 66
     1
 10
0.0
 20
0.0
 30
0.0
  0
VERTEX
  5
1318
  8
0
 62
     7
 10
263.496997
 20
131.193076
 30
0.0
 40
0.067103
 41
0.067103
  0
VERTEX
  5
1319
  8
0
 62
     7
 10
263.496997
 20
131.427938
 30
0.0
 40
0.067103
 41
0.067103
  0
SEQEND
  5
131A
  8
0
 62
     7
  0
POLYLINE
  5
131B
  8
0
 62
     7
 66
     1
 10
0.0
 20
0.0
 30
0.0
  0
VERTEX
  5
131C
  8
0
 62
     7
 10
263.195031
 20
131.193076
 30
0.0
 40
0.067103
 41
0.067103
  0
VERTEX
  5
131D
  8
0
 62
     7
 10
263.496997
 20
131.193076
 30
0.0
 40
0.067103
 41
0.067103
  0
SEQEND
  5
131E
  8
0
 62
     7
  0
POLYLINE
  5
131F
  8
0
 62
     7
 66
     1
 10
0.0
 20
0.0
 30
0.0
  0
VERTEX
  5
1320
  8
0
 62
     7
 10
262.322686
 20
131.193076
 30
0.0
 40
0.067103
 41
0.067103
  0
VERTEX
  5
1321
  8
0
 62
     7
 10
262.859514
 20
131.193076
 30
0.0
 40
0.067103
 41
0.067103
  0
SEQEND
  5
1322
  8
0
 62
     7
  0
POLYLINE
  5
1323
  8
0
 62
     7
 66
     1
 10
0.0
 20
0.0
 30
0.0
  0
VERTEX
  5
1324
  8
0
 62
     7
 10
261.489113
 20
131.193333
 30
0.0
 40
0.067103
 41
0.067103
  0
VERTEX
  5
1325
  8
0
 62
     7
 10
261.987168
 20
131.193076
 30
0.0
 40
0.067103
 41
0.067103
  0
SEQEND
  5
1326
  8
0
 62
     7
  0
POLYLINE
  5
132F
  8
0
 62
     7
 66
     1
 10
0.0
 20
0.0
 30
0.0
  0
VERTEX
  5
1330
  8
0
 62
     7
 10
257.558339
 20
139.144838
 30
0.0
 40
0.067103
 41
0.067103
  0
VERTEX
  5
1331
  8
0
 62
     7
 10
263.496997
 20
139.144838
 30
0.0
 40
0.067103
 41
0.067103
  0
VERTEX
  5
1332
  8
0
 62
     7
 10
263.496997
 20
141.124391
 30
0.0
 40
0.067103
 41
0.067103
  0
VERTEX
  5
1333
  8
0
 62
     7
 10
257.558339
 20
141.124391
 30
0.0
 40
0.067103
 41
0.067103
  0
VERTEX
  5
1334
  8
0
 62
     7
 10
257.558339
 20
139.144838
 30
0.0
 40
0.067103
 41
0.067103
  0
VERTEX
  5
1335
  8
0
 62
     7
 10
257.558339
 20
139.144838
 30
0.0
 40
0.067103
 41
0.067103
  0
SEQEND
  5
1336
  8
0
 62
     7
  0
POLYLINE
  5
1337
  8
0
 62
     7
 66
     1
 10
0.0
 20
0.0
 30
0.0
  0
VERTEX
  5
1338
  8
0
 62
     7
 10
259.672098
 20
139.144838
 30
0.0
 40
0.067103
 41
0.067103
  0
VERTEX
  5
1339
  8
0
 62
     7
 10
259.13527
 20
139.144838
 30
0.0
 40
0.067103
 41
0.067103
  0
SEQEND
  5
133A
  8
0
 62
     7
  0
POLYLINE
  5
133B
  8
0
 62
     7
 66
     1
 10
0.0
 20
0.0
 30
0.0
  0
VERTEX
  5
133C
  8
0
 62
     7
 10
259.772754
 20
141.124391
 30
0.0
 40
0.067103
 41
0.067103
  0
VERTEX
  5
133D
  8
0
 62
     7
 10
259.235926
 20
141.124391
 30
0.0
 40
0.067103
 41
0.067103
  0
SEQEND
  5
133E
  8
0
 62
     7
  0
POLYLINE
  5
133F
  8
0
 62
     7
 66
     1
 10
0.0
 20
0.0
 30
0.0
  0
VERTEX
  5
1340
  8
0
 62
     7
 10
256.182717
 20
139.144838
 30
0.0
 40
0.067103
 41
0.067103
  0
VERTEX
  5
1341
  8
0
 62
     7
 10
255.64589
 20
139.144838
 30
0.0
 40
0.067103
 41
0.067103
  0
SEQEND
  5
1342
  8
0
 62
     7
  0
POLYLINE
  5
1343
  8
0
 62
     7
 66
     1
 10
0.0
 20
0.0
 30
0.0
  0
VERTEX
  5
1344
  8
0
 62
     7
 10
257.055063
 20
139.144838
 30
0.0
 40
0.067103
 41
0.067103
  0
VERTEX
  5
1345
  8
0
 62
     7
 10
256.518235
 20
139.144838
 30
0.0
 40
0.067103
 41
0.067103
  0
SEQEND
  5
1346
  8
0
 62
     7
  0
POLYLINE
  5
1347
  8
0
 62
     7
 66
     1
 10
0.0
 20
0.0
 30
0.0
  0
VERTEX
  5
1348
  8
0
 62
     7
 10
257.927408
 20
139.144838
 30
0.0
 40
0.067103
 41
0.067103
  0
VERTEX
  5
1349
  8
0
 62
     7
 10
257.39058
 20
139.144838
 30
0.0
 40
0.067103
 41
0.067103
  0
SEQEND
  5
134A
  8
0
 62
     7
  0
POLYLINE
  5
134B
  8
0
 62
     7
 66
     1
 10
0.0
 20
0.0
 30
0.0
  0
VERTEX
  5
134C
  8
0
 62
     7
 10
258.799753
 20
139.144838
 30
0.0
 40
0.067103
 41
0.067103
  0
VERTEX
  5
134D
  8
0
 62
     7
 10
258.262925
 20
139.144838
 30
0.0
 40
0.067103
 41
0.067103
  0
SEQEND
  5
134E
  8
0
 62
     7
  0
POLYLINE
  5
134F
  8
0
 62
     7
 66
     1
 10
0.0
 20
0.0
 30
0.0
  0
VERTEX
  5
1350
  8
0
 62
     7
 10
258.866857
 20
137.131734
 30
0.0
 40
0.067103
 41
0.067103
  0
VERTEX
  5
1351
  8
0
 62
     7
 10
259.403684
 20
137.131734
 30
0.0
 40
0.067103
 41
0.067103
  0
SEQEND
  5
1352
  8
0
 62
     7
  0
POLYLINE
  5
1353
  8
0
 62
     7
 66
     1
 10
0.0
 20
0.0
 30
0.0
  0
VERTEX
  5
1354
  8
0
 62
     7
 10
257.994511
 20
137.131734
 30
0.0
 40
0.067103
 41
0.067103
  0
VERTEX
  5
1355
  8
0
 62
     7
 10
258.531339
 20
137.131734
 30
0.0
 40
0.067103
 41
0.067103
  0
SEQEND
  5
1356
  8
0
 62
     7
  0
POLYLINE
  5
1357
  8
0
 62
     7
 66
     1
 10
0.0
 20
0.0
 30
0.0
  0
VERTEX
  5
1358
  8
0
 62
     7
 10
257.122166
 20
137.131734
 30
0.0
 40
0.067103
 41
0.067103
  0
VERTEX
  5
1359
  8
0
 62
     7
 10
257.658994
 20
137.131734
 30
0.0
 40
0.067103
 41
0.067103
  0
SEQEND
  5
135A
  8
0
 62
     7
  0
POLYLINE
  5
135B
  8
0
 62
     7
 66
     1
 10
0.0
 20
0.0
 30
0.0
  0
VERTEX
  5
135C
  8
0
 62
     7
 10
256.249821
 20
137.131734
 30
0.0
 40
0.067103
 41
0.067103
  0
VERTEX
  5
135D
  8
0
 62
     7
 10
256.786649
 20
137.131734
 30
0.0
 40
0.067103
 41
0.067103
  0
SEQEND
  5
135E
  8
0
 62
     7
  0
POLYLINE
  5
135F
  8
0
 62
     7
 66
     1
 10
0.0
 20
0.0
 30
0.0
  0
VERTEX
  5
1360
  8
0
 62
     7
 10
256.283373
 20
141.124391
 30
0.0
 40
0.067103
 41
0.067103
  0
VERTEX
  5
1361
  8
0
 62
     7
 10
255.746545
 20
141.124391
 30
0.0
 40
0.067103
 41
0.067103
  0
SEQEND
  5
1362
  8
0
 62
     7
  0
POLYLINE
  5
1363
  8
0
 62
     7
 66
     1
 10
0.0
 20
0.0
 30
0.0
  0
VERTEX
  5
1364
  8
0
 62
     7
 10
257.155718
 20
141.124391
 30
0.0
 40
0.067103
 41
0.067103
  0
VERTEX
  5
1365
  8
0
 62
     7
 10
256.61889
 20
141.124391
 30
0.0
 40
0.067103
 41
0.067103
  0
SEQEND
  5
1366
  8
0
 62
     7
  0
POLYLINE
  5
1367
  8
0
 62
     7
 66
     1
 10
0.0
 20
0.0
 30
0.0
  0
VERTEX
  5
1368
  8
0
 62
     7
 10
258.028063
 20
141.124391
 30
0.0
 40
0.067103
 41
0.067103
  0
VERTEX
  5
1369
  8
0
 62
     7
 10
257.491235
 20
141.124391
 30
0.0
 40
0.067103
 41
0.067103
  0
SEQEND
  5
136A
  8
0
 62
     7
  0
POLYLINE
  5
136B
  8
0
 62
     7
 66
     1
 10
0.0
 20
0.0
 30
0.0
  0
VERTEX
  5
136C
  8
0
 62
     7
 10
258.900408
 20
141.124391
 30
0.0
 40
0.067103
 41
0.067103
  0
VERTEX
  5
136D
  8
0
 62
     7
 10
258.36358
 20
141.124391
 30
0.0
 40
0.067103
 41
0.067103
  0
SEQEND
  5
136E
  8
0
 62
     7
  0
POLYLINE
  5
136F
  8
0
 62
     7
 66
     1
 10
0.0
 20
0.0
 30
0.0
  0
VERTEX
  5
1370
  8
0
 62
     7
 10
260.544444
 20
139.144838
 30
0.0
 40
0.067103
 41
0.067103
  0
VERTEX
  5
1371
  8
0
 62
     7
 10
260.007616
 20
139.144838
 30
0.0
 40
0.067103
 41
0.067103
  0
SEQEND
  5
1372
  8
0
 62
     7
  0
POLYLINE
  5
1373
  8
0
 62
     7
 66
     1
 10
0.0
 20
0.0
 30
0.0
  0
VERTEX
  5
1374
  8
0
 62
     7
 10
261.416789
 20
139.144838
 30
0.0
 40
0.067103
 41
0.067103
  0
VERTEX
  5
1375
  8
0
 62
     7
 10
260.879961
 20
139.144838
 30
0.0
 40
0.067103
 41
0.067103
  0
SEQEND
  5
1376
  8
0
 62
     7
  0
POLYLINE
  5
1377
  8
0
 62
     7
 66
     1
 10
0.0
 20
0.0
 30
0.0
  0
VERTEX
  5
1378
  8
0
 62
     7
 10
262.289134
 20
139.144838
 30
0.0
 40
0.067103
 41
0.067103
  0
VERTEX
  5
1379
  8
0
 62
     7
 10
261.752306
 20
139.144838
 30
0.0
 40
0.067103
 41
0.067103
  0
SEQEND
  5
137A
  8
0
 62
     7
  0
POLYLINE
  5
137B
  8
0
 62
     7
 66
     1
 10
0.0
 20
0.0
 30
0.0
  0
VERTEX
  5
137C
  8
0
 62
     7
 10
263.161479
 20
139.144838
 30
0.0
 40
0.067103
 41
0.067103
  0
VERTEX
  5
137D
  8
0
 62
     7
 10
262.624651
 20
139.144838
 30
0.0
 40
0.067103
 41
0.067103
  0
SEQEND
  5
137E
  8
0
 62
     7
  0
POLYLINE
  5
137F
  8
0
 62
     7
 66
     1
 10
0.0
 20
0.0
 30
0.0
  0
VERTEX
  5
1380
  8
0
 62
     7
 10
263.496997
 20
138.608011
 30
0.0
 40
0.067103
 41
0.067103
  0
VERTEX
  5
1381
  8
0
 62
     7
 10
263.496997
 20
139.144838
 30
0.0
 40
0.067103
 41
0.067103
  0
SEQEND
  5
1382
  8
0
 62
     7
  0
POLYLINE
  5
1383
  8
0
 62
     7
 66
     1
 10
0.0
 20
0.0
 30
0.0
  0
VERTEX
  5
1384
  8
0
 62
     7
 10
263.496997
 20
137.735665
 30
0.0
 40
0.067103
 41
0.067103
  0
VERTEX
  5
1385
  8
0
 62
     7
 10
263.496997
 20
138.272493
 30
0.0
 40
0.067103
 41
0.067103
  0
SEQEND
  5
1386
  8
0
 62
     7
  0
POLYLINE
  5
1387
  8
0
 62
     7
 66
     1
 10
0.0
 20
0.0
 30
0.0
  0
VERTEX
  5
1388
  8
0
 62
     7
 10
263.496997
 20
137.131734
 30
0.0
 40
0.067103
 41
0.067103
  0
VERTEX
  5
1389
  8
0
 62
     7
 10
263.496997
 20
137.400148
 30
0.0
 40
0.067103
 41
0.067103
  0
SEQEND
  5
138A
  8
0
 62
     7
  0
POLYLINE
  5
138B
  8
0
 62
     7
 66
     1
 10
0.0
 20
0.0
 30
0.0
  0
VERTEX
  5
138C
  8
0
 62
     7
 10
263.228583
 20
137.131734
 30
0.0
 40
0.067103
 41
0.067103
  0
VERTEX
  5
138D
  8
0
 62
     7
 10
263.496997
 20
137.131734
 30
0.0
 40
0.067103
 41
0.067103
  0
SEQEND
  5
138E
  8
0
 62
     7
  0
POLYLINE
  5
138F
  8
0
 62
     7
 66
     1
 10
0.0
 20
0.0
 30
0.0
  0
VERTEX
  5
1390
  8
0
 62
     7
 10
262.356237
 20
137.131734
 30
0.0
 40
0.067103
 41
0.067103
  0
VERTEX
  5
1391
  8
0
 62
     7
 10
262.893065
 20
137.131734
 30
0.0
 40
0.067103
 41
0.067103
  0
SEQEND
  5
1392
  8
0
 62
     7
  0
POLYLINE
  5
1393
  8
0
 62
     7
 66
     1
 10
0.0
 20
0.0
 30
0.0
  0
VERTEX
  5
1394
  8
0
 62
     7
 10
261.483892
 20
137.131734
 30
0.0
 40
0.067103
 41
0.067103
  0
VERTEX
  5
1395
  8
0
 62
     7
 10
262.02072
 20
137.131734
 30
0.0
 40
0.067103
 41
0.067103
  0
SEQEND
  5
1396
  8
0
 62
     7
  0
POLYLINE
  5
1397
  8
0
 62
     7
 66
     1
 10
0.0
 20
0.0
 30
0.0
  0
VERTEX
  5
1398
  8
0
 62
     7
 10
260.611547
 20
137.131734
 30
0.0
 40
0.067103
 41
0.067103
  0
VERTEX
  5
1399
  8
0
 62
     7
 10
261.148375
 20
137.131734
 30
0.0
 40
0.067103
 41
0.067103
  0
SEQEND
  5
139A
  8
0
 62
     7
  0
POLYLINE
  5
139B
  8
0
 62
     7
 66
     1
 10
0.0
 20
0.0
 30
0.0
  0
VERTEX
  5
139C
  8
0
 62
     7
 10
259.739202
 20
137.131734
 30
0.0
 40
0.067103
 41
0.067103
  0
VERTEX
  5
139D
  8
0
 62
     7
 10
260.27603
 20
137.131734
 30
0.0
 40
0.067103
 41
0.067103
  0
SEQEND
  5
139E
  8
0
 62
     7
  0
POLYLINE
  5
139F
  8
0
 62
     7
 66
     1
 10
0.0
 20
0.0
 30
0.0
  0
VERTEX
  5
13A0
  8
0
 62
     7
 10
260.645099
 20
141.124391
 30
0.0
 40
0.067103
 41
0.067103
  0
VERTEX
  5
13A1
  8
0
 62
     7
 10
260.108271
 20
141.124391
 30
0.0
 40
0.067103
 41
0.067103
  0
SEQEND
  5
13A2
  8
0
 62
     7
  0
POLYLINE
  5
13A3
  8
0
 62
     7
 66
     1
 10
0.0
 20
0.0
 30
0.0
  0
VERTEX
  5
13A4
  8
0
 62
     7
 10
261.517444
 20
141.124391
 30
0.0
 40
0.067103
 41
0.067103
  0
VERTEX
  5
13A5
  8
0
 62
     7
 10
260.980616
 20
141.124391
 30
0.0
 40
0.067103
 41
0.067103
  0
SEQEND
  5
13A6
  8
0
 62
     7
  0
POLYLINE
  5
13A7
  8
0
 62
     7
 66
     1
 10
0.0
 20
0.0
 30
0.0
  0
VERTEX
  5
13A8
  8
0
 62
     7
 10
262.389789
 20
141.124391
 30
0.0
 40
0.067103
 41
0.067103
  0
VERTEX
  5
13A9
  8
0
 62
     7
 10
261.852961
 20
141.124391
 30
0.0
 40
0.067103
 41
0.067103
  0
SEQEND
  5
13AA
  8
0
 62
     7
  0
POLYLINE
  5
13AB
  8
0
 62
     7
 66
     1
 10
0.0
 20
0.0
 30
0.0
  0
VERTEX
  5
13AC
  8
0
 62
     7
 10
263.262134
 20
141.124391
 30
0.0
 40
0.067103
 41
0.067103
  0
VERTEX
  5
13AD
  8
0
 62
     7
 10
262.725307
 20
141.124391
 30
0.0
 40
0.067103
 41
0.067103
  0
SEQEND
  5
13AE
  8
0
 62
     7
  0
POLYLINE
  5
13AF
  8
0
 62
     7
 66
     1
 10
0.0
 20
0.0
 30
0.0
  0
VERTEX
  5
13B0
  8
0
 62
     7
 10
263.496997
 20
140.486908
 30
0.0
 40
0.067103
 41
0.067103
  0
VERTEX
  5
13B1
  8
0
 62
     7
 10
263.496997
 20
141.023736
 30
0.0
 40
0.067103
 41
0.067103
  0
SEQEND
  5
13B2
  8
0
 62
     7
  0
POLYLINE
  5
13B3
  8
0
 62
     7
 66
     1
 10
0.0
 20
0.0
 30
0.0
  0
VERTEX
  5
13B4
  8
0
 62
     7
 10
263.496997
 20
139.614563
 30
0.0
 40
0.067103
 41
0.067103
  0
VERTEX
  5
13B5
  8
0
 62
     7
 10
263.496997
 20
140.151391
 30
0.0
 40
0.067103
 41
0.067103
  0
SEQEND
  5
13B6
  8
0
 62
     7
  0
POLYLINE
  5
13B7
  8
0
 62
     7
 66
     1
 10
0.0
 20
0.0
 30
0.0
  0
VERTEX
  5
13B8
  8
0
 62
     7
 10
263.496997
 20
138.742218
 30
0.0
 40
0.067103
 41
0.067103
  0
VERTEX
  5
13B9
  8
0
 62
     7
 10
263.496997
 20
139.279045
 30
0.0
 40
0.067103
 41
0.067103
  0
SEQEND
  5
13BA
  8
0
 62
     7
  0
POLYLINE
  5
13BB
  8
0
 62
     7
 66
     1
 10
0.0
 20
0.0
 30
0.0
  0
VERTEX
  5
13BC
  8
0
 62
     7
 10
263.496997
 20
137.869872
 30
0.0
 40
0.067103
 41
0.067103
  0
VERTEX
  5
13BD
  8
0
 62
     7
 10
263.496997
 20
138.4067
 30
0.0
 40
0.067103
 41
0.067103
  0
SEQEND
  5
13BE
  8
0
 62
     7
  0
POLYLINE
  5
13BF
  8
0
 62
     7
 66
     1
 10
0.0
 20
0.0
 30
0.0
  0
VERTEX
  5
13C0
  8
0
 62
     7
 10
263.496997
 20
136.997527
 30
0.0
 40
0.067103
 41
0.067103
  0
VERTEX
  5
13C1
  8
0
 62
     7
 10
263.496997
 20
137.534355
 30
0.0
 40
0.067103
 41
0.067103
  0
SEQEND
  5
13C2
  8
0
 62
     7
  0
POLYLINE
  5
13C3
  8
0
 62
     7
 66
     1
 10
0.0
 20
0.0
 30
0.0
  0
VERTEX
  5
13C4
  8
0
 62
     7
 10
263.496997
 20
136.125182
 30
0.0
 40
0.067103
 41
0.067103
  0
VERTEX
  5
13C5
  8
0
 62
     7
 10
263.496997
 20
136.66201
 30
0.0
 40
0.067103
 41
0.067103
  0
SEQEND
  5
13C6
  8
0
 62
     7
  0
INSERT
  5
13CD
  8
0
  2
A$C21D93EB5
 10
232.18814
 20
139.557654
 30
0.0
  0
ENDSEC
  0
EOF
