999
DXF file: C:\Users\sesa63760\Dev\_Creo\CAD\MCADPD0004675_3D-CAD\drw0001_6.dxf
999
Pro/ENGINEER 2019471 by Parametric Technology Corporation
  0
SECTION
  2
HEADER
  9
$ACADVER
  1
AC1024
  9
$DWGCODEPAGE
  3
ANSI_1252
  9
$EXTMAX
 10
89.1796410494
 20
126.1254923414
 30
0.0
  9
$EXTMIN
 10
0.0
 20
0.0
 30
0.0
  9
$LIMMIN
 10
0.0
 20
0.0
  9
$LIMMAX
 10
89.1796410494
 20
126.1254923414
  9
$VIEWCTR
 10
44.5898205247
 20
63.0627461707
  9
$VIEWSIZE
 40
126.1254923414
  9
$CLAYER
  8
0
  9
$LTSCALE
 40
8.2215135748
  9
$CELTYPE
  6
BYLAYER
  9
$DIMSCALE
 40
1.0
  9
$DIMASZ
 40
1.0616623934
  9
$DIMEXO
 40
1.0
  9
$DIMDLI
 40
5.6803184699
  9
$DIMEXE
 40
1.0
  9
$DIMCEN
 40
1.345338585
  9
$DIMLFAC
 40
1.0
  9
$DIMBLK
  1
_FILLED
  9
$DIMALT
 70
0
  9
$DIMALTF
 40
0.0393700787
  9
$DIMTXT
 40
1.4863273508
  9
$DIMTOL
 70
1
  9
$DIMLIM
 70
0
  9
$DIMTFAC
 40
1.0
  9
$DIMTP
 40
0.01
  9
$DIMTM
 40
0.01
  9
$DIMGAP
 40
0.625
  9
$DIMDSEP
 70
46
  9
$AUNITS
 70
0
  9
$PDMODE
 70
3
  9
$PDSIZE
 40
0.3125
  9
$HANDSEED
  5
26E
  9
$TILEMODE
 70
1
  9
$MEASUREMENT
 70
1
  9
$INSUNITS
 70
4
  0
ENDSEC
  0
SECTION
  2
CLASSES
  0
CLASS
  1
ACDBDICTIONARYWDFLT
  2
AcDbDictionaryWithDefault
  3
AutoCAD 2000
 90
0
 91
1
280
0
281
0
  0
CLASS
  1
ACDBPLACEHOLDER
  2
AcDbPlaceHolder
  3
AutoCAD 2000
 90
0
 91
1
280
0
281
0
  0
CLASS
  1
LAYOUT
  2
AcDbLayout
  3
AutoCAD 2000
 90
0
 91
0
280
0
281
0
  0
ENDSEC
  0
SECTION
  2
TABLES
  0
TABLE
  2
VPORT
  5
8
100
AcDbSymbolTable
 70
2
  0
VPORT
  5
1F4
100
AcDbSymbolTableRecord
100
AcDbViewportTableRecord
  2
*ACTIVE
 70
0
 10
0.0
 20
0.0
 11
1.0
 21
1.0
 12
44.5898205247
 22
63.0627461707
 13
0.0
 23
0.0
 14
1.0
 24
1.0
 15
0.0
 25
0.0
 16
0.0
 26
0.0
 36
1.0
 17
0.0
 27
0.0
 37
0.0
 40
126.1254923414
 41
0.7070707071
 42
50.0
 43
0.0
 44
0.0
 50
0.0
 51
0.0
 71
0
 72
100
 73
1
 74
1
 75
0
 76
0
 77
0
 78
0
  0
ENDTAB
  0
TABLE
  2
LTYPE
  5
5
100
AcDbSymbolTable
 70
6
  0
LTYPE
  5
14
100
AcDbSymbolTableRecord
100
AcDbLinetypeTableRecord
  2
BYBLOCK
 70
0
  3

 72
65
 73
0
 40
0.0
  0
LTYPE
  5
15
100
AcDbSymbolTableRecord
100
AcDbLinetypeTableRecord
  2
BYLAYER
 70
0
  3

 72
65
 73
0
 40
0.0
  0
LTYPE
  5
16
100
AcDbSymbolTableRecord
100
AcDbLinetypeTableRecord
  2
CONTINUOUS
 70
64
  3
Solid line
 72
65
 73
0
 40
0.0
  0
LTYPE
  5
1F5
100
AcDbSymbolTableRecord
100
AcDbLinetypeTableRecord
  2
CENTER
 70
64
  3
____ _ ____ _ ____ _ ____ _ ____ _ ____ _ ____
 72
65
 73
4
 40
0.6
 49
0.375
 74
0
 49
-0.075
 74
0
 49
0.075
 74
0
 49
-0.075
 74
0
  0
LTYPE
  5
1F6
100
AcDbSymbolTableRecord
100
AcDbLinetypeTableRecord
  2
HIDDEN
 70
64
  3
- - - - - - - - - - - - - - - - - - - -
 72
65
 73
2
 40
0.2
 49
0.1
 74
0
 49
-0.1
 74
0
  0
LTYPE
  5
1F7
100
AcDbSymbolTableRecord
100
AcDbLinetypeTableRecord
  2
PHANTOM
 70
64
  3
_____ _ _ _____ _ _ _____ _ _ _____
 72
65
 73
6
 40
0.8
 49
0.45
 74
0
 49
-0.05
 74
0
 49
0.1
 74
0
 49
-0.05
 74
0
 49
0.1
 74
0
 49
-0.05
 74
0
  0
LTYPE
  5
1F8
100
AcDbSymbolTableRecord
100
AcDbLinetypeTableRecord
  2
DOT
 70
64
  3
. . . . . . . . . . . . . . . . . . . .
 72
65
 73
2
 40
0.2
 49
0.1
 74
0
 49
-0.1
 74
0
  0
LTYPE
  5
1F9
100
AcDbSymbolTableRecord
100
AcDbLinetypeTableRecord
  2
DASHED
 70
64
  3
- - - - - - - - - - - - - - - - - - - -
 72
65
 73
2
 40
0.2
 49
0.1
 74
0
 49
-0.1
 74
0
  0
ENDTAB
  0
TABLE
  2
LAYER
  5
2
100
AcDbSymbolTable
 70
36
  0
LAYER
  5
10
100
AcDbSymbolTableRecord
100
AcDbLayerTableRecord
  2
0
 70
0
 62
7
  6
CONTINUOUS
370
-3
390
F
  0
LAYER
  5
1FA
100
AcDbSymbolTableRecord
100
AcDbLayerTableRecord
  2
DEFAULT_1
 70
0
 62
7
  6
CENTER
370
-3
390
F
  0
LAYER
  5
1FB
100
AcDbSymbolTableRecord
100
AcDbLayerTableRecord
  2
DEFAULT_2
 70
0
 62
7
  6
HIDDEN
370
-3
390
F
  0
LAYER
  5
1FC
100
AcDbSymbolTableRecord
100
AcDbLayerTableRecord
  2
DEFAULT_3
 70
0
 62
7
  6
PHANTOM
370
-3
390
F
  0
LAYER
  5
1FD
100
AcDbSymbolTableRecord
100
AcDbLayerTableRecord
  2
00_COMPONENTS
 70
0
 62
7
  6
CONTINUOUS
370
-3
390
F
  0
LAYER
  5
1FE
100
AcDbSymbolTableRecord
100
AcDbLayerTableRecord
  2
00_COMPONENTS_1
 70
0
 62
7
  6
CONTINUOUS
370
-3
390
F
  0
LAYER
  5
1FF
100
AcDbSymbolTableRecord
100
AcDbLayerTableRecord
  2
01_1_DEFAULT_DATUMS
 70
0
 62
7
  6
CONTINUOUS
370
-3
390
F
  0
LAYER
  5
200
100
AcDbSymbolTableRecord
100
AcDbLayerTableRecord
  2
01_PLANES
 70
0
 62
7
  6
CONTINUOUS
370
-3
390
F
  0
LAYER
  5
201
100
AcDbSymbolTableRecord
100
AcDbLayerTableRecord
  2
02_COORD_SYS
 70
0
 62
7
  6
CONTINUOUS
370
-3
390
F
  0
LAYER
  5
202
100
AcDbSymbolTableRecord
100
AcDbLayerTableRecord
  2
03_AXES
 70
0
 62
7
  6
CONTINUOUS
370
-3
390
F
  0
LAYER
  5
203
100
AcDbSymbolTableRecord
100
AcDbLayerTableRecord
  2
03_AXES_1
 70
0
 62
7
  6
CONTINUOUS
370
-3
390
F
  0
LAYER
  5
204
100
AcDbSymbolTableRecord
100
AcDbLayerTableRecord
  2
04_POINTS
 70
0
 62
7
  6
CONTINUOUS
370
-3
390
F
  0
LAYER
  5
205
100
AcDbSymbolTableRecord
100
AcDbLayerTableRecord
  2
05_CURVES
 70
0
 62
7
  6
CONTINUOUS
370
-3
390
F
  0
LAYER
  5
206
100
AcDbSymbolTableRecord
100
AcDbLayerTableRecord
  2
06_SURFS
 70
0
 62
7
  6
CONTINUOUS
370
-3
390
F
  0
LAYER
  5
207
100
AcDbSymbolTableRecord
100
AcDbLayerTableRecord
  2
07_COSMETICS
 70
0
 62
7
  6
CONTINUOUS
370
-3
390
F
  0
LAYER
  5
208
100
AcDbSymbolTableRecord
100
AcDbLayerTableRecord
  2
10_NOTES
 70
0
 62
7
  6
CONTINUOUS
370
-3
390
F
  0
LAYER
  5
209
100
AcDbSymbolTableRecord
100
AcDbLayerTableRecord
  2
11_NOTES_PUB
 70
0
 62
7
  6
CONTINUOUS
370
-3
390
F
  0
LAYER
  5
20A
100
AcDbSymbolTableRecord
100
AcDbLayerTableRecord
  2
13_REF_GTOL
 70
0
 62
7
  6
CONTINUOUS
370
-3
390
F
  0
LAYER
  5
20B
100
AcDbSymbolTableRecord
100
AcDbLayerTableRecord
  2
16_MISC
 70
0
 62
7
  6
CONTINUOUS
370
-3
390
F
  0
LAYER
  5
20C
100
AcDbSymbolTableRecord
100
AcDbLayerTableRecord
  2
17_NO_PRINT
 70
0
 62
7
  6
CONTINUOUS
370
-3
390
F
  0
LAYER
  5
20D
100
AcDbSymbolTableRecord
100
AcDbLayerTableRecord
  2
18_DATUM_CAMS_JOINTS
 70
0
 62
7
  6
CONTINUOUS
370
-3
390
F
  0
LAYER
  5
20E
100
AcDbSymbolTableRecord
100
AcDbLayerTableRecord
  2
19_DATUM_FUNCTIONAL
 70
0
 62
7
  6
CONTINUOUS
370
-3
390
F
  0
LAYER
  5
20F
100
AcDbSymbolTableRecord
100
AcDbLayerTableRecord
  2
20_DATUM_KINEMATIC_SCHEME
 70
0
 62
7
  6
CONTINUOUS
370
-3
390
F
  0
LAYER
  5
210
100
AcDbSymbolTableRecord
100
AcDbLayerTableRecord
  2
INTFCLR_31
 70
0
 62
7
  6
CONTINUOUS
370
-3
390
F
  0
LAYER
  5
211
100
AcDbSymbolTableRecord
100
AcDbLayerTableRecord
  2
INTFCLR_71
 70
0
 62
7
  6
CONTINUOUS
370
-3
390
F
  0
LAYER
  5
212
100
AcDbSymbolTableRecord
100
AcDbLayerTableRecord
  2
INTF_BLANK
 70
0
 62
7
  6
CONTINUOUS
370
-3
390
F
  0
LAYER
  5
213
100
AcDbSymbolTableRecord
100
AcDbLayerTableRecord
  2
_BLACK_HOLE
 70
0
 62
7
  6
CONTINUOUS
370
-3
390
F
  0
ENDTAB
  0
TABLE
  2
STYLE
  5
3
100
AcDbSymbolTable
 70
1
  0
STYLE
  5
11
100
AcDbSymbolTableRecord
100
AcDbTextStyleTableRecord
  2
STANDARD
 70
0
 40
0.0
 41
1.0
 50
0.0
 71
0
 42
0.2
  3
ARIAL.TTF
  4

  0
STYLE
  5
214
100
AcDbSymbolTableRecord
100
AcDbTextStyleTableRecord
  2
TEXTSTYLE_1
 70
0
 40
0.0
 41
0.8
 50
0.0
 71
0
 42
0.2
  3
gdt
  4

  0
ENDTAB
  0
TABLE
  2
VIEW
  5
6
100
AcDbSymbolTable
 70
0
  0
ENDTAB
  0
TABLE
  2
UCS
  5
7
100
AcDbSymbolTable
 70
0
  0
ENDTAB
  0
TABLE
  2
APPID
  5
9
100
AcDbSymbolTable
 70
1
  0
APPID
  5
215
100
AcDbSymbolTableRecord
100
AcDbRegAppTableRecord
  2
ACAD
 70
0
  0
ENDTAB
  0
TABLE
  2
BLOCK_RECORD
  5
1
100
AcDbSymbolTable
 70
0
  0
BLOCK_RECORD
  5
216
100
AcDbSymbolTableRecord
100
AcDbBlockTableRecord
  2
*Model_Space
  0
BLOCK_RECORD
  5
217
100
AcDbSymbolTableRecord
100
AcDbBlockTableRecord
  2
*Paper_Space
  0
BLOCK_RECORD
  5
218
100
AcDbSymbolTableRecord
100
AcDbBlockTableRecord
  2
_FILLED
  0
ENDTAB
  0
TABLE
  2
DIMSTYLE
  5
A
100
AcDbSymbolTable
 70
1
100
AcDbDimStyleTable
 71
0
  0
DIMSTYLE
105
219
100
AcDbSymbolTableRecord
100
AcDbDimStyleTableRecord
  2
STANDARD
 70
0
  3

  4

 40
1.0
 41
1.0616623934
 42
1.0
 43
0.38
 44
1.0
 45
0.0
 46
0.0
 47
0.01
 48
0.01
140
1.4863273508
141
0.09
142
0.0
143
25.4
144
1.0
145
0.0
146
1.0
147
0.625
 71
1
 72
0
 73
0
 74
0
 75
0
 76
0
 77
1
 78
8
 79
2
170
0
171
1
172
0
173
0
174
0
175
0
176
0
177
0
178
0
270
2
179
2
271
2
272
2
273
2
274
2
275
0
280
0
281
0
282
0
283
1
284
8
285
0
286
0
287
3
288
0
340
11
278
46
341
218
342
218
343
218
344
218
  0
ENDTAB
  0
ENDSEC
  0
SECTION
  2
BLOCKS
  0
BLOCK
  5
20
100
AcDbEntity
  8
0
100
AcDbBlockBegin
  2
*Model_Space
 70
0
 10
0.0
 20
0.0
 30
0.0
  3
*Model_Space
  1

  0
ENDBLK
  5
21
100
AcDbEntity
  8
0
100
AcDbBlockEnd
  0
BLOCK
  5
1C
100
AcDbEntity
  8
0
100
AcDbBlockBegin
  2
*Paper_Space
 70
0
 10
0.0
 20
0.0
 30
0.0
  3
*Paper_Space
  1

  0
ENDBLK
  5
1D
100
AcDbEntity
  8
0
100
AcDbBlockEnd
  0
BLOCK
  5
21A
100
AcDbEntity
  8
0
100
AcDbBlockBegin
  2
_FILLED
 70
64
 10
0.0
 20
0.0
  3
_FILLED
  1

  0
SOLID
  5
21B
100
AcDbEntity
  8
0
  6
BYBLOCK
 62
0
100
AcDbTrace
 10
0.0
 20
0.0
 11
-1.0
 21
0.25
 12
-1.0
 22
-0.25
 13
-1.0
 23
-0.25
  0
ENDBLK
  5
21C
100
AcDbEntity
  8
0
  6
BYBLOCK
 62
0
100
AcDbBlockEnd
  0
ENDSEC
  0
SECTION
  2
ENTITIES
  0
LINE
  5
21D
100
AcDbEntity
  8
00_COMPONENTS_1
100
AcDbLine
 62
7
  6
BYLAYER
 10
10.0867023628
 20
64.8127461707
 11
10.0867023628
 21
60.0127461707
  0
LINE
  5
21E
100
AcDbEntity
  8
00_COMPONENTS_1
100
AcDbLine
 62
7
  6
BYLAYER
 10
11.6167023628
 20
71.5427461707
 11
11.6167023628
 21
73.0427461707
  0
LINE
  5
21F
100
AcDbEntity
  8
00_COMPONENTS_1
100
AcDbLine
 62
7
  6
BYLAYER
 10
13.2367023628
 20
77.0627461707
 11
13.2367023628
 21
73.7627461707
  0
LINE
  5
220
100
AcDbEntity
  8
00_COMPONENTS_1
100
AcDbLine
 62
7
  6
BYLAYER
 10
13.4167023628
 20
73.0427461707
 11
13.4167023628
 21
71.5427461707
  0
LINE
  5
221
100
AcDbEntity
  8
00_COMPONENTS_1
100
AcDbLine
 62
7
  6
BYLAYER
 10
13.7167023628
 20
57.8727461707
 11
13.7167023628
 21
60.0127461707
  0
LINE
  5
222
100
AcDbEntity
  8
00_COMPONENTS_1
100
AcDbLine
 62
7
  6
BYLAYER
 10
13.7167023628
 20
64.8127461707
 11
13.7167023628
 21
73.7627461707
  0
LINE
  5
223
100
AcDbEntity
  8
00_COMPONENTS_1
100
AcDbLine
 62
7
  6
BYLAYER
 10
13.7406612045
 20
73.7627461707
 11
13.7406612045
 21
64.8127461707
  0
LINE
  5
224
100
AcDbEntity
  8
00_COMPONENTS_1
100
AcDbLine
 62
7
  6
BYLAYER
 10
13.7406612045
 20
60.0127461707
 11
13.7406612045
 21
57.8727461707
  0
LINE
  5
225
100
AcDbEntity
  8
00_COMPONENTS_1
100
AcDbLine
 62
7
  6
BYLAYER
 10
13.8167023628
 20
56.6377461707
 11
13.8167023628
 21
57.6627461707
  0
LINE
  5
226
100
AcDbEntity
  8
00_COMPONENTS_1
100
AcDbLine
 62
7
  6
BYLAYER
 10
13.8167023628
 20
77.0627461707
 11
13.8167023628
 21
82.1377461707
  0
LINE
  5
227
100
AcDbEntity
  8
00_COMPONENTS_1
100
AcDbLine
 62
7
  6
BYLAYER
 10
13.8452878917
 20
57.6627461707
 11
13.8452878917
 21
60.0127461707
  0
LINE
  5
228
100
AcDbEntity
  8
00_COMPONENTS_1
100
AcDbLine
 62
7
  6
BYLAYER
 10
13.8452878917
 20
64.8127461707
 11
13.8452878917
 21
73.7627461707
  0
LINE
  5
229
100
AcDbEntity
  8
00_COMPONENTS_1
100
AcDbLine
 62
7
  6
BYLAYER
 10
33.8667823286
 20
30.6377461707
 11
77.5367023628
 21
30.6377461707
  0
LINE
  5
22A
100
AcDbEntity
  8
00_COMPONENTS_1
100
AcDbLine
 62
7
  6
BYLAYER
 10
14.5577696708
 20
77.2427461707
 11
14.5577696708
 21
77.0627461707
  0
LINE
  5
22B
100
AcDbEntity
  8
00_COMPONENTS_1
100
AcDbLine
 62
7
  6
BYLAYER
 10
14.5577696708
 20
73.7627461707
 11
14.5577696708
 21
73.5927461707
  0
LINE
  5
22C
100
AcDbEntity
  8
00_COMPONENTS_1
100
AcDbLine
 62
7
  6
BYLAYER
 10
14.5577696708
 20
64.9327461707
 11
14.5577696708
 21
64.8127461707
  0
LINE
  5
22D
100
AcDbEntity
  8
00_COMPONENTS_1
100
AcDbLine
 62
7
  6
BYLAYER
 10
14.5577696708
 20
60.0127461707
 11
14.5577696708
 21
59.8327461707
  0
LINE
  5
22E
100
AcDbEntity
  8
00_COMPONENTS_1
100
AcDbLine
 62
7
  6
BYLAYER
 10
15.1959904019
 20
59.8327461707
 11
15.1959904019
 21
64.9327461707
  0
LINE
  5
22F
100
AcDbEntity
  8
00_COMPONENTS_1
100
AcDbLine
 62
7
  6
BYLAYER
 10
15.1959904019
 20
73.5927461707
 11
15.1959904019
 21
77.2427461707
  0
LINE
  5
230
100
AcDbEntity
  8
00_COMPONENTS_1
100
AcDbLine
 62
7
  6
BYLAYER
 10
16.1393025911
 20
82.1377461707
 11
16.1393025911
 21
56.6377461707
  0
LINE
  5
231
100
AcDbEntity
  8
00_COMPONENTS_1
100
AcDbLine
 62
7
  6
BYLAYER
 10
18.8167023628
 20
56.6377461707
 11
18.8167023628
 21
46.4377461707
  0
LINE
  5
232
100
AcDbEntity
  8
00_COMPONENTS_1
100
AcDbLine
 62
7
  6
BYLAYER
 10
18.8919627799
 20
56.6377461707
 11
18.8919627799
 21
55.7035208579
  0
LINE
  5
233
100
AcDbEntity
  8
00_COMPONENTS_1
100
AcDbLine
 62
7
  6
BYLAYER
 10
18.8919627799
 20
49.7219714834
 11
18.8919627799
 21
46.4377461707
  0
LINE
  5
234
100
AcDbEntity
  8
00_COMPONENTS_1
100
AcDbLine
 62
7
  6
BYLAYER
 10
20.5529057206
 20
56.6377461707
 11
20.5529057206
 21
46.4377461707
  0
LINE
  5
235
100
AcDbEntity
  8
00_COMPONENTS_1
100
AcDbLine
 62
7
  6
BYLAYER
 10
20.8167023628
 20
56.6377461707
 11
20.8167023628
 21
46.4377461707
  0
LINE
  5
236
100
AcDbEntity
  8
00_COMPONENTS_1
100
AcDbLine
 62
7
  6
BYLAYER
 10
22.5167023628
 20
44.6877461707
 11
22.5167023628
 21
46.4377461707
  0
LINE
  5
237
100
AcDbEntity
  8
03_AXES_1
100
AcDbLine
 62
7
420
15788975
  6
BYLAYER
 10
35.2126833211
 20
41.8377461707
 11
34.3816706971
 21
41.8377461707
  0
LINE
  5
238
100
AcDbEntity
  8
03_AXES_1
100
AcDbLine
 62
7
420
15788975
  6
BYLAYER
 10
33.9432836056
 20
41.8377461707
 11
33.866611537
 21
41.8377461707
  0
LINE
  5
239
100
AcDbEntity
  8
00_COMPONENTS_1
100
AcDbLine
 62
7
  6
BYLAYER
 10
22.5167023628
 20
44.6877461707
 11
35.1167023628
 21
44.6877461707
  0
LINE
  5
23A
100
AcDbEntity
  8
00_COMPONENTS_1
100
AcDbLine
 62
7
  6
BYLAYER
 10
18.8167791465
 20
46.4377461707
 11
35.8667023628
 21
46.4377461707
  0
LINE
  5
23B
100
AcDbEntity
  8
00_COMPONENTS_1
100
AcDbLine
 62
7
  6
BYLAYER
 10
33.8667023628
 20
38.3381242164
 11
33.8667023628
 21
30.6377461707
  0
LINE
  5
23C
100
AcDbEntity
  8
00_COMPONENTS_1
100
AcDbLine
 62
7
  6
BYLAYER
 10
34.4067023628
 20
79.8377461707
 11
34.4067023628
 21
82.1377461707
  0
LINE
  5
23D
100
AcDbEntity
  8
00_COMPONENTS_1
100
AcDbLine
 62
7
  6
BYLAYER
 10
35.1167023628
 20
44.6877461707
 11
35.1167023628
 21
46.4377461707
  0
LINE
  5
23E
100
AcDbEntity
  8
00_COMPONENTS_1
100
AcDbLine
 62
7
  6
BYLAYER
 10
35.8667023628
 20
46.4377461707
 11
35.8667023628
 21
30.6377461707
  0
LINE
  5
23F
100
AcDbEntity
  8
03_AXES_1
100
AcDbLine
 62
7
420
15788975
  6
BYLAYER
 10
20.5529057206
 20
52.7127461707
 11
18.8376231065
 21
52.7127461707
  0
LINE
  5
240
100
AcDbEntity
  8
00_COMPONENTS_1
100
AcDbLine
 62
7
  6
BYLAYER
 10
38.4567023628
 20
79.8377461707
 11
38.4567023628
 21
82.1377461707
  0
LINE
  5
241
100
AcDbEntity
  8
00_COMPONENTS_1
100
AcDbLine
 62
7
  6
BYLAYER
 10
13.8168275367
 20
56.6377461707
 11
20.8167023628
 21
56.6377461707
  0
LINE
  5
242
100
AcDbEntity
  8
00_COMPONENTS_1
100
AcDbLine
 62
7
  6
BYLAYER
 10
39.6567023628
 20
77.9877461707
 11
39.6567023628
 21
82.1377461707
  0
LINE
  5
243
100
AcDbEntity
  8
00_COMPONENTS_1
100
AcDbLine
 62
7
  6
BYLAYER
 10
42.5294739608
 20
82.1377461707
 11
42.5294739608
 21
95.4877461707
  0
LINE
  5
244
100
AcDbEntity
  8
00_COMPONENTS_1
100
AcDbLine
 62
7
  6
BYLAYER
 10
48.7067023628
 20
82.1377461707
 11
50.8567023628
 21
88.1377461707
  0
LINE
  5
245
100
AcDbEntity
  8
00_COMPONENTS_1
100
AcDbLine
 62
7
  6
BYLAYER
 10
13.8452878917
 20
57.6627461707
 11
13.8167240606
 21
57.6627461707
  0
LINE
  5
246
100
AcDbEntity
  8
00_COMPONENTS_1
100
AcDbLine
 62
7
  6
BYLAYER
 10
13.7167073544
 20
57.8727461707
 11
13.8452878917
 21
57.8727461707
  0
LINE
  5
247
100
AcDbEntity
  8
00_COMPONENTS_1
100
AcDbLine
 62
7
  6
BYLAYER
 10
15.195990402
 20
59.8327461707
 11
14.5577696708
 21
59.8327461707
  0
LINE
  5
248
100
AcDbEntity
  8
00_COMPONENTS_1
100
AcDbLine
 62
7
  6
BYLAYER
 10
15.1959904019
 20
60.0127461707
 11
10.0867023628
 21
60.0127461707
  0
LINE
  5
249
100
AcDbEntity
  8
00_COMPONENTS_1
100
AcDbLine
 62
7
  6
BYLAYER
 10
44.8294739608
 20
82.1377461707
 11
44.8294739608
 21
95.4877461707
  0
LINE
  5
24A
100
AcDbEntity
  8
00_COMPONENTS_1
100
AcDbLine
 62
7
  6
BYLAYER
 10
15.1959904019
 20
64.8127461707
 11
10.0867023628
 21
64.8127461707
  0
LINE
  5
24B
100
AcDbEntity
  8
00_COMPONENTS_1
100
AcDbLine
 62
7
  6
BYLAYER
 10
14.5577696708
 20
64.9327461707
 11
15.195990402
 21
64.9327461707
  0
LINE
  5
24C
100
AcDbEntity
  8
00_COMPONENTS_1
100
AcDbLine
 62
7
  6
BYLAYER
 10
53.7067023628
 20
88.1377461707
 11
53.7067023628
 21
82.1377461707
  0
LINE
  5
24D
100
AcDbEntity
  8
00_COMPONENTS_1
100
AcDbLine
 62
7
  6
BYLAYER
 10
11.6169428903
 20
71.5427461707
 11
13.7167023628
 21
71.5427461707
  0
LINE
  5
24E
100
AcDbEntity
  8
00_COMPONENTS_1
100
AcDbLine
 62
7
  6
BYLAYER
 10
11.6169428903
 20
73.0427461707
 11
13.7167023628
 21
73.0427461707
  0
LINE
  5
24F
100
AcDbEntity
  8
00_COMPONENTS_1
100
AcDbLine
 62
7
  6
BYLAYER
 10
15.195990402
 20
73.5927461707
 11
14.5577696708
 21
73.5927461707
  0
LINE
  5
250
100
AcDbEntity
  8
00_COMPONENTS_1
100
AcDbLine
 62
7
  6
BYLAYER
 10
15.1959904019
 20
73.7627461707
 11
13.2367023628
 21
73.7627461707
  0
LINE
  5
251
100
AcDbEntity
  8
00_COMPONENTS_1
100
AcDbLine
 62
7
  6
BYLAYER
 10
15.1959904019
 20
77.0627461707
 11
13.2367023628
 21
77.0627461707
  0
LINE
  5
252
100
AcDbEntity
  8
00_COMPONENTS_1
100
AcDbLine
 62
7
  6
BYLAYER
 10
14.5577696708
 20
77.2427461707
 11
15.195990402
 21
77.2427461707
  0
LINE
  5
253
100
AcDbEntity
  8
00_COMPONENTS_1
100
AcDbLine
 62
7
  6
BYLAYER
 10
39.6567023628
 20
77.9877461707
 11
80.6367023628
 21
77.9877461707
  0
LINE
  5
254
100
AcDbEntity
  8
00_COMPONENTS_1
100
AcDbLine
 62
7
  6
BYLAYER
 10
62.4867023628
 20
77.9877461707
 11
62.4867023628
 21
82.1377461707
  0
LINE
  5
255
100
AcDbEntity
  8
00_COMPONENTS_1
100
AcDbLine
 62
7
  6
BYLAYER
 10
38.4567023628
 20
79.8377461707
 11
34.4067023628
 21
79.8377461707
  0
LINE
  5
256
100
AcDbEntity
  8
00_COMPONENTS_1
100
AcDbLine
 62
7
  6
BYLAYER
 10
13.8168275367
 20
82.1377461707
 11
62.4867023628
 21
82.1377461707
  0
LINE
  5
257
100
AcDbEntity
  8
00_COMPONENTS_1
100
AcDbLine
 62
7
  6
BYLAYER
 10
80.6367023628
 20
86.2235424454
 11
78.6367023628
 21
86.2235424454
  0
LINE
  5
258
100
AcDbEntity
  8
00_COMPONENTS_1
100
AcDbLine
 62
7
  6
BYLAYER
 10
53.7067023628
 20
88.1377461707
 11
50.8567023628
 21
88.1377461707
  0
LINE
  5
259
100
AcDbEntity
  8
00_COMPONENTS_1
100
AcDbLine
 62
7
  6
BYLAYER
 10
77.5367023628
 20
31.8877461707
 11
77.5367023628
 21
30.6377461707
  0
LINE
  5
25A
100
AcDbEntity
  8
00_COMPONENTS_1
100
AcDbLine
 62
7
  6
BYLAYER
 10
78.6367023628
 20
86.2235424454
 11
78.6367023628
 21
77.9877461707
  0
LINE
  5
25B
100
AcDbEntity
  8
00_COMPONENTS_1
100
AcDbLine
 62
7
  6
BYLAYER
 10
80.6367023628
 20
34.9877461707
 11
80.6367023628
 21
86.2235424454
  0
LINE
  5
25C
100
AcDbEntity
  8
00_COMPONENTS_1
100
AcDbLine
 62
7
  6
BYLAYER
 10
44.8292303803
 20
95.4877461707
 11
42.5297175413
 21
95.4877461707
  0
LINE
  5
25D
100
AcDbEntity
  8
00_COMPONENTS_1
100
AcDbLine
 62
7
  6
BYLAYER
 10
80.6367023628
 20
34.9877461707
 11
77.5367023628
 21
31.8877461707
  0
SPLINE
  5
25E
100
AcDbEntity
  8
00_COMPONENTS_1
100
AcDbSpline
 62
7
  6
BYLAYER
 70
0
 71
3
 72
12
 73
8
 74
0
 42
0.0000001
 43
0.0000001
 44
0.0000000001
 40
0.0
 40
0.0
 40
0.0
 40
0.0
 40
0.3330583799
 40
0.6306635008
 40
0.8611583546
 40
0.9432069034
 40
1.0
 40
1.0
 40
1.0
 40
1.0
 10
33.8934372361
 20
41.8377461707
 30
0.0
 10
33.8934372361
 20
41.462236085
 30
0.0
 10
33.8910437723
 20
40.7511858686
 30
0.0
 10
33.8820599135
 20
39.7803020431
 30
0.0
 10
33.8729391058
 20
39.0924427111
 30
0.0
 10
33.8679947835
 20
38.6760614764
 30
0.0
 10
33.8667041784
 20
38.5195253317
 30
0.0
 10
33.8667053177
 20
38.4554933725
 30
0.0
  0
SPLINE
  5
25F
100
AcDbEntity
  8
00_COMPONENTS_1
100
AcDbSpline
 62
7
  6
BYLAYER
 70
0
 71
3
 72
9
 73
5
 74
0
 42
0.0000001
 43
0.0000001
 44
0.0000000001
 40
0.0
 40
0.0
 40
0.0
 40
0.0
 40
0.5628899888
 40
1.0
 40
1.0
 40
1.0
 40
1.0
 10
33.9432836056
 20
41.8377461707
 30
0.0
 10
33.9432836056
 20
42.3737439824
 30
0.0
 10
33.9356377491
 20
43.3259815018
 30
0.0
 10
33.9140736789
 20
44.2780075556
 30
0.0
 10
33.900489064
 20
44.6940128092
 30
0.0
  0
SPLINE
  5
260
100
AcDbEntity
  8
00_COMPONENTS_1
100
AcDbSpline
 62
7
  6
BYLAYER
 70
0
 71
3
 72
11
 73
7
 74
0
 42
0.0000001
 43
0.0000001
 44
0.0000000001
 40
0.0
 40
0.0
 40
0.0
 40
0.0
 40
0.2886577806
 40
0.5611896377
 40
0.8025884195
 40
1.0
 40
1.0
 40
1.0
 40
1.0
 10
35.2126833211
 20
41.8377461707
 30
0.0
 10
35.2126833211
 20
42.1123182712
 30
0.0
 10
35.2035348129
 20
42.6461676448
 30
0.0
 10
35.163386653
 20
43.4087273078
 30
0.0
 10
35.1007600945
 20
44.0826066034
 30
0.0
 10
35.0415810346
 20
44.4961519133
 30
0.0
 10
35.0068272177
 20
44.6806862481
 30
0.0
  0
LINE
  5
261
100
AcDbEntity
  8
00_COMPONENTS_1
100
AcDbLine
 62
7
  6
BYLAYER
 10
35.0068272177
 20
44.6806862481
 11
35.0049101062
 21
44.690816339
  0
LINE
  5
262
100
AcDbEntity
  8
00_COMPONENTS_1
100
AcDbLine
 62
7
  6
BYLAYER
 10
35.0049101062
 20
44.690816339
 11
35.0031960857
 21
44.6997902442
  0
SPLINE
  5
263
100
AcDbEntity
  8
00_COMPONENTS_1
100
AcDbSpline
 62
7
  6
BYLAYER
 70
0
 71
3
 72
29
 73
25
 74
0
 42
0.0000001
 43
0.0000001
 44
0.0000000001
 40
0.0
 40
0.0
 40
0.0
 40
0.0
 40
0.0003517318
 40
0.0012747785
 40
0.0027922543
 40
0.0049078548
 40
0.0076228151
 40
0.0109370034
 40
0.0193512775
 40
0.0301237387
 40
0.0432261518
 40
0.0586300261
 40
0.0763055248
 40
0.0962078382
 40
0.1182822025
 40
0.1687272333
 40
0.227181123
 40
0.2930686789
 40
0.3657707239
 40
0.4445912756
 40
0.5287414721
 40
0.6174201365
 40
0.8050122992
 40
1.0
 40
1.0
 40
1.0
 40
1.0
 10
33.8699091217
 20
38.3377833015
 30
0.0
 10
33.8703196404
 20
38.3377833414
 30
0.0
 10
33.8707542661
 20
38.3397999673
 30
0.0
 10
33.8714191231
 20
38.3424647589
 30
0.0
 10
33.8721085453
 20
38.3480337265
 30
0.0
 10
33.872909442
 20
38.3552700135
 30
0.0
 10
33.8737588064
 20
38.3647885332
 30
0.0
 10
33.8750872475
 20
38.3815698554
 30
0.0
 10
33.8768313763
 20
38.4077899089
 30
0.0
 10
33.8790141431
 20
38.4454058335
 30
0.0
 10
33.8813920396
 20
38.4911904351
 30
0.0
 10
33.8839520583
 20
38.5450292898
 30
0.0
 10
33.8866766232
 20
38.6068064275
 30
0.0
 10
33.8895468352
 20
38.6763694081
 30
0.0
 10
33.8937274742
 20
38.784157153
 30
0.0
 10
33.8991320157
 20
38.9369256097
 30
0.0
 10
33.9055943942
 20
39.1408231368
 30
0.0
 10
33.912095032
 20
39.3707081479
 30
0.0
 10
33.9184276129
 20
39.6243766955
 30
0.0
 10
33.9243970181
 20
39.8993744886
 30
0.0
 10
33.9298225248
 20
40.1930338984
 30
0.0
 10
33.9362004037
 20
40.61364641
 30
0.0
 10
33.9417691353
 20
41.1636450958
 30
0.0
 10
33.9432836056
 20
41.6101690893
 30
0.0
 10
33.9432836056
 20
41.8377461707
 30
0.0
  0
SPLINE
  5
264
100
AcDbEntity
  8
00_COMPONENTS_1
100
AcDbSpline
 62
7
  6
BYLAYER
 70
0
 71
3
 72
21
 73
17
 74
0
 42
0.0000001
 43
0.0000001
 44
0.0000000001
 40
0.0
 40
0.0
 40
0.0
 40
0.0
 40
0.0058132677
 40
0.0125348354
 40
0.0207491444
 40
0.0307622137
 40
0.0566915091
 40
0.0908381744
 40
0.1331628325
 40
0.1834097153
 40
0.2412307636
 40
0.3061406536
 40
0.4549883043
 40
0.6245646118
 40
0.8086417553
 40
1.0
 40
1.0
 40
1.0
 40
1.0
 10
34.7477004721
 20
38.3379289117
 30
0.0
 10
34.7546422858
 20
38.3378714677
 30
0.0
 10
34.7697298271
 20
38.3411174725
 30
0.0
 10
34.7908387956
 20
38.3547269804
 30
0.0
 10
34.8115513485
 20
38.3763821318
 30
0.0
 10
34.8416870374
 20
38.4198228111
 30
0.0
 10
34.8775913577
 20
38.4958948873
 30
0.0
 10
34.9178145253
 20
38.6114376498
 30
0.0
 10
34.957461501
 20
38.757591647
 30
0.0
 10
34.9960304544
 20
38.9330374778
 30
0.0
 10
35.0329051663
 20
39.1363263824
 30
0.0
 10
35.0813865309
 20
39.4570295104
 30
0.0
 10
35.1326189972
 20
39.9120827543
 30
0.0
 10
35.1778755567
 20
40.5105494257
 30
0.0
 10
35.2062480918
 20
41.1608692718
 30
0.0
 10
35.2126833211
 20
41.6092311903
 30
0.0
 10
35.2126833211
 20
41.8377461707
 30
0.0
  0
SPLINE
  5
265
100
AcDbEntity
  8
00_COMPONENTS_1
100
AcDbSpline
 62
7
  6
BYLAYER
 70
0
 71
3
 72
9
 73
5
 74
0
 42
0.0000001
 43
0.0000001
 44
0.0000000001
 40
0.0
 40
0.0
 40
0.0
 40
0.0
 40
0.4370118527
 40
1.0
 40
1.0
 40
1.0
 40
1.0
 10
33.8716730306
 20
44.6951497782
 30
0.0
 10
33.8768907762
 20
44.2789282682
 30
0.0
 10
33.8889577939
 20
43.3265017505
 30
0.0
 10
33.8934372361
 20
42.373992927
 30
0.0
 10
33.8934372361
 20
41.8377461707
 30
0.0
  0
SPLINE
  5
266
100
AcDbEntity
  8
00_COMPONENTS_1
100
AcDbSpline
 62
7
  6
BYLAYER
 70
0
 71
3
 72
21
 73
17
 74
0
 42
0.0000001
 43
0.0000001
 44
0.0000000001
 40
0.0
 40
0.0
 40
0.0
 40
0.0
 40
0.3766351589
 40
0.5467524595
 40
0.6243025671
 40
0.6958745281
 40
0.7608319552
 40
0.8186121919
 40
0.8687087095
 40
0.9107292707
 40
0.944395908
 40
0.9697973035
 40
0.9795752952
 40
0.9876036467
 40
0.9942133804
 40
1.0
 40
1.0
 40
1.0
 40
1.0
 10
34.3816706971
 20
41.8377461707
 30
0.0
 10
34.3816706971
 20
41.3900265216
 30
0.0
 10
34.3922469574
 20
40.7399615547
 30
0.0
 10
34.4282947117
 20
39.9986325649
 30
0.0
 10
34.4551479011
 20
39.6200767511
 30
0.0
 10
34.4774922865
 20
39.366560383
 30
0.0
 10
34.5025569888
 20
39.1369224964
 30
0.0
 10
34.5301855157
 20
38.9332995479
 30
0.0
 10
34.5602465591
 20
38.7576312515
 30
0.0
 10
34.592386951
 20
38.6114871035
 30
0.0
 10
34.62650301
 20
38.4962033235
 30
0.0
 10
34.6583118815
 20
38.4203174055
 30
0.0
 10
34.6860811556
 20
38.3769322513
 30
0.0
 10
34.7056178537
 20
38.3552238333
 30
0.0
 10
34.7260104539
 20
38.3414092585
 30
0.0
 10
34.7408219465
 20
38.3379858319
 30
0.0
 10
34.7477004721
 20
38.3379289117
 30
0.0
  0
SPLINE
  5
267
100
AcDbEntity
  8
00_COMPONENTS_1
100
AcDbSpline
 62
7
  6
BYLAYER
 70
0
 71
3
 72
11
 73
7
 74
0
 42
0.0000001
 43
0.0000001
 44
0.0000000001
 40
0.0
 40
0.0
 40
0.0
 40
0.0
 40
0.1961152001
 40
0.4373942001
 40
0.7104925489
 40
1.0
 40
1.0
 40
1.0
 40
1.0
 10
34.5243678296
 20
44.6955005657
 30
0.0
 10
34.4975339388
 20
44.5102661646
 30
0.0
 10
34.4548356653
 20
44.0947205549
 30
0.0
 10
34.4128395255
 20
43.4178813897
 30
0.0
 10
34.3873283723
 20
42.6509984933
 30
0.0
 10
34.3816706971
 20
42.1140455893
 30
0.0
 10
34.3816706971
 20
41.8377461707
 30
0.0
  0
SPLINE
  5
268
100
AcDbEntity
  8
00_COMPONENTS_1
100
AcDbSpline
 62
7
  6
BYLAYER
 70
0
 71
3
 72
12
 73
8
 74
0
 42
0.0000001
 43
0.0000001
 44
0.0000000001
 40
0.0
 40
0.0
 40
0.0
 40
0.0
 40
0.2900987113
 40
0.5590521143
 40
0.7981324711
 40
0.9041694859
 40
1.0
 40
1.0
 40
1.0
 40
1.0
 10
18.8919627799
 20
49.7219714834
 30
0.0
 10
19.0524548507
 20
49.7056340414
 30
0.0
 10
19.3608514722
 20
49.6653337161
 30
0.0
 10
19.7990843246
 20
49.5953438545
 30
0.0
 10
20.1367026068
 20
49.5434339279
 30
0.0
 10
20.3806496462
 20
49.5180632114
 30
0.0
 10
20.4929026529
 20
49.5127242849
 30
0.0
 10
20.5461931916
 20
49.512692046
 30
0.0
  0
SPLINE
  5
269
100
AcDbEntity
  8
00_COMPONENTS_1
100
AcDbSpline
 62
7
  6
BYLAYER
 70
0
 71
3
 72
12
 73
8
 74
0
 42
0.0000001
 43
0.0000001
 44
0.0000000001
 40
0.0
 40
0.0
 40
0.0
 40
0.0
 40
0.068687898
 40
0.1585128431
 40
0.392871404
 40
0.6820076192
 40
1.0
 40
1.0
 40
1.0
 40
1.0
 10
18.8919627799
 20
55.7035208579
 30
0.0
 10
18.8857745941
 20
55.6353012445
 30
0.0
 10
18.8756478685
 20
55.4775066424
 30
0.0
 10
18.8592631247
 20
55.0860495919
 30
0.0
 10
18.8469392447
 20
54.4744770867
 30
0.0
 10
18.8391420707
 20
53.6353384146
 30
0.0
 10
18.8376231065
 20
53.0298672971
 30
0.0
 10
18.8376231065
 20
52.7127461707
 30
0.0
  0
SPLINE
  5
26A
100
AcDbEntity
  8
00_COMPONENTS_1
100
AcDbSpline
 62
7
  6
BYLAYER
 70
0
 71
3
 72
12
 73
8
 74
0
 42
0.0000001
 43
0.0000001
 44
0.0000000001
 40
0.0
 40
0.0
 40
0.0
 40
0.0
 40
0.3179841768
 40
0.6072000787
 40
0.8414944092
 40
0.9312992105
 40
1.0
 40
1.0
 40
1.0
 40
1.0
 10
18.8376231065
 20
52.7127461707
 30
0.0
 10
18.8376231065
 20
52.395633245
 30
0.0
 10
18.8391409846
 20
51.7900908832
 30
0.0
 10
18.8469346811
 20
50.9509449841
 30
0.0
 10
18.8592700803
 20
50.3393773229
 30
0.0
 10
18.8756550236
 20
49.9479918336
 30
0.0
 10
18.8857734331
 20
49.7902038963
 30
0.0
 10
18.8919627799
 20
49.7219714834
 30
0.0
  0
SPLINE
  5
26B
100
AcDbEntity
  8
00_COMPONENTS_1
100
AcDbSpline
 62
7
  6
BYLAYER
 70
0
 71
3
 72
12
 73
8
 74
0
 42
0.0000001
 43
0.0000001
 44
0.0000000001
 40
0.0
 40
0.0
 40
0.0
 40
0.0
 40
0.095824613
 40
0.2018640165
 40
0.4409649421
 40
0.7098938967
 40
1.0
 40
1.0
 40
1.0
 40
1.0
 10
20.5461917593
 20
55.9128464393
 30
0.0
 10
20.4929044764
 20
55.9128176626
 30
0.0
 10
20.3806531312
 20
55.9074598676
 30
0.0
 10
20.1367056439
 20
55.8820077041
 30
0.0
 10
19.7990851798
 20
55.8301280299
 30
0.0
 10
19.3608431059
 20
55.7601803344
 30
0.0
 10
19.0524590118
 20
55.7198587235
 30
0.0
 10
18.8919627799
 20
55.7035208579
 30
0.0
  0
ENDSEC
  0
SECTION
  2
OBJECTS
  0
DICTIONARY
  5
C
100
AcDbDictionary
280
0
281
1
  3
ACAD_GROUP
350
D
  3
ACAD_MLINESTYLE
350
17
  3
ACAD_LAYOUT
350
1A
  3
ACAD_PLOTSETTINGS
350
19
  3
ACAD_PLOTSTYLENAME
350
E
  0
DICTIONARY
  5
D
102
{ACAD_REACTORS
330
C
102
}
100
AcDbDictionary
280
0
281
1
  0
ACDBDICTIONARYWDFLT
  5
E
102
{ACAD_REACTORS
330
C
102
}
100
AcDbDictionary
281
1
  3
Normal
350
F
100
AcDbDictionaryWithDefault
340
F
  0
DICTIONARY
  5
17
102
{ACAD_REACTORS
330
C
102
}
100
AcDbDictionary
280
0
281
1
  3
Standard
350
18
  0
DICTIONARY
  5
19
102
{ACAD_REACTORS
330
C
102
}
100
AcDbDictionary
281
1
  0
DICTIONARY
  5
1A
102
{ACAD_REACTORS
330
C
102
}
100
AcDbDictionary
281
1
  3
Model
350
26C
  3
Layout1
350
26D
  0
ACDBPLACEHOLDER
  5
F
102
{ACAD_REACTORS
330
E
102
}
  0
MLINESTYLE
  5
18
102
{ACAD_REACTORS
330
17
102
}
100
AcDbMlineStyle
  2
STANDARD
 70
0
  3

 62
256
 51
90.0
 52
90.0
 71
2
 49
0.5
 62
256
  6
BYLAYER
 49
-0.5
 62
256
  6
BYLAYER
  0
LAYOUT
  5
26C
102
{ACAD_REACTORS
330
1A
102
}
100
AcDbPlotSettings
  1

  2
none_device
  4

  6

 40
0.0
 41
0.0
 42
0.0
 43
0.0
 44
210.0
 45
297.0
 46
0.0
 47
0.0
 48
0.0
 49
0.0
140
0.0
141
0.0
142
1.0
143
1.0
 70
1024
 72
1
 73
0
 74
0
  7

 75
0
147
1.0
148
0.0
149
0.0
100
AcDbLayout
  1
Model
 70
0
 71
0
 10
0.0
 20
0.0
 11
210.0
 21
297.0
 12
0.0
 22
0.0
 32
0.0
 14
0.0
 24
0.0
 34
0.0
 15
0.0
 25
0.0
 35
0.0
146
0.0
 13
0.0
 23
0.0
 33
0.0
 16
1.0
 26
0.0
 36
0.0
 17
0.0
 27
1.0
 37
0.0
 76
0
330
216
345
0
346
0
  0
LAYOUT
  5
26D
102
{ACAD_REACTORS
330
1A
102
}
100
AcDbPlotSettings
  1

  2
none_device
  4

  6

 40
0.0
 41
0.0
 42
0.0
 43
0.0
 44
210.0
 45
297.0
 46
0.0
 47
0.0
 48
0.0
 49
0.0
140
0.0
141
0.0
142
1.0
143
1.0
 70
0
 72
1
 73
0
 74
0
  7

 75
0
147
1.0
148
0.0
149
0.0
100
AcDbLayout
  1
Layout1
 70
0
 71
1
 10
0.0
 20
0.0
 11
210.0
 21
297.0
 12
0.0
 22
0.0
 32
0.0
 14
0.0
 24
0.0
 34
0.0
 15
0.0
 25
0.0
 35
0.0
146
0.0
 13
0.0
 23
0.0
 33
0.0
 16
1.0
 26
0.0
 36
0.0
 17
0.0
 27
1.0
 37
0.0
 76
0
330
217
345
0
346
0
  0
ENDSEC
  0
EOF
