999
DXF file: C:\Users\sesa63760\Dev\_Creo\CAD\MCADPD0004571_3D-CAD\drw0001_5.dxf
999
Pro/ENGINEER 2019471 by Parametric Technology Corporation
  0
SECTION
  2
HEADER
  9
$ACADVER
  1
AC1024
  9
$DWGCODEPAGE
  3
ANSI_1252
  9
$EXTMAX
 10
127.1140599899
 20
179.7755991286
 30
0.0
  9
$EXTMIN
 10
0.0
 20
0.0
 30
0.0
  9
$LIMMIN
 10
0.0
 20
0.0
  9
$LIMMAX
 10
127.1140599899
 20
179.7755991286
  9
$VIEWCTR
 10
63.557029995
 20
89.8877995643
  9
$VIEWSIZE
 40
179.7755991286
  9
$CLAYER
  8
0
  9
$LTSCALE
 40
11.718705721
  9
$CELTYPE
  6
BYLAYER
  9
$DIMSCALE
 40
1.0
  9
$DIMASZ
 40
1.5132626189
  9
$DIMEXO
 40
1.0
  9
$DIMDLI
 40
8.0965603163
  9
$DIMEXE
 40
1.0
  9
$DIMCEN
 40
1.9176063907
  9
$DIMLFAC
 40
1.0
  9
$DIMBLK
  1
_FILLED
  9
$DIMALT
 70
0
  9
$DIMALTF
 40
0.0393700787
  9
$DIMTXT
 40
2.1185676665
  9
$DIMTOL
 70
1
  9
$DIMLIM
 70
0
  9
$DIMTFAC
 40
1.0
  9
$DIMTP
 40
0.01
  9
$DIMTM
 40
0.01
  9
$DIMGAP
 40
0.625
  9
$DIMDSEP
 70
46
  9
$AUNITS
 70
0
  9
$PDMODE
 70
3
  9
$PDSIZE
 40
0.3125
  9
$HANDSEED
  5
484
  9
$TILEMODE
 70
1
  9
$MEASUREMENT
 70
1
  9
$INSUNITS
 70
4
  0
ENDSEC
  0
SECTION
  2
CLASSES
  0
CLASS
  1
ACDBDICTIONARYWDFLT
  2
AcDbDictionaryWithDefault
  3
AutoCAD 2000
 90
0
 91
1
280
0
281
0
  0
CLASS
  1
ACDBPLACEHOLDER
  2
AcDbPlaceHolder
  3
AutoCAD 2000
 90
0
 91
1
280
0
281
0
  0
CLASS
  1
LAYOUT
  2
AcDbLayout
  3
AutoCAD 2000
 90
0
 91
0
280
0
281
0
  0
ENDSEC
  0
SECTION
  2
TABLES
  0
TABLE
  2
VPORT
  5
8
100
AcDbSymbolTable
 70
2
  0
VPORT
  5
1F4
100
AcDbSymbolTableRecord
100
AcDbViewportTableRecord
  2
*ACTIVE
 70
0
 10
0.0
 20
0.0
 11
1.0
 21
1.0
 12
63.557029995
 22
89.8877995643
 13
0.0
 23
0.0
 14
1.0
 24
1.0
 15
0.0
 25
0.0
 16
0.0
 26
0.0
 36
1.0
 17
0.0
 27
0.0
 37
0.0
 40
179.7755991286
 41
0.7070707071
 42
50.0
 43
0.0
 44
0.0
 50
0.0
 51
0.0
 71
0
 72
100
 73
1
 74
1
 75
0
 76
0
 77
0
 78
0
  0
ENDTAB
  0
TABLE
  2
LTYPE
  5
5
100
AcDbSymbolTable
 70
6
  0
LTYPE
  5
14
100
AcDbSymbolTableRecord
100
AcDbLinetypeTableRecord
  2
BYBLOCK
 70
0
  3

 72
65
 73
0
 40
0.0
  0
LTYPE
  5
15
100
AcDbSymbolTableRecord
100
AcDbLinetypeTableRecord
  2
BYLAYER
 70
0
  3

 72
65
 73
0
 40
0.0
  0
LTYPE
  5
16
100
AcDbSymbolTableRecord
100
AcDbLinetypeTableRecord
  2
CONTINUOUS
 70
64
  3
Solid line
 72
65
 73
0
 40
0.0
  0
LTYPE
  5
1F5
100
AcDbSymbolTableRecord
100
AcDbLinetypeTableRecord
  2
CENTER
 70
64
  3
____ _ ____ _ ____ _ ____ _ ____ _ ____ _ ____
 72
65
 73
4
 40
0.6
 49
0.375
 74
0
 49
-0.075
 74
0
 49
0.075
 74
0
 49
-0.075
 74
0
  0
LTYPE
  5
1F6
100
AcDbSymbolTableRecord
100
AcDbLinetypeTableRecord
  2
HIDDEN
 70
64
  3
- - - - - - - - - - - - - - - - - - - -
 72
65
 73
2
 40
0.2
 49
0.1
 74
0
 49
-0.1
 74
0
  0
LTYPE
  5
1F7
100
AcDbSymbolTableRecord
100
AcDbLinetypeTableRecord
  2
PHANTOM
 70
64
  3
_____ _ _ _____ _ _ _____ _ _ _____
 72
65
 73
6
 40
0.8
 49
0.45
 74
0
 49
-0.05
 74
0
 49
0.1
 74
0
 49
-0.05
 74
0
 49
0.1
 74
0
 49
-0.05
 74
0
  0
LTYPE
  5
1F8
100
AcDbSymbolTableRecord
100
AcDbLinetypeTableRecord
  2
DOT
 70
64
  3
. . . . . . . . . . . . . . . . . . . .
 72
65
 73
2
 40
0.2
 49
0.1
 74
0
 49
-0.1
 74
0
  0
LTYPE
  5
1F9
100
AcDbSymbolTableRecord
100
AcDbLinetypeTableRecord
  2
DASHED
 70
64
  3
- - - - - - - - - - - - - - - - - - - -
 72
65
 73
2
 40
0.2
 49
0.1
 74
0
 49
-0.1
 74
0
  0
ENDTAB
  0
TABLE
  2
LAYER
  5
2
100
AcDbSymbolTable
 70
36
  0
LAYER
  5
10
100
AcDbSymbolTableRecord
100
AcDbLayerTableRecord
  2
0
 70
0
 62
7
  6
CONTINUOUS
370
-3
390
F
  0
LAYER
  5
1FA
100
AcDbSymbolTableRecord
100
AcDbLayerTableRecord
  2
DEFAULT_1
 70
0
 62
7
  6
CENTER
370
-3
390
F
  0
LAYER
  5
1FB
100
AcDbSymbolTableRecord
100
AcDbLayerTableRecord
  2
DEFAULT_2
 70
0
 62
7
  6
HIDDEN
370
-3
390
F
  0
LAYER
  5
1FC
100
AcDbSymbolTableRecord
100
AcDbLayerTableRecord
  2
DEFAULT_3
 70
0
 62
7
  6
PHANTOM
370
-3
390
F
  0
LAYER
  5
1FD
100
AcDbSymbolTableRecord
100
AcDbLayerTableRecord
  2
00_COMPONENTS
 70
0
 62
7
  6
CONTINUOUS
370
-3
390
F
  0
LAYER
  5
1FE
100
AcDbSymbolTableRecord
100
AcDbLayerTableRecord
  2
01_1_DEFAULT_DATUMS
 70
0
 62
7
  6
CONTINUOUS
370
-3
390
F
  0
LAYER
  5
1FF
100
AcDbSymbolTableRecord
100
AcDbLayerTableRecord
  2
01_PLANES
 70
0
 62
7
  6
CONTINUOUS
370
-3
390
F
  0
LAYER
  5
200
100
AcDbSymbolTableRecord
100
AcDbLayerTableRecord
  2
02_COORD_SYS
 70
0
 62
7
  6
CONTINUOUS
370
-3
390
F
  0
LAYER
  5
201
100
AcDbSymbolTableRecord
100
AcDbLayerTableRecord
  2
03_AXES
 70
0
 62
7
  6
CONTINUOUS
370
-3
390
F
  0
LAYER
  5
202
100
AcDbSymbolTableRecord
100
AcDbLayerTableRecord
  2
04_POINTS
 70
0
 62
7
  6
CONTINUOUS
370
-3
390
F
  0
LAYER
  5
203
100
AcDbSymbolTableRecord
100
AcDbLayerTableRecord
  2
05_CURVES
 70
0
 62
7
  6
CONTINUOUS
370
-3
390
F
  0
LAYER
  5
204
100
AcDbSymbolTableRecord
100
AcDbLayerTableRecord
  2
06_SURFS
 70
0
 62
7
  6
CONTINUOUS
370
-3
390
F
  0
LAYER
  5
205
100
AcDbSymbolTableRecord
100
AcDbLayerTableRecord
  2
07_COSMETICS
 70
0
 62
7
  6
CONTINUOUS
370
-3
390
F
  0
LAYER
  5
206
100
AcDbSymbolTableRecord
100
AcDbLayerTableRecord
  2
10_NOTES
 70
0
 62
7
  6
CONTINUOUS
370
-3
390
F
  0
LAYER
  5
207
100
AcDbSymbolTableRecord
100
AcDbLayerTableRecord
  2
11_NOTES_PUB
 70
0
 62
7
  6
CONTINUOUS
370
-3
390
F
  0
LAYER
  5
208
100
AcDbSymbolTableRecord
100
AcDbLayerTableRecord
  2
13_REF_GTOL
 70
0
 62
7
  6
CONTINUOUS
370
-3
390
F
  0
LAYER
  5
209
100
AcDbSymbolTableRecord
100
AcDbLayerTableRecord
  2
16_MISC
 70
0
 62
7
  6
CONTINUOUS
370
-3
390
F
  0
LAYER
  5
20A
100
AcDbSymbolTableRecord
100
AcDbLayerTableRecord
  2
17_NO_PRINT
 70
0
 62
7
  6
CONTINUOUS
370
-3
390
F
  0
LAYER
  5
20B
100
AcDbSymbolTableRecord
100
AcDbLayerTableRecord
  2
18_DATUM_CAMS_JOINTS
 70
0
 62
7
  6
CONTINUOUS
370
-3
390
F
  0
LAYER
  5
20C
100
AcDbSymbolTableRecord
100
AcDbLayerTableRecord
  2
19_DATUM_FUNCTIONAL
 70
0
 62
7
  6
CONTINUOUS
370
-3
390
F
  0
LAYER
  5
20D
100
AcDbSymbolTableRecord
100
AcDbLayerTableRecord
  2
20_DATUM_KINEMATIC_SCHEME
 70
0
 62
7
  6
CONTINUOUS
370
-3
390
F
  0
ENDTAB
  0
TABLE
  2
STYLE
  5
3
100
AcDbSymbolTable
 70
1
  0
STYLE
  5
11
100
AcDbSymbolTableRecord
100
AcDbTextStyleTableRecord
  2
STANDARD
 70
0
 40
0.0
 41
1.0
 50
0.0
 71
0
 42
0.2
  3
ARIAL.TTF
  4

  0
STYLE
  5
20E
100
AcDbSymbolTableRecord
100
AcDbTextStyleTableRecord
  2
TEXTSTYLE_1
 70
0
 40
0.0
 41
0.8
 50
0.0
 71
0
 42
0.2
  3
gdt
  4

  0
ENDTAB
  0
TABLE
  2
VIEW
  5
6
100
AcDbSymbolTable
 70
0
  0
ENDTAB
  0
TABLE
  2
UCS
  5
7
100
AcDbSymbolTable
 70
0
  0
ENDTAB
  0
TABLE
  2
APPID
  5
9
100
AcDbSymbolTable
 70
1
  0
APPID
  5
20F
100
AcDbSymbolTableRecord
100
AcDbRegAppTableRecord
  2
ACAD
 70
0
  0
ENDTAB
  0
TABLE
  2
BLOCK_RECORD
  5
1
100
AcDbSymbolTable
 70
0
  0
BLOCK_RECORD
  5
210
100
AcDbSymbolTableRecord
100
AcDbBlockTableRecord
  2
*Model_Space
  0
BLOCK_RECORD
  5
211
100
AcDbSymbolTableRecord
100
AcDbBlockTableRecord
  2
*Paper_Space
  0
BLOCK_RECORD
  5
212
100
AcDbSymbolTableRecord
100
AcDbBlockTableRecord
  2
_FILLED
  0
ENDTAB
  0
TABLE
  2
DIMSTYLE
  5
A
100
AcDbSymbolTable
 70
1
100
AcDbDimStyleTable
 71
0
  0
DIMSTYLE
105
213
100
AcDbSymbolTableRecord
100
AcDbDimStyleTableRecord
  2
STANDARD
 70
0
  3

  4

 40
1.0
 41
1.5132626189
 42
1.0
 43
0.38
 44
1.0
 45
0.0
 46
0.0
 47
0.01
 48
0.01
140
2.1185676665
141
0.09
142
0.0
143
25.4
144
1.0
145
0.0
146
1.0
147
0.625
 71
1
 72
0
 73
0
 74
0
 75
0
 76
0
 77
1
 78
8
 79
2
170
0
171
1
172
0
173
0
174
0
175
0
176
0
177
0
178
0
270
2
179
2
271
2
272
2
273
2
274
2
275
0
280
0
281
0
282
0
283
1
284
8
285
0
286
0
287
3
288
0
340
11
278
46
341
212
342
212
343
212
344
212
  0
ENDTAB
  0
ENDSEC
  0
SECTION
  2
BLOCKS
  0
BLOCK
  5
20
100
AcDbEntity
  8
0
100
AcDbBlockBegin
  2
*Model_Space
 70
0
 10
0.0
 20
0.0
 30
0.0
  3
*Model_Space
  1

  0
ENDBLK
  5
21
100
AcDbEntity
  8
0
100
AcDbBlockEnd
  0
BLOCK
  5
1C
100
AcDbEntity
  8
0
100
AcDbBlockBegin
  2
*Paper_Space
 70
0
 10
0.0
 20
0.0
 30
0.0
  3
*Paper_Space
  1

  0
ENDBLK
  5
1D
100
AcDbEntity
  8
0
100
AcDbBlockEnd
  0
BLOCK
  5
214
100
AcDbEntity
  8
0
100
AcDbBlockBegin
  2
_FILLED
 70
64
 10
0.0
 20
0.0
  3
_FILLED
  1

  0
SOLID
  5
215
100
AcDbEntity
  8
0
  6
BYBLOCK
 62
0
100
AcDbTrace
 10
0.0
 20
0.0
 11
-1.0
 21
0.25
 12
-1.0
 22
-0.25
 13
-1.0
 23
-0.25
  0
ENDBLK
  5
216
100
AcDbEntity
  8
0
  6
BYBLOCK
 62
0
100
AcDbBlockEnd
  0
ENDSEC
  0
SECTION
  2
ENTITIES
  0
LINE
  5
217
100
AcDbEntity
  8
0
100
AcDbLine
 62
7
  6
BYLAYER
 10
14.8173785788
 20
87.5200597254
 11
14.8173785788
 21
113.7327736737
  0
LINE
  5
218
100
AcDbEntity
  8
0
100
AcDbLine
 62
7
  6
BYLAYER
 10
15.3173785788
 20
114.2328431373
 11
15.3173785788
 21
87.5200596739
  0
LINE
  5
219
100
AcDbEntity
  8
0
100
AcDbLine
 62
7
  6
BYLAYER
 10
18.7175618818
 20
44.082810816
 11
21.5530194886
 21
43.5828431373
  0
LINE
  5
21A
100
AcDbEntity
  8
0
100
AcDbLine
 62
7
  6
BYLAYER
 10
25.0839818126
 20
59.3382670804
 11
25.0671733184
 21
59.3541244294
  0
LINE
  5
21B
100
AcDbEntity
  8
0
100
AcDbLine
 62
7
  6
BYLAYER
 10
25.1305752823
 20
57.7724213417
 11
24.2173785788
 21
59.3541244294
  0
LINE
  5
21C
100
AcDbEntity
  8
0
100
AcDbLine
 62
7
  6
BYLAYER
 10
25.0671734366
 20
59.3541244294
 11
25.0951340041
 21
59.2987821077
  0
LINE
  5
21D
100
AcDbEntity
  8
0
100
AcDbLine
 62
7
  6
BYLAYER
 10
15.6261594214
 20
80.7460190484
 11
15.1971847535
 21
83.1788552837
  0
LINE
  5
21E
100
AcDbEntity
  8
0
100
AcDbLine
 62
7
  6
BYLAYER
 10
16.2067267883
 20
80.3328431373
 11
15.6895886211
 21
83.2656794233
  0
LINE
  5
21F
100
AcDbEntity
  8
0
100
AcDbLine
 62
7
  6
BYLAYER
 10
18.7173785788
 20
80.3328431373
 11
18.7173785788
 21
80.2328431373
  0
LINE
  5
220
100
AcDbEntity
  8
0
100
AcDbLine
 62
7
  6
BYLAYER
 10
18.7173785788
 20
50.0828431373
 11
18.7173785788
 21
44.0828431373
  0
LINE
  5
221
100
AcDbEntity
  8
0
100
AcDbLine
 62
7
  6
BYLAYER
 10
18.9310403506
 20
44.0451688022
 11
18.9310403506
 21
50.0828431373
  0
LINE
  5
222
100
AcDbEntity
  8
0
100
AcDbLine
 62
7
  6
BYLAYER
 10
19.8883079962
 20
50.0828431373
 11
19.8883079962
 21
43.8763766885
  0
LINE
  5
223
100
AcDbEntity
  8
0
100
AcDbLine
 62
7
  6
BYLAYER
 10
32.6452676592
 20
121.9328431373
 11
31.4173785788
 21
120.7049540569
  0
LINE
  5
224
100
AcDbEntity
  8
0
100
AcDbLine
 62
7
  6
BYLAYER
 10
21.5530194886
 20
43.5828431373
 11
40.2173785788
 21
43.5828431373
  0
LINE
  5
225
100
AcDbEntity
  8
0
100
AcDbLine
 62
7
  6
BYLAYER
 10
76.1681049625
 20
43.5828431373
 11
82.0673785788
 21
43.5828431373
  0
LINE
  5
226
100
AcDbEntity
  8
0
100
AcDbLine
 62
7
  6
BYLAYER
 10
83.5673785788
 20
43.5828431373
 11
92.645179772
 21
43.5828431373
  0
LINE
  5
227
100
AcDbEntity
  8
0
100
AcDbLine
 62
7
  6
BYLAYER
 10
90.7173785788
 20
44.0828431373
 11
95.7172706222
 21
44.0828431373
  0
LINE
  5
228
100
AcDbEntity
  8
0
100
AcDbLine
 62
7
  6
BYLAYER
 10
37.5173785788
 20
47.9828431373
 11
41.4173785788
 21
47.3828431373
  0
LINE
  5
229
100
AcDbEntity
  8
0
100
AcDbLine
 62
7
  6
BYLAYER
 10
39.4903205445
 20
47.9828431373
 11
40.4006688181
 21
47.8427895567
  0
LINE
  5
22A
100
AcDbEntity
  8
0
100
AcDbLine
 62
7
  6
BYLAYER
 10
40.4006688181
 20
47.8427895567
 11
41.1173785788
 21
47.4289969834
  0
LINE
  5
22B
100
AcDbEntity
  8
0
100
AcDbLine
 62
7
  6
BYLAYER
 10
20.2173785788
 20
50.0828431373
 11
20.2173785788
 21
43.8183526662
  0
LINE
  5
22C
100
AcDbEntity
  8
0
100
AcDbLine
 62
7
  6
BYLAYER
 10
21.0673785788
 20
88.8328431373
 11
21.0673785788
 21
91.5328431373
  0
LINE
  5
22D
100
AcDbEntity
  8
0
100
AcDbLine
 62
7
  6
BYLAYER
 10
21.3173785788
 20
72.5828431373
 11
21.3173785788
 21
79.7828431373
  0
LINE
  5
22E
100
AcDbEntity
  8
0
100
AcDbLine
 62
7
  6
BYLAYER
 10
21.8173785788
 20
79.7828431373
 11
21.8173785788
 21
72.5828431373
  0
LINE
  5
22F
100
AcDbEntity
  8
0
100
AcDbLine
 62
7
  6
BYLAYER
 10
22.6173785788
 20
72.5828431373
 11
22.6173785788
 21
54.7828431373
  0
LINE
  5
230
100
AcDbEntity
  8
0
100
AcDbLine
 62
7
  6
BYLAYER
 10
23.0019341906
 20
43.5828431373
 11
23.0019341906
 21
50.0828431373
  0
LINE
  5
231
100
AcDbEntity
  8
0
100
AcDbLine
 62
7
  6
BYLAYER
 10
23.2173785788
 20
80.2328431373
 11
23.2173785788
 21
79.7828431373
  0
LINE
  5
232
100
AcDbEntity
  8
0
100
AcDbLine
 62
7
  6
BYLAYER
 10
24.2173785788
 20
59.3541244294
 11
24.2173785788
 21
67.9878882984
  0
LINE
  5
233
100
AcDbEntity
  8
0
100
AcDbLine
 62
7
  6
BYLAYER
 10
24.4173785788
 20
80.2328431373
 11
24.4173785788
 21
79.7828431373
  0
LINE
  5
234
100
AcDbEntity
  8
0
100
AcDbLine
 62
7
  6
BYLAYER
 10
24.4866133424
 20
68.7276047318
 11
24.4866133424
 21
67.0828431373
  0
LINE
  5
235
100
AcDbEntity
  8
0
100
AcDbLine
 62
7
  6
BYLAYER
 10
24.5673785788
 20
88.8328431373
 11
24.5673785788
 21
91.5328431373
  0
LINE
  5
236
100
AcDbEntity
  8
0
100
AcDbLine
 62
7
  6
BYLAYER
 10
24.6055739685
 20
67.5828431373
 11
24.6055739685
 21
72.5828431373
  0
LINE
  5
237
100
AcDbEntity
  8
0
100
AcDbLine
 62
7
  6
BYLAYER
 10
31.4173785788
 20
115.9640137214
 11
30.4173785788
 21
114.2319520453
  0
LINE
  5
238
100
AcDbEntity
  8
0
100
AcDbLine
 62
7
  6
BYLAYER
 10
31.417471843
 20
114.2647379757
 11
30.4173785788
 21
112.5790630473
  0
LINE
  5
239
100
AcDbEntity
  8
0
100
AcDbLine
 62
7
  6
BYLAYER
 10
31.4173785788
 20
120.0328431373
 11
32.8173785788
 21
121.4328431373
  0
LINE
  5
23A
100
AcDbEntity
  8
0
100
AcDbLine
 62
7
  6
BYLAYER
 10
82.5673785788
 20
45.0828431373
 11
82.6673785788
 21
45.0828431373
  0
LINE
  5
23B
100
AcDbEntity
  8
0
100
AcDbLine
 62
7
  6
BYLAYER
 10
74.1173785788
 20
47.7828431373
 11
75.5173785788
 21
47.7828431373
  0
LINE
  5
23C
100
AcDbEntity
  8
0
100
AcDbLine
 62
7
  6
BYLAYER
 10
39.4903205445
 20
47.9828431373
 11
37.5173785788
 21
47.9828431373
  0
LINE
  5
23D
100
AcDbEntity
  8
0
100
AcDbLine
 62
7
  6
BYLAYER
 10
46.2173785788
 20
48.9328431373
 11
49.2173785788
 21
48.9328431373
  0
LINE
  5
23E
100
AcDbEntity
  8
0
100
AcDbLine
 62
7
  6
BYLAYER
 10
50.2173785788
 20
48.9328431373
 11
53.2173785788
 21
48.9328431373
  0
LINE
  5
23F
100
AcDbEntity
  8
0
100
AcDbLine
 62
7
  6
BYLAYER
 10
75.5173785788
 20
49.0828431373
 11
41.4173785788
 21
49.0828431373
  0
LINE
  5
240
100
AcDbEntity
  8
0
100
AcDbLine
 62
7
  6
BYLAYER
 10
41.4173785788
 20
49.0828431373
 11
37.8703777977
 21
49.7194843031
  0
LINE
  5
241
100
AcDbEntity
  8
0
100
AcDbLine
 62
7
  6
BYLAYER
 10
24.8673785788
 20
55.9828431373
 11
24.8673785788
 21
58.2282914045
  0
LINE
  5
242
100
AcDbEntity
  8
0
100
AcDbLine
 62
7
  6
BYLAYER
 10
24.9323203003
 20
50.5828431373
 11
24.9323203003
 21
43.5828431373
  0
LINE
  5
243
100
AcDbEntity
  8
0
100
AcDbLine
 62
7
  6
BYLAYER
 10
25.1305752822
 20
51.0828431373
 11
25.1305752823
 21
58.7830597256
  0
LINE
  5
244
100
AcDbEntity
  8
0
100
AcDbLine
 62
7
  6
BYLAYER
 10
26.0039650917
 20
72.5828431373
 11
26.0039650917
 21
51.0828431373
  0
LINE
  5
245
100
AcDbEntity
  8
0
100
AcDbLine
 62
7
  6
BYLAYER
 10
26.9655954482
 20
72.5828431373
 11
26.9655954482
 21
50.5828431373
  0
LINE
  5
246
100
AcDbEntity
  8
0
100
AcDbLine
 62
7
  6
BYLAYER
 10
27.0173785788
 20
85.6328431373
 11
27.0173785788
 21
80.8328431373
  0
LINE
  5
247
100
AcDbEntity
  8
0
100
AcDbLine
 62
7
  6
BYLAYER
 10
27.1173785788
 20
85.6328431373
 11
27.1173785788
 21
80.7328431373
  0
LINE
  5
248
100
AcDbEntity
  8
0
100
AcDbLine
 62
7
  6
BYLAYER
 10
27.1173785788
 20
80.0859433133
 11
27.1173785788
 21
80.2328431373
  0
LINE
  5
249
100
AcDbEntity
  8
0
100
AcDbLine
 62
7
  6
BYLAYER
 10
27.4173785788
 20
80.7828431373
 11
27.4173785788
 21
85.6328431373
  0
LINE
  5
24A
100
AcDbEntity
  8
0
100
AcDbLine
 62
7
  6
BYLAYER
 10
31.3911805723
 20
112.4328431373
 11
31.9173785788
 21
114.1304838363
  0
LINE
  5
24B
100
AcDbEntity
  8
0
100
AcDbLine
 62
7
  6
BYLAYER
 10
37.5173785788
 20
49.7828431373
 11
40.5173785788
 21
49.7828431373
  0
LINE
  5
24C
100
AcDbEntity
  8
0
100
AcDbLine
 62
7
  6
BYLAYER
 10
95.7173785788
 20
50.0828431373
 11
74.7173785818
 21
50.0828431387
  0
LINE
  5
24D
100
AcDbEntity
  8
0
100
AcDbLine
 62
7
  6
BYLAYER
 10
39.7173785391
 20
50.0828431748
 11
18.7173785788
 21
50.0828431373
  0
LINE
  5
24E
100
AcDbEntity
  8
0
100
AcDbLine
 62
7
  6
BYLAYER
 10
19.2174811376
 20
50.5828431373
 11
38.3031621949
 21
50.5828431373
  0
LINE
  5
24F
100
AcDbEntity
  8
0
100
AcDbLine
 62
7
  6
BYLAYER
 10
76.1315974617
 20
50.5828431373
 11
95.21727602
 21
50.5828431373
  0
LINE
  5
250
100
AcDbEntity
  8
0
100
AcDbLine
 62
7
  6
BYLAYER
 10
90.2587999454
 20
50.9828431373
 11
92.1110031182
 21
50.9828431373
  0
LINE
  5
251
100
AcDbEntity
  8
0
100
AcDbLine
 62
7
  6
BYLAYER
 10
25.1305752822
 20
51.0828431373
 11
38.7745695372
 21
51.0828431373
  0
LINE
  5
252
100
AcDbEntity
  8
0
100
AcDbLine
 62
7
  6
BYLAYER
 10
75.6601876203
 20
51.0828431373
 11
90.2173785788
 21
51.0828431373
  0
LINE
  5
253
100
AcDbEntity
  8
0
100
AcDbLine
 62
7
  6
BYLAYER
 10
90.2173785788
 20
51.4828431373
 11
92.611003116
 21
51.4828431373
  0
LINE
  5
254
100
AcDbEntity
  8
0
100
AcDbLine
 62
7
  6
BYLAYER
 10
30.4173785788
 20
112.3741964772
 11
30.4173785788
 21
112.4328431373
  0
LINE
  5
255
100
AcDbEntity
  8
0
100
AcDbLine
 62
7
  6
BYLAYER
 10
30.4173785788
 20
112.5790630473
 11
30.4173785788
 21
121.5476783301
  0
LINE
  5
256
100
AcDbEntity
  8
0
100
AcDbLine
 62
7
  6
BYLAYER
 10
31.2173785788
 20
112.4328431373
 11
31.2173785788
 21
111.4780952897
  0
LINE
  5
257
100
AcDbEntity
  8
0
100
AcDbLine
 62
7
  6
BYLAYER
 10
31.4173785788
 20
114.2660820927
 11
31.4173785788
 21
128.2327934519
  0
LINE
  5
258
100
AcDbEntity
  8
0
100
AcDbLine
 62
7
  6
BYLAYER
 10
31.9173785788
 20
128.7328431373
 11
31.9173785788
 21
125.9328431373
  0
LINE
  5
259
100
AcDbEntity
  8
0
100
AcDbLine
 62
7
  6
BYLAYER
 10
31.9173785788
 20
120.5328431373
 11
31.9173785788
 21
114.1304838363
  0
LINE
  5
25A
100
AcDbEntity
  8
0
100
AcDbLine
 62
7
  6
BYLAYER
 10
32.8173785788
 20
121.4328431373
 11
32.8173785788
 21
125.9328431373
  0
LWPOLYLINE
  5
25B
100
AcDbEntity
  8
0
100
AcDbPolyline
 62
7
  6
BYLAYER
 90
10
 70
0
 10
26.2675311827
 20
113.0349141295
 10
26.2399583302
 20
113.0236633903
 10
25.8713563345
 20
112.9253997054
 10
24.8994537135
 20
112.7851657834
 10
23.2694272047
 20
112.6922309292
 10
22.3870548542
 20
112.6918284966
 10
20.7524312877
 20
112.7834424536
 10
19.7687440591
 20
112.9242987971
 10
19.3954618986
 20
113.0234090125
 10
19.3819842899
 20
113.0287427949
  0
LINE
  5
25C
100
AcDbEntity
  8
0
100
AcDbLine
 62
7
  6
BYLAYER
 10
22.6173785788
 20
54.7828431373
 11
25.1305752822
 21
54.7828431373
  0
LINE
  5
25D
100
AcDbEntity
  8
0
100
AcDbLine
 62
7
  6
BYLAYER
 10
25.1305752822
 20
55.9828431373
 11
24.8673785788
 21
55.9828431373
  0
LINE
  5
25E
100
AcDbEntity
  8
0
100
AcDbLine
 62
7
  6
BYLAYER
 10
36.2626732726
 20
113.8239859294
 11
36.1779793514
 21
116.2493025108
  0
LINE
  5
25F
100
AcDbEntity
  8
0
100
AcDbLine
 62
7
  6
BYLAYER
 10
36.2626732726
 20
113.8476990149
 11
36.1779793514
 21
116.2730155963
  0
LINE
  5
260
100
AcDbEntity
  8
0
100
AcDbLine
 62
7
  6
BYLAYER
 10
35.4173785788
 20
126.0789709236
 11
35.4173785788
 21
127.0670962926
  0
LINE
  5
261
100
AcDbEntity
  8
0
100
AcDbLine
 62
7
  6
BYLAYER
 10
36.1673785788
 20
113.7328431373
 11
36.1673785788
 21
116.4328431373
  0
LINE
  5
262
100
AcDbEntity
  8
0
100
AcDbLine
 62
7
  6
BYLAYER
 10
37.5173785788
 20
49.7828431373
 11
37.5173785788
 21
44.5828431373
  0
LINE
  5
263
100
AcDbEntity
  8
0
100
AcDbLine
 62
7
  6
BYLAYER
 10
37.9173785896
 20
128.4521956348
 11
37.9173785561
 21
128.7218805309
  0
LINE
  5
264
100
AcDbEntity
  8
0
100
AcDbLine
 62
7
  6
BYLAYER
 10
24.2165956641
 20
67.9857372578
 11
24.6055739685
 21
69.0544463657
  0
LINE
  5
265
100
AcDbEntity
  8
0
100
AcDbLine
 62
7
  6
BYLAYER
 10
24.2173785788
 20
59.3541244294
 11
25.0671733184
 21
59.3541244294
  0
LINE
  5
266
100
AcDbEntity
  8
0
100
AcDbLine
 62
7
  6
BYLAYER
 10
39.7605411672
 20
113.9461341679
 11
39.6758472459
 21
116.3714507492
  0
LINE
  5
267
100
AcDbEntity
  8
0
100
AcDbLine
 62
7
  6
BYLAYER
 10
39.7605411672
 20
113.9698472534
 11
39.6758472459
 21
116.3951638347
  0
LINE
  5
268
100
AcDbEntity
  8
0
100
AcDbLine
 62
7
  6
BYLAYER
 10
38.4923785788
 20
77.9828431373
 11
38.4923785788
 21
82.3828431373
  0
LINE
  5
269
100
AcDbEntity
  8
0
100
AcDbLine
 62
7
  6
BYLAYER
 10
38.7173785788
 20
51.0828431373
 11
38.7173785788
 21
72.5828431373
  0
LINE
  5
26A
100
AcDbEntity
  8
0
100
AcDbLine
 62
7
  6
BYLAYER
 10
39.6673785788
 20
113.7328431373
 11
39.6673785788
 21
116.4328431373
  0
LINE
  5
26B
100
AcDbEntity
  8
0
100
AcDbLine
 62
7
  6
BYLAYER
 10
39.7173785788
 20
72.5828431373
 11
39.7173785391
 21
50.0828431748
  0
LINE
  5
26C
100
AcDbEntity
  8
0
100
AcDbLine
 62
7
  6
BYLAYER
 10
40.4173785788
 20
127.0670962926
 11
40.4173785788
 21
126.0789709236
  0
LINE
  5
26D
100
AcDbEntity
  8
0
100
AcDbLine
 62
7
  6
BYLAYER
 10
40.5173785788
 20
49.7828431373
 11
40.5173785788
 21
49.2443815988
  0
LINE
  5
26E
100
AcDbEntity
  8
0
100
AcDbLine
 62
7
  6
BYLAYER
 10
41.4173785788
 20
44.7828431373
 11
41.4173785788
 21
47.3828431373
  0
LINE
  5
26F
100
AcDbEntity
  8
0
100
AcDbLine
 62
7
  6
BYLAYER
 10
42.5173785788
 20
126.9449968876
 11
42.5173785788
 21
128.4328431373
  0
LINE
  5
270
100
AcDbEntity
  8
0
100
AcDbLine
 62
7
  6
BYLAYER
 10
43.0173785788
 20
128.9328431373
 11
43.0173785788
 21
126.0789709236
  0
LINE
  5
271
100
AcDbEntity
  8
0
100
AcDbLine
 62
7
  6
BYLAYER
 10
43.1509439842
 20
134.8198458124
 11
43.1383793701
 21
133.8602200772
  0
LINE
  5
272
100
AcDbEntity
  8
0
100
AcDbLine
 62
7
  6
BYLAYER
 10
42.6984041359
 20
136.1459302572
 11
42.5121413945
 21
129.0328431373
  0
LINE
  5
273
100
AcDbEntity
  8
0
100
AcDbLine
 62
7
  6
BYLAYER
 10
43.150943713
 20
134.8198458124
 11
43.1982327927
 21
136.6328431373
  0
LINE
  5
274
100
AcDbEntity
  8
0
100
AcDbLine
 62
7
  6
BYLAYER
 10
43.011970057
 20
129.0328431373
 11
43.1383793709
 21
133.8602200748
  0
LINE
  5
275
100
AcDbEntity
  8
0
100
AcDbLine
 62
7
  6
BYLAYER
 10
62.1903165197
 20
128.0028431373
 11
62.0231601962
 21
127.7828431373
  0
LINE
  5
276
100
AcDbEntity
  8
0
100
AcDbLine
 62
7
  6
BYLAYER
 10
113.3173785733
 20
65.8328431373
 11
103.6173785788
 21
65.8328431373
  0
LINE
  5
277
100
AcDbEntity
  8
0
100
AcDbLine
 62
7
  6
BYLAYER
 10
103.4173785788
 20
66.3328431373
 11
113.3173223041
 21
66.3328431373
  0
LINE
  5
278
100
AcDbEntity
  8
0
100
AcDbLine
 62
7
  6
BYLAYER
 10
113.8173785788
 20
66.8328431373
 11
114.3173785788
 21
66.8328431373
  0
LINE
  5
279
100
AcDbEntity
  8
0
100
AcDbLine
 62
7
  6
BYLAYER
 10
89.9481438152
 20
67.0828431373
 11
89.8914053326
 21
67.0828431373
  0
LINE
  5
27A
100
AcDbEntity
  8
0
100
AcDbLine
 62
7
  6
BYLAYER
 10
24.5433518251
 20
67.0828431373
 11
24.4866133424
 21
67.0828431373
  0
LINE
  5
27B
100
AcDbEntity
  8
0
100
AcDbLine
 62
7
  6
BYLAYER
 10
43.2173785788
 20
128.9328431373
 11
43.2173785788
 21
129.0328431373
  0
LINE
  5
27C
100
AcDbEntity
  8
0
100
AcDbLine
 62
7
  6
BYLAYER
 10
43.7173785788
 20
128.0028431373
 11
43.7173785788
 21
112.4328431373
  0
LINE
  5
27D
100
AcDbEntity
  8
0
100
AcDbLine
 62
7
  6
BYLAYER
 10
43.7673785788
 20
82.3828431373
 11
43.7673785788
 21
77.9828431373
  0
LINE
  5
27E
100
AcDbEntity
  8
0
100
AcDbLine
 62
7
  6
BYLAYER
 10
43.9173785788
 20
112.4828431373
 11
43.9173785788
 21
116.1828431373
  0
LINE
  5
27F
100
AcDbEntity
  8
0
100
AcDbLine
 62
7
  6
BYLAYER
 10
43.9173785788
 20
118.1828431373
 11
43.9173785788
 21
127.7828431373
  0
LINE
  5
280
100
AcDbEntity
  8
0
100
AcDbLine
 62
7
  6
BYLAYER
 10
44.5873785788
 20
112.4328431373
 11
44.5873785788
 21
112.4828431373
  0
LINE
  5
281
100
AcDbEntity
  8
0
100
AcDbLine
 62
7
  6
BYLAYER
 10
44.5873785788
 20
116.1828431373
 11
44.5873785788
 21
118.1828431373
  0
LINE
  5
282
100
AcDbEntity
  8
0
100
AcDbLine
 62
7
  6
BYLAYER
 10
44.5873785788
 20
127.7828431373
 11
44.5873785788
 21
128.0028431373
  0
LINE
  5
283
100
AcDbEntity
  8
0
100
AcDbLine
 62
7
  6
BYLAYER
 10
44.6673785788
 20
128.0028431373
 11
44.6673785788
 21
127.7828431373
  0
LINE
  5
284
100
AcDbEntity
  8
0
100
AcDbLine
 62
7
  6
BYLAYER
 10
44.6673785788
 20
118.1828431373
 11
44.6673785788
 21
116.1828431373
  0
LINE
  5
285
100
AcDbEntity
  8
0
100
AcDbLine
 62
7
  6
BYLAYER
 10
44.6673785788
 20
112.4828431373
 11
44.6673785788
 21
112.4328431373
  0
LINE
  5
286
100
AcDbEntity
  8
0
100
AcDbLine
 62
7
  6
BYLAYER
 10
44.9173785788
 20
118.1828431373
 11
44.9173785788
 21
116.1828431373
  0
LINE
  5
287
100
AcDbEntity
  8
0
100
AcDbLine
 62
7
  6
BYLAYER
 10
45.4673785788
 20
128.0028431373
 11
45.4673785788
 21
127.7828431373
  0
LINE
  5
288
100
AcDbEntity
  8
0
100
AcDbLine
 62
7
  6
BYLAYER
 10
45.7173785788
 20
127.7828431373
 11
45.7173785788
 21
128.0028431373
  0
LINE
  5
289
100
AcDbEntity
  8
0
100
AcDbLine
 62
7
  6
BYLAYER
 10
46.2173785788
 20
48.9328431373
 11
46.2173785788
 21
49.0828431373
  0
LINE
  5
28A
100
AcDbEntity
  8
0
100
AcDbLine
 62
7
  6
BYLAYER
 10
46.2812083584
 20
48.9328431373
 11
46.2812083584
 21
49.0828431373
  0
LINE
  5
28B
100
AcDbEntity
  8
0
100
AcDbLine
 62
7
  6
BYLAYER
 10
46.4726976973
 20
48.9328431373
 11
46.4726976973
 21
49.0828431373
  0
LINE
  5
28C
100
AcDbEntity
  8
0
100
AcDbLine
 62
7
  6
BYLAYER
 10
46.6641870362
 20
48.9328431373
 11
46.6641870362
 21
49.0828431373
  0
LINE
  5
28D
100
AcDbEntity
  8
0
100
AcDbLine
 62
7
  6
BYLAYER
 10
46.9195061547
 20
48.9328431373
 11
46.9195061547
 21
49.0828431373
  0
LINE
  5
28E
100
AcDbEntity
  8
0
100
AcDbLine
 62
7
  6
BYLAYER
 10
47.1109956724
 20
48.9328431373
 11
47.1109956724
 21
49.0828431373
  0
LINE
  5
28F
100
AcDbEntity
  8
0
100
AcDbLine
 62
7
  6
BYLAYER
 10
47.4301445705
 20
48.9328431373
 11
47.4301445705
 21
49.0828431373
  0
LINE
  5
290
100
AcDbEntity
  8
0
100
AcDbLine
 62
7
  6
BYLAYER
 10
47.5173785788
 20
135.300283564
 11
47.5173785788
 21
136.6328308824
  0
LINE
  5
291
100
AcDbEntity
  8
0
100
AcDbLine
 62
7
  6
BYLAYER
 10
53.8885087669
 20
127.3102649039
 11
52.5197285938
 21
120.8706604885
  0
LINE
  5
292
100
AcDbEntity
  8
0
100
AcDbLine
 62
7
  6
BYLAYER
 10
69.6173785788
 20
134.2971206943
 11
70.1753925082
 21
135.2636291714
  0
LINE
  5
293
100
AcDbEntity
  8
0
100
AcDbLine
 62
7
  6
BYLAYER
 10
27.0173785788
 20
80.8328431373
 11
26.5173785788
 21
80.3328431373
  0
LINE
  5
294
100
AcDbEntity
  8
0
100
AcDbLine
 62
7
  6
BYLAYER
 10
27.1173785788
 20
80.7328431373
 11
26.6173785788
 21
80.2328431373
  0
LINE
  5
295
100
AcDbEntity
  8
0
100
AcDbLine
 62
7
  6
BYLAYER
 10
114.3173785788
 20
71.5328431373
 11
114.5173785788
 21
71.5328431373
  0
LINE
  5
296
100
AcDbEntity
  8
0
100
AcDbLine
 62
7
  6
BYLAYER
 10
83.5673785788
 20
43.5828431373
 11
83.1673785788
 21
43.9828431373
  0
LINE
  5
297
100
AcDbEntity
  8
0
100
AcDbLine
 62
7
  6
BYLAYER
 10
76.1681049626
 20
43.5828431373
 11
73.7173785788
 21
47.0828431373
  0
LINE
  5
298
100
AcDbEntity
  8
0
100
AcDbLine
 62
7
  6
BYLAYER
 10
48.0046125871
 20
48.9328431373
 11
48.0046125871
 21
49.0828431373
  0
LINE
  5
299
100
AcDbEntity
  8
0
100
AcDbLine
 62
7
  6
BYLAYER
 10
48.3237615747
 20
48.9328431373
 11
48.3237615747
 21
49.0828431373
  0
LINE
  5
29A
100
AcDbEntity
  8
0
100
AcDbLine
 62
7
  6
BYLAYER
 10
48.5152509135
 20
48.9328431373
 11
48.5152509135
 21
49.0828431373
  0
LINE
  5
29B
100
AcDbEntity
  8
0
100
AcDbLine
 62
7
  6
BYLAYER
 10
48.7705700767
 20
48.9328431373
 11
48.7705700767
 21
49.0828431373
  0
LINE
  5
29C
100
AcDbEntity
  8
0
100
AcDbLine
 62
7
  6
BYLAYER
 10
48.962059438
 20
48.9328431373
 11
48.962059438
 21
49.0828431373
  0
LINE
  5
29D
100
AcDbEntity
  8
0
100
AcDbLine
 62
7
  6
BYLAYER
 10
49.1535487936
 20
48.9328431373
 11
49.1535487936
 21
49.0828431373
  0
LINE
  5
29E
100
AcDbEntity
  8
0
100
AcDbLine
 62
7
  6
BYLAYER
 10
49.2173785788
 20
48.9328431373
 11
49.2173785788
 21
49.0828431373
  0
LINE
  5
29F
100
AcDbEntity
  8
0
100
AcDbLine
 62
7
  6
BYLAYER
 10
50.2173785788
 20
48.9328431373
 11
50.2173785788
 21
49.0828431373
  0
LINE
  5
2A0
100
AcDbEntity
  8
0
100
AcDbLine
 62
7
  6
BYLAYER
 10
50.2173785788
 20
112.4328431373
 11
50.2173785788
 21
112.4828431373
  0
LINE
  5
2A1
100
AcDbEntity
  8
0
100
AcDbLine
 62
7
  6
BYLAYER
 10
50.4173785788
 20
112.4328431373
 11
50.4173785788
 21
112.4828431373
  0
LINE
  5
2A2
100
AcDbEntity
  8
0
100
AcDbLine
 62
7
  6
BYLAYER
 10
51.9407828075
 20
48.9328431373
 11
51.9407828075
 21
49.0828431373
  0
LINE
  5
2A3
100
AcDbEntity
  8
0
100
AcDbLine
 62
7
  6
BYLAYER
 10
21.3173785788
 20
72.5828431373
 11
39.7173785788
 21
72.5828431373
  0
LINE
  5
2A4
100
AcDbEntity
  8
0
100
AcDbLine
 62
7
  6
BYLAYER
 10
74.7173785788
 20
72.5828431373
 11
93.1173785788
 21
72.5828431373
  0
LINE
  5
2A5
100
AcDbEntity
  8
0
100
AcDbLine
 62
7
  6
BYLAYER
 10
115.3173785788
 20
74.5328431373
 11
114.3173785788
 21
74.5328431373
  0
LINE
  5
2A6
100
AcDbEntity
  8
0
100
AcDbLine
 62
7
  6
BYLAYER
 10
52.2173785788
 20
127.7828431373
 11
52.2173785788
 21
128.0028431373
  0
LINE
  5
2A7
100
AcDbEntity
  8
0
100
AcDbLine
 62
7
  6
BYLAYER
 10
52.3237615747
 20
48.9328431373
 11
52.3237615747
 21
49.0828431373
  0
LINE
  5
2A8
100
AcDbEntity
  8
0
100
AcDbLine
 62
7
  6
BYLAYER
 10
53.2173785788
 20
48.9328431373
 11
53.2173785788
 21
49.0828431373
  0
LINE
  5
2A9
100
AcDbEntity
  8
0
100
AcDbLine
 62
7
  6
BYLAYER
 10
54.7173785788
 20
82.1828431373
 11
54.7173785788
 21
85.6328431373
  0
LINE
  5
2AA
100
AcDbEntity
  8
0
100
AcDbLine
 62
7
  6
BYLAYER
 10
54.7673785788
 20
85.6328431373
 11
54.7673785788
 21
91.8828431373
  0
LINE
  5
2AB
100
AcDbEntity
  8
0
100
AcDbLine
 62
7
  6
BYLAYER
 10
55.6173785788
 20
134.0328431373
 11
55.6173785788
 21
136.3328307426
  0
LINE
  5
2AC
100
AcDbEntity
  8
0
100
AcDbLine
 62
7
  6
BYLAYER
 10
55.8173785788
 20
132.5328431373
 11
55.8173785788
 21
136.632826415
  0
LINE
  5
2AD
100
AcDbEntity
  8
0
100
AcDbLine
 62
7
  6
BYLAYER
 10
56.1173785788
 20
131.0328431373
 11
56.1173785788
 21
132.1328431373
  0
LWPOLYLINE
  5
2AE
100
AcDbEntity
  8
0
100
AcDbPolyline
 62
7
  6
BYLAYER
 90
10
 70
0
 10
95.0675311828
 20
113.0349141295
 10
95.0399583302
 20
113.0236633903
 10
94.6713563345
 20
112.9253997054
 10
93.6994537132
 20
112.7851657834
 10
92.0694272047
 20
112.6922309292
 10
91.1870548543
 20
112.6918284966
 10
89.5524312879
 20
112.7834424536
 10
88.5687440591
 20
112.9242987971
 10
88.1954618986
 20
113.0234090125
 10
88.1819842898
 20
113.0287427949
  0
LINE
  5
2AF
100
AcDbEntity
  8
0
100
AcDbLine
 62
7
  6
BYLAYER
 10
76.6737635983
 20
77.6828431373
 11
70.9673785788
 21
77.6828431373
  0
LINE
  5
2B0
100
AcDbEntity
  8
0
100
AcDbLine
 62
7
  6
BYLAYER
 10
43.4673785788
 20
77.6828431373
 11
38.7923785788
 21
77.6828431373
  0
LINE
  5
2B1
100
AcDbEntity
  8
0
100
AcDbLine
 62
7
  6
BYLAYER
 10
75.9423785788
 20
77.9828431373
 11
77.1423785788
 21
77.9828431373
  0
LINE
  5
2B2
100
AcDbEntity
  8
0
100
AcDbLine
 62
7
  6
BYLAYER
 10
115.3173785788
 20
78.0328431373
 11
114.3173785788
 21
78.0328431373
  0
LINE
  5
2B3
100
AcDbEntity
  8
0
100
AcDbLine
 62
7
  6
BYLAYER
 10
21.3173785788
 20
79.7828431373
 11
26.4173785788
 21
79.7828431373
  0
LINE
  5
2B4
100
AcDbEntity
  8
0
100
AcDbLine
 62
7
  6
BYLAYER
 10
88.0173785788
 20
79.7828431373
 11
93.1173785788
 21
79.7828431373
  0
LINE
  5
2B5
100
AcDbEntity
  8
0
100
AcDbLine
 62
7
  6
BYLAYER
 10
27.2385213871
 20
80.2328431373
 11
18.7329609012
 21
80.2328431373
  0
LINE
  5
2B6
100
AcDbEntity
  8
0
100
AcDbLine
 62
7
  6
BYLAYER
 10
87.196253497
 20
80.2328431373
 11
95.7173785788
 21
80.2328431373
  0
LINE
  5
2B7
100
AcDbEntity
  8
0
100
AcDbLine
 62
7
  6
BYLAYER
 10
16.1185632979
 20
80.3328431373
 11
26.5173785788
 21
80.3328431373
  0
LINE
  5
2B8
100
AcDbEntity
  8
0
100
AcDbLine
 62
7
  6
BYLAYER
 10
87.9173785788
 20
80.3328431373
 11
98.3161938597
 21
80.3328431373
  0
LINE
  5
2B9
100
AcDbEntity
  8
0
100
AcDbLine
 62
7
  6
BYLAYER
 10
27.4011188341
 20
80.7328431373
 11
27.1173785788
 21
80.7328431373
  0
LINE
  5
2BA
100
AcDbEntity
  8
0
100
AcDbLine
 62
7
  6
BYLAYER
 10
87.033639935
 20
80.7328431373
 11
87.3173785788
 21
80.7328431373
  0
LINE
  5
2BB
100
AcDbEntity
  8
0
100
AcDbLine
 62
7
  6
BYLAYER
 10
55.7746019167
 20
131.0328431373
 11
55.6173785788
 21
134.0328431373
  0
LINE
  5
2BC
100
AcDbEntity
  8
0
100
AcDbLine
 62
7
  6
BYLAYER
 10
57.3173785788
 20
132.132963401
 11
57.3173785788
 21
133.5328431373
  0
LINE
  5
2BD
100
AcDbEntity
  8
0
100
AcDbLine
 62
7
  6
BYLAYER
 10
59.6673785788
 20
91.8828431373
 11
59.6673785788
 21
85.6328431373
  0
LINE
  5
2BE
100
AcDbEntity
  8
0
100
AcDbLine
 62
7
  6
BYLAYER
 10
59.7173785788
 20
82.1828431373
 11
59.7173785788
 21
85.6328431373
  0
LINE
  5
2BF
100
AcDbEntity
  8
0
100
AcDbLine
 62
7
  6
BYLAYER
 10
59.2173785788
 20
81.6828431373
 11
55.2173785788
 21
81.6828431373
  0
LINE
  5
2C0
100
AcDbEntity
  8
0
100
AcDbLine
 62
7
  6
BYLAYER
 10
77.1423785788
 20
82.3828431373
 11
75.9423785788
 21
82.3828431373
  0
LINE
  5
2C1
100
AcDbEntity
  8
0
100
AcDbLine
 62
7
  6
BYLAYER
 10
38.7923785788
 20
82.6828431373
 11
43.4673785788
 21
82.6828431373
  0
LINE
  5
2C2
100
AcDbEntity
  8
0
100
AcDbLine
 62
7
  6
BYLAYER
 10
70.9673785788
 20
82.6828431373
 11
76.6737635983
 21
82.6828431373
  0
LINE
  5
2C3
100
AcDbEntity
  8
0
100
AcDbLine
 62
7
  6
BYLAYER
 10
59.7173785788
 20
83.6328431373
 11
54.7173785788
 21
83.6328431373
  0
LINE
  5
2C4
100
AcDbEntity
  8
0
100
AcDbLine
 62
7
  6
BYLAYER
 10
115.0335372771
 20
84.9347669129
 11
114.826482041
 21
84.9347669129
  0
LINE
  5
2C5
100
AcDbEntity
  8
0
100
AcDbLine
 62
7
  6
BYLAYER
 10
87.0173785788
 20
85.1328431373
 11
59.7173785788
 21
85.1328431373
  0
LINE
  5
2C6
100
AcDbEntity
  8
0
100
AcDbLine
 62
7
  6
BYLAYER
 10
54.7173785788
 20
85.1328431373
 11
27.4173785788
 21
85.1328431373
  0
LINE
  5
2C7
100
AcDbEntity
  8
0
100
AcDbLine
 62
7
  6
BYLAYER
 10
27.0173785788
 20
85.6328431373
 11
54.7673785788
 21
85.6328431373
  0
LINE
  5
2C8
100
AcDbEntity
  8
0
100
AcDbLine
 62
7
  6
BYLAYER
 10
59.6673785788
 20
85.6328431373
 11
87.4173785788
 21
85.6328431373
  0
LINE
  5
2C9
100
AcDbEntity
  8
0
100
AcDbLine
 62
7
  6
BYLAYER
 10
62.2173785788
 20
128.0028431373
 11
62.2173785788
 21
127.7828431373
  0
LINE
  5
2CA
100
AcDbEntity
  8
0
100
AcDbLine
 62
7
  6
BYLAYER
 10
62.3173785788
 20
133.5328431373
 11
62.3173785788
 21
135.1274844657
  0
LINE
  5
2CB
100
AcDbEntity
  8
0
100
AcDbLine
 62
7
  6
BYLAYER
 10
63.1173785788
 20
133.5328431373
 11
63.1173785788
 21
135.1274844657
  0
LINE
  5
2CC
100
AcDbEntity
  8
0
100
AcDbLine
 62
7
  6
BYLAYER
 10
115.5124252023
 20
86.7220009809
 11
115.3053699662
 21
86.7220009809
  0
LINE
  5
2CD
100
AcDbEntity
  8
0
100
AcDbLine
 62
7
  6
BYLAYER
 10
115.5694356619
 20
86.9347669129
 11
115.3623804258
 21
86.9347669129
  0
LINE
  5
2CE
100
AcDbEntity
  8
0
100
AcDbLine
 62
7
  6
BYLAYER
 10
14.8173785788
 20
87.5200597254
 11
15.3173785788
 21
87.5200597254
  0
LINE
  5
2CF
100
AcDbEntity
  8
0
100
AcDbLine
 62
7
  6
BYLAYER
 10
99.1173785788
 20
87.5200597254
 11
99.6173785788
 21
87.5200597254
  0
LINE
  5
2D0
100
AcDbEntity
  8
0
100
AcDbLine
 62
7
  6
BYLAYER
 10
115.3173785788
 20
88.6986693861
 11
115.8173785788
 21
88.6986693861
  0
LINE
  5
2D1
100
AcDbEntity
  8
0
100
AcDbLine
 62
7
  6
BYLAYER
 10
21.0673785788
 20
88.8328431373
 11
24.5673785788
 21
88.8328431373
  0
LINE
  5
2D2
100
AcDbEntity
  8
0
100
AcDbLine
 62
7
  6
BYLAYER
 10
89.8673785788
 20
88.8328431373
 11
93.3673785788
 21
88.8328431373
  0
LINE
  5
2D3
100
AcDbEntity
  8
0
100
AcDbLine
 62
7
  6
BYLAYER
 10
114.3173785788
 20
83.0347669259
 11
113.8173785788
 21
83.1005931747
  0
LINE
  5
2D4
100
AcDbEntity
  8
0
100
AcDbLine
 62
7
  6
BYLAYER
 10
99.2375724041
 20
83.1788552837
 11
98.7451685276
 21
83.2656793726
  0
LINE
  5
2D5
100
AcDbEntity
  8
0
100
AcDbLine
 62
7
  6
BYLAYER
 10
68.1173785788
 20
133.5328431373
 11
68.1173785788
 21
132.1328431373
  0
LINE
  5
2D6
100
AcDbEntity
  8
0
100
AcDbLine
 62
7
  6
BYLAYER
 10
68.7173785788
 20
128.0028431373
 11
68.7173785788
 21
127.7828431373
  0
LINE
  5
2D7
100
AcDbEntity
  8
0
100
AcDbLine
 62
7
  6
BYLAYER
 10
68.9673785788
 20
127.7828431373
 11
68.9673785788
 21
128.0028431373
  0
LINE
  5
2D8
100
AcDbEntity
  8
0
100
AcDbLine
 62
7
  6
BYLAYER
 10
69.0173785788
 20
131.0328431373
 11
69.0173785788
 21
132.1328431373
  0
LINE
  5
2D9
100
AcDbEntity
  8
0
100
AcDbLine
 62
7
  6
BYLAYER
 10
69.5173785788
 20
116.1828431373
 11
69.5173785788
 21
118.1828431373
  0
LINE
  5
2DA
100
AcDbEntity
  8
0
100
AcDbLine
 62
7
  6
BYLAYER
 10
69.6173785788
 20
133.5328431373
 11
69.6173785788
 21
135.3507512832
  0
LINE
  5
2DB
100
AcDbEntity
  8
0
100
AcDbLine
 62
7
  6
BYLAYER
 10
69.7673785788
 20
128.0028431373
 11
69.7673785788
 21
127.7828431373
  0
LINE
  5
2DC
100
AcDbEntity
  8
0
100
AcDbLine
 62
7
  6
BYLAYER
 10
69.7673785788
 20
118.1828431373
 11
69.7673785788
 21
116.1828431373
  0
LINE
  5
2DD
100
AcDbEntity
  8
0
100
AcDbLine
 62
7
  6
BYLAYER
 10
69.7673785788
 20
112.4828431373
 11
69.7673785788
 21
112.4328431373
  0
LINE
  5
2DE
100
AcDbEntity
  8
0
100
AcDbLine
 62
7
  6
BYLAYER
 10
69.8473785788
 20
128.0028431373
 11
69.8473785788
 21
127.7828431373
  0
LINE
  5
2DF
100
AcDbEntity
  8
0
100
AcDbLine
 62
7
  6
BYLAYER
 10
69.8473785788
 20
118.1828431373
 11
69.8473785788
 21
116.1828431373
  0
LINE
  5
2E0
100
AcDbEntity
  8
0
100
AcDbLine
 62
7
  6
BYLAYER
 10
69.8473785788
 20
112.4828431373
 11
69.8473785788
 21
112.4328431373
  0
LINE
  5
2E1
100
AcDbEntity
  8
0
100
AcDbLine
 62
7
  6
BYLAYER
 10
69.5437845999
 20
133.5367000343
 11
69.4125630203
 21
131.0328431373
  0
LINE
  5
2E2
100
AcDbEntity
  8
0
100
AcDbLine
 62
7
  6
BYLAYER
 10
15.68958863
 20
83.2656793726
 11
15.1971847535
 21
83.1788552837
  0
LINE
  5
2E3
100
AcDbEntity
  8
0
100
AcDbLine
 62
7
  6
BYLAYER
 10
21.0673785788
 20
91.5328431373
 11
24.5673785788
 21
91.5328431373
  0
LINE
  5
2E4
100
AcDbEntity
  8
0
100
AcDbLine
 62
7
  6
BYLAYER
 10
89.8673785788
 20
91.5328431373
 11
93.3673785788
 21
91.5328431373
  0
LINE
  5
2E5
100
AcDbEntity
  8
0
100
AcDbLine
 62
7
  6
BYLAYER
 10
54.7673785788
 20
91.6328431373
 11
59.6673785788
 21
91.6328431373
  0
LINE
  5
2E6
100
AcDbEntity
  8
0
100
AcDbLine
 62
7
  6
BYLAYER
 10
54.7673785788
 20
91.8828431373
 11
59.6673785788
 21
91.8828431373
  0
LINE
  5
2E7
100
AcDbEntity
  8
0
100
AcDbLine
 62
7
  6
BYLAYER
 10
115.8173785788
 20
93.1328431373
 11
99.6173785788
 21
93.1328431373
  0
LINE
  5
2E8
100
AcDbEntity
  8
0
100
AcDbLine
 62
7
  6
BYLAYER
 10
99.6173785788
 20
93.6328431373
 11
115.3173785788
 21
93.6328431373
  0
LINE
  5
2E9
100
AcDbEntity
  8
0
100
AcDbLine
 62
7
  6
BYLAYER
 10
61.9150285639
 20
120.8706604885
 11
60.5462483908
 21
127.3102649039
  0
LINE
  5
2EA
100
AcDbEntity
  8
0
100
AcDbLine
 62
7
  6
BYLAYER
 10
70.5173785788
 20
127.7828431373
 11
70.5173785788
 21
118.1828431373
  0
LINE
  5
2EB
100
AcDbEntity
  8
0
100
AcDbLine
 62
7
  6
BYLAYER
 10
70.5173785788
 20
116.1828431373
 11
70.5173785788
 21
112.4828431373
  0
LINE
  5
2EC
100
AcDbEntity
  8
0
100
AcDbLine
 62
7
  6
BYLAYER
 10
70.6673785788
 20
77.9828431373
 11
70.6673785788
 21
82.3828431373
  0
LINE
  5
2ED
100
AcDbEntity
  8
0
100
AcDbLine
 62
7
  6
BYLAYER
 10
70.7173785788
 20
128.0028431373
 11
70.7173785788
 21
112.4328431373
  0
LINE
  5
2EE
100
AcDbEntity
  8
0
100
AcDbLine
 62
7
  6
BYLAYER
 10
71.2173785788
 20
128.9328431373
 11
71.2173785788
 21
129.0328431373
  0
LINE
  5
2EF
100
AcDbEntity
  8
0
100
AcDbLine
 62
7
  6
BYLAYER
 10
71.4173785788
 20
126.0789709236
 11
71.4173785788
 21
128.4328431373
  0
LINE
  5
2F0
100
AcDbEntity
  8
0
100
AcDbLine
 62
7
  6
BYLAYER
 10
71.5173785788
 20
129.0328431373
 11
71.5173785788
 21
135.2636291714
  0
LINE
  5
2F1
100
AcDbEntity
  8
0
100
AcDbLine
 62
7
  6
BYLAYER
 10
71.5173785788
 20
135.3507512832
 11
71.5173785788
 21
136.6328431373
  0
LINE
  5
2F2
100
AcDbEntity
  8
0
100
AcDbLine
 62
7
  6
BYLAYER
 10
71.9173785788
 20
128.4328431373
 11
71.9173785788
 21
126.9449968988
  0
LINE
  5
2F3
100
AcDbEntity
  8
0
100
AcDbLine
 62
7
  6
BYLAYER
 10
72.0173785788
 20
129.2329883713
 11
72.0173785788
 21
134.8456601973
  0
LINE
  5
2F4
100
AcDbEntity
  8
0
100
AcDbLine
 62
7
  6
BYLAYER
 10
72.0173785788
 20
134.9045860005
 11
72.0173785788
 21
136.1328297138
  0
LINE
  5
2F5
100
AcDbEntity
  8
0
100
AcDbLine
 62
7
  6
BYLAYER
 10
73.7173785788
 20
47.3828431373
 11
73.7173785788
 21
47.0828431373
  0
LINE
  5
2F6
100
AcDbEntity
  8
0
100
AcDbLine
 62
7
  6
BYLAYER
 10
74.0173785788
 20
126.0789709236
 11
74.0173785788
 21
127.0670962926
  0
LINE
  5
2F7
100
AcDbEntity
  8
0
100
AcDbLine
 62
7
  6
BYLAYER
 10
74.7173785788
 20
72.5828431373
 11
74.7173785818
 21
50.0828431387
  0
LINE
  5
2F8
100
AcDbEntity
  8
0
100
AcDbLine
 62
7
  6
BYLAYER
 10
74.7173785788
 20
49.0828431373
 11
74.7173785788
 21
47.7828431373
  0
LINE
  5
2F9
100
AcDbEntity
  8
0
100
AcDbLine
 62
7
  6
BYLAYER
 10
74.7673785788
 20
113.7328431373
 11
74.7673785788
 21
116.4328431373
  0
LINE
  5
2FA
100
AcDbEntity
  8
0
100
AcDbLine
 62
7
  6
BYLAYER
 10
74.6742159904
 20
113.9698472534
 11
74.7589099117
 21
116.3951638347
  0
LINE
  5
2FB
100
AcDbEntity
  8
0
100
AcDbLine
 62
7
  6
BYLAYER
 10
74.6742159904
 20
113.9461341679
 11
74.7589099117
 21
116.3714507492
  0
LINE
  5
2FC
100
AcDbEntity
  8
0
100
AcDbLine
 62
7
  6
BYLAYER
 10
87.8173785788
 20
80.2328431373
 11
87.3173785788
 21
80.7328431373
  0
LINE
  5
2FD
100
AcDbEntity
  8
0
100
AcDbLine
 62
7
  6
BYLAYER
 10
87.9173785788
 20
80.3328431373
 11
87.4173785788
 21
80.8328431373
  0
LINE
  5
2FE
100
AcDbEntity
  8
0
100
AcDbLine
 62
7
  6
BYLAYER
 10
75.7173785788
 20
72.5828431373
 11
75.7173785788
 21
51.0828431373
  0
LINE
  5
2FF
100
AcDbEntity
  8
0
100
AcDbLine
 62
7
  6
BYLAYER
 10
75.9423785788
 20
82.3828431373
 11
75.9423785788
 21
77.9828431373
  0
LINE
  5
300
100
AcDbEntity
  8
0
100
AcDbLine
 62
7
  6
BYLAYER
 10
76.1173785788
 20
48.4828431373
 11
76.1173785788
 21
48.3828431373
  0
LINE
  5
301
100
AcDbEntity
  8
0
100
AcDbLine
 62
7
  6
BYLAYER
 10
76.5173785896
 20
128.4521956348
 11
76.5173785561
 21
128.7218805309
  0
LINE
  5
302
100
AcDbEntity
  8
0
100
AcDbLine
 62
7
  6
BYLAYER
 10
77.1423785788
 20
82.3828431373
 11
77.1423785788
 21
77.9828431373
  0
LINE
  5
303
100
AcDbEntity
  8
0
100
AcDbLine
 62
7
  6
BYLAYER
 10
78.2673785788
 20
113.7328431373
 11
78.2673785788
 21
116.4328431373
  0
LINE
  5
304
100
AcDbEntity
  8
0
100
AcDbLine
 62
7
  6
BYLAYER
 10
79.0173785788
 20
127.0670962926
 11
79.0173785788
 21
126.0789709236
  0
LINE
  5
305
100
AcDbEntity
  8
0
100
AcDbLine
 62
7
  6
BYLAYER
 10
78.172083885
 20
113.8476990149
 11
78.2567778063
 21
116.2730155963
  0
LINE
  5
306
100
AcDbEntity
  8
0
100
AcDbLine
 62
7
  6
BYLAYER
 10
78.172083885
 20
113.8239859294
 11
78.2567778063
 21
116.2493025108
  0
LINE
  5
307
100
AcDbEntity
  8
0
100
AcDbLine
 62
7
  6
BYLAYER
 10
37.5173785788
 20
44.5828431373
 11
36.5173785788
 21
43.5828431373
  0
LINE
  5
308
100
AcDbEntity
  8
0
100
AcDbLine
 62
7
  6
BYLAYER
 10
115.800341492
 20
88.5692598635
 11
115.3173785788
 21
88.6986693861
  0
LINE
  5
309
100
AcDbEntity
  8
0
100
AcDbLine
 62
7
  6
BYLAYER
 10
103.4173785788
 20
88.2828431373
 11
99.6173785788
 21
89.517537983
  0
LINE
  5
30A
100
AcDbEntity
  8
0
100
AcDbLine
 62
7
  6
BYLAYER
 10
103.4173785788
 20
88.8085742494
 11
99.6173785788
 21
90.0432690951
  0
LINE
  5
30B
100
AcDbEntity
  8
0
100
AcDbLine
 62
7
  6
BYLAYER
 10
52.4015969614
 20
127.7828431373
 11
52.244440638
 21
128.0028431373
  0
LINE
  5
30C
100
AcDbEntity
  8
0
100
AcDbLine
 62
7
  6
BYLAYER
 10
55.6173785788
 20
134.2328431373
 11
55.0437082676
 21
135.2264692631
  0
LINE
  5
30D
100
AcDbEntity
  8
0
100
AcDbLine
 62
7
  6
BYLAYER
 10
81.6173785788
 20
125.9328431373
 11
81.6173785788
 21
121.4328431373
  0
LINE
  5
30E
100
AcDbEntity
  8
0
100
AcDbLine
 62
7
  6
BYLAYER
 10
82.0673785788
 20
44.5828431373
 11
82.0673785788
 21
43.5828431373
  0
LINE
  5
30F
100
AcDbEntity
  8
0
100
AcDbLine
 62
7
  6
BYLAYER
 10
82.5173785788
 20
114.1304838363
 11
82.5173785788
 21
120.5328431373
  0
LINE
  5
310
100
AcDbEntity
  8
0
100
AcDbLine
 62
7
  6
BYLAYER
 10
82.5173785788
 20
125.9328431373
 11
82.5173785788
 21
128.7328431373
  0
LINE
  5
311
100
AcDbEntity
  8
0
100
AcDbLine
 62
7
  6
BYLAYER
 10
83.0173785788
 20
114.2660820887
 11
83.0173785788
 21
128.2328431373
  0
LINE
  5
312
100
AcDbEntity
  8
0
100
AcDbLine
 62
7
  6
BYLAYER
 10
83.1673785788
 20
44.5828431373
 11
83.1673785788
 21
43.9828431373
  0
LINE
  5
313
100
AcDbEntity
  8
0
100
AcDbLine
 62
7
  6
BYLAYER
 10
83.2173785788
 20
111.4780952897
 11
83.2173785788
 21
112.4328431373
  0
LINE
  5
314
100
AcDbEntity
  8
0
100
AcDbLine
 62
7
  6
BYLAYER
 10
84.0173785788
 20
112.4328431373
 11
84.0173785788
 21
112.3741964772
  0
LINE
  5
315
100
AcDbEntity
  8
0
100
AcDbLine
 62
7
  6
BYLAYER
 10
84.0173785788
 20
112.5790630473
 11
84.0173785788
 21
121.5476783301
  0
LINE
  5
316
100
AcDbEntity
  8
0
100
AcDbLine
 62
7
  6
BYLAYER
 10
41.4173785788
 20
44.7828431373
 11
40.2173785788
 21
43.5828431373
  0
LWPOLYLINE
  5
317
100
AcDbEntity
  8
0
100
AcDbPolyline
 62
7
  6
BYLAYER
 90
14
 70
0
 10
95.2740721143
 20
114.068413507
 10
95.2294424427
 20
114.0604290891
 10
95.0577134333
 20
114.037227335
 10
94.7450299335
 20
114.0065733916
 10
94.2353362607
 20
113.970277996
 10
93.4227457003
 20
113.9314875924
 10
92.1082191389
 20
113.9017710977
 10
91.2061527889
 20
113.9010876602
 10
89.8517775152
 20
113.9300408695
 10
89.019407371
 20
113.9690815802
 10
88.4991517652
 20
114.0057783299
 10
88.1808121478
 20
114.0367919935
 10
88.0062628925
 20
114.0602730272
 10
87.9611031712
 20
114.068541662
  0
LINE
  5
318
100
AcDbEntity
  8
0
100
AcDbLine
 62
7
  6
BYLAYER
 10
90.2181614935
 20
67.9857372578
 11
89.8291831892
 21
69.0544463657
  0
LINE
  5
319
100
AcDbEntity
  8
0
100
AcDbLine
 62
7
  6
BYLAYER
 10
87.0173785788
 20
80.7828431373
 11
87.0173785788
 21
85.6328431373
  0
LINE
  5
31A
100
AcDbEntity
  8
0
100
AcDbLine
 62
7
  6
BYLAYER
 10
87.3173785788
 20
85.6328431373
 11
87.3173785788
 21
80.7328431373
  0
LINE
  5
31B
100
AcDbEntity
  8
0
100
AcDbLine
 62
7
  6
BYLAYER
 10
87.3173785788
 20
80.0859431327
 11
87.3173785788
 21
80.2328431373
  0
LINE
  5
31C
100
AcDbEntity
  8
0
100
AcDbLine
 62
7
  6
BYLAYER
 10
87.4173785788
 20
85.6328431373
 11
87.4173785788
 21
80.8328431373
  0
LINE
  5
31D
100
AcDbEntity
  8
0
100
AcDbLine
 62
7
  6
BYLAYER
 10
87.4691617094
 20
50.5828431373
 11
87.4691617094
 21
72.5828431373
  0
LINE
  5
31E
100
AcDbEntity
  8
0
100
AcDbLine
 62
7
  6
BYLAYER
 10
88.4307920661
 20
72.5828431373
 11
88.4307920661
 21
51.0828431373
  0
LINE
  5
31F
100
AcDbEntity
  8
0
100
AcDbLine
 62
7
  6
BYLAYER
 10
99.6173785788
 20
111.4780952898
 11
83.2173785788
 21
111.4780952897
  0
LINE
  5
320
100
AcDbEntity
  8
0
100
AcDbLine
 62
7
  6
BYLAYER
 10
31.2173785788
 20
111.4780952897
 11
14.8173785788
 21
111.4780952897
  0
LINE
  5
321
100
AcDbEntity
  8
0
100
AcDbLine
 62
7
  6
BYLAYER
 10
99.1173785788
 20
112.3647985471
 11
84.0155449116
 21
112.3647985471
  0
LINE
  5
322
100
AcDbEntity
  8
0
100
AcDbLine
 62
7
  6
BYLAYER
 10
30.419212246
 20
112.3647985471
 11
15.3173785788
 21
112.3647985471
  0
LINE
  5
323
100
AcDbEntity
  8
0
100
AcDbLine
 62
7
  6
BYLAYER
 10
83.0173734658
 20
112.4328415639
 11
83.0435765762
 21
112.4328431373
  0
LINE
  5
324
100
AcDbEntity
  8
0
100
AcDbLine
 62
7
  6
BYLAYER
 10
84.0173785788
 20
112.4328431373
 11
30.4173785788
 21
112.4328431373
  0
LINE
  5
325
100
AcDbEntity
  8
0
100
AcDbLine
 62
7
  6
BYLAYER
 10
70.5173785788
 20
112.4828431373
 11
43.9173785788
 21
112.4828431373
  0
LINE
  5
326
100
AcDbEntity
  8
0
100
AcDbLine
 62
7
  6
BYLAYER
 10
89.8291831892
 20
72.5828431373
 11
89.8291831892
 21
67.5828431373
  0
LINE
  5
327
100
AcDbEntity
  8
0
100
AcDbLine
 62
7
  6
BYLAYER
 10
89.8673785788
 20
88.8328431373
 11
89.8673785788
 21
91.5328431373
  0
LINE
  5
328
100
AcDbEntity
  8
0
100
AcDbLine
 62
7
  6
BYLAYER
 10
89.9481438152
 20
67.0828431373
 11
89.9481438152
 21
68.7276047318
  0
LINE
  5
329
100
AcDbEntity
  8
0
100
AcDbLine
 62
7
  6
BYLAYER
 10
90.0173785788
 20
79.7828431373
 11
90.0173785788
 21
80.2328431373
  0
LINE
  5
32A
100
AcDbEntity
  8
0
100
AcDbLine
 62
7
  6
BYLAYER
 10
90.2173785788
 20
51.0828431373
 11
90.2173785788
 21
67.9878882984
  0
LINE
  5
32B
100
AcDbEntity
  8
0
100
AcDbLine
 62
7
  6
BYLAYER
 10
90.7173785788
 20
44.0828431373
 11
90.7173785788
 21
43.5828431373
  0
LINE
  5
32C
100
AcDbEntity
  8
0
100
AcDbLine
 62
7
  6
BYLAYER
 10
91.2173785788
 20
80.2328431373
 11
91.2173785788
 21
79.7828431373
  0
LINE
  5
32D
100
AcDbEntity
  8
0
100
AcDbLine
 62
7
  6
BYLAYER
 10
92.4645565066
 20
51.4828431373
 11
92.4645565066
 21
72.5828431373
  0
LINE
  5
32E
100
AcDbEntity
  8
0
100
AcDbLine
 62
7
  6
BYLAYER
 10
92.4869128818
 20
43.5828431373
 11
92.4869243587
 21
44.0828431993
  0
LINE
  5
32F
100
AcDbEntity
  8
0
100
AcDbLine
 62
7
  6
BYLAYER
 10
92.611003116
 20
51.4828431373
 11
92.611003116
 21
72.5828431373
  0
LINE
  5
330
100
AcDbEntity
  8
0
100
AcDbLine
 62
7
  6
BYLAYER
 10
92.6173785788
 20
72.5828431373
 11
92.6173785788
 21
79.7828431373
  0
LINE
  5
331
100
AcDbEntity
  8
0
100
AcDbLine
 62
7
  6
BYLAYER
 10
92.645179772
 20
43.5828431373
 11
92.6451751764
 21
44.0828431155
  0
LINE
  5
332
100
AcDbEntity
  8
0
100
AcDbLine
 62
7
  6
BYLAYER
 10
93.1173785788
 20
79.7828431373
 11
93.1173785788
 21
72.5828431373
  0
LINE
  5
333
100
AcDbEntity
  8
0
100
AcDbLine
 62
7
  6
BYLAYER
 10
93.1335770659
 20
44.0828431373
 11
93.1335770659
 21
50.5828431373
  0
LINE
  5
334
100
AcDbEntity
  8
0
100
AcDbLine
 62
7
  6
BYLAYER
 10
93.3673785788
 20
88.8328431373
 11
93.3673785788
 21
91.5328431373
  0
LINE
  5
335
100
AcDbEntity
  8
0
100
AcDbLine
 62
7
  6
BYLAYER
 10
39.7605411672
 20
113.9461341679
 11
36.2626732726
 21
113.8239859294
  0
LINE
  5
336
100
AcDbEntity
  8
0
100
AcDbLine
 62
7
  6
BYLAYER
 10
39.7605411672
 20
113.9698472534
 11
36.2626732726
 21
113.8476990149
  0
LINE
  5
337
100
AcDbEntity
  8
0
100
AcDbLine
 62
7
  6
BYLAYER
 10
39.6758472459
 20
116.3714507492
 11
36.1779793514
 21
116.2493025108
  0
LINE
  5
338
100
AcDbEntity
  8
0
100
AcDbLine
 62
7
  6
BYLAYER
 10
39.6758472459
 20
116.3951638347
 11
36.1779793514
 21
116.2730155963
  0
LINE
  5
339
100
AcDbEntity
  8
0
100
AcDbLine
 62
7
  6
BYLAYER
 10
36.1673785788
 20
113.7328431373
 11
39.6673785788
 21
113.7328431373
  0
LINE
  5
33A
100
AcDbEntity
  8
0
100
AcDbLine
 62
7
  6
BYLAYER
 10
74.7673785788
 20
113.7328431373
 11
78.2673785788
 21
113.7328431373
  0
LINE
  5
33B
100
AcDbEntity
  8
0
100
AcDbLine
 62
7
  6
BYLAYER
 10
15.3173785788
 20
114.2328431373
 11
30.4173785788
 21
114.2328431373
  0
LINE
  5
33C
100
AcDbEntity
  8
0
100
AcDbLine
 62
7
  6
BYLAYER
 10
84.0173785788
 20
114.2328431373
 11
99.1173785788
 21
114.2328431373
  0
LINE
  5
33D
100
AcDbEntity
  8
0
100
AcDbLine
 62
7
  6
BYLAYER
 10
44.9173785788
 20
116.1828431373
 11
43.9173785788
 21
116.1828431373
  0
LINE
  5
33E
100
AcDbEntity
  8
0
100
AcDbLine
 62
7
  6
BYLAYER
 10
69.5173785788
 20
116.1828431373
 11
70.5173785788
 21
116.1828431373
  0
LINE
  5
33F
100
AcDbEntity
  8
0
100
AcDbLine
 62
7
  6
BYLAYER
 10
36.1673785788
 20
116.4328431373
 11
39.6673785788
 21
116.4328431373
  0
LINE
  5
340
100
AcDbEntity
  8
0
100
AcDbLine
 62
7
  6
BYLAYER
 10
74.7673785788
 20
116.4328431373
 11
78.2673785788
 21
116.4328431373
  0
LINE
  5
341
100
AcDbEntity
  8
0
100
AcDbLine
 62
7
  6
BYLAYER
 10
44.9173785788
 20
118.1828431373
 11
43.9173785788
 21
118.1828431373
  0
LINE
  5
342
100
AcDbEntity
  8
0
100
AcDbLine
 62
7
  6
BYLAYER
 10
69.5173785788
 20
118.1828431373
 11
70.5173785788
 21
118.1828431373
  0
LINE
  5
343
100
AcDbEntity
  8
0
100
AcDbLine
 62
7
  6
BYLAYER
 10
78.172083885
 20
113.8239859294
 11
74.6742159904
 21
113.9461341679
  0
LINE
  5
344
100
AcDbEntity
  8
0
100
AcDbLine
 62
7
  6
BYLAYER
 10
78.172083885
 20
113.8476990149
 11
74.6742159904
 21
113.9698472534
  0
LINE
  5
345
100
AcDbEntity
  8
0
100
AcDbLine
 62
7
  6
BYLAYER
 10
78.2567778063
 20
116.2493025108
 11
74.7589099117
 21
116.3714507492
  0
LINE
  5
346
100
AcDbEntity
  8
0
100
AcDbLine
 62
7
  6
BYLAYER
 10
78.2567778063
 20
116.2730155963
 11
74.7589099117
 21
116.3951638347
  0
LINE
  5
347
100
AcDbEntity
  8
0
100
AcDbLine
 62
7
  6
BYLAYER
 10
84.0173785788
 20
112.5790630473
 11
83.0172853147
 21
114.2647379761
  0
LINE
  5
348
100
AcDbEntity
  8
0
100
AcDbLine
 62
7
  6
BYLAYER
 10
82.5173785788
 20
114.1304838363
 11
83.0435765762
 21
112.4328431373
  0
LINE
  5
349
100
AcDbEntity
  8
0
100
AcDbLine
 62
7
  6
BYLAYER
 10
94.9876266877
 20
50.0828431373
 11
94.9876266877
 21
44.0828431373
  0
LINE
  5
34A
100
AcDbEntity
  8
0
100
AcDbLine
 62
7
  6
BYLAYER
 10
95.7173785788
 20
50.0828431373
 11
95.7173785788
 21
44.0828431373
  0
LINE
  5
34B
100
AcDbEntity
  8
0
100
AcDbLine
 62
7
  6
BYLAYER
 10
95.7173785788
 20
80.2328431373
 11
95.7173785788
 21
80.3328431373
  0
LWPOLYLINE
  5
34C
100
AcDbEntity
  8
0
100
AcDbPolyline
 62
7
  6
BYLAYER
 90
14
 70
0
 10
26.4740721143
 20
114.068413507
 10
26.4294424427
 20
114.0604290891
 10
26.2577134333
 20
114.037227335
 10
25.9450299335
 20
114.0065733916
 10
25.4353362607
 20
113.970277996
 10
24.6227457003
 20
113.9314875924
 10
23.3082191389
 20
113.9017710977
 10
22.4061527889
 20
113.9010876602
 10
21.0517775152
 20
113.9300408695
 10
20.219407371
 20
113.9690815802
 10
19.6991517652
 20
114.0057783299
 10
19.3808121478
 20
114.0367919935
 10
19.2062628925
 20
114.0602730272
 10
19.1611031712
 20
114.068541662
  0
LINE
  5
34D
100
AcDbEntity
  8
0
100
AcDbLine
 62
7
  6
BYLAYER
 10
52.5686359738
 20
120.8102649039
 11
61.8661211838
 21
120.8102649039
  0
LINE
  5
34E
100
AcDbEntity
  8
0
100
AcDbLine
 62
7
  6
BYLAYER
 10
61.8534712451
 20
121.1602649039
 11
52.5812859126
 21
121.1602649039
  0
LINE
  5
34F
100
AcDbEntity
  8
0
100
AcDbLine
 62
7
  6
BYLAYER
 10
83.0173785788
 20
121.9328431373
 11
81.6173785788
 21
121.9328431373
  0
LINE
  5
350
100
AcDbEntity
  8
0
100
AcDbLine
 62
7
  6
BYLAYER
 10
32.8173785788
 20
121.9328431373
 11
31.4173785788
 21
121.9328431373
  0
LINE
  5
351
100
AcDbEntity
  8
0
100
AcDbLine
 62
7
  6
BYLAYER
 10
84.0173785788
 20
114.2319520453
 11
83.0173785788
 21
115.9640137214
  0
LINE
  5
352
100
AcDbEntity
  8
0
100
AcDbLine
 62
7
  6
BYLAYER
 10
99.1173785788
 20
87.5200596739
 11
99.1173785788
 21
114.2328431373
  0
LINE
  5
353
100
AcDbEntity
  8
0
100
AcDbLine
 62
7
  6
BYLAYER
 10
99.6173785788
 20
87.5200597254
 11
99.6173785788
 21
113.7328431373
  0
LINE
  5
354
100
AcDbEntity
  8
0
100
AcDbLine
 62
7
  6
BYLAYER
 10
98.7451685366
 20
83.2656794235
 11
98.2280303693
 21
80.3328431373
  0
LINE
  5
355
100
AcDbEntity
  8
0
100
AcDbLine
 62
7
  6
BYLAYER
 10
99.2375724041
 20
83.1788552837
 11
98.8085977362
 21
80.7460190484
  0
LINE
  5
356
100
AcDbEntity
  8
0
100
AcDbLine
 62
7
  6
BYLAYER
 10
73.7173785788
 20
47.3828431373
 11
74.1173785788
 21
47.7828431373
  0
LWPOLYLINE
  5
357
100
AcDbEntity
  8
0
100
AcDbPolyline
 62
7
  6
BYLAYER
 90
13
 70
0
 10
79.9478828987
 20
128.600600424
 10
79.9471493046
 20
128.6004013614
 10
79.9079950439
 20
128.5924081972
 10
79.8224890315
 20
128.5796989922
 10
79.6932453071
 20
128.5648673826
 10
79.5168114406
 20
128.5486184278
 10
79.2875340873
 20
128.5313819736
 10
78.9989532996
 20
128.5136526165
 10
78.6432171023
 20
128.4960696146
 10
78.2120259235
 20
128.4795722684
 10
77.6971742281
 20
128.4655046067
 10
77.0910863467
 20
128.4557600123
 10
76.5173785889
 20
128.4527968337
  0
LINE
  5
358
100
AcDbEntity
  8
0
100
AcDbLine
 62
7
  6
BYLAYER
 10
61.2586530928
 20
123.9586642926
 11
53.1761040648
 21
123.9586642926
  0
LINE
  5
359
100
AcDbEntity
  8
0
100
AcDbLine
 62
7
  6
BYLAYER
 10
31.4173785788
 20
125.9328431373
 11
32.8173785788
 21
125.9328431373
  0
LINE
  5
35A
100
AcDbEntity
  8
0
100
AcDbLine
 62
7
  6
BYLAYER
 10
81.6173785788
 20
125.9328431373
 11
83.0173785788
 21
125.9328431373
  0
LINE
  5
35B
100
AcDbEntity
  8
0
100
AcDbLine
 62
7
  6
BYLAYER
 10
83.0173785788
 20
126.0789709239
 11
71.4173785788
 21
126.0789709236
  0
LINE
  5
35C
100
AcDbEntity
  8
0
100
AcDbLine
 62
7
  6
BYLAYER
 10
31.4173785788
 20
126.0789709236
 11
43.0173785788
 21
126.0789709236
  0
LINE
  5
35D
100
AcDbEntity
  8
0
100
AcDbLine
 62
7
  6
BYLAYER
 10
31.9173785788
 20
127.0670962926
 11
42.5173785788
 21
127.0670962926
  0
LINE
  5
35E
100
AcDbEntity
  8
0
100
AcDbLine
 62
7
  6
BYLAYER
 10
71.9173785788
 20
127.0670962926
 11
82.5173785788
 21
127.0670962926
  0
LINE
  5
35F
100
AcDbEntity
  8
0
100
AcDbLine
 62
7
  6
BYLAYER
 10
53.8885087669
 20
127.3102649039
 11
60.5462483908
 21
127.3102649039
  0
LINE
  5
360
100
AcDbEntity
  8
0
100
AcDbLine
 62
7
  6
BYLAYER
 10
81.6173785788
 20
121.4328431373
 11
83.0173785788
 21
120.0328431373
  0
LINE
  5
361
100
AcDbEntity
  8
0
100
AcDbLine
 62
7
  6
BYLAYER
 10
83.0173785788
 20
120.7049540569
 11
81.7894894984
 21
121.9328431373
  0
LINE
  5
362
100
AcDbEntity
  8
0
100
AcDbLine
 62
7
  6
BYLAYER
 10
103.4173785788
 20
66.0328431373
 11
103.4173785788
 21
93.3608368411
  0
LINE
  5
363
100
AcDbEntity
  8
0
100
AcDbLine
 62
7
  6
BYLAYER
 10
103.6173785788
 20
93.6328431373
 11
103.6173785788
 21
65.8328431373
  0
LINE
  5
364
100
AcDbEntity
  8
0
100
AcDbLine
 62
7
  6
BYLAYER
 10
70.5173785788
 20
127.7828431373
 11
68.7173785788
 21
127.7828431373
  0
LINE
  5
365
100
AcDbEntity
  8
0
100
AcDbLine
 62
7
  6
BYLAYER
 10
62.2173785788
 20
127.7828431373
 11
52.2173785788
 21
127.7828431373
  0
LINE
  5
366
100
AcDbEntity
  8
0
100
AcDbLine
 62
7
  6
BYLAYER
 10
45.7173785788
 20
127.7828431373
 11
43.9173785788
 21
127.7828431373
  0
LINE
  5
367
100
AcDbEntity
  8
0
100
AcDbLine
 62
7
  6
BYLAYER
 10
70.7173785788
 20
128.0028431373
 11
68.7173785788
 21
128.0028431373
  0
LINE
  5
368
100
AcDbEntity
  8
0
100
AcDbLine
 62
7
  6
BYLAYER
 10
62.2173785788
 20
128.0028431373
 11
52.2173785788
 21
128.0028431373
  0
LINE
  5
369
100
AcDbEntity
  8
0
100
AcDbLine
 62
7
  6
BYLAYER
 10
45.7173785788
 20
128.0028431373
 11
43.7173785788
 21
128.0028431373
  0
LINE
  5
36A
100
AcDbEntity
  8
0
100
AcDbLine
 62
7
  6
BYLAYER
 10
71.9173785788
 20
128.4328431373
 11
42.5173785788
 21
128.4328431373
  0
LINE
  5
36B
100
AcDbEntity
  8
0
100
AcDbLine
 62
7
  6
BYLAYER
 10
31.9173785788
 20
128.7328431373
 11
42.6168498061
 21
128.7328431373
  0
LINE
  5
36C
100
AcDbEntity
  8
0
100
AcDbLine
 62
7
  6
BYLAYER
 10
71.8179073507
 20
128.7328431373
 11
82.5173785788
 21
128.7328431373
  0
LINE
  5
36D
100
AcDbEntity
  8
0
100
AcDbLine
 62
7
  6
BYLAYER
 10
43.0173785788
 20
128.9328431373
 11
71.4173785788
 21
128.9328431373
  0
LINE
  5
36E
100
AcDbEntity
  8
0
100
AcDbLine
 62
7
  6
BYLAYER
 10
42.5121413945
 20
129.0328431373
 11
42.6173785788
 21
129.0328431373
  0
LINE
  5
36F
100
AcDbEntity
  8
0
100
AcDbLine
 62
7
  6
BYLAYER
 10
42.7119815241
 20
129.0328431373
 11
71.8173328834
 21
129.0328431373
  0
LINE
  5
370
100
AcDbEntity
  8
0
100
AcDbLine
 62
7
  6
BYLAYER
 10
55.7746019167
 20
131.0328431373
 11
69.4125630202
 21
131.0328431373
  0
LINE
  5
371
100
AcDbEntity
  8
0
100
AcDbLine
 62
7
  6
BYLAYER
 10
69.4191926358
 20
131.1593437378
 11
69.0173785788
 21
131.1593437378
  0
LINE
  5
372
100
AcDbEntity
  8
0
100
AcDbLine
 62
7
  6
BYLAYER
 10
56.1173785788
 20
131.2328431373
 11
55.7641203608
 21
131.2328431373
  0
LINE
  5
373
100
AcDbEntity
  8
0
100
AcDbLine
 62
7
  6
BYLAYER
 10
55.7605592945
 20
131.3007923297
 11
56.1173785788
 21
131.3007923297
  0
LINE
  5
374
100
AcDbEntity
  8
0
100
AcDbLine
 62
7
  6
BYLAYER
 10
69.0173785788
 20
131.3007923297
 11
69.4266056424
 21
131.3007923297
  0
LWPOLYLINE
  5
375
100
AcDbEntity
  8
0
100
AcDbPolyline
 62
7
  6
BYLAYER
 90
11
 70
0
 10
37.917378575
 20
128.4527966827
 10
37.2709606238
 20
128.4565629457
 10
36.6219446441
 20
128.4681763594
 10
36.0811382774
 20
128.4844747826
 10
35.6382107669
 20
128.5031528354
 10
35.2821786443
 20
128.522633272
 10
35.0024858823
 20
128.5418550341
 10
34.7891351524
 20
128.5601327033
 10
34.6340673595
 20
128.5769312037
 10
34.5332589518
 20
128.59129003
 10
34.4976591656
 20
128.5980256555
  0
LWPOLYLINE
  5
376
100
AcDbEntity
  8
0
100
AcDbPolyline
 62
7
  6
BYLAYER
 90
11
 70
0
 10
76.517378575
 20
128.4527966827
 10
75.8708468015
 20
128.4565642796
 10
75.2217650942
 20
128.4681807201
 10
74.6809207772
 20
128.4844826827
 10
74.2379782468
 20
128.5031641184
 10
73.8819494323
 20
128.5226474072
 10
73.6022739044
 20
128.541871338
 10
73.3889510479
 20
128.5601504357
 10
73.2339211226
 20
128.5769493244
 10
73.1331637135
 20
128.5913061595
 10
73.0976068167
 20
128.5980370818
  0
LWPOLYLINE
  5
377
100
AcDbEntity
  8
0
100
AcDbPolyline
 62
7
  6
BYLAYER
 90
13
 70
0
 10
41.3478828987
 20
128.600600424
 10
41.3471493046
 20
128.6004013614
 10
41.3079950439
 20
128.5924081972
 10
41.2224890315
 20
128.5796989922
 10
41.0932453071
 20
128.5648673826
 10
40.9168114406
 20
128.5486184278
 10
40.6875340873
 20
128.5313819736
 10
40.3989532996
 20
128.5136526165
 10
40.0432171023
 20
128.4960696146
 10
39.6120259235
 20
128.4795722684
 10
39.0971742281
 20
128.4655046067
 10
38.4910863467
 20
128.4557600123
 10
37.9173785889
 20
128.4527968337
  0
LINE
  5
378
100
AcDbEntity
  8
0
100
AcDbLine
 62
7
  6
BYLAYER
 10
56.1173785788
 20
132.0328431373
 11
69.0173785788
 21
132.0328431373
  0
LINE
  5
379
100
AcDbEntity
  8
0
100
AcDbLine
 62
7
  6
BYLAYER
 10
57.3173785788
 20
132.1328431373
 11
55.7169533595
 21
132.1328431373
  0
LINE
  5
37A
100
AcDbEntity
  8
0
100
AcDbLine
 62
7
  6
BYLAYER
 10
68.1173785788
 20
132.1328431373
 11
69.4702115775
 21
132.1328431373
  0
LINE
  5
37B
100
AcDbEntity
  8
0
100
AcDbLine
 62
7
  6
BYLAYER
 10
55.6959902477
 20
132.5328431373
 11
55.8173785788
 21
132.5328431373
  0
LINE
  5
37C
100
AcDbEntity
  8
0
100
AcDbLine
 62
7
  6
BYLAYER
 10
55.8173785788
 20
133.0328431373
 11
69.517536893
 21
133.0328431373
  0
LINE
  5
37D
100
AcDbEntity
  8
0
100
AcDbLine
 62
7
  6
BYLAYER
 10
71.5173785788
 20
133.0358639519
 11
69.517536893
 21
133.0358639523
  0
LINE
  5
37E
100
AcDbEntity
  8
0
100
AcDbLine
 62
7
  6
BYLAYER
 10
55.6435824685
 20
133.5328431373
 11
69.6173785788
 21
133.5328431373
  0
LINE
  5
37F
100
AcDbEntity
  8
0
100
AcDbLine
 62
7
  6
BYLAYER
 10
69.6173785788
 20
133.6573429371
 11
63.1173785788
 21
133.6573429371
  0
LINE
  5
380
100
AcDbEntity
  8
0
100
AcDbLine
 62
7
  6
BYLAYER
 10
62.3173785788
 20
133.6573429371
 11
55.8173785788
 21
133.6573429371
  0
LINE
  5
381
100
AcDbEntity
  8
0
100
AcDbLine
 62
7
  6
BYLAYER
 10
43.1383793709
 20
133.8602200748
 11
55.6264253701
 21
133.8602200772
  0
LINE
  5
382
100
AcDbEntity
  8
0
100
AcDbLine
 62
7
  6
BYLAYER
 10
55.8173785788
 20
133.9328431373
 11
55.6226193567
 21
133.9328431373
  0
LINE
  5
383
100
AcDbEntity
  8
0
100
AcDbLine
 62
7
  6
BYLAYER
 10
69.8789327005
 20
134.7501457219
 11
69.6173785788
 21
134.7501457219
  0
LINE
  5
384
100
AcDbEntity
  8
0
100
AcDbLine
 62
7
  6
BYLAYER
 10
43.1509439842
 20
134.8198458124
 11
55.2784724263
 21
134.8198458124
  0
LINE
  5
385
100
AcDbEntity
  8
0
100
AcDbLine
 62
7
  6
BYLAYER
 10
69.6173785788
 20
134.8443141992
 11
63.1173785788
 21
134.8443141992
  0
LINE
  5
386
100
AcDbEntity
  8
0
100
AcDbLine
 62
7
  6
BYLAYER
 10
62.3173785788
 20
134.8443141992
 11
55.8173785788
 21
134.8443141992
  0
LINE
  5
387
100
AcDbEntity
  8
0
100
AcDbLine
 62
7
  6
BYLAYER
 10
55.6173785788
 20
134.9045860005
 11
55.8173785788
 21
134.9045860005
  0
LINE
  5
388
100
AcDbEntity
  8
0
100
AcDbLine
 62
7
  6
BYLAYER
 10
69.9985146209
 20
134.9572676838
 11
71.5173785788
 21
134.9572676838
  0
LINE
  5
389
100
AcDbEntity
  8
0
100
AcDbLine
 62
7
  6
BYLAYER
 10
55.6173785788
 20
135.2264692631
 11
55.0437082676
 21
135.2264692631
  0
LINE
  5
38A
100
AcDbEntity
  8
0
100
AcDbLine
 62
7
  6
BYLAYER
 10
70.1753925082
 20
135.2636291714
 11
71.5173785788
 21
135.2636291714
  0
LINE
  5
38B
100
AcDbEntity
  8
0
100
AcDbLine
 62
7
  6
BYLAYER
 10
47.5173785788
 20
135.300283564
 11
55.6173785788
 21
135.300283564
  0
LINE
  5
38C
100
AcDbEntity
  8
0
100
AcDbLine
 62
7
  6
BYLAYER
 10
71.5173785788
 20
135.3507512832
 11
69.6173785788
 21
135.3507512832
  0
LINE
  5
38D
100
AcDbEntity
  8
0
100
AcDbLine
 62
7
  6
BYLAYER
 10
47.5173785788
 20
136.3328431373
 11
55.6173785788
 21
136.3328431373
  0
LINE
  5
38E
100
AcDbEntity
  8
0
100
AcDbLine
 62
7
  6
BYLAYER
 10
113.3173785196
 20
65.8328431373
 11
113.3173785196
 21
66.3328431373
  0
LINE
  5
38F
100
AcDbEntity
  8
0
100
AcDbLine
 62
7
  6
BYLAYER
 10
113.8173785788
 20
66.8328994049
 11
113.8173785788
 21
83.1005931747
  0
LINE
  5
390
100
AcDbEntity
  8
0
100
AcDbLine
 62
7
  6
BYLAYER
 10
114.3173785788
 20
83.0347669259
 11
114.3173785788
 21
66.8328431347
  0
LINE
  5
391
100
AcDbEntity
  8
0
100
AcDbLine
 62
7
  6
BYLAYER
 10
114.5173785788
 20
71.5330435769
 11
114.5173785788
 21
74.5326426977
  0
LINE
  5
392
100
AcDbEntity
  8
0
100
AcDbLine
 62
7
  6
BYLAYER
 10
115.3173785788
 20
74.532853166
 11
115.3173785788
 21
78.0328331086
  0
LINE
  5
393
100
AcDbEntity
  8
0
100
AcDbLine
 62
7
  6
BYLAYER
 10
115.3173785788
 20
88.6986693861
 11
115.3173785788
 21
93.6328431373
  0
LINE
  5
394
100
AcDbEntity
  8
0
100
AcDbLine
 62
7
  6
BYLAYER
 10
115.8173785788
 20
93.1328431373
 11
115.8173785788
 21
88.6986693861
  0
LINE
  5
395
100
AcDbEntity
  8
0
100
AcDbLine
 62
7
  6
BYLAYER
 10
115.3173785788
 20
88.6986693861
 11
113.8173785788
 21
83.1005931747
  0
LINE
  5
396
100
AcDbEntity
  8
0
100
AcDbLine
 62
7
  6
BYLAYER
 10
115.800341492
 20
88.5692598635
 11
114.3173785788
 21
83.0347669259
  0
LINE
  5
397
100
AcDbEntity
  8
0
100
AcDbLine
 62
7
  6
BYLAYER
 10
115.5694356619
 20
86.9347669129
 11
115.0335372771
 21
84.9347669129
  0
LINE
  5
398
100
AcDbEntity
  8
0
100
AcDbLine
 62
7
  6
BYLAYER
 10
43.19823252
 20
136.6328431373
 11
47.5173785788
 21
136.6328431373
  0
LINE
  5
399
100
AcDbEntity
  8
0
100
AcDbLine
 62
7
  6
BYLAYER
 10
55.8173785788
 20
136.6328431373
 11
71.5173785788
 21
136.6328431373
  0
ARC
  5
39A
100
AcDbEntity
  8
0
100
AcDbCircle
 62
7
  6
BYLAYER
 10
39.8173785788
 20
87.5200597254
 40
25.0
100
AcDbArc
 50
180.0
 51
190.0
  0
ARC
  5
39B
100
AcDbEntity
  8
0
100
AcDbCircle
 62
7
  6
BYLAYER
 10
39.8173785788
 20
87.5200597254
 40
24.5000000015
100
AcDbArc
 50
180.0000001206
 51
189.9999998795
  0
ARC
  5
39C
100
AcDbEntity
  8
0
100
AcDbCircle
 62
7
  6
BYLAYER
 10
26.4173785788
 20
80.7828431373
 40
1.0
100
AcDbArc
 50
270.0
 51
360.0
  0
ARC
  5
39D
100
AcDbEntity
  8
0
100
AcDbCircle
 62
7
  6
BYLAYER
 10
16.1185632979
 20
80.8328431373
 40
0.5
100
AcDbArc
 50
189.9999999995
 51
270.0
  0
ARC
  5
39E
100
AcDbEntity
  8
0
100
AcDbCircle
 62
7
  6
BYLAYER
 10
20.7173785788
 20
50.0828431373
 40
0.5
100
AcDbArc
 50
90.0
 51
180.0
  0
ARC
  5
39F
100
AcDbEntity
  8
0
100
AcDbCircle
 62
7
  6
BYLAYER
 10
19.2173785788
 20
50.0828431373
 40
0.5
100
AcDbArc
 50
90.0
 51
180.0
  0
ARC
  5
3A0
100
AcDbEntity
  8
0
100
AcDbCircle
 62
7
  6
BYLAYER
 10
55.2173785788
 20
82.1828431373
 40
0.5
100
AcDbArc
 50
180.0
 51
270.0
  0
ARC
  5
3A1
100
AcDbEntity
  8
0
100
AcDbCircle
 62
7
  6
BYLAYER
 10
59.2173785788
 20
82.1828431373
 40
0.5
100
AcDbArc
 50
270.0
 51
360.0
  0
ARC
  5
3A2
100
AcDbEntity
  8
0
100
AcDbCircle
 62
7
  6
BYLAYER
 10
38.2173785788
 20
51.0828431373
 40
0.5
100
AcDbArc
 50
279.3194986222
 51
360.0
  0
ARC
  5
3A3
100
AcDbEntity
  8
0
100
AcDbCircle
 62
7
  6
BYLAYER
 10
19.4198932285
 20
50.1026291594
 40
0.4799899617
100
AcDbArc
 50
108.3357445291
 51
112.7662572401
  0
ARC
  5
3A4
100
AcDbEntity
  8
0
100
AcDbCircle
 62
7
  6
BYLAYER
 10
43.4673785788
 20
77.9828431373
 40
0.3
100
AcDbArc
 50
270.0
 51
360.0
  0
ARC
  5
3A5
100
AcDbEntity
  8
0
100
AcDbCircle
 62
7
  6
BYLAYER
 10
43.4673785788
 20
82.3828431373
 40
0.3
100
AcDbArc
 50
0.0
 51
90.0
  0
ARC
  5
3A6
100
AcDbEntity
  8
0
100
AcDbCircle
 62
7
  6
BYLAYER
 10
38.7923785788
 20
82.3828431373
 40
0.3
100
AcDbArc
 50
90.0
 51
180.0
  0
ARC
  5
3A7
100
AcDbEntity
  8
0
100
AcDbCircle
 62
7
  6
BYLAYER
 10
38.7923785788
 20
77.9828431373
 40
0.3
100
AcDbArc
 50
180.0
 51
270.0
  0
ARC
  5
3A8
100
AcDbEntity
  8
0
100
AcDbCircle
 62
7
  6
BYLAYER
 10
37.8173785788
 20
49.424202941
 40
0.3
100
AcDbArc
 50
79.8244891563
 51
180.0
  0
ARC
  5
3A9
100
AcDbEntity
  8
0
100
AcDbCircle
 62
7
  6
BYLAYER
 10
22.8173452117
 20
166.8358646281
 40
52.9382372239
100
AcDbArc
 50
269.3632285611
 51
270.679932099
  0
ARC
  5
3AA
100
AcDbEntity
  8
0
100
AcDbCircle
 62
7
  6
BYLAYER
 10
22.8522512296
 20
164.0406243436
 40
50.1427795677
100
AcDbArc
 50
270.6779517999
 51
271.5711417496
  0
ARC
  5
3AB
100
AcDbEntity
  8
0
100
AcDbCircle
 62
7
  6
BYLAYER
 10
22.7717151942
 20
163.4724021497
 40
49.5744760389
100
AcDbArc
 50
268.4352178208
 51
269.3727603453
  0
ARC
  5
3AC
100
AcDbEntity
  8
0
100
AcDbCircle
 62
7
  6
BYLAYER
 10
38.1142465017
 20
174.1784376995
 40
45.7241063864
100
AcDbArc
 50
271.557942989
 51
271.7727140344
  0
ARC
  5
3AD
100
AcDbEntity
  8
0
100
AcDbCircle
 62
7
  6
BYLAYER
 10
37.7043209364
 20
173.6240062698
 40
45.1694394428
100
AcDbArc
 50
268.1843113373
 51
268.4274241296
  0
ARC
  5
3AE
100
AcDbEntity
  8
0
100
AcDbCircle
 62
7
  6
BYLAYER
 10
23.0369180692
 20
157.2543744289
 40
43.3540177329
100
AcDbArc
 50
271.5730832451
 51
272.5602879684
  0
ARC
  5
3AF
100
AcDbEntity
  8
0
100
AcDbCircle
 62
7
  6
BYLAYER
 10
22.5465906323
 20
155.827628518
 40
41.9264088687
100
AcDbArc
 50
267.4251055149
 51
268.4574701126
  0
ARC
  5
3B0
100
AcDbEntity
  8
0
100
AcDbCircle
 62
7
  6
BYLAYER
 10
23.4300199654
 20
148.1925559503
 40
34.2836870616
100
AcDbArc
 50
272.58048848
 51
273.329637521
  0
ARC
  5
3B1
100
AcDbEntity
  8
0
100
AcDbCircle
 62
7
  6
BYLAYER
 10
22.1357611804
 20
146.8566254252
 40
32.9460075507
100
AcDbArc
 50
266.6637310797
 51
267.43795733
  0
ARC
  5
3B2
100
AcDbEntity
  8
0
100
AcDbCircle
 62
7
  6
BYLAYER
 10
22.8173595628
 20
137.0859061911
 40
24.4065536148
100
AcDbArc
 50
268.8637667503
 51
271.1890510423
  0
ARC
  5
3B3
100
AcDbEntity
  8
0
100
AcDbCircle
 62
7
  6
BYLAYER
 10
39.3320811499
 20
148.6557619342
 40
20.1710884501
100
AcDbArc
 50
273.6669463101
 51
273.9989035227
  0
ARC
  5
3B4
100
AcDbEntity
  8
0
100
AcDbCircle
 62
7
  6
BYLAYER
 10
36.4223308636
 20
147.4645288007
 40
18.9771524702
100
AcDbArc
 50
265.9086626058
 51
266.292892815
  0
ARC
  5
3B5
100
AcDbEntity
  8
0
100
AcDbCircle
 62
7
  6
BYLAYER
 10
22.3143055334
 20
129.0023510959
 40
16.3053101442
100
AcDbArc
 50
264.3482226104
 51
264.4628025261
  0
ARC
  5
3B6
100
AcDbEntity
  8
0
100
AcDbCircle
 62
7
  6
BYLAYER
 10
45.4173785788
 20
121.5476783301
 40
15.0
100
AcDbArc
 50
158.9605302187
 51
180.0
  0
ARC
  5
3B7
100
AcDbEntity
  8
0
100
AcDbCircle
 62
7
  6
BYLAYER
 10
25.2364843703
 20
123.6148787301
 40
9.6372662208
100
AcDbArc
 50
275.5658532124
 51
276.4923163444
  0
ARC
  5
3B8
100
AcDbEntity
  8
0
100
AcDbCircle
 62
7
  6
BYLAYER
 10
20.3205331017
 20
122.8794744665
 40
8.897789047
100
AcDbArc
 50
263.4501758876
 51
264.4578554682
  0
ARC
  5
3B9
100
AcDbEntity
  8
0
100
AcDbCircle
 62
7
  6
BYLAYER
 10
37.0383414249
 20
123.7061052308
 40
7.7823086998
100
AcDbArc
 50
43.193748738
 51
43.6748258417
  0
ARC
  5
3BA
100
AcDbEntity
  8
0
100
AcDbCircle
 62
7
  6
BYLAYER
 10
20.9672403203
 20
119.4308521533
 40
6.6360153732
100
AcDbArc
 50
258.8307040893
 51
259.0869580077
  0
ARC
  5
3BB
100
AcDbEntity
  8
0
100
AcDbCircle
 62
7
  6
BYLAYER
 10
24.6798850372
 20
119.3678156343
 40
6.5717769528
100
AcDbArc
 50
281.0225215821
 51
281.1745265899
  0
ARC
  5
3BC
100
AcDbEntity
  8
0
100
AcDbCircle
 62
7
  6
BYLAYER
 10
31.3914779306
 20
118.3778704461
 40
5.9450277096
100
AcDbArc
 50
268.2697549922
 51
269.9971341808
  0
ARC
  5
3BD
100
AcDbEntity
  8
0
100
AcDbCircle
 62
7
  6
BYLAYER
 10
20.1469889285
 20
115.8971361126
 40
3.0073717062
100
AcDbArc
 50
253.8271824336
 51
254.7537017723
  0
ARC
  5
3BE
100
AcDbEntity
  8
0
100
AcDbCircle
 62
7
  6
BYLAYER
 10
25.4888399612
 20
115.89391107
 40
3.0039760846
100
AcDbArc
 50
285.4496009484
 51
286.1340010488
  0
ARC
  5
3BF
100
AcDbEntity
  8
0
100
AcDbCircle
 62
7
  6
BYLAYER
 10
41.0790679664
 20
130.1980636855
 40
1.6258464924
100
AcDbArc
 50
279.1988473633
 51
279.9748286
  0
ARC
  5
3C0
100
AcDbEntity
  8
0
100
AcDbCircle
 62
7
  6
BYLAYER
 10
34.7465196798
 20
130.1447127809
 40
1.5717143603
100
AcDbArc
 50
260.1318078257
 51
260.6222430116
  0
ARC
  5
3C1
100
AcDbEntity
  8
0
100
AcDbCircle
 62
7
  6
BYLAYER
 10
26.7099369087
 20
112.54093226
 40
0.6931064526
100
AcDbArc
 50
126.5349061683
 51
135.8443308475
  0
ARC
  5
3C2
100
AcDbEntity
  8
0
100
AcDbCircle
 62
7
  6
BYLAYER
 10
18.927679475
 20
112.544594189
 40
0.6884975336
100
AcDbArc
 50
44.095969757
 51
53.4489671349
  0
ARC
  5
3C3
100
AcDbEntity
  8
0
100
AcDbCircle
 62
7
  6
BYLAYER
 10
43.0173785788
 20
128.7328431373
 40
0.5
100
AcDbArc
 50
135.2166971265
 51
143.1301023542
  0
ARC
  5
3C4
100
AcDbEntity
  8
0
100
AcDbCircle
 62
7
  6
BYLAYER
 10
31.9173785788
 20
128.2328431373
 40
0.5
100
AcDbArc
 50
90.0
 51
179.9999914858
  0
ARC
  5
3C5
100
AcDbEntity
  8
0
100
AcDbCircle
 62
7
  6
BYLAYER
 10
43.0173785788
 20
128.4328431373
 40
0.5
100
AcDbArc
 50
90.0
 51
180.0
  0
ARC
  5
3C6
100
AcDbEntity
  8
0
100
AcDbCircle
 62
7
  6
BYLAYER
 10
15.3173785788
 20
113.7328431373
 40
0.5
100
AcDbArc
 50
90.0
 51
179.9999999885
  0
ARC
  5
3C7
100
AcDbEntity
  8
0
100
AcDbCircle
 62
7
  6
BYLAYER
 10
43.19823252
 20
136.1328386203
 40
0.4999999945
100
AcDbArc
 50
90.0
 51
178.4993312355
  0
ARC
  5
3C8
100
AcDbEntity
  8
0
100
AcDbCircle
 62
7
  6
BYLAYER
 10
43.6173785788
 20
128.6328431373
 40
0.4
100
AcDbArc
 50
90.0
 51
128.519420293
  0
ARC
  5
3C9
100
AcDbEntity
  8
0
100
AcDbCircle
 62
7
  6
BYLAYER
 10
52.5686359738
 20
120.8602649039
 40
0.05
100
AcDbArc
 50
167.9999999987
 51
270.0
  0
ARC
  5
3CA
100
AcDbEntity
  8
0
100
AcDbCircle
 62
7
  6
BYLAYER
 10
61.8661211838
 20
120.8602649039
 40
0.05
100
AcDbArc
 50
270.0
 51
12.0000000011
  0
ARC
  5
3CB
100
AcDbEntity
  8
0
100
AcDbCircle
 62
7
  6
BYLAYER
 10
30.4453502131
 20
112.3750287498
 40
0.0280686724
100
AcDbArc
 50
194.6469977629
 51
201.3749992031
  0
ARC
  5
3CC
100
AcDbEntity
  8
0
100
AcDbCircle
 62
7
  6
BYLAYER
 10
74.6173785788
 20
87.5200597254
 40
25.0
100
AcDbArc
 50
350.0
 51
360.0
  0
ARC
  5
3CD
100
AcDbEntity
  8
0
100
AcDbCircle
 62
7
  6
BYLAYER
 10
74.6173785788
 20
87.5200597254
 40
24.5000000015
100
AcDbArc
 50
350.0000001209
 51
359.9999998794
  0
ARC
  5
3CE
100
AcDbEntity
  8
0
100
AcDbCircle
 62
7
  6
BYLAYER
 10
113.3173785788
 20
66.8328431373
 40
1.0
100
AcDbArc
 50
270.0000000003
 51
359.9999999929
  0
ARC
  5
3CF
100
AcDbEntity
  8
0
100
AcDbCircle
 62
7
  6
BYLAYER
 10
88.0173785788
 20
80.7828431373
 40
1.0
100
AcDbArc
 50
180.0
 51
270.0
  0
ARC
  5
3D0
100
AcDbEntity
  8
0
100
AcDbCircle
 62
7
  6
BYLAYER
 10
75.5173785788
 20
48.3828431373
 40
0.6
100
AcDbArc
 50
270.0
 51
360.0
  0
ARC
  5
3D1
100
AcDbEntity
  8
0
100
AcDbCircle
 62
7
  6
BYLAYER
 10
75.5173785788
 20
48.4828431373
 40
0.6
100
AcDbArc
 50
0.0
 51
90.0
  0
ARC
  5
3D2
100
AcDbEntity
  8
0
100
AcDbCircle
 62
7
  6
BYLAYER
 10
115.3173785788
 20
93.1328431373
 40
0.5
100
AcDbArc
 50
0.0
 51
90.0
  0
ARC
  5
3D3
100
AcDbEntity
  8
0
100
AcDbCircle
 62
7
  6
BYLAYER
 10
115.3173785788
 20
88.6986693861
 40
0.5
100
AcDbArc
 50
345.0
 51
360.0
  0
ARC
  5
3D4
100
AcDbEntity
  8
0
100
AcDbCircle
 62
7
  6
BYLAYER
 10
92.111003116
 20
51.4828431373
 40
0.5
100
AcDbArc
 50
270.0000000002
 51
360.0
  0
ARC
  5
3D5
100
AcDbEntity
  8
0
100
AcDbCircle
 62
7
  6
BYLAYER
 10
98.3161938597
 20
80.8328431373
 40
0.5
100
AcDbArc
 50
270.0
 51
350.0000000005
  0
ARC
  5
3D6
100
AcDbEntity
  8
0
100
AcDbCircle
 62
7
  6
BYLAYER
 10
95.2173785788
 20
50.0828431373
 40
0.5
100
AcDbArc
 50
0.0
 51
90.0
  0
ARC
  5
3D7
100
AcDbEntity
  8
0
100
AcDbCircle
 62
7
  6
BYLAYER
 10
90.7173785788
 20
51.0828431373
 40
0.5
100
AcDbArc
 50
180.0
 51
270.0
  0
ARC
  5
3D8
100
AcDbEntity
  8
0
100
AcDbCircle
 62
7
  6
BYLAYER
 10
76.2173785788
 20
51.0828431373
 40
0.5
100
AcDbArc
 50
180.0
 51
260.6807728605
  0
ARC
  5
3D9
100
AcDbEntity
  8
0
100
AcDbCircle
 62
7
  6
BYLAYER
 10
82.6673785788
 20
44.5828431373
 40
0.5
100
AcDbArc
 50
0.0
 51
90.0
  0
ARC
  5
3DA
100
AcDbEntity
  8
0
100
AcDbCircle
 62
7
  6
BYLAYER
 10
82.5673785788
 20
44.5828431373
 40
0.5
100
AcDbArc
 50
90.0
 51
180.0
  0
ARC
  5
3DB
100
AcDbEntity
  8
0
100
AcDbCircle
 62
7
  6
BYLAYER
 10
113.3173785788
 20
66.8328431373
 40
0.4999910574
100
AcDbArc
 50
269.9935513951
 51
0.0064477974
  0
ARC
  5
3DC
100
AcDbEntity
  8
0
100
AcDbCircle
 62
7
  6
BYLAYER
 10
75.6423785788
 20
82.3828431373
 40
0.3
100
AcDbArc
 50
0.0
 51
90.0
  0
ARC
  5
3DD
100
AcDbEntity
  8
0
100
AcDbCircle
 62
7
  6
BYLAYER
 10
75.6423785788
 20
77.9828431373
 40
0.3
100
AcDbArc
 50
270.0
 51
360.0
  0
ARC
  5
3DE
100
AcDbEntity
  8
0
100
AcDbCircle
 62
7
  6
BYLAYER
 10
70.9673785788
 20
82.3828431373
 40
0.3
100
AcDbArc
 50
90.0
 51
180.0
  0
ARC
  5
3DF
100
AcDbEntity
  8
0
100
AcDbCircle
 62
7
  6
BYLAYER
 10
70.9673785788
 20
77.9828431373
 40
0.3
100
AcDbArc
 50
180.0
 51
270.0
  0
ARC
  5
3E0
100
AcDbEntity
  8
0
100
AcDbCircle
 62
7
  6
BYLAYER
 10
103.6173785788
 20
66.0328431373
 40
0.2
100
AcDbArc
 50
180.0
 51
270.0
  0
ARC
  5
3E1
100
AcDbEntity
  8
0
100
AcDbCircle
 62
7
  6
BYLAYER
 10
103.6173785788
 20
93.4328431373
 40
0.2
100
AcDbArc
 50
90.0
 51
138.3128021412
  0
ARC
  5
3E2
100
AcDbEntity
  8
0
100
AcDbCircle
 62
7
  6
BYLAYER
 10
91.6173452117
 20
166.8358646289
 40
52.9382372246
100
AcDbArc
 50
269.3632285611
 51
270.6799320989
  0
ARC
  5
3E3
100
AcDbEntity
  8
0
100
AcDbCircle
 62
7
  6
BYLAYER
 10
91.6522512296
 20
164.0406243426
 40
50.1427795667
100
AcDbArc
 50
270.6779517999
 51
271.5711417496
  0
ARC
  5
3E4
100
AcDbEntity
  8
0
100
AcDbCircle
 62
7
  6
BYLAYER
 10
91.5717151942
 20
163.4724021491
 40
49.5744760383
100
AcDbArc
 50
268.4352178207
 51
269.3727603454
  0
ARC
  5
3E5
100
AcDbEntity
  8
0
100
AcDbCircle
 62
7
  6
BYLAYER
 10
76.7142465022
 20
174.1784376845
 40
45.7241063713
100
AcDbArc
 50
271.557942989
 51
271.7727140345
  0
ARC
  5
3E6
100
AcDbEntity
  8
0
100
AcDbCircle
 62
7
  6
BYLAYER
 10
76.3043118725
 20
173.6237018624
 40
45.1691349008
100
AcDbArc
 50
268.1842704674
 51
268.4273963565
  0
ARC
  5
3E7
100
AcDbEntity
  8
0
100
AcDbCircle
 62
7
  6
BYLAYER
 10
91.8369180693
 20
157.2543744286
 40
43.3540177325
100
AcDbArc
 50
271.5730832451
 51
272.5602879683
  0
ARC
  5
3E8
100
AcDbEntity
  8
0
100
AcDbCircle
 62
7
  6
BYLAYER
 10
91.3465906323
 20
155.8276285188
 40
41.9264088695
100
AcDbArc
 50
267.425105515
 51
268.4574701126
  0
ARC
  5
3E9
100
AcDbEntity
  8
0
100
AcDbCircle
 62
7
  6
BYLAYER
 10
92.2300199654
 20
148.1925559501
 40
34.2836870614
100
AcDbArc
 50
272.58048848
 51
273.329637521
  0
ARC
  5
3EA
100
AcDbEntity
  8
0
100
AcDbCircle
 62
7
  6
BYLAYER
 10
90.9357611805
 20
146.8566254269
 40
32.9460075525
100
AcDbArc
 50
266.6637310797
 51
267.43795733
  0
ARC
  5
3EB
100
AcDbEntity
  8
0
100
AcDbCircle
 62
7
  6
BYLAYER
 10
91.6173595628
 20
137.0859061911
 40
24.4065536148
100
AcDbArc
 50
268.8637667507
 51
271.1890510422
  0
ARC
  5
3EC
100
AcDbEntity
  8
0
100
AcDbCircle
 62
7
  6
BYLAYER
 10
77.9320811501
 20
148.6557619309
 40
20.1710884468
100
AcDbArc
 50
273.6669463102
 51
273.9989035227
  0
ARC
  5
3ED
100
AcDbEntity
  8
0
100
AcDbCircle
 62
7
  6
BYLAYER
 10
75.0222763456
 20
147.4637342736
 40
18.9763560767
100
AcDbArc
 50
265.9085664364
 51
266.2928210481
  0
ARC
  5
3EE
100
AcDbEntity
  8
0
100
AcDbCircle
 62
7
  6
BYLAYER
 10
91.1143055359
 20
129.0023511218
 40
16.3053101703
100
AcDbArc
 50
264.348222611
 51
264.462802526
  0
ARC
  5
3EF
100
AcDbEntity
  8
0
100
AcDbCircle
 62
7
  6
BYLAYER
 10
69.0173785788
 20
121.5476783301
 40
15.0
100
AcDbArc
 50
0.0
 51
21.0394697813
  0
ARC
  5
3F0
100
AcDbEntity
  8
0
100
AcDbCircle
 62
7
  6
BYLAYER
 10
94.0364843702
 20
123.6148787309
 40
9.6372662216
100
AcDbArc
 50
275.5658532124
 51
276.4923163443
  0
ARC
  5
3F1
100
AcDbEntity
  8
0
100
AcDbCircle
 62
7
  6
BYLAYER
 10
89.1205331016
 20
122.879474466
 40
8.8977890464
100
AcDbArc
 50
263.4501758876
 51
264.4578554682
  0
ARC
  5
3F2
100
AcDbEntity
  8
0
100
AcDbCircle
 62
7
  6
BYLAYER
 10
89.7672403184
 20
119.4308521437
 40
6.6360153635
100
AcDbArc
 50
258.8307040882
 51
259.0869580102
  0
ARC
  5
3F3
100
AcDbEntity
  8
0
100
AcDbCircle
 62
7
  6
BYLAYER
 10
93.4798850342
 20
119.3678156498
 40
6.5717769686
100
AcDbArc
 50
281.0225215807
 51
281.1745265895
  0
ARC
  5
3F4
100
AcDbEntity
  8
0
100
AcDbCircle
 62
7
  6
BYLAYER
 10
83.0433340034
 20
118.3763021383
 40
5.9434593994
100
AcDbArc
 50
270.0023384352
 51
271.7298073776
  0
ARC
  5
3F5
100
AcDbEntity
  8
0
100
AcDbCircle
 62
7
  6
BYLAYER
 10
88.9469889285
 20
115.8971361127
 40
3.0073717062
100
AcDbArc
 50
253.8271824338
 51
254.7537017723
  0
ARC
  5
3F6
100
AcDbEntity
  8
0
100
AcDbCircle
 62
7
  6
BYLAYER
 10
94.2888399618
 20
115.8939110679
 40
3.0039760824
100
AcDbArc
 50
285.4496009485
 51
286.1340010494
  0
ARC
  5
3F7
100
AcDbEntity
  8
0
100
AcDbCircle
 62
7
  6
BYLAYER
 10
79.6790679666
 20
130.1980636849
 40
1.6258464918
100
AcDbArc
 50
279.1988473633
 51
279.9748286003
  0
ARC
  5
3F8
100
AcDbEntity
  8
0
100
AcDbCircle
 62
7
  6
BYLAYER
 10
73.3464632164
 20
130.1443777026
 40
1.5713745594
100
AcDbArc
 50
260.1306395436
 51
260.6221175632
  0
ARC
  5
3F9
100
AcDbEntity
  8
0
100
AcDbCircle
 62
7
  6
BYLAYER
 10
95.5099369087
 20
112.54093226
 40
0.6931064526
100
AcDbArc
 50
126.5349061683
 51
135.8443308477
  0
ARC
  5
3FA
100
AcDbEntity
  8
0
100
AcDbCircle
 62
7
  6
BYLAYER
 10
87.727679475
 20
112.544594189
 40
0.6884975336
100
AcDbArc
 50
44.0959697576
 51
53.4489671348
  0
ARC
  5
3FB
100
AcDbEntity
  8
0
100
AcDbCircle
 62
7
  6
BYLAYER
 10
71.5048935535
 20
134.8452350809
 40
0.5124983504
100
AcDbArc
 50
5.4643177942
 51
18.1073465766
  0
ARC
  5
3FC
100
AcDbEntity
  8
0
100
AcDbCircle
 62
7
  6
BYLAYER
 10
71.5090416656
 20
134.8455729234
 40
0.5083369207
100
AcDbArc
 50
0.0098368336
 51
5.4709340126
  0
ARC
  5
3FD
100
AcDbEntity
  8
0
100
AcDbCircle
 62
7
  6
BYLAYER
 10
71.5173785788
 20
136.1328431373
 40
0.5
100
AcDbArc
 50
0.0
 51
90.0
  0
ARC
  5
3FE
100
AcDbEntity
  8
0
100
AcDbCircle
 62
7
  6
BYLAYER
 10
82.5173785788
 20
128.2328431373
 40
0.5
100
AcDbArc
 50
0.0000071849
 51
90.0
  0
ARC
  5
3FF
100
AcDbEntity
  8
0
100
AcDbCircle
 62
7
  6
BYLAYER
 10
71.4173785788
 20
128.4328431373
 40
0.5
100
AcDbArc
 50
0.0
 51
90.0
  0
ARC
  5
400
100
AcDbEntity
  8
0
100
AcDbCircle
 62
7
  6
BYLAYER
 10
99.1173785788
 20
113.7328431373
 40
0.5
100
AcDbArc
 50
0.0000000115
 51
90.0
  0
ARC
  5
401
100
AcDbEntity
  8
0
100
AcDbCircle
 62
7
  6
BYLAYER
 10
71.5173478561
 20
134.8600144966
 40
0.4907367876
100
AcDbArc
 50
86.9371514686
 51
89.996412979
  0
SPLINE
  5
402
100
AcDbEntity
  8
0
100
AcDbSpline
 62
7
  6
BYLAYER
 70
0
 71
3
 72
11
 73
7
 74
0
 42
0.0000001
 43
0.0000001
 44
0.0000000001
 40
0.0
 40
0.0
 40
0.0
 40
0.0
 40
0.2500898149
 40
0.5000466274
 40
0.7500073636
 40
1.0
 40
1.0
 40
1.0
 40
1.0
 10
71.5435685778
 20
135.3500502794
 30
0.0
 10
71.5934645033
 20
135.3473831162
 30
0.0
 10
71.6930830017
 20
135.3267829843
 30
0.0
 10
71.8258895522
 20
135.2527011142
 30
0.0
 10
71.9309266816
 20
135.1428411054
 30
0.0
 10
71.9764552273
 20
135.051982358
 30
0.0
 10
71.9920108784
 20
135.004518699
 30
0.0
  0
SPLINE
  5
403
100
AcDbEntity
  8
0
100
AcDbSpline
 62
7
  6
BYLAYER
 70
0
 71
3
 72
23
 73
19
 74
0
 42
0.0000001
 43
0.0000001
 44
0.0000000001
 40
0.0
 40
0.0
 40
0.0
 40
0.0
 40
0.0172208727
 40
0.0306842792
 40
0.0479739385
 40
0.0941856377
 40
0.155211433
 40
0.2292236958
 40
0.3134889057
 40
0.4999577902
 40
0.6865121988
 40
0.7707697646
 40
0.8447162137
 40
0.9057470178
 40
0.9520243609
 40
0.969325933
 40
0.9827861455
 40
1.0
 40
1.0
 40
1.0
 40
1.0
 10
63.1173785788
 20
135.1274844657
 30
0.0
 10
63.1173785788
 20
135.1322207784
 30
0.0
 10
63.1106946516
 20
135.1396003984
 30
0.0
 10
63.0995376044
 20
135.145963349
 30
0.0
 10
63.0798522165
 20
135.1542959773
 30
0.0
 10
63.0467336572
 20
135.1630444316
 30
0.0
 10
62.9976229443
 20
135.1719254052
 30
0.0
 10
62.9377286844
 20
135.1791837275
 30
0.0
 10
62.8431913782
 20
135.1867424192
 30
0.0
 10
62.717386469
 20
135.1902225456
 30
0.0
 10
62.5915851541
 20
135.186736198
 30
0.0
 10
62.497041901
 20
135.1792068865
 30
0.0
 10
62.4371688198
 20
135.1719238233
 30
0.0
 10
62.3880606619
 20
135.1630299114
 30
0.0
 10
62.3549129696
 20
135.1543013387
 30
0.0
 10
62.3352055756
 20
135.1459693943
 30
0.0
 10
62.3240462707
 20
135.1396040116
 30
0.0
 10
62.3173785788
 20
135.1322188481
 30
0.0
 10
62.3173785788
 20
135.1274844657
 30
0.0
  0
LINE
  5
404
100
AcDbEntity
  8
0
100
AcDbLine
 62
7
  6
BYLAYER
 10
42.6625103994
 20
129.0850569185
 11
42.6670567447
 21
129.0802928482
  0
SPLINE
  5
405
100
AcDbEntity
  8
0
100
AcDbSpline
 62
7
  6
BYLAYER
 70
0
 71
3
 72
21
 73
17
 74
0
 42
0.0000001
 43
0.0000001
 44
0.0000000001
 40
0.0
 40
0.0
 40
0.0
 40
0.0
 40
0.1958345373
 40
0.3797765892
 40
0.5484719233
 40
0.6979362165
 40
0.7639500691
 40
0.8232492479
 40
0.8751208001
 40
0.9188526672
 40
0.9537442854
 40
0.9791956691
 40
0.9882136932
 40
0.9946969328
 40
0.9986226919
 40
1.0
 40
1.0
 40
1.0
 40
1.0
 10
71.8173328834
 20
129.0328431373
 30
0.0
 10
71.8301570928
 20
129.0461326888
 30
0.0
 10
71.8551195966
 20
129.0718152357
 30
0.0
 10
71.8913794873
 20
129.1087011602
 30
0.0
 10
71.924729167
 20
129.1423149248
 30
0.0
 10
71.9503580605
 20
129.1679227694
 30
0.0
 10
71.9687569332
 20
129.1861692057
 30
0.0
 10
71.9806536667
 20
129.1979043068
 30
0.0
 10
71.9910856852
 20
129.208124855
 30
0.0
 10
71.999914419
 20
129.2167136171
 30
0.0
 10
72.0069811159
 20
129.2234834474
 30
0.0
 10
72.0117612026
 20
129.2280373163
 30
0.0
 10
72.0145771154
 20
129.2305593185
 30
0.0
 10
72.0160051298
 20
129.2319151943
 30
0.0
 10
72.0167622577
 20
129.2323693531
 30
0.0
 10
72.0172795021
 20
129.2329277273
 30
0.0
 10
72.0173712704
 20
129.2328358079
 30
0.0
  0
SPLINE
  5
406
100
AcDbEntity
  8
0
100
AcDbSpline
 62
7
  6
BYLAYER
 70
0
 71
3
 72
11
 73
7
 74
0
 42
0.0000001
 43
0.0000001
 44
0.0000000001
 40
0.0
 40
0.0
 40
0.0
 40
0.0
 40
0.2217618988
 40
0.4577382176
 40
0.7180874858
 40
1.0
 40
1.0
 40
1.0
 40
1.0
 10
72.0173785788
 20
134.8135828474
 30
0.0
 10
72.0173785788
 20
134.8684282035
 30
0.0
 10
71.9936027719
 20
134.9828608984
 30
0.0
 10
71.8888623929
 20
135.1319157393
 30
0.0
 10
71.7227150931
 20
135.2380221465
 30
0.0
 10
71.5871001691
 20
135.2636291714
 30
0.0
 10
71.5173785788
 20
135.2636291714
 30
0.0
  0
SPLINE
  5
407
100
AcDbEntity
  8
0
100
AcDbSpline
 62
7
  6
BYLAYER
 70
0
 71
3
 72
11
 73
7
 74
0
 42
0.0000001
 43
0.0000001
 44
0.0000000001
 40
0.0
 40
0.0
 40
0.0
 40
0.0
 40
0.2516598761
 40
0.5022380044
 40
0.7515347076
 40
1.0
 40
1.0
 40
1.0
 40
1.0
 10
43.1508104105
 20
134.819841984
 30
0.0
 10
43.0868869812
 20
134.819872375
 30
0.0
 10
42.9579667248
 20
134.7952856794
 30
0.0
 10
42.7936621326
 20
134.6893718314
 30
0.0
 10
42.681379235
 20
134.5302315309
 30
0.0
 10
42.6527682801
 20
134.4031266941
 30
0.0
 10
42.6511152505
 20
134.3400363569
 30
0.0
  0
SPLINE
  5
408
100
AcDbEntity
  8
0
100
AcDbSpline
 62
7
  6
BYLAYER
 70
0
 71
3
 72
21
 73
17
 74
0
 42
0.0000001
 43
0.0000001
 44
0.0000000001
 40
0.0
 40
0.0
 40
0.0
 40
0.0
 40
0.1946818782
 40
0.3822044485
 40
0.5547729375
 40
0.7060610506
 40
0.7719191738
 40
0.8303352516
 40
0.8807550756
 40
0.922738145
 40
0.9558527933
 40
0.9797783151
 40
0.988254614
 40
0.9943989492
 40
0.9982387388
 40
1.0
 40
1.0
 40
1.0
 40
1.0
 10
43.1383793707
 20
133.8602200695
 30
0.0
 10
43.1059186487
 20
133.8610695009
 30
0.0
 10
43.0421865665
 20
133.862574684
 30
0.0
 10
42.9496687827
 20
133.8642785369
 30
0.0
 10
42.8643798552
 20
133.8653448174
 30
0.0
 10
42.7993774969
 20
133.8656934478
 30
0.0
 10
42.7534154687
 20
133.8655855272
 30
0.0
 10
42.7242775957
 20
133.8653342294
 30
0.0
 10
42.6991272275
 20
133.8649143967
 30
0.0
 10
42.6781927536
 20
133.8643330175
 30
0.0
 10
42.6617076578
 20
133.8636093147
 30
0.0
 10
42.650770671
 20
133.8628243464
 30
0.0
 10
42.6444277845
 20
133.8620960289
 30
0.0
 10
42.6413175271
 20
133.8615288438
 30
0.0
 10
42.6395625515
 20
133.8610980599
 30
0.0
 10
42.6385583982
 20
133.8605137372
 30
0.0
 10
42.6385507082
 20
133.8602200695
 30
0.0
  0
SPLINE
  5
409
100
AcDbEntity
  8
0
100
AcDbSpline
 62
7
  6
BYLAYER
 70
0
 71
3
 72
11
 73
7
 74
0
 42
0.0000001
 43
0.0000001
 44
0.0000000001
 40
0.0
 40
0.0
 40
0.0
 40
0.0
 40
0.251554716
 40
0.5021566929
 40
0.7514962192
 40
1.0
 40
1.0
 40
1.0
 40
1.0
 10
71.5173785788
 20
134.9572676831
 30
0.0
 10
71.5823840355
 20
134.9572676831
 30
0.0
 10
71.7135532882
 20
134.931718657
 30
0.0
 10
71.8796801062
 20
134.8221090368
 30
0.0
 10
71.9912501649
 20
134.6581377073
 30
0.0
 10
72.0173786356
 20
134.5280448959
 30
0.0
 10
72.0173785788
 20
134.463827846
 30
0.0
  0
SPLINE
  5
40A
100
AcDbEntity
  8
0
100
AcDbSpline
 62
7
  6
BYLAYER
 70
0
 71
3
 72
21
 73
17
 74
0
 42
0.0000001
 43
0.0000001
 44
0.0000000001
 40
0.0
 40
0.0
 40
0.0
 40
0.0
 40
0.0017603927
 40
0.005596975
 40
0.0117368506
 40
0.0202084088
 40
0.0441273277
 40
0.0772370182
 40
0.1192066066
 40
0.1696172243
 40
0.228036683
 40
0.2938934408
 40
0.445200094
 40
0.6178209077
 40
0.8053564443
 40
1.0
 40
1.0
 40
1.0
 40
1.0
 10
72.0173785788
 20
133.0227754782
 30
0.0
 10
72.0173785788
 20
133.0230693032
 30
0.0
 10
72.0163908188
 20
133.0236803312
 30
0.0
 10
72.014647497
 20
133.0241571937
 30
0.0
 10
72.0115533863
 20
133.0248060185
 30
0.0
 10
72.0052299077
 20
133.025700624
 30
0.0
 10
71.9943125019
 20
133.0267718978
 30
0.0
 10
71.9778448136
 20
133.0279270676
 30
0.0
 10
71.956923027
 20
133.0290571686
 30
0.0
 10
71.9317782375
 20
133.0301359446
 30
0.0
 10
71.9026381363
 20
133.0311503441
 30
0.0
 10
71.8566597306
 20
133.0324626441
 30
0.0
 10
71.7916143084
 20
133.0338163449
 30
0.0
 10
71.7062541619
 20
133.0349832116
 30
0.0
 10
71.6136554673
 20
133.0357012921
 30
0.0
 10
71.5498663016
 20
133.0358639523
 30
0.0
 10
71.5173785788
 20
133.0358639523
 30
0.0
  0
SPLINE
  5
40B
100
AcDbEntity
  8
0
100
AcDbSpline
 62
7
  6
BYLAYER
 70
0
 71
3
 72
10
 73
6
 74
0
 42
0.0000001
 43
0.0000001
 44
0.0000000001
 40
0.0
 40
0.0
 40
0.0
 40
0.0
 40
0.444425235
 40
0.7083177732
 40
1.0
 40
1.0
 40
1.0
 40
1.0
 10
103.4680212186
 20
93.5658558395
 30
0.0
 10
103.4468803055
 20
93.5421171218
 30
0.0
 10
103.4276838023
 20
93.4921437401
 30
0.0
 10
103.4185452167
 20
93.4215293577
 30
0.0
 10
103.4173785788
 20
93.3816660221
 30
0.0
 10
103.4173785788
 20
93.3608032566
 30
0.0
  0
SPLINE
  5
40C
100
AcDbEntity
  8
0
100
AcDbSpline
 62
7
  6
BYLAYER
 70
0
 71
3
 72
9
 73
5
 74
0
 42
0.0000001
 43
0.0000001
 44
0.0000000001
 40
0.0
 40
0.0
 40
0.0
 40
0.0
 40
0.4001311819
 40
1.0
 40
1.0
 40
1.0
 40
1.0
 10
30.4173785788
 20
112.5790630473
 30
0.0
 10
30.417378767
 20
112.5726508029
 30
0.0
 10
30.4262033576
 20
112.5573502714
 30
0.0
 10
30.439861368
 20
112.5488470805
 30
0.0
 10
30.4482299623
 20
112.5441164851
 30
0.0
  0
SPLINE
  5
40D
100
AcDbEntity
  8
0
100
AcDbSpline
 62
7
  6
BYLAYER
 70
0
 71
3
 72
9
 73
5
 74
0
 42
0.0000001
 43
0.0000001
 44
0.0000000001
 40
0.0
 40
0.0
 40
0.0
 40
0.0
 40
0.2262596415
 40
1.0
 40
1.0
 40
1.0
 40
1.0
 10
30.4482299623
 20
112.5441164851
 30
0.0
 10
30.4503782177
 20
112.5429021201
 30
0.0
 10
30.4599974215
 20
112.5377551852
 30
0.0
 10
30.4700133239
 20
112.5333789858
 30
0.0
 10
30.4778548756
 20
112.5302604935
 30
0.0
  0
SPLINE
  5
40E
100
AcDbEntity
  8
0
100
AcDbSpline
 62
7
  6
BYLAYER
 70
0
 71
3
 72
9
 73
5
 74
0
 42
0.0000001
 43
0.0000001
 44
0.0000000001
 40
0.0
 40
0.0
 40
0.0
 40
0.0
 40
0.2217674707
 40
1.0
 40
1.0
 40
1.0
 40
1.0
 10
30.4778548756
 20
112.5302604935
 30
0.0
 10
30.4827383906
 20
112.5283183774
 30
0.0
 10
30.5049537524
 20
112.5200497594
 30
0.0
 10
30.5277434721
 20
112.5134036134
 30
0.0
 10
30.545584766
 20
112.5087317601
 30
0.0
  0
SPLINE
  5
40F
100
AcDbEntity
  8
0
100
AcDbSpline
 62
7
  6
BYLAYER
 70
0
 71
3
 72
10
 73
6
 74
0
 42
0.0000001
 43
0.0000001
 44
0.0000000001
 40
0.0
 40
0.0
 40
0.0
 40
0.0
 40
0.1912329189
 40
0.4288264528
 40
1.0
 40
1.0
 40
1.0
 40
1.0
 10
30.545584766
 20
112.5087317601
 30
0.0
 10
30.5869856471
 20
112.4978906829
 30
0.0
 10
30.6813264089
 20
112.4794446327
 30
0.0
 10
30.9032588465
 20
112.4503078771
 30
0.0
 10
31.0842077547
 20
112.4394174453
 30
0.0
 10
31.2119744621
 20
112.4355533077
 30
0.0
  0
SPLINE
  5
410
100
AcDbEntity
  8
0
100
AcDbSpline
 62
7
  6
BYLAYER
 70
0
 71
3
 72
9
 73
5
 74
0
 42
0.0000001
 43
0.0000001
 44
0.0000000001
 40
0.0
 40
0.0
 40
0.0
 40
0.0
 40
0.3997674281
 40
1.0
 40
1.0
 40
1.0
 40
1.0
 10
84.0173785788
 20
112.5790630473
 30
0.0
 10
84.0173783899
 20
112.5726238836
 30
0.0
 10
84.0084734099
 20
112.5572562125
 30
0.0
 10
83.994732661
 20
112.5487383445
 30
0.0
 10
83.9863090652
 20
112.5439933051
 30
0.0
  0
SPLINE
  5
411
100
AcDbEntity
  8
0
100
AcDbSpline
 62
7
  6
BYLAYER
 70
0
 71
3
 72
9
 73
5
 74
0
 42
0.0000001
 43
0.0000001
 44
0.0000000001
 40
0.0
 40
0.0
 40
0.0
 40
0.0
 40
0.2262571548
 40
1.0
 40
1.0
 40
1.0
 40
1.0
 10
83.9863090652
 20
112.5439933051
 30
0.0
 10
83.9841470345
 20
112.542775426
 30
0.0
 10
83.97446689
 20
112.537613591
 30
0.0
 10
83.9643900867
 20
112.5332249952
 30
0.0
 10
83.9565013345
 20
112.5300978757
 30
0.0
  0
SPLINE
  5
412
100
AcDbEntity
  8
0
100
AcDbSpline
 62
7
  6
BYLAYER
 70
0
 71
3
 72
9
 73
5
 74
0
 42
0.0000001
 43
0.0000001
 44
0.0000000001
 40
0.0
 40
0.0
 40
0.0
 40
0.0
 40
0.2221531969
 40
1.0
 40
1.0
 40
1.0
 40
1.0
 10
83.9565013345
 20
112.5300978757
 30
0.0
 10
83.9516764526
 20
112.5281852813
 30
0.0
 10
83.9297703964
 20
112.5200483346
 30
0.0
 10
83.9073075151
 20
112.5134855774
 30
0.0
 10
83.8897303872
 20
112.5088711779
 30
0.0
  0
SPLINE
  5
413
100
AcDbEntity
  8
0
100
AcDbSpline
 62
7
  6
BYLAYER
 70
0
 71
3
 72
10
 73
6
 74
0
 42
0.0000001
 43
0.0000001
 44
0.0000000001
 40
0.0
 40
0.0
 40
0.0
 40
0.0
 40
0.1911018468
 40
0.4286688763
 40
1.0
 40
1.0
 40
1.0
 40
1.0
 10
83.8897303872
 20
112.5088711779
 30
0.0
 10
83.8483268825
 20
112.4980018077
 30
0.0
 10
83.75393784
 20
112.4795224805
 30
0.0
 10
83.5318083061
 20
112.4503202492
 30
0.0
 10
83.350663413
 20
112.4394189083
 30
0.0
 10
83.2227447426
 20
112.4355512246
 30
0.0
  0
SPLINE
  5
414
100
AcDbEntity
  8
0
100
AcDbSpline
 62
7
  6
BYLAYER
 70
0
 71
3
 72
11
 73
7
 74
0
 42
0.0000001
 43
0.0000001
 44
0.0000000001
 40
0.0
 40
0.0
 40
0.0
 40
0.0
 40
0.2486308099
 40
0.4979713631
 40
0.7485223762
 40
1.0
 40
1.0
 40
1.0
 40
1.0
 10
31.4173785788
 20
126.5730332948
 30
0.0
 10
31.4173785376
 20
126.6373234559
 30
0.0
 10
31.4434857437
 20
126.7675299772
 30
0.0
 10
31.5550117628
 20
126.9316970512
 30
0.0
 10
31.7211300289
 20
127.041494986
 30
0.0
 10
31.8523522976
 20
127.0670962926
 30
0.0
 10
31.9173785788
 20
127.0670962926
 30
0.0
  0
SPLINE
  5
415
100
AcDbEntity
  8
0
100
AcDbSpline
 62
7
  6
BYLAYER
 70
0
 71
3
 72
15
 73
11
 74
0
 42
0.0000001
 43
0.0000001
 44
0.0000000001
 40
0.0
 40
0.0
 40
0.0
 40
0.0
 40
0.3657716015
 40
0.53202111
 40
0.6795021166
 40
0.8034398618
 40
0.8996712957
 40
0.9651283341
 40
0.9860696248
 40
1.0
 40
1.0
 40
1.0
 40
1.0
 10
82.5173785788
 20
114.1304838363
 30
0.0
 10
82.5812153836
 20
114.1350533602
 30
0.0
 10
82.673727176
 20
114.147519369
 30
0.0
 10
82.7900880526
 20
114.1720727894
 30
0.0
 10
82.8641502545
 20
114.1916242441
 30
0.0
 10
82.9254424627
 20
114.2114614793
 30
0.0
 10
82.9716621286
 20
114.2302782528
 30
0.0
 10
83.0001596642
 20
114.2454966573
 30
0.0
 10
83.0134472695
 20
114.2569017713
 30
0.0
 10
83.0169052519
 20
114.2623303504
 30
0.0
 10
83.0172853146
 20
114.2647379761
 30
0.0
  0
LINE
  5
416
100
AcDbEntity
  8
0
100
AcDbLine
 62
7
  6
BYLAYER
 10
83.0172853146
 20
114.2647379761
 11
83.0173785788
 21
114.2660827827
  0
SPLINE
  5
417
100
AcDbEntity
  8
0
100
AcDbSpline
 62
7
  6
BYLAYER
 70
0
 71
3
 72
22
 73
18
 74
0
 42
0.0000001
 43
0.0000001
 44
0.0000000001
 40
0.0
 40
0.0
 40
0.0
 40
0.0
 40
0.1949213841
 40
0.3827125461
 40
0.5555605943
 40
0.7070534843
 40
0.7729814272
 40
0.8314510514
 40
0.8818904287
 40
0.9238614054
 40
0.9569337257
 40
0.9700140963
 40
0.9807580098
 40
0.9891469029
 40
0.9951622441
 40
0.9987856401
 40
1.0
 40
1.0
 40
1.0
 40
1.0
 10
71.4173785788
 20
128.4328431373
 30
0.0
 10
71.4173785788
 20
128.4653302067
 30
0.0
 10
71.4174764489
 20
128.529115921
 30
0.0
 10
71.4174676137
 20
128.6217098958
 30
0.0
 10
71.4172074
 20
128.7070655473
 30
0.0
 10
71.4173421661
 20
128.7721105923
 30
0.0
 10
71.4174909094
 20
128.8180926076
 30
0.0
 10
71.4175186431
 20
128.8472315994
 30
0.0
 10
71.4174453267
 20
128.8723804481
 30
0.0
 10
71.4173473169
 20
128.8932881085
 30
0.0
 10
71.4172618963
 20
128.9079891856
 30
0.0
 10
71.4172638203
 20
128.9174506067
 30
0.0
 10
71.4172276693
 20
128.9228646951
 30
0.0
 10
71.4173448417
 20
128.9269387797
 30
0.0
 10
71.4171369295
 20
128.9302099782
 30
0.0
 10
71.4175739967
 20
128.9315487661
 30
0.0
 10
71.4171761844
 20
128.9328431373
 30
0.0
 10
71.4173785788
 20
128.9328431373
 30
0.0
  0
LINE
  5
418
100
AcDbEntity
  8
0
100
AcDbLine
 62
7
  6
BYLAYER
 10
31.4173785788
 20
114.2660837975
 11
31.4174718431
 21
114.2647379756
  0
LINE
  5
419
100
AcDbEntity
  8
0
100
AcDbLine
 62
7
  6
BYLAYER
 10
76.5173785763
 20
128.4521966741
 11
76.5849899429
 21
128.452239609
  0
SPLINE
  5
41A
100
AcDbEntity
  8
0
100
AcDbSpline
 62
7
  6
BYLAYER
 70
0
 71
3
 72
9
 73
5
 74
0
 42
0.0000001
 43
0.0000001
 44
0.0000000001
 40
0.0
 40
0.0
 40
0.0
 40
0.0
 40
0.2569685103
 40
1.0
 40
1.0
 40
1.0
 40
1.0
 10
76.5849899429
 20
128.452239609
 30
0.0
 10
76.702557282
 20
128.4523869959
 30
0.0
 10
77.1600698765
 20
128.4544458319
 30
0.0
 10
77.6175644759
 20
128.461989217
 30
0.0
 10
77.9573882086
 20
128.4712336335
 30
0.0
  0
SPLINE
  5
41B
100
AcDbEntity
  8
0
100
AcDbSpline
 62
7
  6
BYLAYER
 70
0
 71
3
 72
9
 73
5
 74
0
 42
0.0000001
 43
0.0000001
 44
0.0000000001
 40
0.0
 40
0.0
 40
0.0
 40
0.0
 40
0.278036565
 40
1.0
 40
1.0
 40
1.0
 40
1.0
 10
78.1287107858
 20
128.4762146067
 30
0.0
 10
78.2301086026
 20
128.4793546844
 30
0.0
 10
78.5947559832
 20
128.4919297331
 30
0.0
 10
78.9592746323
 20
128.509112686
 30
0.0
 10
79.2221554722
 20
128.5259701443
 30
0.0
  0
SPLINE
  5
41C
100
AcDbEntity
  8
0
100
AcDbSpline
 62
7
  6
BYLAYER
 70
0
 71
3
 72
10
 73
6
 74
0
 42
0.0000001
 43
0.0000001
 44
0.0000000001
 40
0.0
 40
0.0
 40
0.0
 40
0.0
 40
0.5957932688
 40
0.822991791
 40
1.0
 40
1.0
 40
1.0
 40
1.0
 10
79.3387600748
 20
128.5337823183
 30
0.0
 10
79.4582787133
 20
128.542152076
 30
0.0
 10
79.6233097481
 20
128.555079721
 30
0.0
 10
79.8232607025
 20
128.5765756851
 30
0.0
 10
79.9038409902
 20
128.5874310166
 30
0.0
 10
79.9389779477
 20
128.5931264224
 30
0.0
  0
SPLINE
  5
41D
100
AcDbEntity
  8
0
100
AcDbSpline
 62
7
  6
BYLAYER
 70
0
 71
3
 72
19
 73
15
 74
0
 42
0.0000001
 43
0.0000001
 44
0.0000000001
 40
0.0
 40
0.0
 40
0.0
 40
0.0
 40
0.2096957427
 40
0.2935998199
 40
0.3635657272
 40
0.4622483703
 40
0.5116359037
 40
0.5307459118
 40
0.5580441106
 40
0.5974553256
 40
0.6501992201
 40
0.7167110853
 40
0.7971575256
 40
1.0
 40
1.0
 40
1.0
 40
1.0
 10
79.9606897981
 20
128.5967935769
 30
0.0
 10
79.9760738943
 20
128.5995065613
 30
0.0
 10
79.9976111579
 20
128.6036673498
 30
0.0
 10
80.0238371224
 20
128.6099737737
 30
0.0
 10
80.0421629938
 20
128.6154552108
 30
0.0
 10
80.0563201017
 20
128.6202922847
 30
0.0
 10
80.0687468591
 20
128.6293992359
 30
0.0
 10
80.0660399725
 20
128.6368295334
 30
0.0
 10
80.0606515249
 20
128.6405412423
 30
0.0
 10
80.0526224664
 20
128.6443355194
 30
0.0
 10
80.0413338044
 20
128.6479719131
 30
0.0
 10
80.0269062706
 20
128.6515898747
 30
0.0
 10
80.001341201
 20
128.6566970316
 30
0.0
 10
79.9804481186
 20
128.6597514497
 30
0.0
 10
79.9654646912
 20
128.6617103904
 30
0.0
  0
SPLINE
  5
41E
100
AcDbEntity
  8
0
100
AcDbSpline
 62
7
  6
BYLAYER
 70
0
 71
3
 72
14
 73
10
 74
0
 42
0.0000001
 43
0.0000001
 44
0.0000000001
 40
0.0
 40
0.0
 40
0.0
 40
0.0
 40
0.0544107401
 40
0.1349041437
 40
0.2391342902
 40
0.3644083699
 40
0.5072436548
 40
0.6637141135
 40
1.0
 40
1.0
 40
1.0
 40
1.0
 10
79.9654646912
 20
128.6617103904
 30
0.0
 10
79.9034305286
 20
128.6698207674
 30
0.0
 10
79.7486130594
 20
128.6814474283
 30
0.0
 10
79.4739760634
 20
128.6939752704
 30
0.0
 10
79.1176368765
 20
128.7037507807
 30
0.0
 10
78.6895844912
 20
128.7111288443
 30
0.0
 10
78.2014196962
 20
128.7162769533
 30
0.0
 10
77.4706234065
 20
128.7208606459
 30
0.0
 10
76.9040439481
 20
128.7218817175
 30
0.0
 10
76.5173785759
 20
128.7218802557
 30
0.0
  0
SPLINE
  5
41F
100
AcDbEntity
  8
0
100
AcDbSpline
 62
7
  6
BYLAYER
 70
0
 71
3
 72
14
 73
10
 74
0
 42
0.0000001
 43
0.0000001
 44
0.0000000001
 40
0.0
 40
0.0
 40
0.0
 40
0.0
 40
0.3348119207
 40
0.4907566848
 40
0.6333077744
 40
0.7586074249
 40
0.8632067854
 40
0.9444506878
 40
1.0
 40
1.0
 40
1.0
 40
1.0
 10
76.5173785821
 20
128.7218802954
 30
0.0
 10
76.133300426
 20
128.721881806
 30
0.0
 10
75.5703284361
 20
128.7208725821
 30
0.0
 10
74.8438457172
 20
128.7163574899
 30
0.0
 10
74.3577122115
 20
128.7112881828
 30
0.0
 10
73.930522183
 20
128.7040348479
 30
0.0
 10
73.5736956262
 20
128.6944028825
 30
0.0
 10
73.2970867688
 20
128.6820836404
 30
0.0
 10
73.1404604964
 20
128.6706180056
 30
0.0
 10
73.0772281578
 20
128.6627240883
 30
0.0
  0
SPLINE
  5
420
100
AcDbEntity
  8
0
100
AcDbSpline
 62
7
  6
BYLAYER
 70
0
 71
3
 72
20
 73
16
 74
0
 42
0.0000001
 43
0.0000001
 44
0.0000000001
 40
0.0
 40
0.0
 40
0.0
 40
0.0
 40
0.2059548432
 40
0.2878819191
 40
0.3558061009
 40
0.409866666
 40
0.4504397894
 40
0.4785862535
 40
0.4977788081
 40
0.5447798906
 40
0.5861477615
 40
0.641027496
 40
0.7097698363
 40
0.792501996
 40
1.0
 40
1.0
 40
1.0
 40
1.0
 10
73.0772281578
 20
128.6627240883
 30
0.0
 10
73.0612489542
 20
128.6607292465
 30
0.0
 10
73.0389447857
 20
128.6576141676
 30
0.0
 10
73.0116062177
 20
128.6524124428
 30
0.0
 10
72.9960961167
 20
128.6487155248
 30
0.0
 10
72.9839100237
 20
128.6450073548
 30
0.0
 10
72.9751281889
 20
128.6411110705
 30
0.0
 10
72.9692516776
 20
128.6373917405
 30
0.0
 10
72.9657042509
 20
128.6299841344
 30
0.0
 10
72.9742023008
 20
128.6232537074
 30
0.0
 10
72.9837280975
 20
128.618791201
 30
0.0
 10
72.9960886683
 20
128.6142720179
 30
0.0
 10
73.0115206691
 20
128.6098555044
 30
0.0
 10
73.0388491305
 20
128.6032510304
 30
0.0
 10
73.0611425579
 20
128.5990403786
 30
0.0
 10
73.0771260377
 20
128.5962577169
 30
0.0
  0
SPLINE
  5
421
100
AcDbEntity
  8
0
100
AcDbSpline
 62
7
  6
BYLAYER
 70
0
 71
3
 72
10
 73
6
 74
0
 42
0.0000001
 43
0.0000001
 44
0.0000000001
 40
0.0
 40
0.0
 40
0.0
 40
0.0
 40
0.1767450641
 40
0.4037651946
 40
1.0
 40
1.0
 40
1.0
 40
1.0
 10
73.0904154171
 20
128.5940043507
 30
0.0
 10
73.1241869736
 20
128.5884228873
 30
0.0
 10
73.2016800144
 20
128.5777832874
 30
0.0
 10
73.3942022707
 20
128.5566884783
 30
0.0
 10
73.5531690876
 20
128.543984956
 30
0.0
 10
73.6683453403
 20
128.5357401701
 30
0.0
  0
SPLINE
  5
422
100
AcDbEntity
  8
0
100
AcDbSpline
 62
7
  6
BYLAYER
 70
0
 71
3
 72
9
 73
5
 74
0
 42
0.0000001
 43
0.0000001
 44
0.0000000001
 40
0.0
 40
0.0
 40
0.0
 40
0.0
 40
0.2191143001
 40
1.0
 40
1.0
 40
1.0
 40
1.0
 10
73.7953155832
 20
128.5270857519
 30
0.0
 10
73.8739569074
 20
128.5219785671
 30
0.0
 10
74.2329932137
 20
128.5006931903
 30
0.0
 10
74.5924073891
 20
128.4861476865
 30
0.0
 10
74.8731208519
 20
128.4772464096
 30
0.0
  0
SPLINE
  5
423
100
AcDbEntity
  8
0
100
AcDbSpline
 62
7
  6
BYLAYER
 70
0
 71
3
 72
9
 73
5
 74
0
 42
0.0000001
 43
0.0000001
 44
0.0000000001
 40
0.0
 40
0.0
 40
0.0
 40
0.0
 40
0.2402866421
 40
1.0
 40
1.0
 40
1.0
 40
1.0
 10
75.0647052501
 20
128.4715798402
 30
0.0
 10
75.1752295394
 20
128.4685429531
 30
0.0
 10
75.6352429036
 20
128.4575798262
 30
0.0
 10
76.095398679
 20
128.4527144739
 30
0.0
 10
76.4449744762
 20
128.4522456803
 30
0.0
  0
LINE
  5
424
100
AcDbEntity
  8
0
100
AcDbLine
 62
7
  6
BYLAYER
 10
76.4449744762
 20
128.4522456803
 11
76.5173785811
 21
128.4521965366
  0
SPLINE
  5
425
100
AcDbEntity
  8
0
100
AcDbSpline
 62
7
  6
BYLAYER
 70
0
 71
3
 72
13
 73
9
 74
0
 42
0.0000001
 43
0.0000001
 44
0.0000000001
 40
0.0
 40
0.0
 40
0.0
 40
0.0
 40
0.2900951866
 40
0.5676940232
 40
0.6965185063
 40
0.8144457867
 40
0.9170635296
 40
1.0
 40
1.0
 40
1.0
 40
1.0
 10
71.4173785788
 20
126.0789709236
 30
0.0
 10
71.4736385167
 20
126.1585344907
 30
0.0
 10
71.5837157833
 20
126.3142277121
 30
0.0
 10
71.7149569415
 20
126.5080360153
 30
0.0
 10
71.8068863917
 20
126.6582822731
 30
0.0
 10
71.8629302763
 20
126.7615995546
 30
0.0
 10
71.9030061923
 20
126.8552770158
 30
0.0
 10
71.9173785788
 20
126.917138753
 30
0.0
 10
71.9173785788
 20
126.9449977131
 30
0.0
  0
SPLINE
  5
426
100
AcDbEntity
  8
0
100
AcDbSpline
 62
7
  6
BYLAYER
 70
0
 71
3
 72
11
 73
7
 74
0
 42
0.0000001
 43
0.0000001
 44
0.0000000001
 40
0.0
 40
0.0
 40
0.0
 40
0.0
 40
0.2513900342
 40
0.5018725118
 40
0.7512823697
 40
1.0
 40
1.0
 40
1.0
 40
1.0
 10
82.5173785788
 20
127.0670962926
 30
0.0
 10
82.5823821886
 20
127.0670962926
 30
0.0
 10
82.7135628349
 20
127.0415133169
 30
0.0
 10
82.8796803031
 20
126.9317611603
 30
0.0
 10
82.9912525081
 20
126.7675941629
 30
0.0
 10
83.0173785897
 20
126.6373461139
 30
0.0
 10
83.0173785788
 20
126.5730335255
 30
0.0
  0
SPLINE
  5
427
100
AcDbEntity
  8
0
100
AcDbSpline
 62
7
  6
BYLAYER
 70
0
 71
3
 72
15
 73
11
 74
0
 42
0.0000001
 43
0.0000001
 44
0.0000000001
 40
0.0
 40
0.0
 40
0.0
 40
0.0
 40
0.3657958906
 40
0.5320403142
 40
0.679513254
 40
0.8034449693
 40
0.8996728783
 40
0.9651285575
 40
0.986069792
 40
1.0
 40
1.0
 40
1.0
 40
1.0
 10
31.9173785788
 20
114.1304838363
 30
0.0
 10
31.8535373556
 20
114.1350544011
 30
0.0
 10
31.761018284
 20
114.1474950644
 30
0.0
 10
31.6446576335
 20
114.1720635719
 30
0.0
 10
31.5706004529
 20
114.1916214513
 30
0.0
 10
31.5093121987
 20
114.2114615328
 30
0.0
 10
31.4630949166
 20
114.2302795783
 30
0.0
 10
31.4345982835
 20
114.2454978058
 30
0.0
 10
31.4213102443
 20
114.2569019503
 30
0.0
 10
31.4178519027
 20
114.2623303701
 30
0.0
 10
31.4174718431
 20
114.2647379756
 30
0.0
  0
SPLINE
  5
428
100
AcDbEntity
  8
0
100
AcDbSpline
 62
7
  6
BYLAYER
 70
0
 71
3
 72
13
 73
9
 74
0
 42
0.0000001
 43
0.0000001
 44
0.0000000001
 40
0.0
 40
0.0
 40
0.0
 40
0.0
 40
0.0829348815
 40
0.1855502502
 40
0.3034770461
 40
0.4323022825
 40
0.7099025088
 40
1.0
 40
1.0
 40
1.0
 40
1.0
 10
42.5173785788
 20
126.9449976857
 30
0.0
 10
42.5173785788
 20
126.9171392555
 30
0.0
 10
42.5317486069
 20
126.8552784352
 30
0.0
 10
42.5718255472
 20
126.7616027537
 30
0.0
 10
42.6278693073
 20
126.6582863267
 30
0.0
 10
42.7197992408
 20
126.5080396465
 30
0.0
 10
42.8510395783
 20
126.3142289848
 30
0.0
 10
42.9611181863
 20
126.1585351337
 30
0.0
 10
43.0173785788
 20
126.0789709236
 30
0.0
  0
SPLINE
  5
429
100
AcDbEntity
  8
0
100
AcDbSpline
 62
7
  6
BYLAYER
 70
0
 71
3
 72
14
 73
10
 74
0
 42
0.0000001
 43
0.0000001
 44
0.0000000001
 40
0.0
 40
0.0
 40
0.0
 40
0.0
 40
0.3348067171
 40
0.4907496337
 40
0.6332997196
 40
0.7585994568
 40
0.8632001188
 40
0.9444466672
 40
1.0
 40
1.0
 40
1.0
 40
1.0
 10
37.9173785821
 20
128.7218802954
 30
0.0
 10
37.5333096202
 20
128.721881806
 30
0.0
 10
36.9703504463
 20
128.7208726244
 30
0.0
 10
36.2438830656
 20
128.7163577749
 30
0.0
 10
35.7577568125
 20
128.7112887466
 30
0.0
 10
35.3305699195
 20
128.7040358504
 30
0.0
 10
34.9737417312
 20
128.6944043973
 30
0.0
 10
34.6971259958
 20
128.6820858857
 30
0.0
 10
34.540493385
 20
128.6706208351
 30
0.0
 10
34.4772568438
 20
128.6627276692
 30
0.0
  0
SPLINE
  5
42A
100
AcDbEntity
  8
0
100
AcDbSpline
 62
7
  6
BYLAYER
 70
0
 71
3
 72
20
 73
16
 74
0
 42
0.0000001
 43
0.0000001
 44
0.0000000001
 40
0.0
 40
0.0
 40
0.0
 40
0.0
 40
0.205956476
 40
0.2878840139
 40
0.3558083711
 40
0.4098687639
 40
0.4504412662
 40
0.4785864826
 40
0.4977770352
 40
0.5447755704
 40
0.5861432907
 40
0.6410233325
 40
0.7097663279
 40
0.7924994262
 40
1.0
 40
1.0
 40
1.0
 40
1.0
 10
34.4772568438
 20
128.6627276692
 30
0.0
 10
34.4612734546
 20
128.6607326274
 30
0.0
 10
34.43896345
 20
128.657617224
 30
0.0
 10
34.4116176878
 20
128.6524149101
 30
0.0
 10
34.3961035358
 20
128.6487175511
 30
0.0
 10
34.3839142696
 20
128.6450089596
 30
0.0
 10
34.3751302109
 20
128.6411121582
 30
0.0
 10
34.3692521917
 20
128.6373925137
 30
0.0
 10
34.3657037686
 20
128.6299835014
 30
0.0
 10
34.3742046159
 20
128.6232522547
 30
0.0
 10
34.3837326864
 20
128.6187892462
 30
0.0
 10
34.396096685
 20
128.6142694113
 30
0.0
 10
34.4115328312
 20
128.6098522764
 30
0.0
 10
34.4388686851
 20
128.6032468482
 30
0.0
 10
34.4611680758
 20
128.5990355925
 30
0.0
 10
34.4771558321
 20
128.5962525301
 30
0.0
  0
SPLINE
  5
42B
100
AcDbEntity
  8
0
100
AcDbSpline
 62
7
  6
BYLAYER
 70
0
 71
3
 72
10
 73
6
 74
0
 42
0.0000001
 43
0.0000001
 44
0.0000000001
 40
0.0
 40
0.0
 40
0.0
 40
0.0
 40
0.1767449668
 40
0.4037651693
 40
1.0
 40
1.0
 40
1.0
 40
1.0
 10
34.4904199069
 20
128.5940036086
 30
0.0
 10
34.5241929125
 20
128.5884219985
 30
0.0
 10
34.6016893068
 20
128.5777821277
 30
0.0
 10
34.7942198878
 20
128.5566868069
 30
0.0
 10
34.9531935825
 20
128.5439830074
 30
0.0
 10
35.0683748085
 20
128.5357380607
 30
0.0
  0
SPLINE
  5
42C
100
AcDbEntity
  8
0
100
AcDbSpline
 62
7
  6
BYLAYER
 70
0
 71
3
 72
9
 73
5
 74
0
 42
0.0000001
 43
0.0000001
 44
0.0000000001
 40
0.0
 40
0.0
 40
0.0
 40
0.0
 40
0.2191151083
 40
1.0
 40
1.0
 40
1.0
 40
1.0
 10
35.195342329
 20
128.527084015
 30
0.0
 10
35.2739843019
 20
128.5219768886
 30
0.0
 10
35.6330222401
 20
128.500691823
 30
0.0
 10
35.9924380342
 20
128.486146514
 30
0.0
 10
36.2731524701
 20
128.477245407
 30
0.0
  0
SPLINE
  5
42D
100
AcDbEntity
  8
0
100
AcDbSpline
 62
7
  6
BYLAYER
 70
0
 71
3
 72
9
 73
5
 74
0
 42
0.0000001
 43
0.0000001
 44
0.0000000001
 40
0.0
 40
0.0
 40
0.0
 40
0.0
 40
0.2402869607
 40
1.0
 40
1.0
 40
1.0
 40
1.0
 10
36.4647278431
 20
128.4715792194
 30
0.0
 10
36.5752511944
 20
128.4685424121
 30
0.0
 10
37.0352600437
 20
128.4575795936
 30
0.0
 10
37.4954112983
 20
128.4527143993
 30
0.0
 10
37.8449835144
 20
128.4522456682
 30
0.0
  0
LINE
  5
42E
100
AcDbEntity
  8
0
100
AcDbLine
 62
7
  6
BYLAYER
 10
37.8449835144
 20
128.4522456682
 11
37.9173785811
 21
128.4521965366
  0
LINE
  5
42F
100
AcDbEntity
  8
0
100
AcDbLine
 62
7
  6
BYLAYER
 10
37.9173785763
 20
128.4521966741
 11
37.9849899429
 21
128.452239609
  0
SPLINE
  5
430
100
AcDbEntity
  8
0
100
AcDbSpline
 62
7
  6
BYLAYER
 70
0
 71
3
 72
9
 73
5
 74
0
 42
0.0000001
 43
0.0000001
 44
0.0000000001
 40
0.0
 40
0.0
 40
0.0
 40
0.0
 40
0.2569685103
 40
1.0
 40
1.0
 40
1.0
 40
1.0
 10
37.9849899429
 20
128.452239609
 30
0.0
 10
38.102557282
 20
128.4523869959
 30
0.0
 10
38.5600698765
 20
128.4544458319
 30
0.0
 10
39.0175644758
 20
128.461989217
 30
0.0
 10
39.3573882086
 20
128.4712336335
 30
0.0
  0
SPLINE
  5
431
100
AcDbEntity
  8
0
100
AcDbSpline
 62
7
  6
BYLAYER
 70
0
 71
3
 72
9
 73
5
 74
0
 42
0.0000001
 43
0.0000001
 44
0.0000000001
 40
0.0
 40
0.0
 40
0.0
 40
0.0
 40
0.278036565
 40
1.0
 40
1.0
 40
1.0
 40
1.0
 10
39.5287107858
 20
128.4762146067
 30
0.0
 10
39.6301086026
 20
128.4793546844
 30
0.0
 10
39.9947559832
 20
128.4919297331
 30
0.0
 10
40.3592746323
 20
128.509112686
 30
0.0
 10
40.6221554722
 20
128.5259701443
 30
0.0
  0
SPLINE
  5
432
100
AcDbEntity
  8
0
100
AcDbSpline
 62
7
  6
BYLAYER
 70
0
 71
3
 72
10
 73
6
 74
0
 42
0.0000001
 43
0.0000001
 44
0.0000000001
 40
0.0
 40
0.0
 40
0.0
 40
0.0
 40
0.5957932688
 40
0.822991791
 40
1.0
 40
1.0
 40
1.0
 40
1.0
 10
40.7387600749
 20
128.5337823183
 30
0.0
 10
40.8582787133
 20
128.542152076
 30
0.0
 10
41.0233097481
 20
128.555079721
 30
0.0
 10
41.2232607025
 20
128.5765756851
 30
0.0
 10
41.3038409902
 20
128.5874310166
 30
0.0
 10
41.3389779477
 20
128.5931264224
 30
0.0
  0
SPLINE
  5
433
100
AcDbEntity
  8
0
100
AcDbSpline
 62
7
  6
BYLAYER
 70
0
 71
3
 72
19
 73
15
 74
0
 42
0.0000001
 43
0.0000001
 44
0.0000000001
 40
0.0
 40
0.0
 40
0.0
 40
0.0
 40
0.2096957427
 40
0.2935998199
 40
0.3635657272
 40
0.4622483703
 40
0.5116359037
 40
0.5307459118
 40
0.5580441106
 40
0.5974553256
 40
0.6501992201
 40
0.7167110853
 40
0.7971575256
 40
1.0
 40
1.0
 40
1.0
 40
1.0
 10
41.3606897981
 20
128.5967935769
 30
0.0
 10
41.3760738943
 20
128.5995065613
 30
0.0
 10
41.3976111579
 20
128.6036673498
 30
0.0
 10
41.4238371224
 20
128.6099737737
 30
0.0
 10
41.4421629938
 20
128.6154552108
 30
0.0
 10
41.4563201018
 20
128.6202922847
 30
0.0
 10
41.4687468591
 20
128.6293992359
 30
0.0
 10
41.4660399725
 20
128.6368295334
 30
0.0
 10
41.4606515249
 20
128.6405412423
 30
0.0
 10
41.4526224664
 20
128.6443355194
 30
0.0
 10
41.4413338044
 20
128.6479719131
 30
0.0
 10
41.4269062706
 20
128.6515898747
 30
0.0
 10
41.401341201
 20
128.6566970316
 30
0.0
 10
41.3804481186
 20
128.6597514497
 30
0.0
 10
41.3654646912
 20
128.6617103904
 30
0.0
  0
SPLINE
  5
434
100
AcDbEntity
  8
0
100
AcDbSpline
 62
7
  6
BYLAYER
 70
0
 71
3
 72
14
 73
10
 74
0
 42
0.0000001
 43
0.0000001
 44
0.0000000001
 40
0.0
 40
0.0
 40
0.0
 40
0.0
 40
0.0544107401
 40
0.1349041437
 40
0.2391342902
 40
0.3644083699
 40
0.5072436548
 40
0.6637141135
 40
1.0
 40
1.0
 40
1.0
 40
1.0
 10
41.3654646912
 20
128.6617103904
 30
0.0
 10
41.3034305286
 20
128.6698207674
 30
0.0
 10
41.1486130594
 20
128.6814474283
 30
0.0
 10
40.8739760634
 20
128.6939752704
 30
0.0
 10
40.5176368765
 20
128.7037507807
 30
0.0
 10
40.0895844912
 20
128.7111288443
 30
0.0
 10
39.6014196962
 20
128.7162769533
 30
0.0
 10
38.8706234065
 20
128.7208606459
 30
0.0
 10
38.3040439481
 20
128.7218817175
 30
0.0
 10
37.9173785759
 20
128.7218802557
 30
0.0
  0
SPLINE
  5
435
100
AcDbEntity
  8
0
100
AcDbSpline
 62
7
  6
BYLAYER
 70
0
 71
3
 72
12
 73
8
 74
0
 42
0.0000001
 43
0.0000001
 44
0.0000000001
 40
0.0
 40
0.0
 40
0.0
 40
0.0
 40
0.1035118132
 40
0.2109662116
 40
0.4457004837
 40
0.7125315013
 40
1.0
 40
1.0
 40
1.0
 40
1.0
 10
92.111003116
 20
50.9828431373
 30
0.0
 10
92.1341980139
 20
50.9828429852
 30
0.0
 10
92.1817023743
 20
50.9896295244
 30
0.0
 10
92.2742102503
 20
51.02993874
 30
0.0
 10
92.3739992254
 20
51.1298000208
 30
0.0
 10
92.4476301273
 20
51.2934316678
 30
0.0
 10
92.4645565066
 20
51.4184272772
 30
0.0
 10
92.4645565066
 20
51.4828431373
 30
0.0
  0
SPLINE
  5
436
100
AcDbEntity
  8
0
100
AcDbSpline
 62
7
  6
BYLAYER
 70
0
 71
3
 72
9
 73
5
 74
0
 42
0.0000001
 43
0.0000001
 44
0.0000000001
 40
0.0
 40
0.0
 40
0.0
 40
0.0
 40
0.5187397616
 40
1.0
 40
1.0
 40
1.0
 40
1.0
 10
19.3377062904
 20
113.0976826669
 30
0.0
 10
19.2754344412
 20
113.1439263469
 30
0.0
 10
19.1397847713
 20
113.2140645291
 30
0.0
 10
18.9893390144
 20
113.2370198195
 30
0.0
 10
18.9173785788
 20
113.2370198192
 30
0.0
  0
SPLINE
  5
437
100
AcDbEntity
  8
0
100
AcDbSpline
 62
7
  6
BYLAYER
 70
0
 71
3
 72
9
 73
5
 74
0
 42
0.0000001
 43
0.0000001
 44
0.0000000001
 40
0.0
 40
0.0
 40
0.0
 40
0.0
 40
0.5190670134
 40
1.0
 40
1.0
 40
1.0
 40
1.0
 10
19.3377062902
 20
113.9822629568
 30
0.0
 10
19.2754988704
 20
114.028784907
 30
0.0
 10
19.1399363771
 20
114.0994284577
 30
0.0
 10
18.9893509423
 20
114.1225837498
 30
0.0
 10
18.9173785788
 20
114.1225837496
 30
0.0
  0
SPLINE
  5
438
100
AcDbEntity
  8
0
100
AcDbSpline
 62
7
  6
BYLAYER
 70
0
 71
3
 72
8
 73
4
 74
0
 42
0.0000001
 43
0.0000001
 44
0.0000000001
 40
0.0
 40
0.0
 40
0.0
 40
0.0
 40
1.0
 40
1.0
 40
1.0
 40
1.0
 10
84.0155449116
 20
112.3647985471
 30
0.0
 10
84.0167050531
 20
112.367771949
 30
0.0
 10
84.0173785788
 20
112.3710047618
 30
0.0
 10
84.0173785788
 20
112.3741964772
 30
0.0
  0
SPLINE
  5
439
100
AcDbEntity
  8
0
100
AcDbSpline
 62
7
  6
BYLAYER
 70
0
 71
3
 72
9
 73
5
 74
0
 42
0.0000001
 43
0.0000001
 44
0.0000000001
 40
0.0
 40
0.0
 40
0.0
 40
0.0
 40
0.517481296
 40
1.0
 40
1.0
 40
1.0
 40
1.0
 10
26.2971644819
 20
113.9823263266
 30
0.0
 10
26.3591684993
 20
114.0286865014
 30
0.0
 10
26.4946377375
 20
114.0993556386
 30
0.0
 10
26.6451898633
 20
114.1225837495
 30
0.0
 10
26.7173785788
 20
114.1225837493
 30
0.0
  0
SPLINE
  5
43A
100
AcDbEntity
  8
0
100
AcDbSpline
 62
7
  6
BYLAYER
 70
0
 71
3
 72
14
 73
10
 74
0
 42
0.0000001
 43
0.0000001
 44
0.0000000001
 40
0.0
 40
0.0
 40
0.0
 40
0.0
 40
0.0274257213
 40
0.0496620889
 40
0.0787590648
 40
0.1586092928
 40
0.2680595456
 40
0.5759569446
 40
1.0
 40
1.0
 40
1.0
 40
1.0
 10
95.5173785788
 20
114.122583747
 30
0.0
 10
95.5173781623
 20
114.1262242313
 30
0.0
 10
95.5118160564
 20
114.1318212826
 30
0.0
 10
95.5028080858
 20
114.1364470144
 30
0.0
 10
95.4863840284
 20
114.1427755026
 30
0.0
 10
95.4582361889
 20
114.1495841005
 30
0.0
 10
95.3931421327
 20
114.1608824962
 30
0.0
 10
95.2819835362
 20
114.1723224265
 30
0.0
 10
95.1850552721
 20
114.17904778
 30
0.0
 10
95.1288649935
 20
114.1823526305
 30
0.0
  0
SPLINE
  5
43B
100
AcDbEntity
  8
0
100
AcDbSpline
 62
7
  6
BYLAYER
 70
0
 71
3
 72
17
 73
13
 74
0
 42
0.0000001
 43
0.0000001
 44
0.0000000001
 40
0.0
 40
0.0
 40
0.0
 40
0.0
 40
0.0385485089
 40
0.086099211
 40
0.2044769322
 40
0.3460645099
 40
0.4998026425
 40
0.6535669301
 40
0.7952327308
 40
0.913737462
 40
0.9613662124
 40
1.0
 40
1.0
 40
1.0
 40
1.0
 10
95.1288649935
 20
114.1823526305
 30
0.0
 10
95.0387921544
 20
114.1876502956
 30
0.0
 10
94.8374353634
 20
114.1964178327
 30
0.0
 10
94.3590103197
 20
114.2098983705
 30
0.0
 10
93.6392551594
 20
114.2193408271
 30
0.0
 10
92.6709378747
 20
114.2246137033
 30
0.0
 10
91.6197740044
 20
114.226042158
 30
0.0
 10
90.5684270554
 20
114.2246272739
 30
0.0
 10
89.5995680105
 20
114.2193757079
 30
0.0
 10
88.8791495912
 20
114.2099604857
 30
0.0
 10
88.4000437937
 20
114.1965129278
 30
0.0
 10
88.1983037062
 20
114.1877639825
 30
0.0
 10
88.1080302235
 20
114.1824781205
 30
0.0
  0
SPLINE
  5
43C
100
AcDbEntity
  8
0
100
AcDbSpline
 62
7
  6
BYLAYER
 70
0
 71
3
 72
14
 73
10
 74
0
 42
0.0000001
 43
0.0000001
 44
0.0000000001
 40
0.0
 40
0.0
 40
0.0
 40
0.0
 40
0.4240678583
 40
0.7319971418
 40
0.8414564541
 40
0.9213061219
 40
0.9503972574
 40
0.9726222863
 40
1.0
 40
1.0
 40
1.0
 40
1.0
 10
88.1080302235
 20
114.1824781205
 30
0.0
 10
88.0515339131
 20
114.1791700428
 30
0.0
 10
87.9540752586
 20
114.1724361373
 30
0.0
 10
87.8423072443
 20
114.1609771544
 30
0.0
 10
87.7768513662
 20
114.1496537056
 30
0.0
 10
87.7485479886
 20
114.1428298102
 30
0.0
 10
87.7320305816
 20
114.1364845185
 30
0.0
 10
87.7229781356
 20
114.1318501594
 30
0.0
 10
87.7173786423
 20
114.1262373818
 30
0.0
 10
87.7173785788
 20
114.122583747
 30
0.0
  0
SPLINE
  5
43D
100
AcDbEntity
  8
0
100
AcDbSpline
 62
7
  6
BYLAYER
 70
0
 71
3
 72
12
 73
8
 74
0
 42
0.0000001
 43
0.0000001
 44
0.0000000001
 40
0.0
 40
0.0
 40
0.0
 40
0.0
 40
0.0331033684
 40
0.08736508
 40
0.2772773648
 40
0.5815350354
 40
1.0
 40
1.0
 40
1.0
 40
1.0
 10
87.7173785788
 20
114.122583747
 30
0.0
 10
87.7173788921
 20
114.1198927488
 30
0.0
 10
87.7218962773
 20
114.1133643607
 30
0.0
 10
87.741487373
 20
114.1024449516
 30
0.0
 10
87.7846069191
 20
114.0892627639
 30
0.0
 10
87.8570429212
 20
114.0740959125
 30
0.0
 10
87.9151517416
 20
114.0648520544
 30
0.0
 10
87.9488126404
 20
114.0599405152
 30
0.0
  0
SPLINE
  5
43E
100
AcDbEntity
  8
0
100
AcDbSpline
 62
7
  6
BYLAYER
 70
0
 71
3
 72
9
 73
5
 74
0
 42
0.0000001
 43
0.0000001
 44
0.0000000001
 40
0.0
 40
0.0
 40
0.0
 40
0.0
 40
0.2271281117
 40
1.0
 40
1.0
 40
1.0
 40
1.0
 10
87.9488126404
 20
114.0599405152
 30
0.0
 10
87.9606547499
 20
114.0582126057
 30
0.0
 10
88.0128308803
 20
114.0508631724
 30
0.0
 10
88.0651317644
 20
114.0444198803
 30
0.0
 10
88.1055874344
 20
114.0397609408
 30
0.0
  0
SPLINE
  5
43F
100
AcDbEntity
  8
0
100
AcDbSpline
 62
7
  6
BYLAYER
 70
0
 71
3
 72
9
 73
5
 74
0
 42
0.0000001
 43
0.0000001
 44
0.0000000001
 40
0.0
 40
0.0
 40
0.0
 40
0.0
 40
0.2143108947
 40
1.0
 40
1.0
 40
1.0
 40
1.0
 10
88.2612033121
 20
114.0232787687
 30
0.0
 10
88.3151934783
 20
114.0179912152
 30
0.0
 10
88.5672943205
 20
113.995122996
 30
0.0
 10
88.8198935038
 20
113.9780584295
 30
0.0
 10
89.0184360561
 20
113.9664554971
 30
0.0
  0
SPLINE
  5
440
100
AcDbEntity
  8
0
100
AcDbSpline
 62
7
  6
BYLAYER
 70
0
 71
3
 72
9
 73
5
 74
0
 42
0.0000001
 43
0.0000001
 44
0.0000000001
 40
0.0
 40
0.0
 40
0.0
 40
0.0
 40
0.283977861
 40
1.0
 40
1.0
 40
1.0
 40
1.0
 10
94.2212313831
 20
113.9667429485
 30
0.0
 10
94.2923029875
 20
113.9709083095
 30
0.0
 10
94.5425132261
 20
113.9865210284
 30
0.0
 10
94.7925439787
 20
114.005589338
 30
0.0
 10
94.97120044
 20
114.0230485565
 30
0.0
  0
SPLINE
  5
441
100
AcDbEntity
  8
0
100
AcDbSpline
 62
7
  6
BYLAYER
 70
0
 71
3
 72
9
 73
5
 74
0
 42
0.0000001
 43
0.0000001
 44
0.0000000001
 40
0.0
 40
0.0
 40
0.0
 40
0.0
 40
0.2726548582
 40
1.0
 40
1.0
 40
1.0
 40
1.0
 10
95.1261697699
 20
114.039416029
 30
0.0
 10
95.1405070485
 20
114.0410611874
 30
0.0
 10
95.1930725688
 20
114.0472509811
 30
0.0
 10
95.245566824
 20
114.054074117
 30
0.0
 10
95.2836646022
 20
114.0596085858
 30
0.0
  0
SPLINE
  5
442
100
AcDbEntity
  8
0
100
AcDbSpline
 62
7
  6
BYLAYER
 70
0
 71
3
 72
12
 73
8
 74
0
 42
0.0000001
 43
0.0000001
 44
0.0000000001
 40
0.0
 40
0.0
 40
0.0
 40
0.0
 40
0.4185666415
 40
0.7228940325
 40
0.9128010765
 40
0.9670088786
 40
1.0
 40
1.0
 40
1.0
 40
1.0
 10
95.2836646022
 20
114.0596085858
 30
0.0
 10
95.3176544896
 20
114.0645463008
 30
0.0
 10
95.3763320916
 20
114.0738408393
 30
0.0
 10
95.4494769271
 20
114.0890853194
 30
0.0
 10
95.4930222009
 20
114.1023419761
 30
0.0
 10
95.512804864
 20
114.113308142
 30
0.0
 10
95.5173785379
 20
114.1198765676
 30
0.0
 10
95.5173785788
 20
114.122583747
 30
0.0
  0
SPLINE
  5
443
100
AcDbEntity
  8
0
100
AcDbSpline
 62
7
  6
BYLAYER
 70
0
 71
3
 72
29
 73
25
 74
0
 42
0.0000001
 43
0.0000001
 44
0.0000000001
 40
0.0
 40
0.0
 40
0.0
 40
0.0
 40
0.0149902859
 40
0.0209018163
 40
0.0278084864
 40
0.0446758834
 40
0.0656399804
 40
0.0906121562
 40
0.1194143643
 40
0.1518277936
 40
0.2263151103
 40
0.311383994
 40
0.5000043402
 40
0.6886208938
 40
0.7736870704
 40
0.8481727468
 40
0.8805857438
 40
0.9093877137
 40
0.9343597572
 40
0.9553238075
 40
0.9721913065
 40
0.9790980281
 40
0.9850095996
 40
1.0
 40
1.0
 40
1.0
 40
1.0
 10
95.5173785788
 20
113.2370198168
 30
0.0
 10
95.5173771073
 20
113.2767705484
 30
0.0
 10
95.4636764193
 20
113.3213796314
 30
0.0
 10
95.4002924369
 20
113.3544739547
 30
0.0
 10
95.3272260881
 20
113.3856428619
 30
0.0
 10
95.2141555562
 20
113.4209922877
 30
0.0
 10
95.0518372216
 20
113.4592607936
 30
0.0
 10
94.8568370034
 20
113.4947575973
 30
0.0
 10
94.630589511
 20
113.527484619
 30
0.0
 10
94.2730931849
 20
113.5688621029
 30
0.0
 10
93.765575223
 20
113.6101576172
 30
0.0
 10
92.8434390847
 20
113.6577361187
 30
0.0
 10
91.6173540651
 20
113.6786179247
 30
0.0
 10
90.3912762644
 20
113.6577345138
 30
0.0
 10
89.4691617371
 20
113.6101561802
 30
0.0
 10
88.961656439
 20
113.5688613685
 30
0.0
 10
88.6041662247
 20
113.5274843927
 30
0.0
 10
88.3779208366
 20
113.4947577016
 30
0.0
 10
88.1829216915
 20
113.4592611958
 30
0.0
 10
88.0206035325
 20
113.4209927999
 30
0.0
 10
87.9075326282
 20
113.385643792
 30
0.0
 10
87.834465642
 20
113.3544748413
 30
0.0
 10
87.7710815884
 20
113.3213800308
 30
0.0
 10
87.7173788192
 20
113.2767708521
 30
0.0
 10
87.7173785788
 20
113.2370198168
 30
0.0
  0
SPLINE
  5
444
100
AcDbEntity
  8
0
100
AcDbSpline
 62
7
  6
BYLAYER
 70
0
 71
3
 72
13
 73
9
 74
0
 42
0.0000001
 43
0.0000001
 44
0.0000000001
 40
0.0
 40
0.0
 40
0.0
 40
0.0
 40
0.0610706694
 40
0.133216671
 40
0.2227577267
 40
0.3329413105
 40
0.6204471182
 40
1.0
 40
1.0
 40
1.0
 40
1.0
 10
87.7173785788
 20
113.2370198168
 30
0.0
 10
87.7173789428
 20
113.22741482
 30
0.0
 10
87.7225680575
 20
113.2063598863
 30
0.0
 10
87.7430361109
 20
113.1773450951
 30
0.0
 10
87.775163361
 20
113.1487801616
 30
0.0
 10
87.839683107
 20
113.1070767896
 30
0.0
 10
87.9521357324
 20
113.0577123959
 30
0.0
 10
88.0519983539
 20
113.025411157
 30
0.0
 10
88.1093291788
 20
113.0087783226
 30
0.0
  0
SPLINE
  5
445
100
AcDbEntity
  8
0
100
AcDbSpline
 62
7
  6
BYLAYER
 70
0
 71
3
 72
9
 73
5
 74
0
 42
0.0000001
 43
0.0000001
 44
0.0000000001
 40
0.0
 40
0.0
 40
0.0
 40
0.0
 40
0.2275369292
 40
1.0
 40
1.0
 40
1.0
 40
1.0
 10
88.1561437567
 20
112.9956109114
 30
0.0
 10
88.1805993643
 20
112.98893772
 30
0.0
 10
88.2884211473
 20
112.9608637641
 30
0.0
 10
88.3973575822
 20
112.9372007256
 30
0.0
 10
88.4817867953
 20
112.9205288688
 30
0.0
  0
SPLINE
  5
446
100
AcDbEntity
  8
0
100
AcDbSpline
 62
7
  6
BYLAYER
 70
0
 71
3
 72
9
 73
5
 74
0
 42
0.0000001
 43
0.0000001
 44
0.0000000001
 40
0.0
 40
0.0
 40
0.0
 40
0.0
 40
0.4603141333
 40
1.0
 40
1.0
 40
1.0
 40
1.0
 10
88.5109168106
 20
112.9148448426
 30
0.0
 10
88.6626990875
 20
112.8855777748
 30
0.0
 10
88.9945099275
 20
112.8327584089
 30
0.0
 10
89.3281711902
 20
112.7941527834
 30
0.0
 10
89.5085221842
 20
112.7763041733
 30
0.0
  0
SPLINE
  5
447
100
AcDbEntity
  8
0
100
AcDbSpline
 62
7
  6
BYLAYER
 70
0
 71
3
 72
9
 73
5
 74
0
 42
0.0000001
 43
0.0000001
 44
0.0000000001
 40
0.0
 40
0.0
 40
0.0
 40
0.0
 40
0.4803537139
 40
1.0
 40
1.0
 40
1.0
 40
1.0
 10
89.5409741699
 20
112.7731253805
 30
0.0
 10
89.7951991302
 20
112.7484790389
 30
0.0
 10
90.3256445606
 20
112.7092697346
 30
0.0
 10
90.8571293428
 20
112.6896374564
 30
0.0
 10
91.1333846465
 20
112.6841515896
 30
0.0
  0
SPLINE
  5
448
100
AcDbEntity
  8
0
100
AcDbSpline
 62
7
  6
BYLAYER
 70
0
 71
3
 72
10
 73
6
 74
0
 42
0.0000001
 43
0.0000001
 44
0.0000000001
 40
0.0
 40
0.0
 40
0.0
 40
0.0
 40
0.5583984941
 40
0.798409085
 40
1.0
 40
1.0
 40
1.0
 40
1.0
 10
92.1238288909
 20
112.6846081074
 30
0.0
 10
92.6123770781
 20
112.6947663902
 30
0.0
 10
93.3109899635
 20
112.7294344968
 30
0.0
 10
94.1811354949
 20
112.8238653091
 30
0.0
 10
94.5632175233
 20
112.8835440814
 30
0.0
 10
94.7363748438
 20
112.9172741312
 30
0.0
  0
SPLINE
  5
449
100
AcDbEntity
  8
0
100
AcDbSpline
 62
7
  6
BYLAYER
 70
0
 71
3
 72
9
 73
5
 74
0
 42
0.0000001
 43
0.0000001
 44
0.0000000001
 40
0.0
 40
0.0
 40
0.0
 40
0.0
 40
0.2731368656
 40
1.0
 40
1.0
 40
1.0
 40
1.0
 10
94.7534836104
 20
112.9206302801
 30
0.0
 10
94.7842578202
 20
112.9267097047
 30
0.0
 10
94.8967554407
 20
112.9497976065
 30
0.0
 10
95.0086118488
 20
112.9762367853
 30
0.0
 10
95.0890710583
 20
112.9984832074
 30
0.0
  0
SPLINE
  5
44A
100
AcDbEntity
  8
0
100
AcDbSpline
 62
7
  6
BYLAYER
 70
0
 71
3
 72
13
 73
9
 74
0
 42
0.0000001
 43
0.0000001
 44
0.0000000001
 40
0.0
 40
0.0
 40
0.0
 40
0.0
 40
0.3796815941
 40
0.6672535088
 40
0.7774345995
 40
0.8669433043
 40
0.9390232493
 40
1.0
 40
1.0
 40
1.0
 40
1.0
 10
95.1235991341
 20
113.0082483316
 30
0.0
 10
95.1811916845
 20
113.0249153119
 30
0.0
 10
95.281508903
 20
113.0572845586
 30
0.0
 10
95.3944849671
 20
113.1067596872
 30
0.0
 10
95.4593135598
 20
113.1485640091
 30
0.0
 10
95.4915919539
 20
113.1771948918
 30
0.0
 10
95.5121606094
 20
113.2062768461
 30
0.0
 10
95.5173785406
 20
113.2273909437
 30
0.0
 10
95.5173785788
 20
113.2370198168
 30
0.0
  0
SPLINE
  5
44B
100
AcDbEntity
  8
0
100
AcDbSpline
 62
7
  6
BYLAYER
 70
0
 71
3
 72
9
 73
5
 74
0
 42
0.0000001
 43
0.0000001
 44
0.0000000001
 40
0.0
 40
0.0
 40
0.0
 40
0.0
 40
0.5153355271
 40
1.0
 40
1.0
 40
1.0
 40
1.0
 10
26.2973220373
 20
113.0978393641
 30
0.0
 10
26.3591522623
 20
113.1437335275
 30
0.0
 10
26.4945988571
 20
113.2139095752
 30
0.0
 10
26.6449598298
 20
113.2370198185
 30
0.0
 10
26.7173785788
 20
113.2370198184
 30
0.0
  0
SPLINE
  5
44C
100
AcDbEntity
  8
0
100
AcDbSpline
 62
7
  6
BYLAYER
 70
0
 71
3
 72
11
 73
7
 74
0
 42
0.0000001
 43
0.0000001
 44
0.0000000001
 40
0.0
 40
0.0
 40
0.0
 40
0.0
 40
0.2516776239
 40
0.5022998183
 40
0.7516390833
 40
1.0
 40
1.0
 40
1.0
 40
1.0
 10
99.1173785788
 20
112.3647985471
 30
0.0
 10
99.1823622418
 20
112.3647985471
 30
0.0
 10
99.3134480794
 20
112.3393074562
 30
0.0
 10
99.4796131008
 20
112.2299929345
 30
0.0
 10
99.5911996239
 20
112.0662540235
 30
0.0
 10
99.6173785788
 20
111.9363129089
 30
0.0
 10
99.6173785788
 20
111.8721856263
 30
0.0
  0
SPLINE
  5
44D
100
AcDbEntity
  8
0
100
AcDbSpline
 62
7
  6
BYLAYER
 70
0
 71
3
 72
16
 73
12
 74
0
 42
0.0000001
 43
0.0000001
 44
0.0000000001
 40
0.0
 40
0.0
 40
0.0
 40
0.0
 40
0.3150451166
 40
0.4672101781
 40
0.6119042537
 40
0.7450677002
 40
0.8604734679
 40
0.9087848054
 40
0.9490396906
 40
0.9798705935
 40
1.0
 40
1.0
 40
1.0
 40
1.0
 10
83.2173785788
 20
111.4780952897
 30
0.0
 10
83.3034035064
 20
111.5693385041
 30
0.0
 10
83.4309888146
 20
111.7046423384
 30
0.0
 10
83.5974462026
 20
111.8824499908
 30
0.0
 10
83.7138774085
 20
112.0079221586
 30
0.0
 10
83.819457444
 20
112.123485954
 30
0.0
 10
83.8980486565
 20
112.2117663998
 30
0.0
 10
83.9505452637
 20
112.2736822283
 30
0.0
 10
83.980423772
 20
112.3107036879
 30
0.0
 10
84.0017752866
 20
112.3399744921
 30
0.0
 10
84.0126325266
 20
112.3573342063
 30
0.0
 10
84.0155449116
 20
112.3647985471
 30
0.0
  0
SPLINE
  5
44E
100
AcDbEntity
  8
0
100
AcDbSpline
 62
7
  6
BYLAYER
 70
0
 71
3
 72
8
 73
4
 74
0
 42
0.0000001
 43
0.0000001
 44
0.0000000001
 40
0.0
 40
0.0
 40
0.0
 40
0.0
 40
1.0
 40
1.0
 40
1.0
 40
1.0
 10
30.4173785788
 20
112.3741964772
 30
0.0
 10
30.4173785788
 20
112.3720904568
 30
0.0
 10
30.4176635418
 20
112.3699694147
 30
0.0
 10
30.4181937141
 20
112.3679312196
 30
0.0
  0
SPLINE
  5
44F
100
AcDbEntity
  8
0
100
AcDbSpline
 62
7
  6
BYLAYER
 70
0
 71
3
 72
14
 73
10
 74
0
 42
0.0000001
 43
0.0000001
 44
0.0000000001
 40
0.0
 40
0.0
 40
0.0
 40
0.0
 40
0.0274257213
 40
0.0496620889
 40
0.0787590648
 40
0.1586092928
 40
0.2680595456
 40
0.5759569446
 40
1.0
 40
1.0
 40
1.0
 40
1.0
 10
26.7173785788
 20
114.122583747
 30
0.0
 10
26.7173781623
 20
114.1262242313
 30
0.0
 10
26.7118160564
 20
114.1318212826
 30
0.0
 10
26.7028080858
 20
114.1364470144
 30
0.0
 10
26.6863840284
 20
114.1427755026
 30
0.0
 10
26.6582361889
 20
114.1495841005
 30
0.0
 10
26.5931421327
 20
114.1608824962
 30
0.0
 10
26.4819835362
 20
114.1723224265
 30
0.0
 10
26.3850552721
 20
114.17904778
 30
0.0
 10
26.3288649935
 20
114.1823526305
 30
0.0
  0
SPLINE
  5
450
100
AcDbEntity
  8
0
100
AcDbSpline
 62
7
  6
BYLAYER
 70
0
 71
3
 72
17
 73
13
 74
0
 42
0.0000001
 43
0.0000001
 44
0.0000000001
 40
0.0
 40
0.0
 40
0.0
 40
0.0
 40
0.0385485089
 40
0.086099211
 40
0.2044769322
 40
0.3460645099
 40
0.4998026425
 40
0.6535669301
 40
0.7952327308
 40
0.913737462
 40
0.9613662124
 40
1.0
 40
1.0
 40
1.0
 40
1.0
 10
26.3288649935
 20
114.1823526305
 30
0.0
 10
26.2387921544
 20
114.1876502956
 30
0.0
 10
26.0374353634
 20
114.1964178327
 30
0.0
 10
25.5590103196
 20
114.2098983705
 30
0.0
 10
24.8392551593
 20
114.2193408271
 30
0.0
 10
23.8709378747
 20
114.2246137033
 30
0.0
 10
22.8197740044
 20
114.226042158
 30
0.0
 10
21.7684270553
 20
114.2246272739
 30
0.0
 10
20.7995680104
 20
114.2193757079
 30
0.0
 10
20.0791495912
 20
114.2099604857
 30
0.0
 10
19.6000437936
 20
114.1965129278
 30
0.0
 10
19.3983037061
 20
114.1877639825
 30
0.0
 10
19.3080302234
 20
114.1824781205
 30
0.0
  0
SPLINE
  5
451
100
AcDbEntity
  8
0
100
AcDbSpline
 62
7
  6
BYLAYER
 70
0
 71
3
 72
14
 73
10
 74
0
 42
0.0000001
 43
0.0000001
 44
0.0000000001
 40
0.0
 40
0.0
 40
0.0
 40
0.0
 40
0.4240678583
 40
0.7319971418
 40
0.8414564541
 40
0.9213061219
 40
0.9503972573
 40
0.9726222863
 40
1.0
 40
1.0
 40
1.0
 40
1.0
 10
19.3080302234
 20
114.1824781205
 30
0.0
 10
19.2515339131
 20
114.1791700428
 30
0.0
 10
19.1540752585
 20
114.1724361373
 30
0.0
 10
19.0423072443
 20
114.1609771544
 30
0.0
 10
18.9768513662
 20
114.1496537056
 30
0.0
 10
18.9485479886
 20
114.1428298102
 30
0.0
 10
18.9320305816
 20
114.1364845185
 30
0.0
 10
18.9229781356
 20
114.1318501594
 30
0.0
 10
18.9173786423
 20
114.1262373818
 30
0.0
 10
18.9173785788
 20
114.122583747
 30
0.0
  0
SPLINE
  5
452
100
AcDbEntity
  8
0
100
AcDbSpline
 62
7
  6
BYLAYER
 70
0
 71
3
 72
12
 73
8
 74
0
 42
0.0000001
 43
0.0000001
 44
0.0000000001
 40
0.0
 40
0.0
 40
0.0
 40
0.0
 40
0.0331033684
 40
0.08736508
 40
0.2772773648
 40
0.5815350354
 40
1.0
 40
1.0
 40
1.0
 40
1.0
 10
18.9173785788
 20
114.122583747
 30
0.0
 10
18.9173788921
 20
114.1198927488
 30
0.0
 10
18.9218962773
 20
114.1133643607
 30
0.0
 10
18.941487373
 20
114.1024449516
 30
0.0
 10
18.9846069191
 20
114.0892627639
 30
0.0
 10
19.0570429212
 20
114.0740959125
 30
0.0
 10
19.1151517416
 20
114.0648520544
 30
0.0
 10
19.1488126404
 20
114.0599405152
 30
0.0
  0
SPLINE
  5
453
100
AcDbEntity
  8
0
100
AcDbSpline
 62
7
  6
BYLAYER
 70
0
 71
3
 72
9
 73
5
 74
0
 42
0.0000001
 43
0.0000001
 44
0.0000000001
 40
0.0
 40
0.0
 40
0.0
 40
0.0
 40
0.2271281117
 40
1.0
 40
1.0
 40
1.0
 40
1.0
 10
19.1488126404
 20
114.0599405152
 30
0.0
 10
19.1606547499
 20
114.0582126057
 30
0.0
 10
19.2128308803
 20
114.0508631724
 30
0.0
 10
19.2651317644
 20
114.0444198803
 30
0.0
 10
19.3055874344
 20
114.0397609408
 30
0.0
  0
SPLINE
  5
454
100
AcDbEntity
  8
0
100
AcDbSpline
 62
7
  6
BYLAYER
 70
0
 71
3
 72
9
 73
5
 74
0
 42
0.0000001
 43
0.0000001
 44
0.0000000001
 40
0.0
 40
0.0
 40
0.0
 40
0.0
 40
0.2143108947
 40
1.0
 40
1.0
 40
1.0
 40
1.0
 10
19.4612033121
 20
114.0232787687
 30
0.0
 10
19.5151934783
 20
114.0179912152
 30
0.0
 10
19.7672943205
 20
113.995122996
 30
0.0
 10
20.0198935038
 20
113.9780584295
 30
0.0
 10
20.218436056
 20
113.9664554971
 30
0.0
  0
SPLINE
  5
455
100
AcDbEntity
  8
0
100
AcDbSpline
 62
7
  6
BYLAYER
 70
0
 71
3
 72
9
 73
5
 74
0
 42
0.0000001
 43
0.0000001
 44
0.0000000001
 40
0.0
 40
0.0
 40
0.0
 40
0.0
 40
0.283977861
 40
1.0
 40
1.0
 40
1.0
 40
1.0
 10
25.4212313831
 20
113.9667429485
 30
0.0
 10
25.4923029875
 20
113.9709083095
 30
0.0
 10
25.7425132262
 20
113.9865210284
 30
0.0
 10
25.9925439787
 20
114.005589338
 30
0.0
 10
26.17120044
 20
114.0230485565
 30
0.0
  0
SPLINE
  5
456
100
AcDbEntity
  8
0
100
AcDbSpline
 62
7
  6
BYLAYER
 70
0
 71
3
 72
9
 73
5
 74
0
 42
0.0000001
 43
0.0000001
 44
0.0000000001
 40
0.0
 40
0.0
 40
0.0
 40
0.0
 40
0.2726548582
 40
1.0
 40
1.0
 40
1.0
 40
1.0
 10
26.3261697699
 20
114.039416029
 30
0.0
 10
26.3405070485
 20
114.0410611874
 30
0.0
 10
26.3930725688
 20
114.0472509811
 30
0.0
 10
26.445566824
 20
114.054074117
 30
0.0
 10
26.4836646022
 20
114.0596085858
 30
0.0
  0
SPLINE
  5
457
100
AcDbEntity
  8
0
100
AcDbSpline
 62
7
  6
BYLAYER
 70
0
 71
3
 72
12
 73
8
 74
0
 42
0.0000001
 43
0.0000001
 44
0.0000000001
 40
0.0
 40
0.0
 40
0.0
 40
0.0
 40
0.4185666415
 40
0.7228940325
 40
0.9128010765
 40
0.9670088786
 40
1.0
 40
1.0
 40
1.0
 40
1.0
 10
26.4836646022
 20
114.0596085858
 30
0.0
 10
26.5176544896
 20
114.0645463008
 30
0.0
 10
26.5763320916
 20
114.0738408393
 30
0.0
 10
26.6494769271
 20
114.0890853194
 30
0.0
 10
26.6930222009
 20
114.1023419761
 30
0.0
 10
26.712804864
 20
114.113308142
 30
0.0
 10
26.7173785379
 20
114.1198765676
 30
0.0
 10
26.7173785788
 20
114.122583747
 30
0.0
  0
SPLINE
  5
458
100
AcDbEntity
  8
0
100
AcDbSpline
 62
7
  6
BYLAYER
 70
0
 71
3
 72
29
 73
25
 74
0
 42
0.0000001
 43
0.0000001
 44
0.0000000001
 40
0.0
 40
0.0
 40
0.0
 40
0.0
 40
0.0149902859
 40
0.0209018163
 40
0.0278084864
 40
0.0446758834
 40
0.0656399804
 40
0.0906121562
 40
0.1194143643
 40
0.1518277936
 40
0.2263151103
 40
0.311383994
 40
0.5000043402
 40
0.6886208938
 40
0.7736870704
 40
0.8481727468
 40
0.8805857438
 40
0.9093877137
 40
0.9343597572
 40
0.9553238075
 40
0.9721913065
 40
0.9790980281
 40
0.9850095996
 40
1.0
 40
1.0
 40
1.0
 40
1.0
 10
26.7173785788
 20
113.2370198168
 30
0.0
 10
26.7173771073
 20
113.2767705484
 30
0.0
 10
26.6636764193
 20
113.3213796314
 30
0.0
 10
26.6002924369
 20
113.3544739547
 30
0.0
 10
26.5272260881
 20
113.3856428619
 30
0.0
 10
26.4141555562
 20
113.4209922877
 30
0.0
 10
26.2518372216
 20
113.4592607936
 30
0.0
 10
26.0568370034
 20
113.4947575973
 30
0.0
 10
25.830589511
 20
113.527484619
 30
0.0
 10
25.4730931849
 20
113.5688621029
 30
0.0
 10
24.965575223
 20
113.6101576172
 30
0.0
 10
24.0434390847
 20
113.6577361187
 30
0.0
 10
22.8173540651
 20
113.6786179247
 30
0.0
 10
21.5912762644
 20
113.6577345138
 30
0.0
 10
20.6691617371
 20
113.6101561802
 30
0.0
 10
20.161656439
 20
113.5688613685
 30
0.0
 10
19.8041662247
 20
113.5274843927
 30
0.0
 10
19.5779208366
 20
113.4947577016
 30
0.0
 10
19.3829216915
 20
113.4592611958
 30
0.0
 10
19.2206035325
 20
113.4209927999
 30
0.0
 10
19.1075326282
 20
113.385643792
 30
0.0
 10
19.034465642
 20
113.3544748413
 30
0.0
 10
18.9710815884
 20
113.3213800308
 30
0.0
 10
18.9173788192
 20
113.2767708521
 30
0.0
 10
18.9173785788
 20
113.2370198168
 30
0.0
  0
SPLINE
  5
459
100
AcDbEntity
  8
0
100
AcDbSpline
 62
7
  6
BYLAYER
 70
0
 71
3
 72
13
 73
9
 74
0
 42
0.0000001
 43
0.0000001
 44
0.0000000001
 40
0.0
 40
0.0
 40
0.0
 40
0.0
 40
0.0610706694
 40
0.133216671
 40
0.2227577267
 40
0.3329413105
 40
0.6204471182
 40
1.0
 40
1.0
 40
1.0
 40
1.0
 10
18.9173785788
 20
113.2370198168
 30
0.0
 10
18.9173789428
 20
113.22741482
 30
0.0
 10
18.9225680575
 20
113.2063598863
 30
0.0
 10
18.9430361109
 20
113.1773450951
 30
0.0
 10
18.975163361
 20
113.1487801616
 30
0.0
 10
19.039683107
 20
113.1070767896
 30
0.0
 10
19.1521357324
 20
113.0577123959
 30
0.0
 10
19.2519983539
 20
113.025411157
 30
0.0
 10
19.3093291788
 20
113.0087783226
 30
0.0
  0
SPLINE
  5
45A
100
AcDbEntity
  8
0
100
AcDbSpline
 62
7
  6
BYLAYER
 70
0
 71
3
 72
9
 73
5
 74
0
 42
0.0000001
 43
0.0000001
 44
0.0000000001
 40
0.0
 40
0.0
 40
0.0
 40
0.0
 40
0.2275369292
 40
1.0
 40
1.0
 40
1.0
 40
1.0
 10
19.3561437567
 20
112.9956109114
 30
0.0
 10
19.3805993643
 20
112.98893772
 30
0.0
 10
19.4884211474
 20
112.9608637641
 30
0.0
 10
19.5973575822
 20
112.9372007256
 30
0.0
 10
19.6817867954
 20
112.9205288688
 30
0.0
  0
SPLINE
  5
45B
100
AcDbEntity
  8
0
100
AcDbSpline
 62
7
  6
BYLAYER
 70
0
 71
3
 72
9
 73
5
 74
0
 42
0.0000001
 43
0.0000001
 44
0.0000000001
 40
0.0
 40
0.0
 40
0.0
 40
0.0
 40
0.4603141332
 40
1.0
 40
1.0
 40
1.0
 40
1.0
 10
19.7109168103
 20
112.9148448427
 30
0.0
 10
19.8626990872
 20
112.8855777748
 30
0.0
 10
20.1945099273
 20
112.832758409
 30
0.0
 10
20.52817119
 20
112.7941527834
 30
0.0
 10
20.7085221841
 20
112.7763041733
 30
0.0
  0
SPLINE
  5
45C
100
AcDbEntity
  8
0
100
AcDbSpline
 62
7
  6
BYLAYER
 70
0
 71
3
 72
9
 73
5
 74
0
 42
0.0000001
 43
0.0000001
 44
0.0000000001
 40
0.0
 40
0.0
 40
0.0
 40
0.0
 40
0.4803537139
 40
1.0
 40
1.0
 40
1.0
 40
1.0
 10
20.7409741699
 20
112.7731253805
 30
0.0
 10
20.9951991302
 20
112.7484790389
 30
0.0
 10
21.5256445605
 20
112.7092697346
 30
0.0
 10
22.0571293426
 20
112.6896374564
 30
0.0
 10
22.3333846463
 20
112.6841515896
 30
0.0
  0
SPLINE
  5
45D
100
AcDbEntity
  8
0
100
AcDbSpline
 62
7
  6
BYLAYER
 70
0
 71
3
 72
10
 73
6
 74
0
 42
0.0000001
 43
0.0000001
 44
0.0000000001
 40
0.0
 40
0.0
 40
0.0
 40
0.0
 40
0.5583984942
 40
0.798409085
 40
1.0
 40
1.0
 40
1.0
 40
1.0
 10
23.3238288909
 20
112.6846081074
 30
0.0
 10
23.8123770782
 20
112.6947663902
 30
0.0
 10
24.5109899636
 20
112.7294344968
 30
0.0
 10
25.3811354951
 20
112.8238653091
 30
0.0
 10
25.7632175235
 20
112.8835440814
 30
0.0
 10
25.9363748439
 20
112.9172741312
 30
0.0
  0
SPLINE
  5
45E
100
AcDbEntity
  8
0
100
AcDbSpline
 62
7
  6
BYLAYER
 70
0
 71
3
 72
9
 73
5
 74
0
 42
0.0000001
 43
0.0000001
 44
0.0000000001
 40
0.0
 40
0.0
 40
0.0
 40
0.0
 40
0.2731368656
 40
1.0
 40
1.0
 40
1.0
 40
1.0
 10
25.9534836104
 20
112.9206302801
 30
0.0
 10
25.9842578202
 20
112.9267097047
 30
0.0
 10
26.0967554407
 20
112.9497976065
 30
0.0
 10
26.2086118487
 20
112.9762367853
 30
0.0
 10
26.2890710583
 20
112.9984832073
 30
0.0
  0
SPLINE
  5
45F
100
AcDbEntity
  8
0
100
AcDbSpline
 62
7
  6
BYLAYER
 70
0
 71
3
 72
13
 73
9
 74
0
 42
0.0000001
 43
0.0000001
 44
0.0000000001
 40
0.0
 40
0.0
 40
0.0
 40
0.0
 40
0.3796815941
 40
0.6672535088
 40
0.7774345995
 40
0.8669433043
 40
0.9390232493
 40
1.0
 40
1.0
 40
1.0
 40
1.0
 10
26.3235991341
 20
113.0082483316
 30
0.0
 10
26.3811916845
 20
113.0249153119
 30
0.0
 10
26.4815089029
 20
113.0572845586
 30
0.0
 10
26.5944849671
 20
113.1067596872
 30
0.0
 10
26.6593135598
 20
113.1485640091
 30
0.0
 10
26.6915919539
 20
113.1771948918
 30
0.0
 10
26.7121606094
 20
113.2062768461
 30
0.0
 10
26.7173785406
 20
113.2273909437
 30
0.0
 10
26.7173785788
 20
113.2370198168
 30
0.0
  0
SPLINE
  5
460
100
AcDbEntity
  8
0
100
AcDbSpline
 62
7
  6
BYLAYER
 70
0
 71
3
 72
15
 73
11
 74
0
 42
0.0000001
 43
0.0000001
 44
0.0000000001
 40
0.0
 40
0.0
 40
0.0
 40
0.0
 40
0.1033480296
 40
0.2248854016
 40
0.3592061113
 40
0.5000820426
 40
0.6409470562
 40
0.7752351113
 40
0.8967207286
 40
1.0
 40
1.0
 40
1.0
 40
1.0
 10
89.182031975
 20
112.8359173535
 30
0.0
 10
89.3483710473
 20
112.8611007226
 30
0.0
 10
89.7123790318
 20
112.9021740007
 30
0.0
 10
90.2957639198
 20
112.9430794441
 30
0.0
 10
90.9412124248
 20
112.9677630391
 30
0.0
 10
91.6185128196
 20
112.9760175724
 30
0.0
 10
92.2957593974
 20
112.9677083205
 30
0.0
 10
92.9410506437
 20
112.9429699336
 30
0.0
 10
93.524181977
 20
112.9020121742
 30
0.0
 10
93.8879885779
 20
112.8608985206
 30
0.0
 10
94.0542110283
 20
112.8356926018
 30
0.0
  0
SPLINE
  5
461
100
AcDbEntity
  8
0
100
AcDbSpline
 62
7
  6
BYLAYER
 70
0
 71
3
 72
9
 73
5
 74
0
 42
0.0000001
 43
0.0000001
 44
0.0000000001
 40
0.0
 40
0.0
 40
0.0
 40
0.0
 40
0.517481296
 40
1.0
 40
1.0
 40
1.0
 40
1.0
 10
95.0971644819
 20
113.9823263266
 30
0.0
 10
95.1591684993
 20
114.0286865014
 30
0.0
 10
95.2946377375
 20
114.0993556386
 30
0.0
 10
95.4451898633
 20
114.1225837495
 30
0.0
 10
95.5173785788
 20
114.1225837493
 30
0.0
  0
SPLINE
  5
462
100
AcDbEntity
  8
0
100
AcDbSpline
 62
7
  6
BYLAYER
 70
0
 71
3
 72
15
 73
11
 74
0
 42
0.0000001
 43
0.0000001
 44
0.0000000001
 40
0.0
 40
0.0
 40
0.0
 40
0.0
 40
0.1033480296
 40
0.2248854016
 40
0.3592061113
 40
0.5000820426
 40
0.6409470563
 40
0.7752351113
 40
0.8967207286
 40
1.0
 40
1.0
 40
1.0
 40
1.0
 10
20.382031975
 20
112.8359173535
 30
0.0
 10
20.5483710473
 20
112.8611007226
 30
0.0
 10
20.9123790318
 20
112.9021740007
 30
0.0
 10
21.4957639198
 20
112.9430794441
 30
0.0
 10
22.1412124248
 20
112.9677630391
 30
0.0
 10
22.8185128196
 20
112.9760175724
 30
0.0
 10
23.4957593975
 20
112.9677083205
 30
0.0
 10
24.1410506438
 20
112.9429699336
 30
0.0
 10
24.724181977
 20
112.9020121742
 30
0.0
 10
25.0879885779
 20
112.8608985206
 30
0.0
 10
25.2542110284
 20
112.8356926018
 30
0.0
  0
SPLINE
  5
463
100
AcDbEntity
  8
0
100
AcDbSpline
 62
7
  6
BYLAYER
 70
0
 71
3
 72
9
 73
5
 74
0
 42
0.0000001
 43
0.0000001
 44
0.0000000001
 40
0.0
 40
0.0
 40
0.0
 40
0.0
 40
0.5187397616
 40
1.0
 40
1.0
 40
1.0
 40
1.0
 10
88.1377062904
 20
113.0976826669
 30
0.0
 10
88.0754344412
 20
113.1439263469
 30
0.0
 10
87.9397847713
 20
113.2140645291
 30
0.0
 10
87.7893390144
 20
113.2370198195
 30
0.0
 10
87.7173785788
 20
113.2370198192
 30
0.0
  0
SPLINE
  5
464
100
AcDbEntity
  8
0
100
AcDbSpline
 62
7
  6
BYLAYER
 70
0
 71
3
 72
9
 73
5
 74
0
 42
0.0000001
 43
0.0000001
 44
0.0000000001
 40
0.0
 40
0.0
 40
0.0
 40
0.0
 40
0.5153355271
 40
1.0
 40
1.0
 40
1.0
 40
1.0
 10
95.0973220373
 20
113.0978393641
 30
0.0
 10
95.1591522623
 20
113.1437335275
 30
0.0
 10
95.2945988571
 20
113.2139095752
 30
0.0
 10
95.4449598298
 20
113.2370198185
 30
0.0
 10
95.5173785788
 20
113.2370198184
 30
0.0
  0
SPLINE
  5
465
100
AcDbEntity
  8
0
100
AcDbSpline
 62
7
  6
BYLAYER
 70
0
 71
3
 72
16
 73
12
 74
0
 42
0.0000001
 43
0.0000001
 44
0.0000000001
 40
0.0
 40
0.0
 40
0.0
 40
0.0
 40
0.0201295385
 40
0.0509607122
 40
0.0912157831
 40
0.1395271428
 40
0.2549332538
 40
0.3880965349
 40
0.5327906246
 40
0.6849553374
 40
1.0
 40
1.0
 40
1.0
 40
1.0
 10
30.419212246
 20
112.3647985471
 30
0.0
 10
30.4221246499
 20
112.3573341573
 30
0.0
 10
30.4329820242
 20
112.3399743321
 30
0.0
 10
30.4543336832
 20
112.3107033493
 30
0.0
 10
30.4842123017
 20
112.2736817322
 30
0.0
 10
30.5367090298
 20
112.2117657193
 30
0.0
 10
30.6153003827
 20
112.1234852913
 30
0.0
 10
30.7208804235
 20
112.0079213991
 30
0.0
 10
30.8373115242
 20
111.8824494054
 30
0.0
 10
31.0037686808
 20
111.7046419679
 30
0.0
 10
31.1313537756
 20
111.5693383723
 30
0.0
 10
31.2173785788
 20
111.4780952897
 30
0.0
  0
SPLINE
  5
466
100
AcDbEntity
  8
0
100
AcDbSpline
 62
7
  6
BYLAYER
 70
0
 71
3
 72
11
 73
7
 74
0
 42
0.0000001
 43
0.0000001
 44
0.0000000001
 40
0.0
 40
0.0
 40
0.0
 40
0.0
 40
0.2482402814
 40
0.4974381735
 40
0.7482005194
 40
1.0
 40
1.0
 40
1.0
 40
1.0
 10
14.8173785788
 20
111.8721856227
 30
0.0
 10
14.8173785783
 20
111.9362817689
 30
0.0
 10
14.8435215211
 20
112.0661552733
 30
0.0
 10
14.9550436768
 20
112.2298944
 30
0.0
 10
15.121209895
 20
112.3392725097
 30
0.0
 10
15.2523634401
 20
112.3647985471
 30
0.0
 10
15.3173785788
 20
112.3647985471
 30
0.0
  0
SPLINE
  5
467
100
AcDbEntity
  8
0
100
AcDbSpline
 62
7
  6
BYLAYER
 70
0
 71
3
 72
9
 73
5
 74
0
 42
0.0000001
 43
0.0000001
 44
0.0000000001
 40
0.0
 40
0.0
 40
0.0
 40
0.0
 40
0.5190670134
 40
1.0
 40
1.0
 40
1.0
 40
1.0
 10
88.1377062902
 20
113.9822629568
 30
0.0
 10
88.0754988704
 20
114.028784907
 30
0.0
 10
87.9399363771
 20
114.0994284577
 30
0.0
 10
87.7893509423
 20
114.1225837498
 30
0.0
 10
87.7173785788
 20
114.1225837496
 30
0.0
  0
SPLINE
  5
468
100
AcDbEntity
  8
0
100
AcDbSpline
 62
7
  6
BYLAYER
 70
0
 71
3
 72
13
 73
9
 74
0
 42
0.0000001
 43
0.0000001
 44
0.0000000001
 40
0.0
 40
0.0
 40
0.0
 40
0.0
 40
0.2553608657
 40
0.3452661788
 40
0.4364436888
 40
0.6271681895
 40
0.8080610256
 40
1.0
 40
1.0
 40
1.0
 40
1.0
 10
95.7017962564
 20
80.2328431373
 30
0.0
 10
95.7031721991
 20
80.2358739049
 30
0.0
 10
95.7068339984
 20
80.23880232
 30
0.0
 10
95.7097705757
 20
80.2438296796
 30
0.0
 10
95.7099992161
 20
80.2487602144
 30
0.0
 10
95.7083431514
 20
80.2549465578
 30
0.0
 10
95.7128415935
 20
80.2614078116
 30
0.0
 10
95.7163400298
 20
80.2648033214
 30
0.0
 10
95.7173785788
 20
80.2670793877
 30
0.0
  0
SPLINE
  5
469
100
AcDbEntity
  8
0
100
AcDbSpline
 62
7
  6
BYLAYER
 70
0
 71
3
 72
13
 73
9
 74
0
 42
0.0000001
 43
0.0000001
 44
0.0000000001
 40
0.0
 40
0.0
 40
0.0
 40
0.0
 40
0.2553784279
 40
0.3452885425
 40
0.4364792543
 40
0.6271954126
 40
0.8080827809
 40
1.0
 40
1.0
 40
1.0
 40
1.0
 10
18.7173785788
 20
80.2670793877
 30
0.0
 10
18.7187603849
 20
80.2640510452
 30
0.0
 10
18.7224188074
 20
80.2611212917
 30
0.0
 10
18.7253516088
 20
80.2560911431
 30
0.0
 10
18.7255797849
 20
80.2511609728
 30
0.0
 10
18.7239231231
 20
80.2449734921
 30
0.0
 10
18.7284270845
 20
80.2385165833
 30
0.0
 10
18.7319268096
 20
80.2351209147
 30
0.0
 10
18.7329609012
 20
80.2328431373
 30
0.0
  0
SPLINE
  5
46A
100
AcDbEntity
  8
0
100
AcDbSpline
 62
7
  6
BYLAYER
 70
0
 71
3
 72
17
 73
13
 74
0
 42
0.0000001
 43
0.0000001
 44
0.0000000001
 40
0.0
 40
0.0
 40
0.0
 40
0.0
 40
0.0316704168
 40
0.0580986296
 40
0.0925388789
 40
0.1349986768
 40
0.1853017193
 40
0.2430938562
 40
0.3079156304
 40
0.4564370162
 40
0.6255644426
 40
1.0
 40
1.0
 40
1.0
 40
1.0
 10
20.9094344684
 20
44.7827868199
 30
0.0
 10
20.9365458368
 20
44.7827876107
 30
0.0
 10
20.977120384
 20
44.8270877382
 30
0.0
 10
21.0122638864
 20
44.8946772046
 30
0.0
 10
21.0451239513
 20
44.9781128654
 30
0.0
 10
21.0765463363
 20
45.0820387992
 30
0.0
 10
21.1074199136
 20
45.2073509687
 30
0.0
 10
21.1368519553
 20
45.3524104352
 30
0.0
 10
21.1755776303
 20
45.5813109859
 30
0.0
 10
21.2165666509
 20
45.9062866371
 30
0.0
 10
21.2665272821
 20
46.4967311447
 30
0.0
 10
21.2806950914
 20
46.9623086654
 30
0.0
 10
21.2806950914
 20
47.2828431373
 30
0.0
  0
SPLINE
  5
46B
100
AcDbEntity
  8
0
100
AcDbSpline
 62
7
  6
BYLAYER
 70
0
 71
3
 72
15
 73
11
 74
0
 42
0.0000001
 43
0.0000001
 44
0.0000000001
 40
0.0
 40
0.0
 40
0.0
 40
0.0
 40
0.3761767288
 40
0.5462904171
 40
0.6953853572
 40
0.8180416474
 40
0.9104935794
 40
0.9445422818
 40
0.9704053056
 40
1.0
 40
1.0
 40
1.0
 40
1.0
 10
89.8291831892
 20
67.5828431373
 30
0.0
 10
89.8291831892
 20
67.5188410601
 30
0.0
 10
89.8314089126
 20
67.4258678836
 30
0.0
 10
89.839369893
 20
67.3077977324
 30
0.0
 10
89.846937077
 20
67.2330124479
 30
0.0
 10
89.856125553
 20
67.1716121175
 30
0.0
 10
89.8649215263
 20
67.1303098137
 30
0.0
 10
89.8733048146
 20
67.1053562248
 30
0.0
 10
89.8792686999
 20
67.0921651602
 30
0.0
 10
89.8863701409
 20
67.0828431373
 30
0.0
 10
89.8914053326
 20
67.0828431373
 30
0.0
  0
SPLINE
  5
46C
100
AcDbEntity
  8
0
100
AcDbSpline
 62
7
  6
BYLAYER
 70
0
 71
3
 72
13
 73
9
 74
0
 42
0.0000001
 43
0.0000001
 44
0.0000000001
 40
0.0
 40
0.0
 40
0.0
 40
0.0
 40
0.2849124437
 40
0.5636715861
 40
0.6964255543
 40
0.8194457962
 40
0.9246249635
 40
1.0
 40
1.0
 40
1.0
 40
1.0
 10
25.1305752822
 20
58.7830615051
 30
0.0
 10
25.1305752952
 20
58.8361659855
 30
0.0
 10
25.1294185349
 20
58.9412270955
 30
0.0
 10
25.1242363447
 20
59.0709790048
 30
0.0
 10
25.1165614604
 20
59.1703041581
 30
0.0
 10
25.1090344649
 20
59.2372405413
 30
0.0
 10
25.0993104653
 20
59.2928673277
 30
0.0
 10
25.0903020284
 20
59.3256950815
 30
0.0
 10
25.0839799603
 20
59.3382412983
 30
0.0
  0
SPLINE
  5
46D
100
AcDbEntity
  8
0
100
AcDbSpline
 62
7
  6
BYLAYER
 70
0
 71
3
 72
15
 73
11
 74
0
 42
0.0000001
 43
0.0000001
 44
0.0000000001
 40
0.0
 40
0.0
 40
0.0
 40
0.0
 40
0.029595489
 40
0.0554602929
 40
0.0895114258
 40
0.1819639078
 40
0.3046151681
 40
0.4537053063
 40
0.6238174688
 40
1.0
 40
1.0
 40
1.0
 40
1.0
 10
24.5433518251
 20
67.0828431373
 30
0.0
 10
24.5483871438
 20
67.0828431373
 30
0.0
 10
24.5554881805
 20
67.0921666073
 30
0.0
 10
24.5614515644
 20
67.1053585343
 30
0.0
 10
24.5698340979
 20
67.1303132804
 30
0.0
 10
24.5786307388
 20
67.1716148571
 30
0.0
 10
24.5878203804
 20
67.2330133816
 30
0.0
 10
24.5953883965
 20
67.3077965072
 30
0.0
 10
24.6033496571
 20
67.4258663897
 30
0.0
 10
24.6055739685
 20
67.5188401754
 30
0.0
 10
24.6055739685
 20
67.5828431373
 30
0.0
  0
SPLINE
  5
46E
100
AcDbEntity
  8
0
100
AcDbSpline
 62
7
  6
BYLAYER
 70
0
 71
3
 72
9
 73
5
 74
0
 42
0.0000001
 43
0.0000001
 44
0.0000000001
 40
0.0
 40
0.0
 40
0.0
 40
0.0
 40
0.5052341399
 40
1.0
 40
1.0
 40
1.0
 40
1.0
 10
25.1305752822
 20
51.0828431373
 30
0.0
 10
25.1305752822
 20
51.0015124369
 30
0.0
 10
25.0850945164
 20
50.8378424329
 30
0.0
 10
24.9672134596
 20
50.7187725424
 30
0.0
 10
24.9004293915
 20
50.6753755055
 30
0.0
  0
SPLINE
  5
46F
100
AcDbEntity
  8
0
100
AcDbSpline
 62
7
  6
BYLAYER
 70
0
 71
3
 72
9
 73
5
 74
0
 42
0.0000001
 43
0.0000001
 44
0.0000000001
 40
0.0
 40
0.0
 40
0.0
 40
0.0
 40
0.5025485713
 40
1.0
 40
1.0
 40
1.0
 40
1.0
 10
24.9004293915
 20
50.6753755055
 30
0.0
 10
24.8535942655
 20
50.644941515
 30
0.0
 10
24.7506226551
 20
50.5984297622
 30
0.0
 10
24.63894817
 20
50.5828431373
 30
0.0
 10
24.5836598988
 20
50.5828431373
 30
0.0
  0
SPLINE
  5
470
100
AcDbEntity
  8
0
100
AcDbSpline
 62
7
  6
BYLAYER
 70
0
 71
3
 72
17
 73
13
 74
0
 42
0.0000001
 43
0.0000001
 44
0.0000000001
 40
0.0
 40
0.0
 40
0.0
 40
0.0
 40
0.3744326851
 40
0.5435558563
 40
0.6920810806
 40
0.7569067092
 40
0.8147029852
 40
0.8650058518
 40
0.9074633206
 40
0.941900576
 40
0.968326914
 40
1.0
 40
1.0
 40
1.0
 40
1.0
 10
21.2806950914
 20
47.2828431373
 30
0.0
 10
21.2806950914
 20
47.603374866
 30
0.0
 10
21.2665332166
 20
48.0689462625
 30
0.0
 10
21.2165641002
 20
48.6593866609
 30
0.0
 10
21.1755790416
 20
48.9843654023
 30
0.0
 10
21.1368540934
 20
49.2132761414
 30
0.0
 10
21.1074240425
 20
49.3583426828
 30
0.0
 10
21.0765498442
 20
49.4836561763
 30
0.0
 10
21.0451257742
 20
49.5875763999
 30
0.0
 10
21.0122652324
 20
49.6710057005
 30
0.0
 10
20.9771157347
 20
49.7385885839
 30
0.0
 10
20.9365481247
 20
49.7828969908
 30
0.0
 10
20.9094344956
 20
49.7828995459
 30
0.0
  0
SPLINE
  5
471
100
AcDbEntity
  8
0
100
AcDbSpline
 62
7
  6
BYLAYER
 70
0
 71
3
 72
11
 73
7
 74
0
 42
0.0000001
 43
0.0000001
 44
0.0000000001
 40
0.0
 40
0.0
 40
0.0
 40
0.0
 40
0.254500325
 40
0.5063880753
 40
0.7545341356
 40
1.0
 40
1.0
 40
1.0
 40
1.0
 10
26.0039650933
 20
51.0828431373
 30
0.0
 10
26.0039650933
 20
51.017906242
 30
0.0
 10
25.9792711998
 20
50.8873608593
 30
0.0
 10
25.8729935076
 20
50.7212428499
 30
0.0
 10
25.713177943
 20
50.609232012
 30
0.0
 10
25.5857816272
 20
50.5828431373
 30
0.0
 10
25.5231499149
 20
50.5828431373
 30
0.0
  0
SPLINE
  5
472
100
AcDbEntity
  8
0
100
AcDbSpline
 62
7
  6
BYLAYER
 70
0
 71
3
 72
11
 73
7
 74
0
 42
0.0000001
 43
0.0000001
 44
0.0000000001
 40
0.0
 40
0.0
 40
0.0
 40
0.0
 40
0.246640593
 40
0.5096076885
 40
0.7665006487
 40
1.0
 40
1.0
 40
1.0
 40
1.0
 10
75.6601878049
 20
51.0828431373
 30
0.0
 10
75.6601878825
 20
51.0205093964
 30
0.0
 10
75.6832286686
 20
50.8905817935
 30
0.0
 10
75.7872090469
 20
50.7211644672
 30
0.0
 10
75.9473352441
 20
50.6082596614
 30
0.0
 10
76.072584747
 20
50.5828416933
 30
0.0
 10
76.1315972878
 20
50.5828421981
 30
0.0
  0
SPLINE
  5
473
100
AcDbEntity
  8
0
100
AcDbSpline
 62
7
  6
BYLAYER
 70
0
 71
3
 72
15
 73
11
 74
0
 42
0.0000001
 43
0.0000001
 44
0.0000000001
 40
0.0
 40
0.0
 40
0.0
 40
0.0
 40
0.028738471
 40
0.0674606161
 40
0.1689581601
 40
0.2907859197
 40
0.4239218087
 40
0.5636355404
 40
0.7072561339
 40
1.0
 40
1.0
 40
1.0
 40
1.0
 10
75.6601876203
 20
51.0828431373
 30
0.0
 10
75.646919218
 20
51.0828409117
 30
0.0
 10
75.6163215904
 20
51.0725713951
 30
0.0
 10
75.5505494347
 20
51.0308125337
 30
0.0
 10
75.4603594148
 20
50.9490167632
 30
0.0
 10
75.3464622447
 20
50.8304667727
 30
0.0
 10
75.2253190698
 20
50.6942150412
 30
0.0
 10
75.1004820415
 20
50.5479886655
 30
0.0
 10
74.9302479631
 20
50.3436169777
 30
0.0
 10
74.8028587541
 20
50.1875375069
 30
0.0
 10
74.7173785803
 20
50.0828431369
 30
0.0
  0
SPLINE
  5
474
100
AcDbEntity
  8
0
100
AcDbSpline
 62
7
  6
BYLAYER
 70
0
 71
3
 72
18
 73
14
 74
0
 42
0.0000001
 43
0.0000001
 44
0.0000000001
 40
0.0
 40
0.0
 40
0.0
 40
0.0
 40
0.0308464763
 40
0.0428162932
 40
0.0567638153
 40
0.0907367232
 40
0.1328405299
 40
0.1829168227
 40
0.2406067241
 40
0.3054532377
 40
0.4543402511
 40
0.6240966428
 40
1.0
 40
1.0
 40
1.0
 40
1.0
 10
20.9094344956
 20
49.7828995459
 30
0.0
 10
20.8831755234
 20
49.7829020204
 30
0.0
 10
20.8531116552
 20
49.7487644683
 30
0.0
 10
20.8306875455
 20
49.7074972325
 30
0.0
 10
20.8097892978
 20
49.6605162406
 30
0.0
 10
20.7860455215
 20
49.5877351808
 30
0.0
 10
20.7602977589
 20
49.4833302865
 30
0.0
 10
20.7364265601
 20
49.357984652
 30
0.0
 10
20.7144159016
 20
49.2126662219
 30
0.0
 10
20.6865575451
 20
48.9832725165
 30
0.0
 10
20.6587847709
 20
48.6579012479
 30
0.0
 10
20.6267334873
 20
48.0674719981
 30
0.0
 10
20.6183836103
 20
47.6028419514
 30
0.0
 10
20.6183836103
 20
47.2828431373
 30
0.0
  0
SPLINE
  5
475
100
AcDbEntity
  8
0
100
AcDbSpline
 62
7
  6
BYLAYER
 70
0
 71
3
 72
15
 73
11
 74
0
 42
0.0000001
 43
0.0000001
 44
0.0000000001
 40
0.0
 40
0.0
 40
0.0
 40
0.0
 40
0.2835402441
 40
0.4229785796
 40
0.5591098688
 40
0.6899441102
 40
0.8116415177
 40
0.9185588054
 40
0.9631345551
 40
1.0
 40
1.0
 40
1.0
 40
1.0
 10
74.7173780067
 20
50.0828445425
 30
0.0
 10
74.8489556126
 20
50.1365609622
 30
0.0
 10
75.0452318301
 20
50.216715378
 30
0.0
 10
75.3054552378
 20
50.3207510253
 30
0.0
 10
75.4952863673
 20
50.3946334478
 30
0.0
 10
75.6777850887
 20
50.4628728337
 30
0.0
 10
75.848219698
 20
50.5212367222
 30
0.0
 10
75.9797246427
 20
50.5601161645
 30
0.0
 10
76.0723266272
 20
50.5787203393
 30
0.0
 10
76.1131114069
 20
50.5828441084
 30
0.0
 10
76.1315896316
 20
50.5828421981
 30
0.0
  0
SPLINE
  5
476
100
AcDbEntity
  8
0
100
AcDbSpline
 62
7
  6
BYLAYER
 70
0
 71
3
 72
15
 73
11
 74
0
 42
0.0000001
 43
0.0000001
 44
0.0000000001
 40
0.0
 40
0.0
 40
0.0
 40
0.0
 40
0.2927438825
 40
0.4363650206
 40
0.5760792242
 40
0.7092155414
 40
0.8310434901
 40
0.9325407772
 40
0.9712618355
 40
1.0
 40
1.0
 40
1.0
 40
1.0
 10
39.717378559
 20
50.0828431506
 30
0.0
 10
39.6319183057
 20
50.1875538061
 30
0.0
 10
39.5045044091
 20
50.3436134591
 30
0.0
 10
39.3342765692
 20
50.5479909401
 30
0.0
 10
39.2094371364
 20
50.6942161273
 30
0.0
 10
39.0882940568
 20
50.8304688627
 30
0.0
 10
38.9743968932
 20
50.9490182933
 30
0.0
 10
38.8842082401
 20
51.0308167249
 30
0.0
 10
38.8184342823
 20
51.0725695517
 30
0.0
 10
38.7878377992
 20
51.0828418095
 30
0.0
 10
38.7745695372
 20
51.0828431373
 30
0.0
  0
SPLINE
  5
477
100
AcDbEntity
  8
0
100
AcDbSpline
 62
7
  6
BYLAYER
 70
0
 71
3
 72
11
 73
7
 74
0
 42
0.0000001
 43
0.0000001
 44
0.0000000001
 40
0.0
 40
0.0
 40
0.0
 40
0.0
 40
0.2466404288
 40
0.5096072645
 40
0.7665002256
 40
1.0
 40
1.0
 40
1.0
 40
1.0
 10
38.7745700976
 20
51.0828431373
 30
0.0
 10
38.7745699804
 20
51.0205096251
 30
0.0
 10
38.7515292881
 20
50.8905825385
 30
0.0
 10
38.6475494632
 20
50.7211657365
 30
0.0
 10
38.4874239933
 20
50.6082609138
 30
0.0
 10
38.3621748853
 20
50.5828425352
 30
0.0
 10
38.3031624148
 20
50.5828427539
 30
0.0
  0
SPLINE
  5
478
100
AcDbEntity
  8
0
100
AcDbSpline
 62
7
  6
BYLAYER
 70
0
 71
3
 72
15
 73
11
 74
0
 42
0.0000001
 43
0.0000001
 44
0.0000000001
 40
0.0
 40
0.0
 40
0.0
 40
0.0
 40
0.0368551206
 40
0.0814175192
 40
0.1883068651
 40
0.3099870528
 40
0.440819334
 40
0.5769607082
 40
0.7163985195
 40
1.0
 40
1.0
 40
1.0
 40
1.0
 10
38.303165937
 20
50.5828427539
 30
0.0
 10
38.3216389999
 20
50.5828432298
 30
0.0
 10
38.362411708
 20
50.5787201958
 30
0.0
 10
38.4549888965
 20
50.560123591
 30
0.0
 10
38.5864673851
 20
50.5212580708
 30
0.0
 10
38.756880973
 20
50.4629050844
 30
0.0
 10
38.9393762277
 20
50.394669056
 30
0.0
 10
39.1292111581
 20
50.320785482
 30
0.0
 10
39.3894679489
 20
50.2167372209
 30
0.0
 10
39.5857728915
 20
50.1365722499
 30
0.0
 10
39.7173787253
 20
50.0828435002
 30
0.0
  0
SPLINE
  5
479
100
AcDbEntity
  8
0
100
AcDbSpline
 62
7
  6
BYLAYER
 70
0
 71
3
 72
11
 73
7
 74
0
 42
0.0000001
 43
0.0000001
 44
0.0000000001
 40
0.0
 40
0.0
 40
0.0
 40
0.0
 40
0.2458956796
 40
0.4942154058
 40
0.7459234031
 40
1.0
 40
1.0
 40
1.0
 40
1.0
 10
23.484530718
 20
50.5828431373
 30
0.0
 10
23.4216764686
 20
50.5828431373
 30
0.0
 10
23.2939013926
 20
50.5564904779
 30
0.0
 10
23.1334904654
 20
50.4445482819
 30
0.0
 10
23.0267494362
 20
50.2784201947
 30
0.0
 10
23.0019341906
 20
50.1477885394
 30
0.0
 10
23.0019341906
 20
50.0828431373
 30
0.0
  0
SPLINE
  5
47A
100
AcDbEntity
  8
0
100
AcDbSpline
 62
7
  6
BYLAYER
 70
0
 71
3
 72
11
 73
7
 74
0
 42
0.0000001
 43
0.0000001
 44
0.0000000001
 40
0.0
 40
0.0
 40
0.0
 40
0.0
 40
0.2454658662
 40
0.4936119252
 40
0.7454996746
 40
1.0
 40
1.0
 40
1.0
 40
1.0
 10
88.9116074148
 20
50.5828431373
 30
0.0
 10
88.8489756884
 20
50.5828431142
 30
0.0
 10
88.7215793341
 20
50.6092319541
 30
0.0
 10
88.5617637079
 20
50.7212427825
 30
0.0
 10
88.4554859702
 20
50.887360816
 30
0.0
 10
88.4307920658
 20
51.0179062277
 30
0.0
 10
88.4307920658
 20
51.0828431373
 30
0.0
  0
SPLINE
  5
47B
100
AcDbEntity
  8
0
100
AcDbSpline
 62
7
  6
BYLAYER
 70
0
 71
3
 72
13
 73
9
 74
0
 42
0.0000001
 43
0.0000001
 44
0.0000000001
 40
0.0
 40
0.0
 40
0.0
 40
0.0
 40
0.0821555895
 40
0.1731024139
 40
0.2779330828
 40
0.3984256878
 40
0.6816109097
 40
1.0
 40
1.0
 40
1.0
 40
1.0
 10
20.1383079962
 20
50.5828431373
 30
0.0
 10
20.1217691689
 20
50.5828431373
 30
0.0
 10
20.0866843389
 20
50.575426024
 30
0.0
 10
20.0386924819
 20
50.5450146237
 30
0.0
 10
19.9956636095
 20
50.4973013617
 30
0.0
 10
19.9432021204
 20
50.4088390401
 30
0.0
 10
19.8997189754
 20
50.2682636777
 30
0.0
 10
19.8883079962
 20
50.1469383769
 30
0.0
 10
19.8883079962
 20
50.0828431373
 30
0.0
  0
SPLINE
  5
47C
100
AcDbEntity
  8
0
100
AcDbSpline
 62
7
  6
BYLAYER
 70
0
 71
3
 72
8
 73
4
 74
0
 42
0.0000001
 43
0.0000001
 44
0.0000000001
 40
0.0
 40
0.0
 40
0.0
 40
0.0
 40
1.0
 40
1.0
 40
1.0
 40
1.0
 10
19.420357262
 20
50.5828431373
 30
0.0
 10
19.3692088603
 20
50.5828431373
 30
0.0
 10
19.3174459464
 20
50.5743443214
 30
0.0
 10
19.2688957289
 20
50.5582497455
 30
0.0
  0
SPLINE
  5
47D
100
AcDbEntity
  8
0
100
AcDbSpline
 62
7
  6
BYLAYER
 70
0
 71
3
 72
11
 73
7
 74
0
 42
0.0000001
 43
0.0000001
 44
0.0000000001
 40
0.0
 40
0.0
 40
0.0
 40
0.0
 40
0.2479762311
 40
0.4972819904
 40
0.7484136358
 40
1.0
 40
1.0
 40
1.0
 40
1.0
 10
19.2341502586
 20
50.5452236832
 30
0.0
 10
19.1896645749
 20
50.5265485434
 30
0.0
 10
19.1056522023
 20
50.4752097023
 30
0.0
 10
19.0076440352
 20
50.3647776946
 30
0.0
 10
18.9453474735
 20
50.2301701489
 30
0.0
 10
18.9310403506
 20
50.1317921559
 30
0.0
 10
18.9310403506
 20
50.0828431373
 30
0.0
  0
SPLINE
  5
47E
100
AcDbEntity
  8
0
100
AcDbSpline
 62
7
  6
BYLAYER
 70
0
 71
3
 72
18
 73
14
 74
0
 42
0.0000001
 43
0.0000001
 44
0.0000000001
 40
0.0
 40
0.0
 40
0.0
 40
0.0
 40
0.3759312691
 40
0.5456769288
 40
0.6945489789
 40
0.759396188
 40
0.8170903865
 40
0.8671665179
 40
0.9092665597
 40
0.9432350431
 40
0.9571804829
 40
0.9691497148
 40
1.0
 40
1.0
 40
1.0
 40
1.0
 10
20.6183836103
 20
47.2828431373
 30
0.0
 10
20.6183836103
 20
46.9628209612
 30
0.0
 10
20.6267369375
 20
46.4981770309
 30
0.0
 10
20.6587834027
 20
45.9077462654
 30
0.0
 10
20.6865614032
 20
45.5823972302
 30
0.0
 10
20.7144165846
 20
45.3530120613
 30
0.0
 10
20.7364222851
 20
45.2076889059
 30
0.0
 10
20.7602925568
 20
45.0823428501
 30
0.0
 10
20.7860415265
 20
44.9779456737
 30
0.0
 10
20.809786073
 20
44.9051740791
 30
0.0
 10
20.8306867361
 20
44.8582007092
 30
0.0
 10
20.8531148607
 20
44.8169353854
 30
0.0
 10
20.8831722865
 20
44.7827860538
 30
0.0
 10
20.9094344684
 20
44.7827868199
 30
0.0
  0
SPLINE
  5
47F
100
AcDbEntity
  8
0
100
AcDbSpline
 62
7
  6
BYLAYER
 70
0
 71
3
 72
12
 73
8
 74
0
 42
0.0000001
 43
0.0000001
 44
0.0000000001
 40
0.0
 40
0.0
 40
0.0
 40
0.0
 40
0.2583554627
 40
0.5117206996
 40
0.6362165908
 40
0.7591079014
 40
1.0
 40
1.0
 40
1.0
 40
1.0
 10
94.9876266877
 20
50.0828431373
 30
0.0
 10
94.9876266877
 20
50.1476989834
 30
0.0
 10
94.9641611695
 20
50.2773516839
 30
0.0
 10
94.8784634821
 20
50.4169340562
 30
0.0
 10
94.7837835732
 20
50.5008262367
 30
0.0
 10
94.6772753298
 20
50.5626957903
 30
0.0
 10
94.584586241
 20
50.5828431373
 30
0.0
 10
94.5241142822
 20
50.5828431373
 30
0.0
  0
ELLIPSE
  5
480
100
AcDbEntity
  8
0
100
AcDbEllipse
 62
7
  6
BYLAYER
 10
76.6737635983
 20
77.9828431373
 30
0.0
 11
0.4686149806
 21
-0.0
 31
0.0
 40
0.6401843997
 41
-1.5707963268
 42
0.0
  0
ELLIPSE
  5
481
100
AcDbEntity
  8
0
100
AcDbEllipse
 62
7
  6
BYLAYER
 10
76.6737635983
 20
82.3828431373
 30
0.0
 11
0.4686149806
 21
0.0
 31
0.0
 40
0.6401843997
 41
0.0
 42
1.5707963268
  0
ENDSEC
  0
SECTION
  2
OBJECTS
  0
DICTIONARY
  5
C
100
AcDbDictionary
280
0
281
1
  3
ACAD_GROUP
350
D
  3
ACAD_MLINESTYLE
350
17
  3
ACAD_LAYOUT
350
1A
  3
ACAD_PLOTSETTINGS
350
19
  3
ACAD_PLOTSTYLENAME
350
E
  0
DICTIONARY
  5
D
102
{ACAD_REACTORS
330
C
102
}
100
AcDbDictionary
280
0
281
1
  0
ACDBDICTIONARYWDFLT
  5
E
102
{ACAD_REACTORS
330
C
102
}
100
AcDbDictionary
281
1
  3
Normal
350
F
100
AcDbDictionaryWithDefault
340
F
  0
DICTIONARY
  5
17
102
{ACAD_REACTORS
330
C
102
}
100
AcDbDictionary
280
0
281
1
  3
Standard
350
18
  0
DICTIONARY
  5
19
102
{ACAD_REACTORS
330
C
102
}
100
AcDbDictionary
281
1
  0
DICTIONARY
  5
1A
102
{ACAD_REACTORS
330
C
102
}
100
AcDbDictionary
281
1
  3
Model
350
482
  3
Layout1
350
483
  0
ACDBPLACEHOLDER
  5
F
102
{ACAD_REACTORS
330
E
102
}
  0
MLINESTYLE
  5
18
102
{ACAD_REACTORS
330
17
102
}
100
AcDbMlineStyle
  2
STANDARD
 70
0
  3

 62
256
 51
90.0
 52
90.0
 71
2
 49
0.5
 62
256
  6
BYLAYER
 49
-0.5
 62
256
  6
BYLAYER
  0
LAYOUT
  5
482
102
{ACAD_REACTORS
330
1A
102
}
100
AcDbPlotSettings
  1

  2
none_device
  4

  6

 40
0.0
 41
0.0
 42
0.0
 43
0.0
 44
210.0
 45
297.0
 46
0.0
 47
0.0
 48
0.0
 49
0.0
140
0.0
141
0.0
142
1.0
143
1.0
 70
1024
 72
1
 73
0
 74
0
  7

 75
0
147
1.0
148
0.0
149
0.0
100
AcDbLayout
  1
Model
 70
0
 71
0
 10
0.0
 20
0.0
 11
210.0
 21
297.0
 12
0.0
 22
0.0
 32
0.0
 14
0.0
 24
0.0
 34
0.0
 15
0.0
 25
0.0
 35
0.0
146
0.0
 13
0.0
 23
0.0
 33
0.0
 16
1.0
 26
0.0
 36
0.0
 17
0.0
 27
1.0
 37
0.0
 76
0
330
210
345
0
346
0
  0
LAYOUT
  5
483
102
{ACAD_REACTORS
330
1A
102
}
100
AcDbPlotSettings
  1

  2
none_device
  4

  6

 40
0.0
 41
0.0
 42
0.0
 43
0.0
 44
210.0
 45
297.0
 46
0.0
 47
0.0
 48
0.0
 49
0.0
140
0.0
141
0.0
142
1.0
143
1.0
 70
0
 72
1
 73
0
 74
0
  7

 75
0
147
1.0
148
0.0
149
0.0
100
AcDbLayout
  1
Layout1
 70
0
 71
1
 10
0.0
 20
0.0
 11
210.0
 21
297.0
 12
0.0
 22
0.0
 32
0.0
 14
0.0
 24
0.0
 34
0.0
 15
0.0
 25
0.0
 35
0.0
146
0.0
 13
0.0
 23
0.0
 33
0.0
 16
1.0
 26
0.0
 36
0.0
 17
0.0
 27
1.0
 37
0.0
 76
0
330
211
345
0
346
0
  0
ENDSEC
  0
EOF
