  0
SECTION
  2
HEADER
  9
$ACADVER
  1
AC1009
  9
$INSBASE
 10
0.0
 20
0.0
 30
0.0
  9
$EXTMIN
 10
1109.844718
 20
165.256861
 30
0.0
  9
$EXTMAX
 10
1299.044718
 20
440.756861
 30
0.0
  9
$LIMMIN
 10
0.0
 20
0.0
  9
$LIMMAX
 10
210.0
 20
297.0
  9
$ORTHOMODE
 70
     1
  9
$REGENMODE
 70
     1
  9
$FILLMODE
 70
     1
  9
$QTEXTMODE
 70
     0
  9
$MIRRTEXT
 70
     1
  9
$DRAGMODE
 70
     2
  9
$LTSCALE
 40
5.0
  9
$OSMODE
 70
     0
  9
$ATTMODE
 70
     1
  9
$TEXTSIZE
 40
0.2
  9
$TRACEWID
 40
0.05
  9
$TEXTSTYLE
  7
STANDARD
  9
$CLAYER
  8
0
  9
$CELTYPE
  6
BYLAYER
  9
$CECOLOR
 62
   256
  9
$DIMSCALE
 40
1.0
  9
$DIMASZ
 40
3.0
  9
$DIMEXO
 40
0.0625
  9
$DIMDLI
 40
0.38
  9
$DIMRND
 40
0.01
  9
$DIMDLE
 40
0.0
  9
$DIMEXE
 40
0.18
  9
$DIMTP
 40
0.0
  9
$DIMTM
 40
0.0
  9
$DIMTXT
 40
2.5
  9
$DIMCEN
 40
0.09
  9
$DIMTSZ
 40
0.0
  9
$DIMTOL
 70
     0
  9
$DIMLIM
 70
     0
  9
$DIMTIH
 70
     0
  9
$DIMTOH
 70
     0
  9
$DIMSE1
 70
     0
  9
$DIMSE2
 70
     0
  9
$DIMTAD
 70
     1
  9
$DIMZIN
 70
    12
  9
$DIMBLK
  1

  9
$DIMASO
 70
     1
  9
$DIMSHO
 70
     1
  9
$DIMPOST
  1

  9
$DIMAPOST
  1

  9
$DIMALT
 70
     0
  9
$DIMALTD
 70
     2
  9
$DIMALTF
 40
25.4
  9
$DIMLFAC
 40
1.0
  9
$DIMTOFL
 70
     1
  9
$DIMTVP
 40
0.0
  9
$DIMTIX
 70
     0
  9
$DIMSOXD
 70
     0
  9
$DIMSAH
 70
     0
  9
$DIMBLK1
  1

  9
$DIMBLK2
  1

  9
$DIMSTYLE
  2
SC_STAND
  9
$DIMCLRD
 70
     0
  9
$DIMCLRE
 70
     0
  9
$DIMCLRT
 70
     0
  9
$DIMTFAC
 40
1.0
  9
$DIMGAP
 40
1.0
  9
$LUNITS
 70
     2
  9
$LUPREC
 70
     4
  9
$SKETCHINC
 40
0.1
  9
$FILLETRAD
 40
0.0
  9
$AUNITS
 70
     0
  9
$AUPREC
 70
     0
  9
$MENU
  1
.
  9
$ELEVATION
 40
0.0
  9
$PELEVATION
 40
0.0
  9
$THICKNESS
 40
0.0
  9
$LIMCHECK
 70
     0
  9
$BLIPMODE
 70
     0
  9
$CHAMFERA
 40
0.0
  9
$CHAMFERB
 40
0.0
  9
$SKPOLY
 70
     0
  9
$TDCREATE
 40
2452082.615375
  9
$TDUPDATE
 40
2452312.572546
  9
$TDINDWG
 40
0.239284
  9
$TDUSRTIMER
 40
0.239284
  9
$USRTIMER
 70
     1
  9
$ANGBASE
 50
0.0
  9
$ANGDIR
 70
     0
  9
$PDMODE
 70
     0
  9
$PDSIZE
 40
0.0
  9
$PLINEWID
 40
0.0
  9
$COORDS
 70
     1
  9
$SPLFRAME
 70
     0
  9
$SPLINETYPE
 70
     6
  9
$SPLINESEGS
 70
     8
  9
$ATTDIA
 70
     0
  9
$ATTREQ
 70
     1
  9
$HANDLING
 70
     1
  9
$HANDSEED
  5
1035D
  9
$SURFTAB1
 70
     6
  9
$SURFTAB2
 70
     6
  9
$SURFTYPE
 70
     6
  9
$SURFU
 70
     6
  9
$SURFV
 70
     6
  9
$UCSNAME
  2

  9
$UCSORG
 10
0.0
 20
0.0
 30
0.0
  9
$UCSXDIR
 10
1.0
 20
0.0
 30
0.0
  9
$UCSYDIR
 10
0.0
 20
1.0
 30
0.0
  9
$PUCSNAME
  2

  9
$PUCSORG
 10
0.0
 20
0.0
 30
0.0
  9
$PUCSXDIR
 10
1.0
 20
0.0
 30
0.0
  9
$PUCSYDIR
 10
0.0
 20
1.0
 30
0.0
  9
$USERI1
 70
     0
  9
$USERI2
 70
     0
  9
$USERI3
 70
     0
  9
$USERI4
 70
     0
  9
$USERI5
 70
     0
  9
$USERR1
 40
0.0
  9
$USERR2
 40
0.0
  9
$USERR3
 40
0.0
  9
$USERR4
 40
0.0
  9
$USERR5
 40
0.0
  9
$WORLDVIEW
 70
     1
  9
$SHADEDGE
 70
     3
  9
$SHADEDIF
 70
    70
  9
$TILEMODE
 70
     1
  9
$MAXACTVP
 70
    48
  9
$PLIMCHECK
 70
     0
  9
$PEXTMIN
 10
1.000000E+020
 20
1.000000E+020
 30
1.000000E+020
  9
$PEXTMAX
 10
-1.000000E+020
 20
-1.000000E+020
 30
-1.000000E+020
  9
$PLIMMIN
 10
0.0
 20
0.0
  9
$PLIMMAX
 10
12.0
 20
9.0
  9
$UNITMODE
 70
     0
  9
$VISRETAIN
 70
     1
  9
$PLINEGEN
 70
     0
  9
$PSLTSCALE
 70
     1
  0
ENDSEC
  0
SECTION
  2
TABLES
  0
TABLE
  2
VPORT
 70
     2
  0
VPORT
  2
*ACTIVE
 70
     0
 10
0.0
 20
0.0
 11
1.0
 21
1.0
 12
1204.286371
 22
303.000167
 13
0.0
 23
0.0
 14
1.0
 24
1.0
 15
0.0
 25
0.0
 16
0.0
 26
0.0
 36
1.0
 17
0.0
 27
0.0
 37
0.0
 40
279.704629
 41
1.838384
 42
50.0
 43
0.0
 44
0.0
 50
0.0
 51
0.0
 71
     0
 72
  1000
 73
     1
 74
     1
 75
     0
 76
     0
 77
     0
 78
     0
  0
ENDTAB
  0
TABLE
  2
LTYPE
 70
     1
  0
LTYPE
  2
CONTINUOUS
 70
     0
  3
Solid line
 72
    65
 73
     0
 40
0.0
  0
ENDTAB
  0
TABLE
  2
LAYER
 70
     2
  0
LAYER
  2
0
 70
     0
 62
     7
  6
CONTINUOUS
  0
LAYER
  2
ALPHA
 70
     0
 62
   254
  6
CONTINUOUS
  0
ENDTAB
  0
TABLE
  2
STYLE
 70
     1
  0
STYLE
  2
STANDARD
 70
     0
 40
0.0
 41
1.0
 50
0.0
 71
     0
 42
0.2
  3
txt
  4

  0
ENDTAB
  0
TABLE
  2
VIEW
 70
     0
  0
ENDTAB
  0
TABLE
  2
UCS
 70
     0
  0
ENDTAB
  0
TABLE
  2
APPID
 70
     3
  0
APPID
  2
ACAD
 70
     0
  0
APPID
  2
AVE_RENDER
 70
     0
  0
APPID
  2
AVE_MATERIAL
 70
     0
  0
ENDTAB
  0
TABLE
  2
DIMSTYLE
 70
     2
  0
DIMSTYLE
  2
STANDARD
 70
     0
  3

  4

  5

  6

  7

 40
1.0
 41
0.18
 42
0.0625
 43
0.38
 44
0.18
 45
0.0
 46
0.0
 47
0.0
 48
0.0
140
0.18
141
0.09
142
0.0
143
25.4
144
1.0
145
0.0
146
1.0
147
0.09
 71
     0
 72
     0
 73
     1
 74
     1
 75
     0
 76
     0
 77
     0
 78
     0
170
     0
171
     2
172
     0
173
     0
174
     0
175
     0
176
     0
177
     0
178
     0
  0
DIMSTYLE
  2
SC_STAND
 70
     0
  3

  4

  5

  6

  7

 40
1.0
 41
3.0
 42
0.0625
 43
0.38
 44
0.18
 45
0.01
 46
0.0
 47
0.0
 48
0.0
140
2.5
141
0.09
142
0.0
143
25.4
144
1.0
145
0.0
146
1.0
147
1.0
 71
     0
 72
     0
 73
     0
 74
     0
 75
     0
 76
     0
 77
     1
 78
    12
170
     0
171
     2
172
     1
173
     0
174
     0
175
     0
176
     0
177
     0
178
     0
  0
ENDTAB
  0
ENDSEC
  0
SECTION
  2
BLOCKS
  0
BLOCK
  8
0
  2
$MODEL_SPACE
 70
     0
 10
0.0
 20
0.0
 30
0.0
  3
$MODEL_SPACE
  1

  0
ENDBLK
  5
F8D5
  8
0
  0
BLOCK
 67
     1
  8
0
  2
$PAPER_SPACE
 70
     0
 10
0.0
 20
0.0
 30
0.0
  3
$PAPER_SPACE
  1

  0
ENDBLK
  5
F8D3
 67
     1
  8
0
  0
BLOCK
  8
0
  2
SCH_ISO
 70
     0
 10
0.0
 20
0.0
 30
0.0
  3
SCH_ISO
  1

  0
ENDBLK
  5
13A
  8
0
  0
ENDSEC
  0
SECTION
  2
ENTITIES
  0
INSERT
  5
13C
  8
ALPHA
 62
   255
  2
SCH_ISO
 10
0.0
 20
0.0
 30
0.0
  0
LINE
  5
B3FD
  8
ALPHA
 10
1109.844718
 20
212.909874
 30
0.0
 11
1109.844718
 21
397.29458
 31
0.0
  0
LINE
  5
B3FE
  8
ALPHA
 10
1111.598928
 20
274.871323
 30
0.0
 11
1111.598928
 21
397.325108
 31
0.0
  0
LINE
  5
B3FF
  8
ALPHA
 10
1116.010471
 20
397.401881
 30
0.0
 11
1116.010471
 21
212.806885
 31
0.0
  0
LINE
  5
B400
  8
ALPHA
 10
1117.465795
 20
397.401881
 30
0.0
 11
1117.465795
 21
212.806885
 31
0.0
  0
POLYLINE
  5
B401
  8
ALPHA
 66
     1
 10
0.0
 20
0.0
 30
0.0
  0
VERTEX
  5
F8DA
  8
ALPHA
 10
1121.994718
 20
331.711677
 30
0.0
  0
VERTEX
  5
F8DB
  8
ALPHA
 10
1121.392777
 20
331.590387
 30
0.0
  0
VERTEX
  5
F8DC
  8
ALPHA
 10
1120.887533
 20
331.248362
 30
0.0
  0
VERTEX
  5
F8DD
  8
ALPHA
 10
1120.555408
 20
330.744699
 30
0.0
  0
VERTEX
  5
F8DE
  8
ALPHA
 10
1120.439998
 20
330.156861
 30
0.0
  0
VERTEX
  5
F8DF
  8
ALPHA
 10
1120.555408
 20
329.569024
 30
0.0
  0
VERTEX
  5
F8E0
  8
ALPHA
 10
1120.887533
 20
329.06536
 30
0.0
  0
VERTEX
  5
F8E1
  8
ALPHA
 10
1121.392777
 20
328.723335
 30
0.0
  0
VERTEX
  5
F8E2
  8
ALPHA
 10
1121.994718
 20
328.602046
 30
0.0
  0
SEQEND
  5
F8E3
  8
ALPHA
  0
POLYLINE
  5
B40C
  8
ALPHA
 66
     1
 10
0.0
 20
0.0
 30
0.0
  0
VERTEX
  5
F8E4
  8
ALPHA
 10
1121.994718
 20
331.606861
 30
0.0
  0
VERTEX
  5
F8E5
  8
ALPHA
 10
1121.433061
 20
331.493662
 30
0.0
  0
VERTEX
  5
F8E6
  8
ALPHA
 10
1120.961263
 20
331.173948
 30
0.0
  0
VERTEX
  5
F8E7
  8
ALPHA
 10
1120.652235
 20
330.704793
 30
0.0
  0
VERTEX
  5
F8E8
  8
ALPHA
 10
1120.544718
 20
330.156861
 30
0.0
  0
VERTEX
  5
F8E9
  8
ALPHA
 10
1120.652235
 20
329.608929
 30
0.0
  0
VERTEX
  5
F8EA
  8
ALPHA
 10
1120.961263
 20
329.139775
 30
0.0
  0
VERTEX
  5
F8EB
  8
ALPHA
 10
1121.433061
 20
328.820061
 30
0.0
  0
VERTEX
  5
F8EC
  8
ALPHA
 10
1121.994718
 20
328.706861
 30
0.0
  0
SEQEND
  5
F8ED
  8
ALPHA
  0
LINE
  5
B417
  8
ALPHA
 10
1143.544718
 20
192.256861
 30
0.0
 11
1143.544718
 21
408.756861
 31
0.0
  0
LINE
  5
B418
  8
ALPHA
 10
1146.044718
 20
408.756861
 30
0.0
 11
1146.044718
 21
192.256861
 31
0.0
  0
POLYLINE
  5
B419
  8
ALPHA
 66
     1
 10
0.0
 20
0.0
 30
0.0
  0
VERTEX
  5
F8EE
  8
ALPHA
 10
1138.094718
 20
328.602046
 30
0.0
  0
VERTEX
  5
F8EF
  8
ALPHA
 10
1138.696718
 20
328.72328
 30
0.0
  0
VERTEX
  5
F8F0
  8
ALPHA
 10
1139.202026
 20
329.065291
 30
0.0
  0
VERTEX
  5
F8F1
  8
ALPHA
 10
1139.534202
 20
329.568979
 30
0.0
  0
VERTEX
  5
F8F2
  8
ALPHA
 10
1139.64963
 20
330.156861
 30
0.0
  0
VERTEX
  5
F8F3
  8
ALPHA
 10
1139.534202
 20
330.744744
 30
0.0
  0
VERTEX
  5
F8F4
  8
ALPHA
 10
1139.202026
 20
331.248432
 30
0.0
  0
VERTEX
  5
F8F5
  8
ALPHA
 10
1138.696718
 20
331.590443
 30
0.0
  0
VERTEX
  5
F8F6
  8
ALPHA
 10
1138.094718
 20
331.711677
 30
0.0
  0
SEQEND
  5
F8F7
  8
ALPHA
  0
POLYLINE
  5
B424
  8
ALPHA
 66
     1
 10
0.0
 20
0.0
 30
0.0
  0
VERTEX
  5
F8F8
  8
ALPHA
 10
1138.094718
 20
328.706861
 30
0.0
  0
VERTEX
  5
F8F9
  8
ALPHA
 10
1138.656375
 20
328.820061
 30
0.0
  0
VERTEX
  5
F8FA
  8
ALPHA
 10
1139.128173
 20
329.139775
 30
0.0
  0
VERTEX
  5
F8FB
  8
ALPHA
 10
1139.437202
 20
329.608929
 30
0.0
  0
VERTEX
  5
F8FC
  8
ALPHA
 10
1139.544718
 20
330.156861
 30
0.0
  0
VERTEX
  5
F8FD
  8
ALPHA
 10
1139.437202
 20
330.704794
 30
0.0
  0
VERTEX
  5
F8FE
  8
ALPHA
 10
1139.128173
 20
331.173948
 30
0.0
  0
VERTEX
  5
F8FF
  8
ALPHA
 10
1138.656375
 20
331.493662
 30
0.0
  0
VERTEX
  5
F900
  8
ALPHA
 10
1138.094718
 20
331.606861
 30
0.0
  0
SEQEND
  5
F901
  8
ALPHA
  0
LINE
  5
B42F
  8
ALPHA
 10
1296.044718
 20
440.256861
 30
0.0
 11
1296.044718
 21
165.256861
 31
0.0
  0
LINE
  5
B430
  8
ALPHA
 10
1299.044718
 20
440.256861
 30
0.0
 11
1299.044718
 21
165.256861
 31
0.0
  0
LINE
  5
B431
  8
ALPHA
 10
1146.544718
 20
192.256861
 30
0.0
 11
1274.044718
 21
192.256861
 31
0.0
  0
LINE
  5
B432
  8
ALPHA
 10
1142.770927
 20
189.256861
 30
0.0
 11
1254.794718
 21
189.256861
 31
0.0
  0
LINE
  5
B433
  8
ALPHA
 10
1252.365866
 20
184.739409
 30
0.0
 11
1141.663507
 21
184.739409
 31
0.0
  0
LINE
  5
B434
  8
ALPHA
 10
1252.348715
 20
183.756861
 30
0.0
 11
1135.381925
 21
183.756861
 31
0.0
  0
LINE
  5
B435
  8
ALPHA
 10
1274.044718
 20
192.256861
 30
0.0
 11
1274.044718
 21
189.256861
 31
0.0
  0
LINE
  5
B436
  8
ALPHA
 10
1276.044718
 20
189.256861
 30
0.0
 11
1276.044718
 21
192.256861
 31
0.0
  0
LINE
  5
B437
  8
ALPHA
 10
1276.044718
 20
189.256861
 30
0.0
 11
1254.794718
 21
189.256861
 31
0.0
  0
LINE
  5
B438
  8
ALPHA
 10
1276.857218
 20
187.756861
 30
0.0
 11
1253.394718
 21
187.756861
 31
0.0
  0
LINE
  5
B439
  8
ALPHA
 10
1270.044718
 20
186.956861
 30
0.0
 11
1263.044718
 21
186.956861
 31
0.0
  0
LINE
  5
B43A
  8
ALPHA
 10
1269.844661
 20
186.156861
 30
0.0
 11
1263.244776
 21
186.156861
 31
0.0
  0
LINE
  5
B43B
  8
ALPHA
 10
1269.769929
 20
183.950055
 30
0.0
 11
1263.319508
 21
183.950055
 31
0.0
  0
LINE
  5
B43C
  8
ALPHA
 10
1269.467471
 20
183.656861
 30
0.0
 11
1263.621965
 21
183.656861
 31
0.0
  0
LINE
  5
B43D
  8
ALPHA
 10
1289.044718
 20
165.256861
 30
0.0
 11
1276.044718
 21
189.256861
 31
0.0
  0
LINE
  5
B43E
  8
ALPHA
 10
1299.044718
 20
165.256861
 30
0.0
 11
1289.044718
 21
165.256861
 31
0.0
  0
LINE
  5
B43F
  8
ALPHA
 10
1269.644718
 20
186.956861
 30
0.0
 11
1269.644718
 21
186.156861
 31
0.0
  0
LINE
  5
B440
  8
ALPHA
 10
1270.044718
 20
187.756861
 30
0.0
 11
1270.044718
 21
186.956861
 31
0.0
  0
LINE
  5
B441
  8
ALPHA
 10
1269.781518
 20
184.456861
 30
0.0
 11
1269.769929
 21
183.950055
 31
0.0
  0
LINE
  5
B442
  8
ALPHA
 10
1269.844718
 20
186.156861
 30
0.0
 11
1269.80614
 21
184.456861
 31
0.0
  0
LINE
  5
B443
  8
ALPHA
 10
1274.044718
 20
190.756861
 30
0.0
 11
1276.044718
 21
190.756861
 31
0.0
  0
LINE
  5
B444
  8
ALPHA
 10
1269.806136
 20
184.456861
 30
0.0
 11
1269.781518
 21
184.456861
 31
0.0
  0
POLYLINE
  5
B445
  8
ALPHA
 66
     1
 10
0.0
 20
0.0
 30
0.0
  0
VERTEX
  5
F902
  8
ALPHA
 10
1269.467471
 20
183.656861
 30
0.0
  0
VERTEX
  5
F903
  8
ALPHA
 10
1269.534219
 20
183.664244
 30
0.0
  0
VERTEX
  5
F904
  8
ALPHA
 10
1269.597455
 20
183.685933
 30
0.0
  0
VERTEX
  5
F905
  8
ALPHA
 10
1269.65441
 20
183.720941
 30
0.0
  0
VERTEX
  5
F906
  8
ALPHA
 10
1269.70194
 20
183.767226
 30
0.0
  0
VERTEX
  5
F907
  8
ALPHA
 10
1269.738157
 20
183.822831
 30
0.0
  0
VERTEX
  5
F908
  8
ALPHA
 10
1269.761124
 20
183.884674
 30
0.0
  0
VERTEX
  5
F909
  8
ALPHA
 10
1269.769929
 20
183.950055
 30
0.0
  0
SEQEND
  5
F90A
  8
ALPHA
  0
LINE
  5
B44F
  8
ALPHA
 10
1258.544718
 20
186.936861
 30
0.0
 11
1258.924718
 21
186.556861
 31
0.0
  0
LINE
  5
B450
  8
ALPHA
 10
1253.394718
 20
189.256861
 30
0.0
 11
1253.394718
 21
187.756861
 31
0.0
  0
LINE
  5
B451
  8
ALPHA
 10
1255.394718
 20
189.256861
 30
0.0
 11
1255.394718
 21
187.756861
 31
0.0
  0
LINE
  5
B452
  8
ALPHA
 10
1258.544718
 20
187.756861
 30
0.0
 11
1258.544718
 21
186.936861
 31
0.0
  0
LINE
  5
B453
  8
ALPHA
 10
1261.544718
 20
187.756861
 30
0.0
 11
1261.544718
 21
186.936861
 31
0.0
  0
LINE
  5
B454
  8
ALPHA
 10
1263.044718
 20
187.756861
 30
0.0
 11
1263.044718
 21
186.956861
 31
0.0
  0
LINE
  5
B455
  8
ALPHA
 10
1263.444718
 20
186.956861
 30
0.0
 11
1263.444718
 21
186.156861
 31
0.0
  0
LINE
  5
B456
  8
ALPHA
 10
1263.244718
 20
186.156861
 30
0.0
 11
1263.283297
 21
184.456861
 31
0.0
  0
LINE
  5
B457
  8
ALPHA
 10
1263.307919
 20
184.456861
 30
0.0
 11
1263.319508
 21
183.950055
 31
0.0
  0
POLYLINE
  5
B458
  8
ALPHA
 66
     1
 10
0.0
 20
0.0
 30
0.0
  0
VERTEX
  5
F90B
  8
ALPHA
 10
1263.621965
 20
183.656861
 30
0.0
  0
VERTEX
  5
F90C
  8
ALPHA
 10
1263.555218
 20
183.664244
 30
0.0
  0
VERTEX
  5
F90D
  8
ALPHA
 10
1263.491982
 20
183.685933
 30
0.0
  0
VERTEX
  5
F90E
  8
ALPHA
 10
1263.435026
 20
183.720941
 30
0.0
  0
VERTEX
  5
F90F
  8
ALPHA
 10
1263.387496
 20
183.767226
 30
0.0
  0
VERTEX
  5
F910
  8
ALPHA
 10
1263.351279
 20
183.822831
 30
0.0
  0
VERTEX
  5
F911
  8
ALPHA
 10
1263.328312
 20
183.884674
 30
0.0
  0
VERTEX
  5
F912
  8
ALPHA
 10
1263.319508
 20
183.950055
 30
0.0
  0
SEQEND
  5
F913
  8
ALPHA
  0
LINE
  5
B462
  8
ALPHA
 10
1261.544718
 20
186.936861
 30
0.0
 11
1258.544718
 21
186.936861
 31
0.0
  0
LINE
  5
B463
  8
ALPHA
 10
1261.164629
 20
186.556861
 30
0.0
 11
1258.924807
 21
186.556861
 31
0.0
  0
LINE
  5
B464
  8
ALPHA
 10
1263.307919
 20
184.456861
 30
0.0
 11
1263.2833
 21
184.456861
 31
0.0
  0
LINE
  5
B465
  8
ALPHA
 10
1261.544718
 20
186.936861
 30
0.0
 11
1261.164718
 21
186.556861
 31
0.0
  0
LINE
  5
B466
  8
ALPHA
 10
1252.348715
 20
183.756861
 30
0.0
 11
1252.444718
 21
189.256861
 31
0.0
  0
LINE
  5
B467
  8
ALPHA
 10
1276.044718
 20
192.256861
 30
0.0
 11
1274.044718
 21
192.256861
 31
0.0
  0
POLYLINE
  5
B468
  8
ALPHA
 66
     1
 10
0.0
 20
0.0
 30
0.0
  0
VERTEX
  5
F914
  8
ALPHA
 10
1114.405283
 20
232.656859
 30
0.0
  0
VERTEX
  5
F915
  8
ALPHA
 10
1114.409927
 20
233.248831
 30
0.0
  0
VERTEX
  5
F916
  8
ALPHA
 10
1114.425917
 20
233.896413
 30
0.0
  0
VERTEX
  5
F917
  8
ALPHA
 10
1114.456433
 20
234.585196
 30
0.0
  0
VERTEX
  5
F918
  8
ALPHA
 10
1114.49916
 20
235.225071
 30
0.0
  0
VERTEX
  5
F919
  8
ALPHA
 10
1114.548793
 20
235.768166
 30
0.0
  0
VERTEX
  5
F91A
  8
ALPHA
 10
1114.604128
 20
236.234243
 30
0.0
  0
VERTEX
  5
F91B
  8
ALPHA
 10
1114.666789
 20
236.647453
 30
0.0
  0
VERTEX
  5
F91C
  8
ALPHA
 10
1114.741438
 20
237.027783
 30
0.0
  0
VERTEX
  5
F91D
  8
ALPHA
 10
1114.833442
 20
237.371417
 30
0.0
  0
VERTEX
  5
F91E
  8
ALPHA
 10
1114.944213
 20
237.641822
 30
0.0
  0
VERTEX
  5
F91F
  8
ALPHA
 10
1115.074835
 20
237.794943
 30
0.0
  0
VERTEX
  5
F920
  8
ALPHA
 10
1115.227817
 20
237.773012
 30
0.0
  0
VERTEX
  5
F921
  8
ALPHA
 10
1115.385489
 20
237.5286
 30
0.0
  0
VERTEX
  5
F922
  8
ALPHA
 10
1115.521229
 20
237.118765
 30
0.0
  0
VERTEX
  5
F923
  8
ALPHA
 10
1115.630794
 20
236.61922
 30
0.0
  0
SEQEND
  5
F924
  8
ALPHA
  0
POLYLINE
  5
B47A
  8
ALPHA
 66
     1
 10
0.0
 20
0.0
 30
0.0
  0
VERTEX
  5
F925
  8
ALPHA
 10
1134.820151
 20
188.428791
 30
0.0
  0
VERTEX
  5
F926
  8
ALPHA
 10
1134.766857
 20
188.954507
 30
0.0
  0
VERTEX
  5
F927
  8
ALPHA
 10
1134.718031
 20
189.704063
 30
0.0
  0
VERTEX
  5
F928
  8
ALPHA
 10
1134.675462
 20
190.637189
 30
0.0
  0
VERTEX
  5
F929
  8
ALPHA
 10
1134.640729
 20
191.704235
 30
0.0
  0
VERTEX
  5
F92A
  8
ALPHA
 10
1134.615486
 20
192.839409
 30
0.0
  0
SEQEND
  5
F92B
  8
ALPHA
  0
POLYLINE
  5
B482
  8
ALPHA
 66
     1
 10
0.0
 20
0.0
 30
0.0
  0
VERTEX
  5
F92C
  8
ALPHA
 10
1135.083193
 20
191.704644
 30
0.0
  0
VERTEX
  5
F92D
  8
ALPHA
 10
1135.078578
 20
190.637344
 30
0.0
  0
VERTEX
  5
F92E
  8
ALPHA
 10
1135.058586
 20
189.70419
 30
0.0
  0
VERTEX
  5
F92F
  8
ALPHA
 10
1135.025362
 20
188.954723
 30
0.0
  0
SEQEND
  5
F930
  8
ALPHA
  0
POLYLINE
  5
B488
  8
ALPHA
 66
     1
 10
0.0
 20
0.0
 30
0.0
  0
VERTEX
  5
F931
  8
ALPHA
 10
1136.435553
 20
192.839409
 30
0.0
  0
VERTEX
  5
F932
  8
ALPHA
 10
1136.442385
 20
191.705502
 30
0.0
  0
VERTEX
  5
F933
  8
ALPHA
 10
1136.422998
 20
190.638105
 30
0.0
  0
VERTEX
  5
F934
  8
ALPHA
 10
1136.379408
 20
189.703895
 30
0.0
  0
VERTEX
  5
F935
  8
ALPHA
 10
1136.315212
 20
188.954307
 30
0.0
  0
SEQEND
  5
F936
  8
ALPHA
  0
LINE
  5
B48F
  8
ALPHA
 10
1140.676248
 20
184.739409
 30
0.0
 11
1140.436533
 21
200.856861
 31
0.0
  0
LINE
  5
B490
  8
ALPHA
 10
1141.663507
 20
184.739409
 30
0.0
 11
1141.423717
 21
200.856861
 31
0.0
  0
LINE
  5
B491
  8
ALPHA
 10
1142.598769
 20
200.856861
 30
0.0
 11
1142.770927
 21
189.256861
 31
0.0
  0
POLYLINE
  5
B492
  8
ALPHA
 66
     1
 10
0.0
 20
0.0
 30
0.0
  0
VERTEX
  5
F937
  8
ALPHA
 10
1136.431193
 20
192.839361
 30
0.0
  0
VERTEX
  5
F938
  8
ALPHA
 10
1136.434288
 20
192.640063
 30
0.0
  0
VERTEX
  5
F939
  8
ALPHA
 10
1136.438559
 20
192.079073
 30
0.0
  0
VERTEX
  5
F93A
  8
ALPHA
 10
1136.436407
 20
191.539334
 30
0.0
  0
VERTEX
  5
F93B
  8
ALPHA
 10
1136.428231
 20
191.028865
 30
0.0
  0
VERTEX
  5
F93C
  8
ALPHA
 10
1136.414635
 20
190.554433
 30
0.0
  0
VERTEX
  5
F93D
  8
ALPHA
 10
1136.396255
 20
190.121837
 30
0.0
  0
VERTEX
  5
F93E
  8
ALPHA
 10
1136.373909
 20
189.735789
 30
0.0
  0
VERTEX
  5
F93F
  8
ALPHA
 10
1136.348547
 20
189.400365
 30
0.0
  0
VERTEX
  5
F940
  8
ALPHA
 10
1136.321174
 20
189.118147
 30
0.0
  0
VERTEX
  5
F941
  8
ALPHA
 10
1136.293191
 20
188.891756
 30
0.0
  0
VERTEX
  5
F942
  8
ALPHA
 10
1136.266588
 20
188.724471
 30
0.0
  0
VERTEX
  5
F943
  8
ALPHA
 10
1136.245382
 20
188.622661
 30
0.0
  0
VERTEX
  5
F944
  8
ALPHA
 10
1136.241175
 20
188.606329
 30
0.0
  0
SEQEND
  5
F945
  8
ALPHA
  0
POLYLINE
  5
B4A2
  8
ALPHA
 66
     1
 10
0.0
 20
0.0
 30
0.0
  0
VERTEX
  5
F946
  8
ALPHA
 10
1134.263296
 20
192.839409
 30
0.0
  0
VERTEX
  5
F947
  8
ALPHA
 10
1134.281947
 20
191.695502
 30
0.0
  0
VERTEX
  5
F948
  8
ALPHA
 10
1134.29712
 20
190.617402
 30
0.0
  0
VERTEX
  5
F949
  8
ALPHA
 10
1134.308442
 20
189.677718
 30
0.0
  0
VERTEX
  5
F94A
  8
ALPHA
 10
1134.316226
 20
188.925573
 30
0.0
  0
SEQEND
  5
F94B
  8
ALPHA
  0
POLYLINE
  5
B4A9
  8
ALPHA
 66
     1
 10
0.0
 20
0.0
 30
0.0
  0
VERTEX
  5
F94C
  8
ALPHA
 10
1135.06664
 20
193.007003
 30
0.0
  0
VERTEX
  5
F94D
  8
ALPHA
 10
1135.072078
 20
192.698566
 30
0.0
  0
VERTEX
  5
F94E
  8
ALPHA
 10
1135.078466
 20
192.186693
 30
0.0
  0
VERTEX
  5
F94F
  8
ALPHA
 10
1135.081491
 20
191.688925
 30
0.0
  0
VERTEX
  5
F950
  8
ALPHA
 10
1135.081278
 20
191.211939
 30
0.0
  0
VERTEX
  5
F951
  8
ALPHA
 10
1135.078007
 20
190.761376
 30
0.0
  0
VERTEX
  5
F952
  8
ALPHA
 10
1135.071957
 20
190.342266
 30
0.0
  0
VERTEX
  5
F953
  8
ALPHA
 10
1135.063387
 20
189.958756
 30
0.0
  0
VERTEX
  5
F954
  8
ALPHA
 10
1135.052734
 20
189.614268
 30
0.0
  0
VERTEX
  5
F955
  8
ALPHA
 10
1135.040379
 20
189.311518
 30
0.0
  0
VERTEX
  5
F956
  8
ALPHA
 10
1135.026756
 20
189.051854
 30
0.0
  0
VERTEX
  5
F957
  8
ALPHA
 10
1135.012436
 20
188.836563
 30
0.0
  0
VERTEX
  5
F958
  8
ALPHA
 10
1134.998031
 20
188.666535
 30
0.0
  0
VERTEX
  5
F959
  8
ALPHA
 10
1134.98457
 20
188.543116
 30
0.0
  0
VERTEX
  5
F95A
  8
ALPHA
 10
1134.974286
 20
188.47131
 30
0.0
  0
VERTEX
  5
F95B
  8
ALPHA
 10
1134.972394
 20
188.460733
 30
0.0
  0
SEQEND
  5
F95C
  8
ALPHA
  0
POLYLINE
  5
B4BB
  8
ALPHA
 66
     1
 10
0.0
 20
0.0
 30
0.0
  0
VERTEX
  5
F95D
  8
ALPHA
 10
1136.315212
 20
188.954307
 30
0.0
  0
VERTEX
  5
F95E
  8
ALPHA
 10
1136.235083
 20
188.430206
 30
0.0
  0
VERTEX
  5
F95F
  8
ALPHA
 10
1136.143892
 20
188.159782
 30
0.0
  0
VERTEX
  5
F960
  8
ALPHA
 10
1136.046878
 20
188.16269
 30
0.0
  0
VERTEX
  5
F961
  8
ALPHA
 10
1135.950209
 20
188.443353
 30
0.0
  0
VERTEX
  5
F962
  8
ALPHA
 10
1135.860538
 20
188.977293
 30
0.0
  0
VERTEX
  5
F963
  8
ALPHA
 10
1135.781531
 20
189.730174
 30
0.0
  0
VERTEX
  5
F964
  8
ALPHA
 10
1135.716048
 20
190.664995
 30
0.0
  0
VERTEX
  5
F965
  8
ALPHA
 10
1135.667076
 20
191.732246
 30
0.0
  0
VERTEX
  5
F966
  8
ALPHA
 10
1135.637755
 20
192.839409
 30
0.0
  0
SEQEND
  5
F967
  8
ALPHA
  0
LINE
  5
B4C7
  8
ALPHA
 10
1146.544718
 20
189.256861
 30
0.0
 11
1146.544718
 21
192.256861
 31
0.0
  0
LINE
  5
B4C8
  8
ALPHA
 10
1125.277075
 20
180.250251
 30
0.0
 11
1112.514905
 21
195.459613
 31
0.0
  0
LINE
  5
B4C9
  8
ALPHA
 10
1112.414905
 20
195.423216
 30
0.0
 11
1125.20047
 21
180.185972
 31
0.0
  0
LINE
  5
B4CA
  8
ALPHA
 10
1140.676248
 20
184.739409
 30
0.0
 11
1134.382078
 21
184.739409
 31
0.0
  0
LINE
  5
B4CB
  8
ALPHA
 10
1141.663507
 20
183.756861
 30
0.0
 11
1141.663507
 21
184.739409
 31
0.0
  0
POLYLINE
  5
B4CC
  8
ALPHA
 66
     1
 10
0.0
 20
0.0
 30
0.0
  0
VERTEX
  5
F968
  8
ALPHA
 10
1141.663507
 20
183.756861
 30
0.0
  0
VERTEX
  5
F969
  8
ALPHA
 10
1141.289626
 20
183.831321
 30
0.0
  0
VERTEX
  5
F96A
  8
ALPHA
 10
1140.971423
 20
184.043611
 30
0.0
  0
VERTEX
  5
F96B
  8
ALPHA
 10
1140.756284
 20
184.362117
 30
0.0
  0
VERTEX
  5
F96C
  8
ALPHA
 10
1140.676248
 20
184.739409
 30
0.0
  0
SEQEND
  5
F96D
  8
ALPHA
  0
POLYLINE
  5
B4D3
  8
ALPHA
 66
     1
 10
0.0
 20
0.0
 30
0.0
  0
VERTEX
  5
F96E
  8
ALPHA
 10
1140.676248
 20
184.739409
 30
0.0
  0
VERTEX
  5
F96F
  8
ALPHA
 10
1140.791853
 20
184.735343
 30
0.0
  0
VERTEX
  5
F970
  8
ALPHA
 10
1141.014904
 20
184.73393
 30
0.0
  0
VERTEX
  5
F971
  8
ALPHA
 10
1141.317905
 20
184.735343
 30
0.0
  0
VERTEX
  5
F972
  8
ALPHA
 10
1141.663507
 20
184.739409
 30
0.0
  0
SEQEND
  5
F973
  8
ALPHA
  0
ARC
  5
B4DA
  8
ALPHA
 10
1135.381968
 20
184.756861
 30
0.0
 40
1.0
 50
181.000001
 51
194.477513
  0
ARC
  5
B4DB
  8
ALPHA
 10
1135.381925
 20
184.756861
 30
0.0
 40
1.0
 50
194.477513
 51
270.0
  0
POLYLINE
  5
B4DC
  8
ALPHA
 66
     1
 10
0.0
 20
0.0
 30
0.0
  0
VERTEX
  5
F974
  8
ALPHA
 10
1134.422795
 20
184.506861
 30
0.0
  0
VERTEX
  5
F975
  8
ALPHA
 10
1134.419543
 20
184.51981
 30
0.0
  0
VERTEX
  5
F976
  8
ALPHA
 10
1134.416474
 20
184.532757
 30
0.0
  0
VERTEX
  5
F977
  8
ALPHA
 10
1134.413587
 20
184.545702
 30
0.0
  0
VERTEX
  5
F978
  8
ALPHA
 10
1134.410881
 20
184.558645
 30
0.0
  0
VERTEX
  5
F979
  8
ALPHA
 10
1134.408352
 20
184.571585
 30
0.0
  0
VERTEX
  5
F97A
  8
ALPHA
 10
1134.406001
 20
184.584522
 30
0.0
  0
VERTEX
  5
F97B
  8
ALPHA
 10
1134.403826
 20
184.597455
 30
0.0
  0
VERTEX
  5
F97C
  8
ALPHA
 10
1134.401826
 20
184.610384
 30
0.0
  0
VERTEX
  5
F97D
  8
ALPHA
 10
1134.399998
 20
184.623308
 30
0.0
  0
VERTEX
  5
F97E
  8
ALPHA
 10
1134.398343
 20
184.636227
 30
0.0
  0
VERTEX
  5
F97F
  8
ALPHA
 10
1134.396858
 20
184.649141
 30
0.0
  0
VERTEX
  5
F980
  8
ALPHA
 10
1134.395543
 20
184.66205
 30
0.0
  0
VERTEX
  5
F981
  8
ALPHA
 10
1134.394398
 20
184.674954
 30
0.0
  0
VERTEX
  5
F982
  8
ALPHA
 10
1134.393422
 20
184.687854
 30
0.0
  0
VERTEX
  5
F983
  8
ALPHA
 10
1134.392614
 20
184.700749
 30
0.0
  0
VERTEX
  5
F984
  8
ALPHA
 10
1134.391974
 20
184.71364
 30
0.0
  0
VERTEX
  5
F985
  8
ALPHA
 10
1134.3915
 20
184.726526
 30
0.0
  0
VERTEX
  5
F986
  8
ALPHA
 10
1134.391192
 20
184.739409
 30
0.0
  0
SEQEND
  5
F987
  8
ALPHA
  0
POLYLINE
  5
B4F1
  8
ALPHA
 66
     1
 10
0.0
 20
0.0
 30
0.0
  0
VERTEX
  5
F988
  8
ALPHA
 10
1135.071186
 20
184.506861
 30
0.0
  0
VERTEX
  5
F989
  8
ALPHA
 10
1135.06793
 20
184.519811
 30
0.0
  0
VERTEX
  5
F98A
  8
ALPHA
 10
1135.064857
 20
184.53276
 30
0.0
  0
VERTEX
  5
F98B
  8
ALPHA
 10
1135.061966
 20
184.545706
 30
0.0
  0
VERTEX
  5
F98C
  8
ALPHA
 10
1135.059256
 20
184.55865
 30
0.0
  0
VERTEX
  5
F98D
  8
ALPHA
 10
1135.056724
 20
184.571591
 30
0.0
  0
VERTEX
  5
F98E
  8
ALPHA
 10
1135.05437
 20
184.584528
 30
0.0
  0
VERTEX
  5
F98F
  8
ALPHA
 10
1135.052192
 20
184.597462
 30
0.0
  0
VERTEX
  5
F990
  8
ALPHA
 10
1135.050189
 20
184.610391
 30
0.0
  0
VERTEX
  5
F991
  8
ALPHA
 10
1135.048359
 20
184.623315
 30
0.0
  0
VERTEX
  5
F992
  8
ALPHA
 10
1135.046702
 20
184.636234
 30
0.0
  0
VERTEX
  5
F993
  8
ALPHA
 10
1135.045215
 20
184.649148
 30
0.0
  0
VERTEX
  5
F994
  8
ALPHA
 10
1135.043899
 20
184.662056
 30
0.0
  0
VERTEX
  5
F995
  8
ALPHA
 10
1135.042752
 20
184.67496
 30
0.0
  0
VERTEX
  5
F996
  8
ALPHA
 10
1135.041775
 20
184.687859
 30
0.0
  0
VERTEX
  5
F997
  8
ALPHA
 10
1135.040966
 20
184.700753
 30
0.0
  0
VERTEX
  5
F998
  8
ALPHA
 10
1135.040325
 20
184.713643
 30
0.0
  0
VERTEX
  5
F999
  8
ALPHA
 10
1135.039851
 20
184.726528
 30
0.0
  0
VERTEX
  5
F99A
  8
ALPHA
 10
1135.039543
 20
184.739409
 30
0.0
  0
SEQEND
  5
F99B
  8
ALPHA
  0
LINE
  5
B506
  8
ALPHA
 10
1136.347222
 20
184.88984
 30
0.0
 11
1136.33777
 21
184.95367
 31
0.0
  0
LINE
  5
B507
  8
ALPHA
 10
1134.885585
 20
184.88984
 30
0.0
 11
1134.876062
 21
184.95367
 31
0.0
  0
LINE
  5
B508
  8
ALPHA
 10
1136.389026
 20
187.315372
 30
0.0
 11
1136.369785
 21
187.443032
 31
0.0
  0
LINE
  5
B509
  8
ALPHA
 10
1134.865726
 20
187.123883
 30
0.0
 11
1134.875478
 21
187.060053
 31
0.0
  0
LINE
  5
B50A
  8
ALPHA
 10
1136.426439
 20
185.911117
 30
0.0
 11
1136.40289
 21
186.038776
 31
0.0
  0
LINE
  5
B50B
  8
ALPHA
 10
1134.870956
 20
187.443032
 30
0.0
 11
1134.859034
 21
187.506861
 31
0.0
  0
LINE
  5
B50C
  8
ALPHA
 10
1135.920059
 20
184.82601
 30
0.0
 11
1135.9079
 21
184.88984
 31
0.0
  0
LINE
  5
B50D
  8
ALPHA
 10
1135.90091
 20
187.187712
 30
0.0
 11
1135.913188
 21
187.123883
 31
0.0
  0
LINE
  5
B50E
  8
ALPHA
 10
1135.923626
 20
186.102606
 30
0.0
 11
1135.935918
 21
186.038776
 31
0.0
  0
POLYLINE
  5
B50F
  8
ALPHA
 66
     1
 10
0.0
 20
0.0
 30
0.0
  0
VERTEX
  5
F99C
  8
ALPHA
 10
1136.334775
 20
184.698351
 30
0.0
  0
VERTEX
  5
F99D
  8
ALPHA
 10
1136.337292
 20
184.68548
 30
0.0
  0
VERTEX
  5
F99E
  8
ALPHA
 10
1136.339971
 20
184.672632
 30
0.0
  0
VERTEX
  5
F99F
  8
ALPHA
 10
1136.342814
 20
184.659808
 30
0.0
  0
VERTEX
  5
F9A0
  8
ALPHA
 10
1136.345819
 20
184.647007
 30
0.0
  0
VERTEX
  5
F9A1
  8
ALPHA
 10
1136.348987
 20
184.634229
 30
0.0
  0
VERTEX
  5
F9A2
  8
ALPHA
 10
1136.352316
 20
184.621475
 30
0.0
  0
VERTEX
  5
F9A3
  8
ALPHA
 10
1136.355808
 20
184.608744
 30
0.0
  0
VERTEX
  5
F9A4
  8
ALPHA
 10
1136.359462
 20
184.596037
 30
0.0
  0
VERTEX
  5
F9A5
  8
ALPHA
 10
1136.363278
 20
184.583352
 30
0.0
  0
VERTEX
  5
F9A6
  8
ALPHA
 10
1136.367257
 20
184.570691
 30
0.0
  0
SEQEND
  5
F9A7
  8
ALPHA
  0
LINE
  5
B51C
  8
ALPHA
 10
1134.958816
 20
187.187712
 30
0.0
 11
1134.971665
 21
187.123883
 31
0.0
  0
LINE
  5
B51D
  8
ALPHA
 10
1134.970812
 20
187.443032
 30
0.0
 11
1134.955577
 21
187.506861
 31
0.0
  0
POLYLINE
  5
B51E
  8
ALPHA
 66
     1
 10
0.0
 20
0.0
 30
0.0
  0
VERTEX
  5
F9A8
  8
ALPHA
 10
1136.242319
 20
184.506861
 30
0.0
  0
VERTEX
  5
F9A9
  8
ALPHA
 10
1136.239053
 20
184.519822
 30
0.0
  0
VERTEX
  5
F9AA
  8
ALPHA
 10
1136.235971
 20
184.53278
 30
0.0
  0
VERTEX
  5
F9AB
  8
ALPHA
 10
1136.233071
 20
184.545735
 30
0.0
  0
VERTEX
  5
F9AC
  8
ALPHA
 10
1136.230353
 20
184.558686
 30
0.0
  0
VERTEX
  5
F9AD
  8
ALPHA
 10
1136.227815
 20
184.571632
 30
0.0
  0
VERTEX
  5
F9AE
  8
ALPHA
 10
1136.225456
 20
184.584574
 30
0.0
  0
VERTEX
  5
F9AF
  8
ALPHA
 10
1136.223273
 20
184.597511
 30
0.0
  0
VERTEX
  5
F9B0
  8
ALPHA
 10
1136.221265
 20
184.610442
 30
0.0
  0
VERTEX
  5
F9B1
  8
ALPHA
 10
1136.219432
 20
184.623367
 30
0.0
  0
VERTEX
  5
F9B2
  8
ALPHA
 10
1136.217771
 20
184.636286
 30
0.0
  0
VERTEX
  5
F9B3
  8
ALPHA
 10
1136.216282
 20
184.649197
 30
0.0
  0
VERTEX
  5
F9B4
  8
ALPHA
 10
1136.214963
 20
184.662103
 30
0.0
  0
VERTEX
  5
F9B5
  8
ALPHA
 10
1136.213815
 20
184.675002
 30
0.0
  0
VERTEX
  5
F9B6
  8
ALPHA
 10
1136.212837
 20
184.687895
 30
0.0
  0
VERTEX
  5
F9B7
  8
ALPHA
 10
1136.212027
 20
184.700782
 30
0.0
  0
VERTEX
  5
F9B8
  8
ALPHA
 10
1136.211385
 20
184.713663
 30
0.0
  0
VERTEX
  5
F9B9
  8
ALPHA
 10
1136.21091
 20
184.726539
 30
0.0
  0
VERTEX
  5
F9BA
  8
ALPHA
 10
1136.210601
 20
184.739409
 30
0.0
  0
SEQEND
  5
F9BB
  8
ALPHA
  0
LINE
  5
B533
  8
ALPHA
 10
1134.344867
 20
187.315372
 30
0.0
 11
1134.34163
 21
187.443032
 31
0.0
  0
POLYLINE
  5
B534
  8
ALPHA
 66
     1
 10
0.0
 20
0.0
 30
0.0
  0
VERTEX
  5
F9BC
  8
ALPHA
 10
1134.407082
 20
184.739409
 30
0.0
  0
VERTEX
  5
F9BD
  8
ALPHA
 10
1134.407613
 20
184.71984
 30
0.0
  0
VERTEX
  5
F9BE
  8
ALPHA
 10
1134.408518
 20
184.700355
 30
0.0
  0
VERTEX
  5
F9BF
  8
ALPHA
 10
1134.409798
 20
184.680952
 30
0.0
  0
VERTEX
  5
F9C0
  8
ALPHA
 10
1134.411449
 20
184.66163
 30
0.0
  0
VERTEX
  5
F9C1
  8
ALPHA
 10
1134.413472
 20
184.64239
 30
0.0
  0
VERTEX
  5
F9C2
  8
ALPHA
 10
1134.415864
 20
184.62323
 30
0.0
  0
VERTEX
  5
F9C3
  8
ALPHA
 10
1134.418624
 20
184.60415
 30
0.0
  0
VERTEX
  5
F9C4
  8
ALPHA
 10
1134.421751
 20
184.585148
 30
0.0
  0
VERTEX
  5
F9C5
  8
ALPHA
 10
1134.425243
 20
184.566226
 30
0.0
  0
VERTEX
  5
F9C6
  8
ALPHA
 10
1134.429099
 20
184.547381
 30
0.0
  0
VERTEX
  5
F9C7
  8
ALPHA
 10
1134.433317
 20
184.528613
 30
0.0
  0
VERTEX
  5
F9C8
  8
ALPHA
 10
1134.437897
 20
184.509922
 30
0.0
  0
VERTEX
  5
F9C9
  8
ALPHA
 10
1134.442836
 20
184.491307
 30
0.0
  0
VERTEX
  5
F9CA
  8
ALPHA
 10
1134.447744
 20
184.474089
 30
0.0
  0
VERTEX
  5
F9CB
  8
ALPHA
 10
1134.452963
 20
184.456937
 30
0.0
  0
VERTEX
  5
F9CC
  8
ALPHA
 10
1134.458497
 20
184.439854
 30
0.0
  0
VERTEX
  5
F9CD
  8
ALPHA
 10
1134.464348
 20
184.42284
 30
0.0
  0
VERTEX
  5
F9CE
  8
ALPHA
 10
1134.470519
 20
184.405897
 30
0.0
  0
VERTEX
  5
F9CF
  8
ALPHA
 10
1134.477012
 20
184.389026
 30
0.0
  0
VERTEX
  5
F9D0
  8
ALPHA
 10
1134.483831
 20
184.37223
 30
0.0
  0
VERTEX
  5
F9D1
  8
ALPHA
 10
1134.490979
 20
184.35551
 30
0.0
  0
VERTEX
  5
F9D2
  8
ALPHA
 10
1134.498457
 20
184.338866
 30
0.0
  0
VERTEX
  5
F9D3
  8
ALPHA
 10
1134.506269
 20
184.322301
 30
0.0
  0
VERTEX
  5
F9D4
  8
ALPHA
 10
1134.514418
 20
184.305817
 30
0.0
  0
VERTEX
  5
F9D5
  8
ALPHA
 10
1134.522906
 20
184.289415
 30
0.0
  0
VERTEX
  5
F9D6
  8
ALPHA
 10
1134.531736
 20
184.273096
 30
0.0
  0
VERTEX
  5
F9D7
  8
ALPHA
 10
1134.540911
 20
184.256861
 30
0.0
  0
SEQEND
  5
F9D8
  8
ALPHA
  0
LINE
  5
B552
  8
ALPHA
 10
1134.848842
 20
185.208989
 30
0.0
 11
1134.857401
 21
184.95367
 31
0.0
  0
LINE
  5
B553
  8
ALPHA
 10
1134.34449
 20
187.187712
 30
0.0
 11
1134.346723
 21
187.123883
 31
0.0
  0
LINE
  5
B554
  8
ALPHA
 10
1134.34163
 20
187.443032
 30
0.0
 11
1134.339134
 21
187.506861
 31
0.0
  0
LINE
  5
B555
  8
ALPHA
 10
1134.867571
 20
185.081329
 30
0.0
 11
1134.860074
 21
185.272819
 31
0.0
  0
LINE
  5
B556
  8
ALPHA
 10
1135.859933
 20
185.336649
 30
0.0
 11
1135.87278
 21
185.0175
 31
0.0
  0
LINE
  5
B557
  8
ALPHA
 10
1135.983938
 20
185.655798
 30
0.0
 11
1135.970798
 21
185.974946
 31
0.0
  0
LINE
  5
B558
  8
ALPHA
 10
1134.980989
 20
186.996223
 30
0.0
 11
1134.989087
 21
186.804734
 31
0.0
  0
LINE
  5
B559
  8
ALPHA
 10
1134.857401
 20
184.95367
 30
0.0
 11
1134.868332
 21
184.734273
 31
0.0
  0
LINE
  5
B55A
  8
ALPHA
 10
1136.327217
 20
185.081329
 30
0.0
 11
1136.320828
 21
185.208989
 31
0.0
  0
LINE
  5
B55B
  8
ALPHA
 10
1136.412737
 20
185.719627
 30
0.0
 11
1136.425732
 21
185.464308
 31
0.0
  0
POLYLINE
  5
B55C
  8
ALPHA
 66
     1
 10
0.0
 20
0.0
 30
0.0
  0
VERTEX
  5
F9D9
  8
ALPHA
 10
1136.43457
 20
184.570691
 30
0.0
  0
VERTEX
  5
F9DA
  8
ALPHA
 10
1136.434028
 20
184.581171
 30
0.0
  0
VERTEX
  5
F9DB
  8
ALPHA
 10
1136.4336
 20
184.59168
 30
0.0
  0
VERTEX
  5
F9DC
  8
ALPHA
 10
1136.433288
 20
184.602218
 30
0.0
  0
VERTEX
  5
F9DD
  8
ALPHA
 10
1136.433092
 20
184.612784
 30
0.0
  0
VERTEX
  5
F9DE
  8
ALPHA
 10
1136.433012
 20
184.623379
 30
0.0
  0
VERTEX
  5
F9DF
  8
ALPHA
 10
1136.433048
 20
184.634003
 30
0.0
  0
VERTEX
  5
F9E0
  8
ALPHA
 10
1136.433202
 20
184.644656
 30
0.0
  0
VERTEX
  5
F9E1
  8
ALPHA
 10
1136.433472
 20
184.655337
 30
0.0
  0
VERTEX
  5
F9E2
  8
ALPHA
 10
1136.433861
 20
184.666047
 30
0.0
  0
VERTEX
  5
F9E3
  8
ALPHA
 10
1136.434369
 20
184.676786
 30
0.0
  0
VERTEX
  5
F9E4
  8
ALPHA
 10
1136.434996
 20
184.687554
 30
0.0
  0
VERTEX
  5
F9E5
  8
ALPHA
 10
1136.435742
 20
184.698351
 30
0.0
  0
SEQEND
  5
F9E6
  8
ALPHA
  0
LINE
  5
B56B
  8
ALPHA
 10
1134.895169
 20
187.060053
 30
0.0
 11
1134.881912
 21
187.315372
 31
0.0
  0
LINE
  5
B56C
  8
ALPHA
 10
1134.996578
 20
187.060053
 30
0.0
 11
1134.982544
 21
187.315372
 31
0.0
  0
LINE
  5
B56D
  8
ALPHA
 10
1135.894663
 20
185.0175
 30
0.0
 11
1135.883998
 21
185.208989
 31
0.0
  0
LINE
  5
B56E
  8
ALPHA
 10
1135.926624
 20
186.996223
 30
0.0
 11
1135.937466
 21
186.804734
 31
0.0
  0
POLYLINE
  5
B56F
  8
ALPHA
 66
     1
 10
0.0
 20
0.0
 30
0.0
  0
VERTEX
  5
F9E7
  8
ALPHA
 10
1134.868332
 20
184.734273
 30
0.0
  0
VERTEX
  5
F9E8
  8
ALPHA
 10
1134.868628
 20
184.729138
 30
0.0
  0
VERTEX
  5
F9E9
  8
ALPHA
 10
1134.86895
 20
184.724004
 30
0.0
  0
VERTEX
  5
F9EA
  8
ALPHA
 10
1134.869299
 20
184.718871
 30
0.0
  0
VERTEX
  5
F9EB
  8
ALPHA
 10
1134.869674
 20
184.713739
 30
0.0
  0
VERTEX
  5
F9EC
  8
ALPHA
 10
1134.870075
 20
184.708608
 30
0.0
  0
VERTEX
  5
F9ED
  8
ALPHA
 10
1134.870503
 20
184.703479
 30
0.0
  0
VERTEX
  5
F9EE
  8
ALPHA
 10
1134.870957
 20
184.698351
 30
0.0
  0
SEQEND
  5
F9EF
  8
ALPHA
  0
LINE
  5
B579
  8
ALPHA
 10
1135.87278
 20
185.0175
 30
0.0
 11
1135.888172
 21
184.76218
 31
0.0
  0
LINE
  5
B57A
  8
ALPHA
 10
1136.307623
 20
185.0175
 30
0.0
 11
1136.31925
 21
184.82601
 31
0.0
  0
LINE
  5
B57B
  8
ALPHA
 10
1135.949145
 20
186.996223
 30
0.0
 11
1135.933393
 21
187.251542
 31
0.0
  0
LINE
  5
B57C
  8
ALPHA
 10
1136.386109
 20
186.996223
 30
0.0
 11
1136.397976
 21
186.804734
 31
0.0
  0
LINE
  5
B57D
  8
ALPHA
 10
1136.438351
 20
185.719627
 30
0.0
 11
1136.426439
 21
185.911117
 31
0.0
  0
LINE
  5
B57E
  8
ALPHA
 10
1134.876062
 20
184.95367
 30
0.0
 11
1134.867571
 21
185.081329
 31
0.0
  0
LINE
  5
B57F
  8
ALPHA
 10
1134.875478
 20
187.060053
 30
0.0
 11
1134.884233
 21
186.932393
 31
0.0
  0
LINE
  5
B580
  8
ALPHA
 10
1134.971665
 20
187.123883
 30
0.0
 11
1134.980989
 21
186.996223
 31
0.0
  0
LINE
  5
B581
  8
ALPHA
 10
1135.949367
 20
185.911117
 30
0.0
 11
1135.959101
 21
185.783457
 31
0.0
  0
LINE
  5
B582
  8
ALPHA
 10
1135.970798
 20
185.974946
 30
0.0
 11
1135.956151
 21
186.166436
 31
0.0
  0
LINE
  5
B583
  8
ALPHA
 10
1136.33777
 20
184.95367
 30
0.0
 11
1136.327217
 21
185.081329
 31
0.0
  0
POLYLINE
  5
B584
  8
ALPHA
 66
     1
 10
0.0
 20
0.0
 30
0.0
  0
VERTEX
  5
F9F0
  8
ALPHA
 10
1134.939026
 20
184.506861
 30
0.0
  0
VERTEX
  5
F9F1
  8
ALPHA
 10
1134.938137
 20
184.51744
 30
0.0
  0
VERTEX
  5
F9F2
  8
ALPHA
 10
1134.937371
 20
184.528043
 30
0.0
  0
VERTEX
  5
F9F3
  8
ALPHA
 10
1134.93673
 20
184.538669
 30
0.0
  0
VERTEX
  5
F9F4
  8
ALPHA
 10
1134.936212
 20
184.549319
 30
0.0
  0
VERTEX
  5
F9F5
  8
ALPHA
 10
1134.935818
 20
184.559993
 30
0.0
  0
VERTEX
  5
F9F6
  8
ALPHA
 10
1134.935547
 20
184.570691
 30
0.0
  0
SEQEND
  5
F9F7
  8
ALPHA
  0
LINE
  5
B58D
  8
ALPHA
 10
1136.410577
 20
187.060053
 30
0.0
 11
1136.389026
 21
187.315372
 31
0.0
  0
LINE
  5
B58E
  8
ALPHA
 10
1134.881912
 20
187.315372
 30
0.0
 11
1134.870956
 21
187.443032
 31
0.0
  0
POLYLINE
  5
B58F
  8
ALPHA
 66
     1
 10
0.0
 20
0.0
 30
0.0
  0
VERTEX
  5
F9F8
  8
ALPHA
 10
1135.979789
 20
184.570691
 30
0.0
  0
VERTEX
  5
F9F9
  8
ALPHA
 10
1135.978769
 20
184.582514
 30
0.0
  0
VERTEX
  5
F9FA
  8
ALPHA
 10
1135.977893
 20
184.594372
 30
0.0
  0
VERTEX
  5
F9FB
  8
ALPHA
 10
1135.977164
 20
184.606265
 30
0.0
  0
VERTEX
  5
F9FC
  8
ALPHA
 10
1135.97658
 20
184.618193
 30
0.0
  0
VERTEX
  5
F9FD
  8
ALPHA
 10
1135.976142
 20
184.630156
 30
0.0
  0
VERTEX
  5
F9FE
  8
ALPHA
 10
1135.975852
 20
184.642155
 30
0.0
  0
VERTEX
  5
F9FF
  8
ALPHA
 10
1135.975708
 20
184.654188
 30
0.0
  0
VERTEX
  5
FA00
  8
ALPHA
 10
1135.975713
 20
184.666257
 30
0.0
  0
VERTEX
  5
FA01
  8
ALPHA
 10
1135.975867
 20
184.678362
 30
0.0
  0
VERTEX
  5
FA02
  8
ALPHA
 10
1135.976171
 20
184.690501
 30
0.0
  0
VERTEX
  5
FA03
  8
ALPHA
 10
1135.976626
 20
184.702675
 30
0.0
  0
VERTEX
  5
FA04
  8
ALPHA
 10
1135.977233
 20
184.714885
 30
0.0
  0
VERTEX
  5
FA05
  8
ALPHA
 10
1135.977992
 20
184.727129
 30
0.0
  0
VERTEX
  5
FA06
  8
ALPHA
 10
1135.978905
 20
184.739409
 30
0.0
  0
SEQEND
  5
FA07
  8
ALPHA
  0
LINE
  5
B5A0
  8
ALPHA
 10
1134.982544
 20
187.315372
 30
0.0
 11
1134.970812
 21
187.443032
 31
0.0
  0
LINE
  5
B5A1
  8
ALPHA
 10
1135.9079
 20
184.88984
 30
0.0
 11
1135.894663
 21
185.0175
 31
0.0
  0
LINE
  5
B5A2
  8
ALPHA
 10
1135.935918
 20
186.038776
 30
0.0
 11
1135.949367
 21
185.911117
 31
0.0
  0
LINE
  5
B5A3
  8
ALPHA
 10
1135.913188
 20
187.123883
 30
0.0
 11
1135.926624
 21
186.996223
 31
0.0
  0
LINE
  5
B5A4
  8
ALPHA
 10
1136.02103
 20
185.272819
 30
0.0
 11
1136.034733
 21
185.145159
 31
0.0
  0
LINE
  5
B5A5
  8
ALPHA
 10
1136.056938
 20
186.740904
 30
0.0
 11
1136.043062
 21
186.868564
 31
0.0
  0
LINE
  5
B5A6
  8
ALPHA
 10
1135.888172
 20
184.76218
 30
0.0
 11
1135.89074
 21
184.739409
 31
0.0
  0
LINE
  5
B5A7
  8
ALPHA
 10
1136.31925
 20
184.82601
 30
0.0
 11
1136.330013
 21
184.732567
 31
0.0
  0
LINE
  5
B5A8
  8
ALPHA
 10
1135.933393
 20
187.251542
 30
0.0
 11
1135.911329
 21
187.443032
 31
0.0
  0
LINE
  5
B5A9
  8
ALPHA
 10
1135.956151
 20
186.166436
 30
0.0
 11
1135.934063
 21
186.357925
 31
0.0
  0
POLYLINE
  5
B5AA
  8
ALPHA
 66
     1
 10
0.0
 20
0.0
 30
0.0
  0
VERTEX
  5
FA08
  8
ALPHA
 10
1134.935547
 20
184.570691
 30
0.0
  0
VERTEX
  5
FA09
  8
ALPHA
 10
1134.934332
 20
184.58116
 30
0.0
  0
VERTEX
  5
FA0A
  8
ALPHA
 10
1134.933229
 20
184.591659
 30
0.0
  0
VERTEX
  5
FA0B
  8
ALPHA
 10
1134.93224
 20
184.602189
 30
0.0
  0
VERTEX
  5
FA0C
  8
ALPHA
 10
1134.931363
 20
184.61275
 30
0.0
  0
VERTEX
  5
FA0D
  8
ALPHA
 10
1134.9306
 20
184.623342
 30
0.0
  0
VERTEX
  5
FA0E
  8
ALPHA
 10
1134.929951
 20
184.633965
 30
0.0
  0
VERTEX
  5
FA0F
  8
ALPHA
 10
1134.929417
 20
184.644619
 30
0.0
  0
VERTEX
  5
FA10
  8
ALPHA
 10
1134.928998
 20
184.655303
 30
0.0
  0
VERTEX
  5
FA11
  8
ALPHA
 10
1134.928694
 20
184.666019
 30
0.0
  0
VERTEX
  5
FA12
  8
ALPHA
 10
1134.928508
 20
184.676765
 30
0.0
  0
VERTEX
  5
FA13
  8
ALPHA
 10
1134.928438
 20
184.687542
 30
0.0
  0
VERTEX
  5
FA14
  8
ALPHA
 10
1134.928487
 20
184.698351
 30
0.0
  0
SEQEND
  5
FA15
  8
ALPHA
  0
LINE
  5
B5B9
  8
ALPHA
 10
1136.397752
 20
185.847287
 30
0.0
 11
1136.412737
 21
185.719627
 31
0.0
  0
LINE
  5
B5BA
  8
ALPHA
 10
1136.371138
 20
187.123883
 30
0.0
 11
1136.386109
 21
186.996223
 31
0.0
  0
POLYLINE
  5
B5BB
  8
ALPHA
 66
     1
 10
0.0
 20
0.0
 30
0.0
  0
VERTEX
  5
FA16
  8
ALPHA
 10
1135.89074
 20
184.739409
 30
0.0
  0
VERTEX
  5
FA17
  8
ALPHA
 10
1135.892438
 20
184.725246
 30
0.0
  0
VERTEX
  5
FA18
  8
ALPHA
 10
1135.894336
 20
184.711101
 30
0.0
  0
VERTEX
  5
FA19
  8
ALPHA
 10
1135.896434
 20
184.696975
 30
0.0
  0
VERTEX
  5
FA1A
  8
ALPHA
 10
1135.89873
 20
184.682869
 30
0.0
  0
VERTEX
  5
FA1B
  8
ALPHA
 10
1135.901224
 20
184.668781
 30
0.0
  0
VERTEX
  5
FA1C
  8
ALPHA
 10
1135.903917
 20
184.654711
 30
0.0
  0
VERTEX
  5
FA1D
  8
ALPHA
 10
1135.906808
 20
184.640661
 30
0.0
  0
VERTEX
  5
FA1E
  8
ALPHA
 10
1135.909897
 20
184.626629
 30
0.0
  0
VERTEX
  5
FA1F
  8
ALPHA
 10
1135.913185
 20
184.612616
 30
0.0
  0
VERTEX
  5
FA20
  8
ALPHA
 10
1135.916672
 20
184.598622
 30
0.0
  0
VERTEX
  5
FA21
  8
ALPHA
 10
1135.920359
 20
184.584647
 30
0.0
  0
VERTEX
  5
FA22
  8
ALPHA
 10
1135.924246
 20
184.570691
 30
0.0
  0
SEQEND
  5
FA23
  8
ALPHA
  0
POLYLINE
  5
B5CA
  8
ALPHA
 66
     1
 10
0.0
 20
0.0
 30
0.0
  0
VERTEX
  5
FA24
  8
ALPHA
 10
1136.330013
 20
184.732567
 30
0.0
  0
VERTEX
  5
FA25
  8
ALPHA
 10
1136.330871
 20
184.725725
 30
0.0
  0
VERTEX
  5
FA26
  8
ALPHA
 10
1136.331776
 20
184.718882
 30
0.0
  0
VERTEX
  5
FA27
  8
ALPHA
 10
1136.332728
 20
184.712038
 30
0.0
  0
VERTEX
  5
FA28
  8
ALPHA
 10
1136.333728
 20
184.705195
 30
0.0
  0
VERTEX
  5
FA29
  8
ALPHA
 10
1136.334775
 20
184.698351
 30
0.0
  0
SEQEND
  5
FA2A
  8
ALPHA
  0
POLYLINE
  5
B5D2
  8
ALPHA
 66
     1
 10
0.0
 20
0.0
 30
0.0
  0
VERTEX
  5
FA2B
  8
ALPHA
 10
1134.870957
 20
184.698351
 30
0.0
  0
VERTEX
  5
FA2C
  8
ALPHA
 10
1134.872634
 20
184.68546
 30
0.0
  0
VERTEX
  5
FA2D
  8
ALPHA
 10
1134.874475
 20
184.672597
 30
0.0
  0
VERTEX
  5
FA2E
  8
ALPHA
 10
1134.876479
 20
184.659761
 30
0.0
  0
VERTEX
  5
FA2F
  8
ALPHA
 10
1134.878647
 20
184.646954
 30
0.0
  0
VERTEX
  5
FA30
  8
ALPHA
 10
1134.880978
 20
184.634174
 30
0.0
  0
VERTEX
  5
FA31
  8
ALPHA
 10
1134.883471
 20
184.621422
 30
0.0
  0
VERTEX
  5
FA32
  8
ALPHA
 10
1134.886125
 20
184.608698
 30
0.0
  0
VERTEX
  5
FA33
  8
ALPHA
 10
1134.888942
 20
184.596001
 30
0.0
  0
VERTEX
  5
FA34
  8
ALPHA
 10
1134.891921
 20
184.583332
 30
0.0
  0
VERTEX
  5
FA35
  8
ALPHA
 10
1134.895062
 20
184.570691
 30
0.0
  0
SEQEND
  5
FA36
  8
ALPHA
  0
LINE
  5
B5DF
  8
ALPHA
 10
1134.931219
 20
187.443032
 30
0.0
 11
1134.924319
 21
187.315372
 31
0.0
  0
LINE
  5
B5E0
  8
ALPHA
 10
1136.428182
 20
185.081329
 30
0.0
 11
1136.421908
 21
184.95367
 31
0.0
  0
LINE
  5
B5E1
  8
ALPHA
 10
1136.396177
 20
186.421755
 30
0.0
 11
1136.389921
 21
186.294095
 31
0.0
  0
LINE
  5
B5E2
  8
ALPHA
 10
1134.830476
 20
187.443032
 30
0.0
 11
1134.824387
 21
187.315372
 31
0.0
  0
LINE
  5
B5E3
  8
ALPHA
 10
1136.288068
 20
187.315372
 30
0.0
 11
1136.275965
 21
187.060053
 31
0.0
  0
POLYLINE
  5
B5E4
  8
ALPHA
 66
     1
 10
0.0
 20
0.0
 30
0.0
  0
VERTEX
  5
FA37
  8
ALPHA
 10
1136.435742
 20
184.698351
 30
0.0
  0
VERTEX
  5
FA38
  8
ALPHA
 10
1136.436048
 20
184.70518
 30
0.0
  0
VERTEX
  5
FA39
  8
ALPHA
 10
1136.436401
 20
184.712014
 30
0.0
  0
VERTEX
  5
FA3A
  8
ALPHA
 10
1136.436801
 20
184.718855
 30
0.0
  0
VERTEX
  5
FA3B
  8
ALPHA
 10
1136.437249
 20
184.725701
 30
0.0
  0
VERTEX
  5
FA3C
  8
ALPHA
 10
1136.437745
 20
184.732552
 30
0.0
  0
SEQEND
  5
FA3D
  8
ALPHA
  0
LINE
  5
B5EC
  8
ALPHA
 10
1135.873941
 20
185.783457
 30
0.0
 11
1135.879018
 21
185.911117
 31
0.0
  0
POLYLINE
  5
B5ED
  8
ALPHA
 66
     1
 10
0.0
 20
0.0
 30
0.0
  0
VERTEX
  5
FA3E
  8
ALPHA
 10
1135.97548
 20
184.506861
 30
0.0
  0
VERTEX
  5
FA3F
  8
ALPHA
 10
1135.975881
 20
184.517443
 30
0.0
  0
VERTEX
  5
FA40
  8
ALPHA
 10
1135.976409
 20
184.528047
 30
0.0
  0
VERTEX
  5
FA41
  8
ALPHA
 10
1135.977064
 20
184.538673
 30
0.0
  0
VERTEX
  5
FA42
  8
ALPHA
 10
1135.977845
 20
184.549323
 30
0.0
  0
VERTEX
  5
FA43
  8
ALPHA
 10
1135.978754
 20
184.559996
 30
0.0
  0
VERTEX
  5
FA44
  8
ALPHA
 10
1135.979789
 20
184.570691
 30
0.0
  0
SEQEND
  5
FA45
  8
ALPHA
  0
LINE
  5
B5F6
  8
ALPHA
 10
1134.934453
 20
186.996223
 30
0.0
 11
1134.93909
 21
187.123883
 31
0.0
  0
LINE
  5
B5F7
  8
ALPHA
 10
1134.916578
 20
185.081329
 30
0.0
 11
1134.912284
 21
184.95367
 31
0.0
  0
LINE
  5
B5F8
  8
ALPHA
 10
1134.835229
 20
186.932393
 30
0.0
 11
1134.839258
 21
187.060053
 31
0.0
  0
LINE
  5
B5F9
  8
ALPHA
 10
1136.416574
 20
186.230266
 30
0.0
 11
1136.421765
 21
186.421755
 31
0.0
  0
LINE
  5
B5FA
  8
ALPHA
 10
1136.445458
 20
184.82601
 30
0.0
 11
1136.450658
 21
185.0175
 31
0.0
  0
LINE
  5
B5FB
  8
ALPHA
 10
1135.980741
 20
184.76218
 30
0.0
 11
1135.987564
 21
185.0175
 31
0.0
  0
LINE
  5
B5FC
  8
ALPHA
 10
1136.297017
 20
186.804734
 30
0.0
 11
1136.301976
 21
186.996223
 31
0.0
  0
LINE
  5
B5FD
  8
ALPHA
 10
1135.844588
 20
187.251542
 30
0.0
 11
1135.838137
 21
186.996223
 31
0.0
  0
POLYLINE
  5
B5FE
  8
ALPHA
 66
     1
 10
0.0
 20
0.0
 30
0.0
  0
VERTEX
  5
FA46
  8
ALPHA
 10
1134.972379
 20
184.82601
 30
0.0
  0
VERTEX
  5
FA47
  8
ALPHA
 10
1134.988989
 20
185.528154
 30
0.0
  0
VERTEX
  5
FA48
  8
ALPHA
 10
1135.006286
 20
186.230266
 30
0.0
  0
SEQEND
  5
FA49
  8
ALPHA
  0
POLYLINE
  5
B603
  8
ALPHA
 66
     1
 10
0.0
 20
0.0
 30
0.0
  0
VERTEX
  5
FA4A
  8
ALPHA
 10
1134.99103
 20
186.421755
 30
0.0
  0
VERTEX
  5
FA4B
  8
ALPHA
 10
1134.972212
 20
185.623902
 30
0.0
  0
VERTEX
  5
FA4C
  8
ALPHA
 10
1134.954257
 20
184.82601
 30
0.0
  0
SEQEND
  5
FA4D
  8
ALPHA
  0
LINE
  5
B608
  8
ALPHA
 10
1135.96916
 20
185.208989
 30
0.0
 11
1135.965015
 21
185.0175
 31
0.0
  0
LINE
  5
B609
  8
ALPHA
 10
1135.85606
 20
186.804734
 30
0.0
 11
1135.860019
 21
186.996223
 31
0.0
  0
LINE
  5
B60A
  8
ALPHA
 10
1134.924319
 20
187.315372
 30
0.0
 11
1134.919721
 21
187.060053
 31
0.0
  0
LINE
  5
B60B
  8
ALPHA
 10
1134.928261
 20
184.734271
 30
0.0
 11
1134.931977
 21
184.95367
 31
0.0
  0
LINE
  5
B60C
  8
ALPHA
 10
1136.400214
 20
186.677074
 30
0.0
 11
1136.396177
 21
186.421755
 31
0.0
  0
LINE
  5
B60D
  8
ALPHA
 10
1136.430207
 20
185.208989
 30
0.0
 11
1136.428182
 21
185.081329
 31
0.0
  0
LINE
  5
B60E
  8
ALPHA
 10
1134.824387
 20
187.315372
 30
0.0
 11
1134.820599
 21
187.060053
 31
0.0
  0
LINE
  5
B60F
  8
ALPHA
 10
1136.034733
 20
185.145159
 30
0.0
 11
1136.056938
 21
186.740904
 31
0.0
  0
LINE
  5
B610
  8
ALPHA
 10
1136.043062
 20
186.868564
 30
0.0
 11
1136.02103
 21
185.272819
 31
0.0
  0
POLYLINE
  5
B611
  8
ALPHA
 66
     1
 10
0.0
 20
0.0
 30
0.0
  0
VERTEX
  5
FA4E
  8
ALPHA
 10
1136.431965
 20
184.506861
 30
0.0
  0
VERTEX
  5
FA4F
  8
ALPHA
 10
1136.432086
 20
184.517437
 30
0.0
  0
VERTEX
  5
FA50
  8
ALPHA
 10
1136.432332
 20
184.528038
 30
0.0
  0
VERTEX
  5
FA51
  8
ALPHA
 10
1136.432704
 20
184.538664
 30
0.0
  0
VERTEX
  5
FA52
  8
ALPHA
 10
1136.433201
 20
184.549314
 30
0.0
  0
VERTEX
  5
FA53
  8
ALPHA
 10
1136.433823
 20
184.55999
 30
0.0
  0
VERTEX
  5
FA54
  8
ALPHA
 10
1136.43457
 20
184.570691
 30
0.0
  0
SEQEND
  5
FA55
  8
ALPHA
  0
LINE
  5
B61A
  8
ALPHA
 10
1135.006286
 20
186.230266
 30
0.0
 11
1135.007734
 21
186.421755
 31
0.0
  0
LINE
  5
B61B
  8
ALPHA
 10
1134.933243
 20
186.804734
 30
0.0
 11
1134.934453
 21
186.996223
 31
0.0
  0
LINE
  5
B61C
  8
ALPHA
 10
1135.987564
 20
185.0175
 30
0.0
 11
1135.989527
 21
185.336649
 31
0.0
  0
LINE
  5
B61D
  8
ALPHA
 10
1135.838137
 20
186.996223
 30
0.0
 11
1135.836466
 21
186.677074
 31
0.0
  0
LINE
  5
B61E
  8
ALPHA
 10
1136.450658
 20
185.0175
 30
0.0
 11
1136.451587
 21
185.208989
 31
0.0
  0
LINE
  5
B61F
  8
ALPHA
 10
1134.834424
 20
186.740904
 30
0.0
 11
1134.835229
 21
186.932393
 31
0.0
  0
LINE
  5
B620
  8
ALPHA
 10
1134.338301
 20
187.506861
 30
0.0
 11
1134.338126
 21
187.443032
 31
0.0
  0
LINE
  5
B621
  8
ALPHA
 10
1135.969563
 20
185.400478
 30
0.0
 11
1135.96916
 21
185.208989
 31
0.0
  0
LINE
  5
B622
  8
ALPHA
 10
1135.855764
 20
186.613244
 30
0.0
 11
1135.85606
 21
186.804734
 31
0.0
  0
LINE
  5
B623
  8
ALPHA
 10
1135.873644
 20
185.591968
 30
0.0
 11
1135.873941
 21
185.783457
 31
0.0
  0
LINE
  5
B624
  8
ALPHA
 10
1134.991318
 20
186.677074
 30
0.0
 11
1134.99103
 21
186.421755
 31
0.0
  0
LINE
  5
B625
  8
ALPHA
 10
1136.421765
 20
186.421755
 30
0.0
 11
1136.42157
 21
186.677074
 31
0.0
  0
LINE
  5
B626
  8
ALPHA
 10
1136.275965
 20
187.060053
 30
0.0
 11
1136.276306
 21
186.804734
 31
0.0
  0
LINE
  5
B627
  8
ALPHA
 10
1134.820599
 20
187.060053
 30
0.0
 11
1134.820962
 21
186.804734
 31
0.0
  0
LINE
  5
B628
  8
ALPHA
 10
1134.343868
 20
187.123883
 30
0.0
 11
1134.343674
 21
187.187712
 31
0.0
  0
LINE
  5
B629
  8
ALPHA
 10
1134.915416
 20
185.272819
 30
0.0
 11
1134.916578
 21
185.081329
 31
0.0
  0
LINE
  5
B62A
  8
ALPHA
 10
1134.316226
 20
188.925573
 30
0.0
 11
1134.323497
 21
188.095526
 31
0.0
  0
LINE
  5
B62B
  8
ALPHA
 10
1135.007734
 20
186.421755
 30
0.0
 11
1135.005676
 21
186.677074
 31
0.0
  0
LINE
  5
B62C
  8
ALPHA
 10
1135.858824
 20
186.230266
 30
0.0
 11
1135.855764
 21
186.613244
 31
0.0
  0
LINE
  5
B62D
  8
ALPHA
 10
1134.919721
 20
187.060053
 30
0.0
 11
1134.921928
 21
186.804734
 31
0.0
  0
LINE
  5
B62E
  8
ALPHA
 10
1134.836816
 20
186.485585
 30
0.0
 11
1134.834424
 21
186.740904
 31
0.0
  0
LINE
  5
B62F
  8
ALPHA
 10
1135.836466
 20
186.677074
 30
0.0
 11
1135.840666
 21
186.230266
 31
0.0
  0
LINE
  5
B630
  8
ALPHA
 10
1134.931977
 20
184.95367
 30
0.0
 11
1134.92861
 21
185.272819
 31
0.0
  0
LINE
  5
B631
  8
ALPHA
 10
1134.820962
 20
186.804734
 30
0.0
 11
1134.824495
 21
186.485585
 31
0.0
  0
LINE
  5
B632
  8
ALPHA
 10
1134.338126
 20
187.443032
 30
0.0
 11
1134.339715
 21
187.315372
 31
0.0
  0
LINE
  5
B633
  8
ALPHA
 10
1134.348628
 20
186.804734
 30
0.0
 11
1134.343868
 21
187.123883
 31
0.0
  0
POLYLINE
  5
B634
  8
ALPHA
 66
     1
 10
0.0
 20
0.0
 30
0.0
  0
VERTEX
  5
FA56
  8
ALPHA
 10
1134.359702
 20
186.421755
 30
0.0
  0
VERTEX
  5
FA57
  8
ALPHA
 10
1134.37059
 20
185.623871
 30
0.0
  0
VERTEX
  5
FA58
  8
ALPHA
 10
1134.38385
 20
184.739409
 30
0.0
  0
SEQEND
  5
FA59
  8
ALPHA
  0
POLYLINE
  5
B639
  8
ALPHA
 66
     1
 10
0.0
 20
0.0
 30
0.0
  0
VERTEX
  5
FA5A
  8
ALPHA
 10
1134.383478
 20
184.82601
 30
0.0
  0
VERTEX
  5
FA5B
  8
ALPHA
 10
1134.373565
 20
185.528129
 30
0.0
  0
VERTEX
  5
FA5C
  8
ALPHA
 10
1134.361545
 20
186.421755
 30
0.0
  0
SEQEND
  5
FA5D
  8
ALPHA
  0
LINE
  5
B63E
  8
ALPHA
 10
1134.339715
 20
187.315372
 30
0.0
 11
1134.343602
 21
187.060053
 31
0.0
  0
LINE
  5
B63F
  8
ALPHA
 10
1134.353522
 20
186.804734
 30
0.0
 11
1134.359702
 21
186.421755
 31
0.0
  0
LINE
  5
B640
  8
ALPHA
 10
1134.361545
 20
186.421755
 30
0.0
 11
1134.357369
 21
186.677074
 31
0.0
  0
LINE
  5
B641
  8
ALPHA
 10
1134.343602
 20
187.060053
 30
0.0
 11
1134.347927
 21
186.804734
 31
0.0
  0
LINE
  5
B642
  8
ALPHA
 10
1134.322905
 20
188.129394
 30
0.0
 11
1134.339342
 21
187.187712
 31
0.0
  0
LINE
  5
B643
  8
ALPHA
 10
1134.38212
 20
184.739409
 30
0.0
 11
1134.339385
 21
187.187712
 31
0.0
  0
LINE
  5
B644
  8
ALPHA
 10
1134.340257
 20
187.187712
 30
0.0
 11
1134.334686
 21
187.506861
 31
0.0
  0
LINE
  5
B645
  8
ALPHA
 10
1134.357369
 20
186.677074
 30
0.0
 11
1134.350404
 21
187.060053
 31
0.0
  0
LINE
  5
B646
  8
ALPHA
 10
1134.391192
 20
184.739409
 30
0.0
 11
1134.38968
 21
184.82601
 31
0.0
  0
LINE
  5
B647
  8
ALPHA
 10
1134.35441
 20
187.756861
 30
0.0
 11
1134.407082
 21
184.739409
 31
0.0
  0
LINE
  5
B648
  8
ALPHA
 10
1134.804214
 20
184.739409
 30
0.0
 11
1134.7515
 21
187.756861
 31
0.0
  0
LINE
  5
B649
  8
ALPHA
 10
1134.824495
 20
186.485585
 30
0.0
 11
1134.841223
 21
185.528138
 31
0.0
  0
LINE
  5
B64A
  8
ALPHA
 10
1134.853545
 20
185.528138
 30
0.0
 11
1134.836816
 21
186.485585
 31
0.0
  0
LINE
  5
B64B
  8
ALPHA
 10
1134.954257
 20
184.82601
 30
0.0
 11
1134.955771
 21
184.739409
 31
0.0
  0
LINE
  5
B64C
  8
ALPHA
 10
1134.989087
 20
186.804734
 30
0.0
 11
1134.991318
 21
186.677074
 31
0.0
  0
LINE
  5
B64D
  8
ALPHA
 10
1135.005676
 20
186.677074
 30
0.0
 11
1135.003445
 21
186.804734
 31
0.0
  0
LINE
  5
B64E
  8
ALPHA
 10
1135.039543
 20
184.739409
 30
0.0
 11
1135.038029
 21
184.82601
 31
0.0
  0
LINE
  5
B64F
  8
ALPHA
 10
1135.088475
 20
187.756861
 30
0.0
 11
1135.141225
 21
184.739409
 31
0.0
  0
LINE
  5
B650
  8
ALPHA
 10
1135.790534
 20
184.739409
 30
0.0
 11
1135.737715
 21
187.756861
 31
0.0
  0
LINE
  5
B651
  8
ALPHA
 10
1135.840666
 20
186.230266
 30
0.0
 11
1135.848488
 21
185.783457
 31
0.0
  0
LINE
  5
B652
  8
ALPHA
 10
1135.861059
 20
186.102606
 30
0.0
 11
1135.858824
 21
186.230266
 31
0.0
  0
LINE
  5
B653
  8
ALPHA
 10
1135.876996
 20
185.400478
 30
0.0
 11
1135.873644
 21
185.591968
 31
0.0
  0
LINE
  5
B654
  8
ALPHA
 10
1135.96621
 20
185.591968
 30
0.0
 11
1135.969563
 21
185.400478
 31
0.0
  0
LINE
  5
B655
  8
ALPHA
 10
1135.989527
 20
185.336649
 30
0.0
 11
1135.983938
 21
185.655798
 31
0.0
  0
LINE
  5
B656
  8
ALPHA
 10
1136.074757
 20
187.506861
 30
0.0
 11
1136.080347
 21
187.187712
 31
0.0
  0
LINE
  5
B657
  8
ALPHA
 10
1136.14367
 20
187.187712
 30
0.0
 11
1136.18656
 21
184.739409
 31
0.0
  0
LINE
  5
B658
  8
ALPHA
 10
1136.210601
 20
184.739409
 30
0.0
 11
1136.167709
 21
187.187712
 31
0.0
  0
LINE
  5
B659
  8
ALPHA
 10
1136.232596
 20
187.187712
 30
0.0
 11
1136.227004
 21
187.506861
 31
0.0
  0
LINE
  5
B65A
  8
ALPHA
 10
1136.349958
 20
186.166436
 30
0.0
 11
1136.354432
 21
185.911117
 31
0.0
  0
LINE
  5
B65B
  8
ALPHA
 10
1136.397976
 20
186.804734
 30
0.0
 11
1136.400214
 21
186.677074
 31
0.0
  0
LINE
  5
B65C
  8
ALPHA
 10
1136.425732
 20
185.464308
 30
0.0
 11
1136.430207
 21
185.208989
 31
0.0
  0
LINE
  5
B65D
  8
ALPHA
 10
1136.42157
 20
186.677074
 30
0.0
 11
1136.419332
 21
186.804734
 31
0.0
  0
LINE
  5
B65E
  8
ALPHA
 10
1136.451587
 20
185.208989
 30
0.0
 11
1136.447111
 21
185.464308
 31
0.0
  0
LINE
  5
B65F
  8
ALPHA
 10
1136.496468
 20
187.756861
 30
0.0
 11
1136.549367
 21
184.739409
 31
0.0
  0
LINE
  5
B660
  8
ALPHA
 10
1134.349675
 20
186.996223
 30
0.0
 11
1134.353522
 21
186.804734
 31
0.0
  0
LINE
  5
B661
  8
ALPHA
 10
1134.350404
 20
187.060053
 30
0.0
 11
1134.344867
 21
187.315372
 31
0.0
  0
POLYLINE
  5
B662
  8
ALPHA
 66
     1
 10
0.0
 20
0.0
 30
0.0
  0
VERTEX
  5
FA5E
  8
ALPHA
 10
1134.928487
 20
184.698351
 30
0.0
  0
VERTEX
  5
FA5F
  8
ALPHA
 10
1134.928375
 20
184.703477
 30
0.0
  0
VERTEX
  5
FA60
  8
ALPHA
 10
1134.92829
 20
184.708606
 30
0.0
  0
VERTEX
  5
FA61
  8
ALPHA
 10
1134.928231
 20
184.713736
 30
0.0
  0
VERTEX
  5
FA62
  8
ALPHA
 10
1134.928199
 20
184.718867
 30
0.0
  0
VERTEX
  5
FA63
  8
ALPHA
 10
1134.928193
 20
184.724
 30
0.0
  0
VERTEX
  5
FA64
  8
ALPHA
 10
1134.928214
 20
184.729135
 30
0.0
  0
VERTEX
  5
FA65
  8
ALPHA
 10
1134.928261
 20
184.734271
 30
0.0
  0
SEQEND
  5
FA66
  8
ALPHA
  0
LINE
  5
B66C
  8
ALPHA
 10
1134.346723
 20
187.123883
 30
0.0
 11
1134.349675
 21
186.996223
 31
0.0
  0
POLYLINE
  5
B66D
  8
ALPHA
 66
     1
 10
0.0
 20
0.0
 30
0.0
  0
VERTEX
  5
FA67
  8
ALPHA
 10
1134.38385
 20
184.739409
 30
0.0
  0
VERTEX
  5
FA68
  8
ALPHA
 10
1134.384164
 20
184.726326
 30
0.0
  0
VERTEX
  5
FA69
  8
ALPHA
 10
1134.384648
 20
184.713262
 30
0.0
  0
VERTEX
  5
FA6A
  8
ALPHA
 10
1134.385302
 20
184.700217
 30
0.0
  0
VERTEX
  5
FA6B
  8
ALPHA
 10
1134.386126
 20
184.687192
 30
0.0
  0
VERTEX
  5
FA6C
  8
ALPHA
 10
1134.38712
 20
184.674186
 30
0.0
  0
VERTEX
  5
FA6D
  8
ALPHA
 10
1134.388283
 20
184.661199
 30
0.0
  0
VERTEX
  5
FA6E
  8
ALPHA
 10
1134.389615
 20
184.648232
 30
0.0
  0
VERTEX
  5
FA6F
  8
ALPHA
 10
1134.391116
 20
184.635283
 30
0.0
  0
VERTEX
  5
FA70
  8
ALPHA
 10
1134.392785
 20
184.622354
 30
0.0
  0
VERTEX
  5
FA71
  8
ALPHA
 10
1134.394624
 20
184.609443
 30
0.0
  0
VERTEX
  5
FA72
  8
ALPHA
 10
1134.39663
 20
184.596552
 30
0.0
  0
VERTEX
  5
FA73
  8
ALPHA
 10
1134.398807
 20
184.58368
 30
0.0
  0
VERTEX
  5
FA74
  8
ALPHA
 10
1134.401153
 20
184.570828
 30
0.0
  0
VERTEX
  5
FA75
  8
ALPHA
 10
1134.40367
 20
184.557995
 30
0.0
  0
VERTEX
  5
FA76
  8
ALPHA
 10
1134.406358
 20
184.545182
 30
0.0
  0
VERTEX
  5
FA77
  8
ALPHA
 10
1134.409217
 20
184.532388
 30
0.0
  0
VERTEX
  5
FA78
  8
ALPHA
 10
1134.412248
 20
184.519615
 30
0.0
  0
VERTEX
  5
FA79
  8
ALPHA
 10
1134.415452
 20
184.506861
 30
0.0
  0
SEQEND
  5
FA7A
  8
ALPHA
  0
LINE
  5
B682
  8
ALPHA
 10
1134.841223
 20
185.528138
 30
0.0
 11
1134.848842
 21
185.208989
 31
0.0
  0
POLYLINE
  5
B683
  8
ALPHA
 66
     1
 10
0.0
 20
0.0
 30
0.0
  0
VERTEX
  5
FA7B
  8
ALPHA
 10
1134.955771
 20
184.739409
 30
0.0
  0
VERTEX
  5
FA7C
  8
ALPHA
 10
1134.956085
 20
184.726326
 30
0.0
  0
VERTEX
  5
FA7D
  8
ALPHA
 10
1134.956569
 20
184.713263
 30
0.0
  0
VERTEX
  5
FA7E
  8
ALPHA
 10
1134.957224
 20
184.700218
 30
0.0
  0
VERTEX
  5
FA7F
  8
ALPHA
 10
1134.958049
 20
184.687193
 30
0.0
  0
VERTEX
  5
FA80
  8
ALPHA
 10
1134.959044
 20
184.674188
 30
0.0
  0
VERTEX
  5
FA81
  8
ALPHA
 10
1134.960208
 20
184.661201
 30
0.0
  0
VERTEX
  5
FA82
  8
ALPHA
 10
1134.961542
 20
184.648234
 30
0.0
  0
VERTEX
  5
FA83
  8
ALPHA
 10
1134.963044
 20
184.635285
 30
0.0
  0
VERTEX
  5
FA84
  8
ALPHA
 10
1134.964716
 20
184.622356
 30
0.0
  0
VERTEX
  5
FA85
  8
ALPHA
 10
1134.966556
 20
184.609445
 30
0.0
  0
VERTEX
  5
FA86
  8
ALPHA
 10
1134.968565
 20
184.596554
 30
0.0
  0
VERTEX
  5
FA87
  8
ALPHA
 10
1134.970744
 20
184.583682
 30
0.0
  0
VERTEX
  5
FA88
  8
ALPHA
 10
1134.973093
 20
184.570829
 30
0.0
  0
VERTEX
  5
FA89
  8
ALPHA
 10
1134.975613
 20
184.557996
 30
0.0
  0
VERTEX
  5
FA8A
  8
ALPHA
 10
1134.978304
 20
184.545183
 30
0.0
  0
VERTEX
  5
FA8B
  8
ALPHA
 10
1134.981166
 20
184.532389
 30
0.0
  0
VERTEX
  5
FA8C
  8
ALPHA
 10
1134.984201
 20
184.519615
 30
0.0
  0
VERTEX
  5
FA8D
  8
ALPHA
 10
1134.987409
 20
184.506861
 30
0.0
  0
SEQEND
  5
FA8E
  8
ALPHA
  0
POLYLINE
  5
B698
  8
ALPHA
 66
     1
 10
0.0
 20
0.0
 30
0.0
  0
VERTEX
  5
FA8F
  8
ALPHA
 10
1136.18656
 20
184.739409
 30
0.0
  0
VERTEX
  5
FA90
  8
ALPHA
 10
1136.186875
 20
184.726327
 30
0.0
  0
VERTEX
  5
FA91
  8
ALPHA
 10
1136.187361
 20
184.713264
 30
0.0
  0
VERTEX
  5
FA92
  8
ALPHA
 10
1136.188017
 20
184.700221
 30
0.0
  0
VERTEX
  5
FA93
  8
ALPHA
 10
1136.188844
 20
184.687197
 30
0.0
  0
VERTEX
  5
FA94
  8
ALPHA
 10
1136.189841
 20
184.674191
 30
0.0
  0
VERTEX
  5
FA95
  8
ALPHA
 10
1136.191008
 20
184.661205
 30
0.0
  0
VERTEX
  5
FA96
  8
ALPHA
 10
1136.192345
 20
184.648238
 30
0.0
  0
VERTEX
  5
FA97
  8
ALPHA
 10
1136.193851
 20
184.63529
 30
0.0
  0
VERTEX
  5
FA98
  8
ALPHA
 10
1136.195527
 20
184.62236
 30
0.0
  0
VERTEX
  5
FA99
  8
ALPHA
 10
1136.197371
 20
184.60945
 30
0.0
  0
VERTEX
  5
FA9A
  8
ALPHA
 10
1136.199385
 20
184.596558
 30
0.0
  0
VERTEX
  5
FA9B
  8
ALPHA
 10
1136.20157
 20
184.583686
 30
0.0
  0
VERTEX
  5
FA9C
  8
ALPHA
 10
1136.203925
 20
184.570833
 30
0.0
  0
VERTEX
  5
FA9D
  8
ALPHA
 10
1136.206451
 20
184.557999
 30
0.0
  0
VERTEX
  5
FA9E
  8
ALPHA
 10
1136.209148
 20
184.545185
 30
0.0
  0
VERTEX
  5
FA9F
  8
ALPHA
 10
1136.212018
 20
184.532391
 30
0.0
  0
VERTEX
  5
FAA0
  8
ALPHA
 10
1136.215061
 20
184.519616
 30
0.0
  0
VERTEX
  5
FAA1
  8
ALPHA
 10
1136.218276
 20
184.506861
 30
0.0
  0
SEQEND
  5
FAA2
  8
ALPHA
  0
LINE
  5
B6AD
  8
ALPHA
 10
1134.902956
 20
186.740904
 30
0.0
 11
1134.895169
 21
187.060053
 31
0.0
  0
LINE
  5
B6AE
  8
ALPHA
 10
1134.860074
 20
185.272819
 30
0.0
 11
1134.853545
 21
185.528138
 31
0.0
  0
LINE
  5
B6AF
  8
ALPHA
 10
1135.848488
 20
185.783457
 30
0.0
 11
1135.859933
 21
185.336649
 31
0.0
  0
LINE
  5
B6B0
  8
ALPHA
 10
1135.003445
 20
186.804734
 30
0.0
 11
1134.996578
 21
187.060053
 31
0.0
  0
POLYLINE
  5
B6B1
  8
ALPHA
 66
     1
 10
0.0
 20
0.0
 30
0.0
  0
VERTEX
  5
FAA3
  8
ALPHA
 10
1135.141225
 20
184.739409
 30
0.0
  0
VERTEX
  5
FAA4
  8
ALPHA
 10
1135.141756
 20
184.719842
 30
0.0
  0
VERTEX
  5
FAA5
  8
ALPHA
 10
1135.142663
 20
184.700358
 30
0.0
  0
VERTEX
  5
FAA6
  8
ALPHA
 10
1135.143944
 20
184.680956
 30
0.0
  0
VERTEX
  5
FAA7
  8
ALPHA
 10
1135.145598
 20
184.661636
 30
0.0
  0
VERTEX
  5
FAA8
  8
ALPHA
 10
1135.147623
 20
184.642396
 30
0.0
  0
VERTEX
  5
FAA9
  8
ALPHA
 10
1135.150019
 20
184.623237
 30
0.0
  0
VERTEX
  5
FAAA
  8
ALPHA
 10
1135.152783
 20
184.604158
 30
0.0
  0
VERTEX
  5
FAAB
  8
ALPHA
 10
1135.155914
 20
184.585157
 30
0.0
  0
VERTEX
  5
FAAC
  8
ALPHA
 10
1135.159411
 20
184.566235
 30
0.0
  0
VERTEX
  5
FAAD
  8
ALPHA
 10
1135.163272
 20
184.547391
 30
0.0
  0
VERTEX
  5
FAAE
  8
ALPHA
 10
1135.167497
 20
184.528623
 30
0.0
  0
VERTEX
  5
FAAF
  8
ALPHA
 10
1135.172083
 20
184.509932
 30
0.0
  0
VERTEX
  5
FAB0
  8
ALPHA
 10
1135.177029
 20
184.491317
 30
0.0
  0
VERTEX
  5
FAB1
  8
ALPHA
 10
1135.181944
 20
184.474099
 30
0.0
  0
VERTEX
  5
FAB2
  8
ALPHA
 10
1135.187171
 20
184.456947
 30
0.0
  0
VERTEX
  5
FAB3
  8
ALPHA
 10
1135.192712
 20
184.439863
 30
0.0
  0
VERTEX
  5
FAB4
  8
ALPHA
 10
1135.198572
 20
184.422849
 30
0.0
  0
VERTEX
  5
FAB5
  8
ALPHA
 10
1135.204752
 20
184.405905
 30
0.0
  0
VERTEX
  5
FAB6
  8
ALPHA
 10
1135.211255
 20
184.389034
 30
0.0
  0
VERTEX
  5
FAB7
  8
ALPHA
 10
1135.218084
 20
184.372237
 30
0.0
  0
VERTEX
  5
FAB8
  8
ALPHA
 10
1135.225243
 20
184.355516
 30
0.0
  0
VERTEX
  5
FAB9
  8
ALPHA
 10
1135.232732
 20
184.338871
 30
0.0
  0
VERTEX
  5
FABA
  8
ALPHA
 10
1135.240556
 20
184.322306
 30
0.0
  0
VERTEX
  5
FABB
  8
ALPHA
 10
1135.248717
 20
184.30582
 30
0.0
  0
VERTEX
  5
FABC
  8
ALPHA
 10
1135.257218
 20
184.289417
 30
0.0
  0
VERTEX
  5
FABD
  8
ALPHA
 10
1135.266062
 20
184.273097
 30
0.0
  0
VERTEX
  5
FABE
  8
ALPHA
 10
1135.275251
 20
184.256861
 30
0.0
  0
SEQEND
  5
FABF
  8
ALPHA
  0
POLYLINE
  5
B6CF
  8
ALPHA
 66
     1
 10
0.0
 20
0.0
 30
0.0
  0
VERTEX
  5
FAC0
  8
ALPHA
 10
1136.549367
 20
184.739409
 30
0.0
  0
VERTEX
  5
FAC1
  8
ALPHA
 10
1136.549906
 20
184.71967
 30
0.0
  0
VERTEX
  5
FAC2
  8
ALPHA
 10
1136.550828
 20
184.700028
 30
0.0
  0
VERTEX
  5
FAC3
  8
ALPHA
 10
1136.55213
 20
184.680481
 30
0.0
  0
VERTEX
  5
FAC4
  8
ALPHA
 10
1136.553811
 20
184.66103
 30
0.0
  0
VERTEX
  5
FAC5
  8
ALPHA
 10
1136.555868
 20
184.641672
 30
0.0
  0
VERTEX
  5
FAC6
  8
ALPHA
 10
1136.558299
 20
184.62241
 30
0.0
  0
VERTEX
  5
FAC7
  8
ALPHA
 10
1136.561102
 20
184.60324
 30
0.0
  0
VERTEX
  5
FAC8
  8
ALPHA
 10
1136.564273
 20
184.584164
 30
0.0
  0
VERTEX
  5
FAC9
  8
ALPHA
 10
1136.567812
 20
184.565181
 30
0.0
  0
VERTEX
  5
FACA
  8
ALPHA
 10
1136.571715
 20
184.54629
 30
0.0
  0
VERTEX
  5
FACB
  8
ALPHA
 10
1136.575981
 20
184.527491
 30
0.0
  0
VERTEX
  5
FACC
  8
ALPHA
 10
1136.580607
 20
184.508783
 30
0.0
  0
VERTEX
  5
FACD
  8
ALPHA
 10
1136.585591
 20
184.490166
 30
0.0
  0
VERTEX
  5
FACE
  8
ALPHA
 10
1136.590537
 20
184.47296
 30
0.0
  0
VERTEX
  5
FACF
  8
ALPHA
 10
1136.595793
 20
184.455833
 30
0.0
  0
VERTEX
  5
FAD0
  8
ALPHA
 10
1136.60136
 20
184.438786
 30
0.0
  0
VERTEX
  5
FAD1
  8
ALPHA
 10
1136.60724
 20
184.42182
 30
0.0
  0
VERTEX
  5
FAD2
  8
ALPHA
 10
1136.613436
 20
184.404936
 30
0.0
  0
VERTEX
  5
FAD3
  8
ALPHA
 10
1136.61995
 20
184.388136
 30
0.0
  0
VERTEX
  5
FAD4
  8
ALPHA
 10
1136.626783
 20
184.37142
 30
0.0
  0
VERTEX
  5
FAD5
  8
ALPHA
 10
1136.63394
 20
184.35479
 30
0.0
  0
VERTEX
  5
FAD6
  8
ALPHA
 10
1136.64142
 20
184.338246
 30
0.0
  0
VERTEX
  5
FAD7
  8
ALPHA
 10
1136.649228
 20
184.321789
 30
0.0
  0
VERTEX
  5
FAD8
  8
ALPHA
 10
1136.657365
 20
184.305422
 30
0.0
  0
VERTEX
  5
FAD9
  8
ALPHA
 10
1136.665833
 20
184.289144
 30
0.0
  0
VERTEX
  5
FADA
  8
ALPHA
 10
1136.674634
 20
184.272957
 30
0.0
  0
VERTEX
  5
FADB
  8
ALPHA
 10
1136.683772
 20
184.256861
 30
0.0
  0
SEQEND
  5
FADC
  8
ALPHA
  0
LINE
  5
B6ED
  8
ALPHA
 10
1134.884233
 20
186.932393
 30
0.0
 11
1134.889762
 21
186.740904
 31
0.0
  0
LINE
  5
B6EE
  8
ALPHA
 10
1136.447111
 20
185.464308
 30
0.0
 11
1136.438351
 21
185.719627
 31
0.0
  0
LINE
  5
B6EF
  8
ALPHA
 10
1136.419332
 20
186.804734
 30
0.0
 11
1136.410577
 21
187.060053
 31
0.0
  0
LINE
  5
B6F0
  8
ALPHA
 10
1135.883998
 20
185.208989
 30
0.0
 11
1135.876996
 21
185.400478
 31
0.0
  0
LINE
  5
B6F1
  8
ALPHA
 10
1135.959101
 20
185.783457
 30
0.0
 11
1135.96621
 21
185.591968
 31
0.0
  0
LINE
  5
B6F2
  8
ALPHA
 10
1135.956267
 20
186.804734
 30
0.0
 11
1135.949145
 21
186.996223
 31
0.0
  0
LINE
  5
B6F3
  8
ALPHA
 10
1136.300138
 20
185.208989
 30
0.0
 11
1136.307623
 21
185.0175
 31
0.0
  0
LINE
  5
B6F4
  8
ALPHA
 10
1134.93909
 20
187.123883
 30
0.0
 11
1134.949509
 21
187.187712
 31
0.0
  0
LINE
  5
B6F5
  8
ALPHA
 10
1135.868785
 20
187.123883
 30
0.0
 11
1135.878708
 21
187.187712
 31
0.0
  0
LINE
  5
B6F6
  8
ALPHA
 10
1135.887784
 20
186.038776
 30
0.0
 11
1135.897708
 21
186.102606
 31
0.0
  0
LINE
  5
B6F7
  8
ALPHA
 10
1134.839859
 20
187.506861
 30
0.0
 11
1134.830476
 21
187.443032
 31
0.0
  0
LINE
  5
B6F8
  8
ALPHA
 10
1134.912284
 20
184.95367
 30
0.0
 11
1134.904762
 21
184.88984
 31
0.0
  0
LINE
  5
B6F9
  8
ALPHA
 10
1136.421908
 20
184.95367
 30
0.0
 11
1136.414533
 21
184.88984
 31
0.0
  0
LINE
  5
B6FA
  8
ALPHA
 10
1134.839258
 20
187.060053
 30
0.0
 11
1134.846551
 21
187.123883
 31
0.0
  0
LINE
  5
B6FB
  8
ALPHA
 10
1136.30248
 20
187.443032
 30
0.0
 11
1136.288068
 21
187.315372
 31
0.0
  0
POLYLINE
  5
B6FC
  8
ALPHA
 66
     1
 10
0.0
 20
0.0
 30
0.0
  0
VERTEX
  5
FADD
  8
ALPHA
 10
1135.025362
 20
188.954723
 30
0.0
  0
VERTEX
  5
FADE
  8
ALPHA
 10
1134.981672
 20
188.429056
 30
0.0
  0
VERTEX
  5
FADF
  8
ALPHA
 10
1134.930629
 20
188.157318
 30
0.0
  0
VERTEX
  5
FAE0
  8
ALPHA
 10
1134.875712
 20
188.157229
 30
0.0
  0
VERTEX
  5
FAE1
  8
ALPHA
 10
1134.820151
 20
188.428791
 30
0.0
  0
SEQEND
  5
FAE2
  8
ALPHA
  0
LINE
  5
B703
  8
ALPHA
 10
1136.437745
 20
184.732552
 30
0.0
 11
1136.445458
 21
184.82601
 31
0.0
  0
LINE
  5
B704
  8
ALPHA
 10
1135.978905
 20
184.739409
 30
0.0
 11
1135.980741
 21
184.76218
 31
0.0
  0
LINE
  5
B705
  8
ALPHA
 10
1136.301976
 20
186.996223
 30
0.0
 11
1136.312246
 21
187.123883
 31
0.0
  0
LINE
  5
B706
  8
ALPHA
 10
1135.859526
 20
187.443032
 30
0.0
 11
1135.844588
 21
187.251542
 31
0.0
  0
LINE
  5
B707
  8
ALPHA
 10
1136.40289
 20
186.038776
 30
0.0
 11
1136.416574
 21
186.230266
 31
0.0
  0
LINE
  5
B708
  8
ALPHA
 10
1135.965015
 20
185.0175
 30
0.0
 11
1135.956036
 21
184.88984
 31
0.0
  0
LINE
  5
B709
  8
ALPHA
 10
1135.860019
 20
186.996223
 30
0.0
 11
1135.868785
 21
187.123883
 31
0.0
  0
LINE
  5
B70A
  8
ALPHA
 10
1135.879018
 20
185.911117
 30
0.0
 11
1135.887784
 21
186.038776
 31
0.0
  0
LINE
  5
B70B
  8
ALPHA
 10
1135.878525
 20
186.357925
 30
0.0
 11
1135.861059
 21
186.102606
 31
0.0
  0
LINE
  5
B70C
  8
ALPHA
 10
1134.946252
 20
187.506861
 30
0.0
 11
1134.931219
 21
187.443032
 31
0.0
  0
LINE
  5
B70D
  8
ALPHA
 10
1136.389921
 20
186.294095
 30
0.0
 11
1136.366785
 21
186.166436
 31
0.0
  0
LINE
  5
B70E
  8
ALPHA
 10
1135.956036
 20
184.88984
 30
0.0
 11
1135.945979
 21
184.82601
 31
0.0
  0
LINE
  5
B70F
  8
ALPHA
 10
1136.414533
 20
184.88984
 30
0.0
 11
1136.394494
 21
184.82601
 31
0.0
  0
LINE
  5
B710
  8
ALPHA
 10
1136.312246
 20
187.123883
 30
0.0
 11
1136.33206
 21
187.187712
 31
0.0
  0
LINE
  5
B711
  8
ALPHA
 10
1135.87681
 20
187.506861
 30
0.0
 11
1135.859526
 21
187.443032
 31
0.0
  0
LINE
  5
B712
  8
ALPHA
 10
1135.895809
 20
186.421755
 30
0.0
 11
1135.878525
 21
186.357925
 31
0.0
  0
LINE
  5
B713
  8
ALPHA
 10
1136.330667
 20
187.506861
 30
0.0
 11
1136.30248
 21
187.443032
 31
0.0
  0
LINE
  5
B714
  8
ALPHA
 10
1125.20047
 20
180.185972
 30
0.0
 11
1125.277075
 21
180.250251
 31
0.0
  0
LINE
  5
B715
  8
ALPHA
 10
1135.911329
 20
187.443032
 30
0.0
 11
1135.89161
 21
187.506861
 31
0.0
  0
LINE
  5
B716
  8
ALPHA
 10
1135.934063
 20
186.357925
 30
0.0
 11
1135.914321
 21
186.421755
 31
0.0
  0
LINE
  5
B717
  8
ALPHA
 10
1136.369253
 20
184.82601
 30
0.0
 11
1136.347222
 21
184.88984
 31
0.0
  0
LINE
  5
B718
  8
ALPHA
 10
1136.348886
 20
187.187712
 30
0.0
 11
1136.371138
 21
187.123883
 31
0.0
  0
POLYLINE
  5
B719
  8
ALPHA
 66
     1
 10
0.0
 20
0.0
 30
0.0
  0
VERTEX
  5
FAE3
  8
ALPHA
 10
1134.895062
 20
184.570691
 30
0.0
  0
VERTEX
  5
FAE4
  8
ALPHA
 10
1134.898906
 20
184.559986
 30
0.0
  0
VERTEX
  5
FAE5
  8
ALPHA
 10
1134.902866
 20
184.549307
 30
0.0
  0
VERTEX
  5
FAE6
  8
ALPHA
 10
1134.906939
 20
184.538655
 30
0.0
  0
VERTEX
  5
FAE7
  8
ALPHA
 10
1134.911128
 20
184.52803
 30
0.0
  0
VERTEX
  5
FAE8
  8
ALPHA
 10
1134.91543
 20
184.517432
 30
0.0
  0
VERTEX
  5
FAE9
  8
ALPHA
 10
1134.919848
 20
184.506861
 30
0.0
  0
SEQEND
  5
FAEA
  8
ALPHA
  0
LINE
  5
B722
  8
ALPHA
 10
1136.371259
 20
185.911117
 30
0.0
 11
1136.397752
 21
185.847287
 31
0.0
  0
POLYLINE
  5
B723
  8
ALPHA
 66
     1
 10
0.0
 20
0.0
 30
0.0
  0
VERTEX
  5
FAEB
  8
ALPHA
 10
1136.367257
 20
184.570691
 30
0.0
  0
VERTEX
  5
FAEC
  8
ALPHA
 10
1136.37216
 20
184.559972
 30
0.0
  0
VERTEX
  5
FAED
  8
ALPHA
 10
1136.377172
 20
184.549286
 30
0.0
  0
VERTEX
  5
FAEE
  8
ALPHA
 10
1136.382293
 20
184.538631
 30
0.0
  0
VERTEX
  5
FAEF
  8
ALPHA
 10
1136.387523
 20
184.528009
 30
0.0
  0
VERTEX
  5
FAF0
  8
ALPHA
 10
1136.392861
 20
184.517419
 30
0.0
  0
VERTEX
  5
FAF1
  8
ALPHA
 10
1136.398307
 20
184.506861
 30
0.0
  0
SEQEND
  5
FAF2
  8
ALPHA
  0
LINE
  5
B72C
  8
ALPHA
 10
1136.369785
 20
187.443032
 30
0.0
 11
1136.33908
 21
187.506861
 31
0.0
  0
POLYLINE
  5
B72D
  8
ALPHA
 66
     1
 10
0.0
 20
0.0
 30
0.0
  0
VERTEX
  5
FAF3
  8
ALPHA
 10
1135.924246
 20
184.570691
 30
0.0
  0
VERTEX
  5
FAF4
  8
ALPHA
 10
1135.929421
 20
184.559983
 30
0.0
  0
VERTEX
  5
FAF5
  8
ALPHA
 10
1135.934708
 20
184.549303
 30
0.0
  0
VERTEX
  5
FAF6
  8
ALPHA
 10
1135.940106
 20
184.538651
 30
0.0
  0
VERTEX
  5
FAF7
  8
ALPHA
 10
1135.945615
 20
184.528026
 30
0.0
  0
VERTEX
  5
FAF8
  8
ALPHA
 10
1135.951234
 20
184.51743
 30
0.0
  0
VERTEX
  5
FAF9
  8
ALPHA
 10
1135.956965
 20
184.506861
 30
0.0
  0
SEQEND
  5
FAFA
  8
ALPHA
  0
POLYLINE
  5
B736
  8
ALPHA
 66
     1
 10
0.0
 20
0.0
 30
0.0
  0
VERTEX
  5
FAFB
  8
ALPHA
 10
1134.93815
 20
184.256861
 30
0.0
  0
VERTEX
  5
FAFC
  8
ALPHA
 10
1134.929045
 20
184.272955
 30
0.0
  0
VERTEX
  5
FAFD
  8
ALPHA
 10
1134.920275
 20
184.28914
 30
0.0
  0
VERTEX
  5
FAFE
  8
ALPHA
 10
1134.911838
 20
184.305416
 30
0.0
  0
VERTEX
  5
FAFF
  8
ALPHA
 10
1134.90373
 20
184.321782
 30
0.0
  0
VERTEX
  5
FB00
  8
ALPHA
 10
1134.89595
 20
184.338236
 30
0.0
  0
VERTEX
  5
FB01
  8
ALPHA
 10
1134.888496
 20
184.354779
 30
0.0
  0
VERTEX
  5
FB02
  8
ALPHA
 10
1134.881365
 20
184.371408
 30
0.0
  0
VERTEX
  5
FB03
  8
ALPHA
 10
1134.874556
 20
184.388122
 30
0.0
  0
VERTEX
  5
FB04
  8
ALPHA
 10
1134.868065
 20
184.404921
 30
0.0
  0
VERTEX
  5
FB05
  8
ALPHA
 10
1134.861891
 20
184.421804
 30
0.0
  0
VERTEX
  5
FB06
  8
ALPHA
 10
1134.856031
 20
184.438769
 30
0.0
  0
VERTEX
  5
FB07
  8
ALPHA
 10
1134.850484
 20
184.455815
 30
0.0
  0
VERTEX
  5
FB08
  8
ALPHA
 10
1134.845246
 20
184.472942
 30
0.0
  0
VERTEX
  5
FB09
  8
ALPHA
 10
1134.840317
 20
184.490147
 30
0.0
  0
VERTEX
  5
FB0A
  8
ALPHA
 10
1134.83535
 20
184.508764
 30
0.0
  0
VERTEX
  5
FB0B
  8
ALPHA
 10
1134.83074
 20
184.527472
 30
0.0
  0
VERTEX
  5
FB0C
  8
ALPHA
 10
1134.826489
 20
184.546272
 30
0.0
  0
VERTEX
  5
FB0D
  8
ALPHA
 10
1134.822598
 20
184.565164
 30
0.0
  0
VERTEX
  5
FB0E
  8
ALPHA
 10
1134.819072
 20
184.584148
 30
0.0
  0
VERTEX
  5
FB0F
  8
ALPHA
 10
1134.815911
 20
184.603225
 30
0.0
  0
VERTEX
  5
FB10
  8
ALPHA
 10
1134.813117
 20
184.622396
 30
0.0
  0
VERTEX
  5
FB11
  8
ALPHA
 10
1134.810695
 20
184.641661
 30
0.0
  0
VERTEX
  5
FB12
  8
ALPHA
 10
1134.808644
 20
184.66102
 30
0.0
  0
VERTEX
  5
FB13
  8
ALPHA
 10
1134.806969
 20
184.680474
 30
0.0
  0
VERTEX
  5
FB14
  8
ALPHA
 10
1134.80567
 20
184.700023
 30
0.0
  0
VERTEX
  5
FB15
  8
ALPHA
 10
1134.804751
 20
184.719668
 30
0.0
  0
VERTEX
  5
FB16
  8
ALPHA
 10
1134.804214
 20
184.739409
 30
0.0
  0
SEQEND
  5
FB17
  8
ALPHA
  0
POLYLINE
  5
B754
  8
ALPHA
 66
     1
 10
0.0
 20
0.0
 30
0.0
  0
VERTEX
  5
FB18
  8
ALPHA
 10
1135.924734
 20
184.256861
 30
0.0
  0
VERTEX
  5
FB19
  8
ALPHA
 10
1135.91561
 20
184.272957
 30
0.0
  0
VERTEX
  5
FB1A
  8
ALPHA
 10
1135.906822
 20
184.289144
 30
0.0
  0
VERTEX
  5
FB1B
  8
ALPHA
 10
1135.898367
 20
184.305422
 30
0.0
  0
VERTEX
  5
FB1C
  8
ALPHA
 10
1135.890243
 20
184.321789
 30
0.0
  0
VERTEX
  5
FB1D
  8
ALPHA
 10
1135.882447
 20
184.338246
 30
0.0
  0
VERTEX
  5
FB1E
  8
ALPHA
 10
1135.874978
 20
184.35479
 30
0.0
  0
VERTEX
  5
FB1F
  8
ALPHA
 10
1135.867833
 20
184.37142
 30
0.0
  0
VERTEX
  5
FB20
  8
ALPHA
 10
1135.861009
 20
184.388136
 30
0.0
  0
VERTEX
  5
FB21
  8
ALPHA
 10
1135.854505
 20
184.404936
 30
0.0
  0
VERTEX
  5
FB22
  8
ALPHA
 10
1135.848319
 20
184.42182
 30
0.0
  0
VERTEX
  5
FB23
  8
ALPHA
 10
1135.842448
 20
184.438785
 30
0.0
  0
VERTEX
  5
FB24
  8
ALPHA
 10
1135.83689
 20
184.455832
 30
0.0
  0
VERTEX
  5
FB25
  8
ALPHA
 10
1135.831642
 20
184.472959
 30
0.0
  0
VERTEX
  5
FB26
  8
ALPHA
 10
1135.826703
 20
184.490165
 30
0.0
  0
VERTEX
  5
FB27
  8
ALPHA
 10
1135.821726
 20
184.508782
 30
0.0
  0
VERTEX
  5
FB28
  8
ALPHA
 10
1135.817108
 20
184.52749
 30
0.0
  0
VERTEX
  5
FB29
  8
ALPHA
 10
1135.812848
 20
184.546289
 30
0.0
  0
VERTEX
  5
FB2A
  8
ALPHA
 10
1135.808951
 20
184.56518
 30
0.0
  0
VERTEX
  5
FB2B
  8
ALPHA
 10
1135.805418
 20
184.584164
 30
0.0
  0
VERTEX
  5
FB2C
  8
ALPHA
 10
1135.802251
 20
184.60324
 30
0.0
  0
VERTEX
  5
FB2D
  8
ALPHA
 10
1135.799453
 20
184.622409
 30
0.0
  0
VERTEX
  5
FB2E
  8
ALPHA
 10
1135.797026
 20
184.641672
 30
0.0
  0
VERTEX
  5
FB2F
  8
ALPHA
 10
1135.794972
 20
184.661029
 30
0.0
  0
VERTEX
  5
FB30
  8
ALPHA
 10
1135.793293
 20
184.680481
 30
0.0
  0
VERTEX
  5
FB31
  8
ALPHA
 10
1135.791993
 20
184.700028
 30
0.0
  0
VERTEX
  5
FB32
  8
ALPHA
 10
1135.791072
 20
184.71967
 30
0.0
  0
VERTEX
  5
FB33
  8
ALPHA
 10
1135.790534
 20
184.739409
 30
0.0
  0
SEQEND
  5
FB34
  8
ALPHA
  0
LINE
  5
B772
  8
ALPHA
 10
1134.751496
 20
187.756861
 30
0.0
 11
1135.088472
 21
187.756861
 31
0.0
  0
LINE
  5
B773
  8
ALPHA
 10
1135.737712
 20
187.756861
 30
0.0
 11
1136.496464
 21
187.756861
 31
0.0
  0
LINE
  5
B774
  8
ALPHA
 10
1134.329404
 20
187.756861
 30
0.0
 11
1134.354406
 21
187.756861
 31
0.0
  0
LINE
  5
B775
  8
ALPHA
 10
1134.334683
 20
187.506861
 30
0.0
 11
1134.333768
 21
187.506861
 31
0.0
  0
LINE
  5
B776
  8
ALPHA
 10
1134.339131
 20
187.506861
 30
0.0
 11
1134.338298
 21
187.506861
 31
0.0
  0
LINE
  5
B777
  8
ALPHA
 10
1134.85903
 20
187.506861
 30
0.0
 11
1134.839856
 21
187.506861
 31
0.0
  0
LINE
  5
B778
  8
ALPHA
 10
1134.955573
 20
187.506861
 30
0.0
 11
1134.946249
 21
187.506861
 31
0.0
  0
LINE
  5
B779
  8
ALPHA
 10
1135.891607
 20
187.506861
 30
0.0
 11
1135.876806
 21
187.506861
 31
0.0
  0
LINE
  5
B77A
  8
ALPHA
 10
1136.227001
 20
187.506861
 30
0.0
 11
1136.074754
 21
187.506861
 31
0.0
  0
LINE
  5
B77B
  8
ALPHA
 10
1136.339077
 20
187.506861
 30
0.0
 11
1136.330663
 21
187.506861
 31
0.0
  0
LINE
  5
B77C
  8
ALPHA
 10
1136.080327
 20
187.187712
 30
0.0
 11
1136.14365
 21
187.187712
 31
0.0
  0
LINE
  5
B77D
  8
ALPHA
 10
1136.167689
 20
187.187712
 30
0.0
 11
1136.232576
 21
187.187712
 31
0.0
  0
LINE
  5
B77E
  8
ALPHA
 10
1136.33204
 20
187.187712
 30
0.0
 11
1136.348867
 21
187.187712
 31
0.0
  0
LINE
  5
B77F
  8
ALPHA
 10
1134.949489
 20
187.187712
 30
0.0
 11
1134.958797
 21
187.187712
 31
0.0
  0
LINE
  5
B780
  8
ALPHA
 10
1135.878689
 20
187.187712
 30
0.0
 11
1135.90089
 21
187.187712
 31
0.0
  0
LINE
  5
B781
  8
ALPHA
 10
1134.339365
 20
187.187712
 30
0.0
 11
1134.340237
 21
187.187712
 31
0.0
  0
LINE
  5
B782
  8
ALPHA
 10
1134.343655
 20
187.187712
 30
0.0
 11
1134.34447
 21
187.187712
 31
0.0
  0
LINE
  5
B783
  8
ALPHA
 10
1134.846546
 20
187.123883
 30
0.0
 11
1134.865721
 21
187.123883
 31
0.0
  0
LINE
  5
B784
  8
ALPHA
 10
1135.937475
 20
186.804734
 30
0.0
 11
1135.956276
 21
186.804734
 31
0.0
  0
LINE
  5
B785
  8
ALPHA
 10
1136.276315
 20
186.804734
 30
0.0
 11
1136.297026
 21
186.804734
 31
0.0
  0
LINE
  5
B786
  8
ALPHA
 10
1134.921938
 20
186.804734
 30
0.0
 11
1134.933252
 21
186.804734
 31
0.0
  0
LINE
  5
B787
  8
ALPHA
 10
1134.347936
 20
186.804734
 30
0.0
 11
1134.348637
 21
186.804734
 31
0.0
  0
LINE
  5
B788
  8
ALPHA
 10
1134.889756
 20
186.740904
 30
0.0
 11
1134.902949
 21
186.740904
 31
0.0
  0
LINE
  5
B789
  8
ALPHA
 10
1135.914329
 20
186.421755
 30
0.0
 11
1135.895816
 21
186.421755
 31
0.0
  0
LINE
  5
B78A
  8
ALPHA
 10
1136.366791
 20
186.166436
 30
0.0
 11
1136.349964
 21
186.166436
 31
0.0
  0
LINE
  5
B78B
  8
ALPHA
 10
1135.897698
 20
186.102606
 30
0.0
 11
1135.923616
 21
186.102606
 31
0.0
  0
LINE
  5
B78C
  8
ALPHA
 10
1136.354438
 20
185.911117
 30
0.0
 11
1136.371265
 21
185.911117
 31
0.0
  0
LINE
  5
B78D
  8
ALPHA
 10
1134.928613
 20
185.272819
 30
0.0
 11
1134.915418
 21
185.272819
 31
0.0
  0
LINE
  5
B78E
  8
ALPHA
 10
1136.320815
 20
185.208989
 30
0.0
 11
1136.300126
 21
185.208989
 31
0.0
  0
LINE
  5
B78F
  8
ALPHA
 10
1134.904763
 20
184.88984
 30
0.0
 11
1134.885587
 21
184.88984
 31
0.0
  0
LINE
  5
B790
  8
ALPHA
 10
1134.389666
 20
184.82601
 30
0.0
 11
1134.383464
 21
184.82601
 31
0.0
  0
LINE
  5
B791
  8
ALPHA
 10
1135.038015
 20
184.82601
 30
0.0
 11
1134.972365
 21
184.82601
 31
0.0
  0
LINE
  5
B792
  8
ALPHA
 10
1135.945964
 20
184.82601
 30
0.0
 11
1135.920045
 21
184.82601
 31
0.0
  0
LINE
  5
B793
  8
ALPHA
 10
1136.39448
 20
184.82601
 30
0.0
 11
1136.369239
 21
184.82601
 31
0.0
  0
LINE
  5
B794
  8
ALPHA
 10
1136.21826
 20
184.506861
 30
0.0
 11
1136.242303
 21
184.506861
 31
0.0
  0
LINE
  5
B795
  8
ALPHA
 10
1136.398291
 20
184.506861
 30
0.0
 11
1136.431949
 21
184.506861
 31
0.0
  0
LINE
  5
B796
  8
ALPHA
 10
1135.956949
 20
184.506861
 30
0.0
 11
1135.975464
 21
184.506861
 31
0.0
  0
LINE
  5
B797
  8
ALPHA
 10
1134.919832
 20
184.506861
 30
0.0
 11
1134.93901
 21
184.506861
 31
0.0
  0
LINE
  5
B798
  8
ALPHA
 10
1134.987393
 20
184.506861
 30
0.0
 11
1135.07117
 21
184.506861
 31
0.0
  0
LINE
  5
B799
  8
ALPHA
 10
1134.415436
 20
184.506861
 30
0.0
 11
1134.422778
 21
184.506861
 31
0.0
  0
LINE
  5
B79A
  8
ALPHA
 10
1134.540909
 20
184.256861
 30
0.0
 11
1134.515897
 21
184.256861
 31
0.0
  0
LINE
  5
B79B
  8
ALPHA
 10
1135.275249
 20
184.256861
 30
0.0
 11
1134.938147
 21
184.256861
 31
0.0
  0
LINE
  5
B79C
  8
ALPHA
 10
1136.683769
 20
184.256861
 30
0.0
 11
1135.924732
 21
184.256861
 31
0.0
  0
LINE
  5
B79D
  8
ALPHA
 10
1138.094718
 20
234.169744
 30
0.0
 11
1121.994718
 21
234.169744
 31
0.0
  0
LINE
  5
B79E
  8
ALPHA
 10
1138.094718
 20
234.106861
 30
0.0
 11
1121.994718
 21
234.106861
 31
0.0
  0
LINE
  5
B79F
  8
ALPHA
 10
1121.994718
 20
231.206861
 30
0.0
 11
1138.094718
 21
231.206861
 31
0.0
  0
LINE
  5
B7A0
  8
ALPHA
 10
1121.994718
 20
231.143978
 30
0.0
 11
1138.094718
 21
231.143978
 31
0.0
  0
LINE
  5
B7A1
  8
ALPHA
 10
1138.094718
 20
226.669744
 30
0.0
 11
1121.994718
 21
226.669744
 31
0.0
  0
LINE
  5
B7A2
  8
ALPHA
 10
1138.094718
 20
226.606861
 30
0.0
 11
1121.994718
 21
226.606861
 31
0.0
  0
LINE
  5
B7A3
  8
ALPHA
 10
1121.994718
 20
223.706861
 30
0.0
 11
1138.094718
 21
223.706861
 31
0.0
  0
LINE
  5
B7A4
  8
ALPHA
 10
1121.994718
 20
223.643978
 30
0.0
 11
1138.094718
 21
223.643978
 31
0.0
  0
LINE
  5
B7A5
  8
ALPHA
 10
1138.094718
 20
219.211677
 30
0.0
 11
1121.994718
 21
219.211677
 31
0.0
  0
LINE
  5
B7A6
  8
ALPHA
 10
1138.094718
 20
219.106861
 30
0.0
 11
1121.994718
 21
219.106861
 31
0.0
  0
LINE
  5
B7A7
  8
ALPHA
 10
1121.994718
 20
216.206861
 30
0.0
 11
1138.094718
 21
216.206861
 31
0.0
  0
LINE
  5
B7A8
  8
ALPHA
 10
1121.994718
 20
216.102046
 30
0.0
 11
1138.094718
 21
216.102046
 31
0.0
  0
LINE
  5
B7A9
  8
ALPHA
 10
1129.273532
 20
203.405737
 30
0.0
 11
1143.544718
 21
203.156633
 31
0.0
  0
LINE
  5
B7AA
  8
ALPHA
 10
1129.273532
 20
201.905966
 30
0.0
 11
1143.544718
 21
201.656861
 31
0.0
  0
LINE
  5
B7AB
  8
ALPHA
 10
1142.598769
 20
200.856861
 30
0.0
 11
1134.100747
 21
200.856861
 31
0.0
  0
LINE
  5
B7AC
  8
ALPHA
 10
1143.544718
 20
198.706861
 30
0.0
 11
1142.630678
 21
198.706861
 31
0.0
  0
LINE
  5
B7AD
  8
ALPHA
 10
1146.544718
 20
192.256861
 30
0.0
 11
1143.544718
 21
192.256861
 31
0.0
  0
POLYLINE
  5
B7AE
  8
ALPHA
 66
     1
 10
0.0
 20
0.0
 30
0.0
  0
VERTEX
  5
FB35
  8
ALPHA
 10
1138.094718
 20
223.706861
 30
0.0
  0
VERTEX
  5
FB36
  8
ALPHA
 10
1138.656384
 20
223.820064
 30
0.0
  0
VERTEX
  5
FB37
  8
ALPHA
 10
1139.128186
 20
224.139788
 30
0.0
  0
VERTEX
  5
FB38
  8
ALPHA
 10
1139.437202
 20
224.608931
 30
0.0
  0
VERTEX
  5
FB39
  8
ALPHA
 10
1139.544718
 20
225.156861
 30
0.0
  0
VERTEX
  5
FB3A
  8
ALPHA
 10
1139.437202
 20
225.704791
 30
0.0
  0
VERTEX
  5
FB3B
  8
ALPHA
 10
1139.128186
 20
226.173934
 30
0.0
  0
VERTEX
  5
FB3C
  8
ALPHA
 10
1138.656384
 20
226.493658
 30
0.0
  0
VERTEX
  5
FB3D
  8
ALPHA
 10
1138.094718
 20
226.606861
 30
0.0
  0
SEQEND
  5
FB3E
  8
ALPHA
  0
POLYLINE
  5
B7B9
  8
ALPHA
 66
     1
 10
0.0
 20
0.0
 30
0.0
  0
VERTEX
  5
FB3F
  8
ALPHA
 10
1138.094718
 20
223.643978
 30
0.0
  0
VERTEX
  5
FB40
  8
ALPHA
 10
1138.680589
 20
223.762002
 30
0.0
  0
VERTEX
  5
FB41
  8
ALPHA
 10
1139.172489
 20
224.095097
 30
0.0
  0
VERTEX
  5
FB42
  8
ALPHA
 10
1139.495395
 20
224.584961
 30
0.0
  0
VERTEX
  5
FB43
  8
ALPHA
 10
1139.607659
 20
225.156861
 30
0.0
  0
VERTEX
  5
FB44
  8
ALPHA
 10
1139.495395
 20
225.728762
 30
0.0
  0
VERTEX
  5
FB45
  8
ALPHA
 10
1139.172489
 20
226.218625
 30
0.0
  0
VERTEX
  5
FB46
  8
ALPHA
 10
1138.680589
 20
226.55172
 30
0.0
  0
VERTEX
  5
FB47
  8
ALPHA
 10
1138.094718
 20
226.669744
 30
0.0
  0
SEQEND
  5
FB48
  8
ALPHA
  0
LINE
  5
B7C4
  8
ALPHA
 10
1138.094718
 20
223.643978
 30
0.0
 11
1138.094718
 21
223.706861
 31
0.0
  0
LINE
  5
B7C5
  8
ALPHA
 10
1138.094718
 20
219.106861
 30
0.0
 11
1138.094718
 21
219.211677
 31
0.0
  0
LINE
  5
B7C6
  8
ALPHA
 10
1138.094718
 20
216.206861
 30
0.0
 11
1138.094718
 21
216.102046
 31
0.0
  0
POLYLINE
  5
B7C7
  8
ALPHA
 66
     1
 10
0.0
 20
0.0
 30
0.0
  0
VERTEX
  5
FB49
  8
ALPHA
 10
1138.094718
 20
216.102046
 30
0.0
  0
VERTEX
  5
FB4A
  8
ALPHA
 10
1138.696718
 20
216.22328
 30
0.0
  0
VERTEX
  5
FB4B
  8
ALPHA
 10
1139.202026
 20
216.565291
 30
0.0
  0
VERTEX
  5
FB4C
  8
ALPHA
 10
1139.534202
 20
217.068979
 30
0.0
  0
VERTEX
  5
FB4D
  8
ALPHA
 10
1139.64963
 20
217.656861
 30
0.0
  0
VERTEX
  5
FB4E
  8
ALPHA
 10
1139.534202
 20
218.244744
 30
0.0
  0
VERTEX
  5
FB4F
  8
ALPHA
 10
1139.202026
 20
218.748432
 30
0.0
  0
VERTEX
  5
FB50
  8
ALPHA
 10
1138.696718
 20
219.090443
 30
0.0
  0
VERTEX
  5
FB51
  8
ALPHA
 10
1138.094718
 20
219.211677
 30
0.0
  0
SEQEND
  5
FB52
  8
ALPHA
  0
POLYLINE
  5
B7D2
  8
ALPHA
 66
     1
 10
0.0
 20
0.0
 30
0.0
  0
VERTEX
  5
FB53
  8
ALPHA
 10
1138.094718
 20
216.206861
 30
0.0
  0
VERTEX
  5
FB54
  8
ALPHA
 10
1138.656375
 20
216.320061
 30
0.0
  0
VERTEX
  5
FB55
  8
ALPHA
 10
1139.128173
 20
216.639775
 30
0.0
  0
VERTEX
  5
FB56
  8
ALPHA
 10
1139.437202
 20
217.108929
 30
0.0
  0
VERTEX
  5
FB57
  8
ALPHA
 10
1139.544718
 20
217.656861
 30
0.0
  0
VERTEX
  5
FB58
  8
ALPHA
 10
1139.437202
 20
218.204794
 30
0.0
  0
VERTEX
  5
FB59
  8
ALPHA
 10
1139.128173
 20
218.673948
 30
0.0
  0
VERTEX
  5
FB5A
  8
ALPHA
 10
1138.656375
 20
218.993662
 30
0.0
  0
VERTEX
  5
FB5B
  8
ALPHA
 10
1138.094718
 20
219.106861
 30
0.0
  0
SEQEND
  5
FB5C
  8
ALPHA
  0
LINE
  5
B7DD
  8
ALPHA
 10
1138.094718
 20
231.143978
 30
0.0
 11
1138.094718
 21
231.206861
 31
0.0
  0
LINE
  5
B7DE
  8
ALPHA
 10
1138.094718
 20
234.169744
 30
0.0
 11
1138.094718
 21
234.106861
 31
0.0
  0
LINE
  5
B7DF
  8
ALPHA
 10
1138.094718
 20
226.669744
 30
0.0
 11
1138.094718
 21
226.606861
 31
0.0
  0
POLYLINE
  5
B7E0
  8
ALPHA
 66
     1
 10
0.0
 20
0.0
 30
0.0
  0
VERTEX
  5
FB5D
  8
ALPHA
 10
1138.094718
 20
231.206861
 30
0.0
  0
VERTEX
  5
FB5E
  8
ALPHA
 10
1138.656384
 20
231.320064
 30
0.0
  0
VERTEX
  5
FB5F
  8
ALPHA
 10
1139.128186
 20
231.639788
 30
0.0
  0
VERTEX
  5
FB60
  8
ALPHA
 10
1139.437202
 20
232.108931
 30
0.0
  0
VERTEX
  5
FB61
  8
ALPHA
 10
1139.544718
 20
232.656861
 30
0.0
  0
VERTEX
  5
FB62
  8
ALPHA
 10
1139.437202
 20
233.204791
 30
0.0
  0
VERTEX
  5
FB63
  8
ALPHA
 10
1139.128186
 20
233.673934
 30
0.0
  0
VERTEX
  5
FB64
  8
ALPHA
 10
1138.656384
 20
233.993658
 30
0.0
  0
VERTEX
  5
FB65
  8
ALPHA
 10
1138.094718
 20
234.106861
 30
0.0
  0
SEQEND
  5
FB66
  8
ALPHA
  0
POLYLINE
  5
B7EB
  8
ALPHA
 66
     1
 10
0.0
 20
0.0
 30
0.0
  0
VERTEX
  5
FB67
  8
ALPHA
 10
1138.094718
 20
231.143978
 30
0.0
  0
VERTEX
  5
FB68
  8
ALPHA
 10
1138.680589
 20
231.262002
 30
0.0
  0
VERTEX
  5
FB69
  8
ALPHA
 10
1139.172489
 20
231.595097
 30
0.0
  0
VERTEX
  5
FB6A
  8
ALPHA
 10
1139.495395
 20
232.084961
 30
0.0
  0
VERTEX
  5
FB6B
  8
ALPHA
 10
1139.607659
 20
232.656861
 30
0.0
  0
VERTEX
  5
FB6C
  8
ALPHA
 10
1139.495395
 20
233.228762
 30
0.0
  0
VERTEX
  5
FB6D
  8
ALPHA
 10
1139.172489
 20
233.718625
 30
0.0
  0
VERTEX
  5
FB6E
  8
ALPHA
 10
1138.680589
 20
234.05172
 30
0.0
  0
VERTEX
  5
FB6F
  8
ALPHA
 10
1138.094718
 20
234.169744
 30
0.0
  0
SEQEND
  5
FB70
  8
ALPHA
  0
POLYLINE
  5
B7F6
  8
ALPHA
 66
     1
 10
0.0
 20
0.0
 30
0.0
  0
VERTEX
  5
FB71
  8
ALPHA
 10
1121.596101
 20
212.076718
 30
0.0
  0
VERTEX
  5
FB72
  8
ALPHA
 10
1121.171774
 20
211.699162
 30
0.0
  0
VERTEX
  5
FB73
  8
ALPHA
 10
1120.814911
 20
211.378145
 30
0.0
  0
VERTEX
  5
FB74
  8
ALPHA
 10
1120.578952
 20
211.161739
 30
0.0
  0
VERTEX
  5
FB75
  8
ALPHA
 10
1120.499231
 20
211.082352
 30
0.0
  0
SEQEND
  5
FB76
  8
ALPHA
  0
LINE
  5
B7FD
  8
ALPHA
 10
1122.444718
 20
205.406861
 30
0.0
 11
1116.444718
 21
203.22304
 31
0.0
  0
POLYLINE
  5
B7FE
  8
ALPHA
 66
     1
 10
0.0
 20
0.0
 30
0.0
  0
VERTEX
  5
FB77
  8
ALPHA
 10
1120.111671
 20
212.760701
 30
0.0
  0
VERTEX
  5
FB78
  8
ALPHA
 10
1120.667022
 20
212.673082
 30
0.0
  0
VERTEX
  5
FB79
  8
ALPHA
 10
1121.172777
 20
212.439313
 30
0.0
  0
VERTEX
  5
FB7A
  8
ALPHA
 10
1121.596101
 20
212.076718
 30
0.0
  0
SEQEND
  5
FB7B
  8
ALPHA
  0
LINE
  5
B804
  8
ALPHA
 10
1118.094718
 20
209.026861
 30
0.0
 11
1122.319197
 21
209.026861
 31
0.0
  0
LINE
  5
B805
  8
ALPHA
 10
1120.499231
 20
211.082352
 30
0.0
 11
1128.176662
 21
202.411372
 31
0.0
  0
LINE
  5
B806
  8
ALPHA
 10
1120.565934
 20
196.206861
 30
0.0
 11
1131.444718
 21
196.206861
 31
0.0
  0
POLYLINE
  5
B807
  8
ALPHA
 66
     1
 10
0.0
 20
0.0
 30
0.0
  0
VERTEX
  5
FB7C
  8
ALPHA
 10
1129.273532
 20
203.405737
 30
0.0
  0
VERTEX
  5
FB7D
  8
ALPHA
 10
1129.26551
 20
202.831905
 30
0.0
  0
VERTEX
  5
FB7E
  8
ALPHA
 10
1129.262694
 20
202.3454
 30
0.0
  0
VERTEX
  5
FB7F
  8
ALPHA
 10
1129.26551
 20
202.02026
 30
0.0
  0
VERTEX
  5
FB80
  8
ALPHA
 10
1129.273532
 20
201.905966
 30
0.0
  0
SEQEND
  5
FB81
  8
ALPHA
  0
POLYLINE
  5
B80E
  8
ALPHA
 66
     1
 10
0.0
 20
0.0
 30
0.0
  0
VERTEX
  5
FB82
  8
ALPHA
 10
1129.273532
 20
203.405737
 30
0.0
  0
VERTEX
  5
FB83
  8
ALPHA
 10
1128.851884
 20
203.030577
 30
0.0
  0
VERTEX
  5
FB84
  8
ALPHA
 10
1128.493691
 20
202.708387
 30
0.0
  0
VERTEX
  5
FB85
  8
ALPHA
 10
1128.256656
 20
202.491015
 30
0.0
  0
VERTEX
  5
FB86
  8
ALPHA
 10
1128.176662
 20
202.411372
 30
0.0
  0
SEQEND
  5
FB87
  8
ALPHA
  0
ARC
  5
B815
  8
ALPHA
 10
1129.29971
 20
203.405737
 30
0.0
 40
1.5
 50
221.522213
 51
269.0
  0
POLYLINE
  5
B816
  8
ALPHA
 66
     1
 10
0.0
 20
0.0
 30
0.0
  0
VERTEX
  5
FB88
  8
ALPHA
 10
1134.157836
 20
197.586211
 30
0.0
  0
VERTEX
  5
FB89
  8
ALPHA
 10
1134.165994
 20
197.280401
 30
0.0
  0
VERTEX
  5
FB8A
  8
ALPHA
 10
1134.179598
 20
196.75387
 30
0.0
  0
VERTEX
  5
FB8B
  8
ALPHA
 10
1134.198068
 20
196.001688
 30
0.0
  0
VERTEX
  5
FB8C
  8
ALPHA
 10
1134.219547
 20
195.06195
 30
0.0
  0
VERTEX
  5
FB8D
  8
ALPHA
 10
1134.242006
 20
193.983889
 30
0.0
  0
VERTEX
  5
FB8E
  8
ALPHA
 10
1134.263296
 20
192.839409
 30
0.0
  0
SEQEND
  5
FB8F
  8
ALPHA
  0
LINE
  5
B81F
  8
ALPHA
 10
1135.001645
 20
195.041888
 30
0.0
 11
1135.043547
 21
193.974363
 31
0.0
  0
POLYLINE
  5
B820
  8
ALPHA
 66
     1
 10
0.0
 20
0.0
 30
0.0
  0
VERTEX
  5
FB90
  8
ALPHA
 10
1134.827451
 20
197.25262
 30
0.0
  0
VERTEX
  5
FB91
  8
ALPHA
 10
1134.889564
 20
196.726295
 30
0.0
  0
VERTEX
  5
FB92
  8
ALPHA
 10
1134.949025
 20
195.975867
 30
0.0
  0
VERTEX
  5
FB93
  8
ALPHA
 10
1135.001645
 20
195.041888
 30
0.0
  0
SEQEND
  5
FB94
  8
ALPHA
  0
POLYLINE
  5
B826
  8
ALPHA
 66
     1
 10
0.0
 20
0.0
 30
0.0
  0
VERTEX
  5
FB95
  8
ALPHA
 10
1136.177843
 20
196.735029
 30
0.0
  0
VERTEX
  5
FB96
  8
ALPHA
 10
1136.268796
 20
195.984218
 30
0.0
  0
VERTEX
  5
FB97
  8
ALPHA
 10
1136.345525
 20
195.047179
 30
0.0
  0
VERTEX
  5
FB98
  8
ALPHA
 10
1136.402555
 20
193.976664
 30
0.0
  0
VERTEX
  5
FB99
  8
ALPHA
 10
1136.435553
 20
192.839409
 30
0.0
  0
SEQEND
  5
FB9A
  8
ALPHA
  0
POLYLINE
  5
B82D
  8
ALPHA
 66
     1
 10
0.0
 20
0.0
 30
0.0
  0
VERTEX
  5
FB9B
  8
ALPHA
 10
1134.631052
 20
196.727064
 30
0.0
  0
VERTEX
  5
FB9C
  8
ALPHA
 10
1134.665945
 20
197.25268
 30
0.0
  0
VERTEX
  5
FB9D
  8
ALPHA
 10
1134.711992
 20
197.524386
 30
0.0
  0
VERTEX
  5
FB9E
  8
ALPHA
 10
1134.7669
 20
197.524434
 30
0.0
  0
VERTEX
  5
FB9F
  8
ALPHA
 10
1134.827451
 20
197.25262
 30
0.0
  0
SEQEND
  5
FBA0
  8
ALPHA
  0
LINE
  5
B834
  8
ALPHA
 10
1131.444718
 20
196.206861
 30
0.0
 11
1131.444718
 21
201.868068
 31
0.0
  0
POLYLINE
  5
B835
  8
ALPHA
 66
     1
 10
0.0
 20
0.0
 30
0.0
  0
VERTEX
  5
FBA1
  8
ALPHA
 10
1135.637755
 20
192.839409
 30
0.0
  0
VERTEX
  5
FBA2
  8
ALPHA
 10
1135.628251
 20
193.922443
 30
0.0
  0
VERTEX
  5
FBA3
  8
ALPHA
 10
1135.639398
 20
194.995244
 30
0.0
  0
VERTEX
  5
FBA4
  8
ALPHA
 10
1135.671876
 20
195.936911
 30
0.0
  0
VERTEX
  5
FBA5
  8
ALPHA
 10
1135.724126
 20
196.692729
 30
0.0
  0
VERTEX
  5
FBA6
  8
ALPHA
 10
1135.794458
 20
197.2293
 30
0.0
  0
VERTEX
  5
FBA7
  8
ALPHA
 10
1135.880919
 20
197.515748
 30
0.0
  0
VERTEX
  5
FBA8
  8
ALPHA
 10
1135.977853
 20
197.524621
 30
0.0
  0
VERTEX
  5
FBA9
  8
ALPHA
 10
1136.078853
 20
197.258068
 30
0.0
  0
VERTEX
  5
FBAA
  8
ALPHA
 10
1136.177843
 20
196.735029
 30
0.0
  0
SEQEND
  5
FBAB
  8
ALPHA
  0
LINE
  5
B841
  8
ALPHA
 10
1135.071362
 20
192.839409
 30
0.0
 11
1135.083193
 21
191.704644
 31
0.0
  0
POLYLINE
  5
B842
  8
ALPHA
 66
     1
 10
0.0
 20
0.0
 30
0.0
  0
VERTEX
  5
FBAC
  8
ALPHA
 10
1134.615486
 20
192.839409
 30
0.0
  0
VERTEX
  5
FBAD
  8
ALPHA
 10
1134.601034
 20
193.975512
 30
0.0
  0
VERTEX
  5
FBAE
  8
ALPHA
 10
1134.598467
 20
195.043786
 30
0.0
  0
VERTEX
  5
FBAF
  8
ALPHA
 10
1134.608428
 20
195.977459
 30
0.0
  0
VERTEX
  5
FBB0
  8
ALPHA
 10
1134.631052
 20
196.727064
 30
0.0
  0
SEQEND
  5
FBB1
  8
ALPHA
  0
LINE
  5
B849
  8
ALPHA
 10
1134.100747
 20
200.856861
 30
0.0
 11
1134.158427
 21
197.552359
 31
0.0
  0
LINE
  5
B84A
  8
ALPHA
 10
1135.043547
 20
193.974363
 30
0.0
 11
1135.071362
 21
192.839409
 31
0.0
  0
POLYLINE
  5
B84B
  8
ALPHA
 66
     1
 10
0.0
 20
0.0
 30
0.0
  0
VERTEX
  5
FBB2
  8
ALPHA
 10
1134.82069
 20
197.21762
 30
0.0
  0
VERTEX
  5
FBB3
  8
ALPHA
 10
1134.818369
 20
197.225766
 30
0.0
  0
VERTEX
  5
FBB4
  8
ALPHA
 10
1134.822832
 20
197.204476
 30
0.0
  0
VERTEX
  5
FBB5
  8
ALPHA
 10
1134.83703
 20
197.121765
 30
0.0
  0
VERTEX
  5
FBB6
  8
ALPHA
 10
1134.855471
 20
196.989182
 30
0.0
  0
VERTEX
  5
FBB7
  8
ALPHA
 10
1134.876035
 20
196.812209
 30
0.0
  0
VERTEX
  5
FBB8
  8
ALPHA
 10
1134.897748
 20
196.592775
 30
0.0
  0
VERTEX
  5
FBB9
  8
ALPHA
 10
1134.920067
 20
196.331919
 30
0.0
  0
VERTEX
  5
FBBA
  8
ALPHA
 10
1134.942476
 20
196.031075
 30
0.0
  0
VERTEX
  5
FBBB
  8
ALPHA
 10
1134.964537
 20
195.691458
 30
0.0
  0
VERTEX
  5
FBBC
  8
ALPHA
 10
1134.985892
 20
195.314857
 30
0.0
  0
VERTEX
  5
FBBD
  8
ALPHA
 10
1135.006026
 20
194.904489
 30
0.0
  0
VERTEX
  5
FBBE
  8
ALPHA
 10
1135.024538
 20
194.464007
 30
0.0
  0
VERTEX
  5
FBBF
  8
ALPHA
 10
1135.041057
 20
193.997624
 30
0.0
  0
VERTEX
  5
FBC0
  8
ALPHA
 10
1135.055187
 20
193.510119
 30
0.0
  0
VERTEX
  5
FBC1
  8
ALPHA
 10
1135.06664
 20
193.007003
 30
0.0
  0
SEQEND
  5
FBC2
  8
ALPHA
  0
POLYLINE
  5
B85D
  8
ALPHA
 66
     1
 10
0.0
 20
0.0
 30
0.0
  0
VERTEX
  5
FBC3
  8
ALPHA
 10
1136.09185
 20
197.081449
 30
0.0
  0
VERTEX
  5
FBC4
  8
ALPHA
 10
1136.088933
 20
197.088748
 30
0.0
  0
VERTEX
  5
FBC5
  8
ALPHA
 10
1136.098061
 20
197.058197
 30
0.0
  0
VERTEX
  5
FBC6
  8
ALPHA
 10
1136.123875
 20
196.950531
 30
0.0
  0
VERTEX
  5
FBC7
  8
ALPHA
 10
1136.156672
 20
196.779353
 30
0.0
  0
VERTEX
  5
FBC8
  8
ALPHA
 10
1136.192527
 20
196.550924
 30
0.0
  0
VERTEX
  5
FBC9
  8
ALPHA
 10
1136.229516
 20
196.268294
 30
0.0
  0
VERTEX
  5
FBCA
  8
ALPHA
 10
1136.266253
 20
195.934128
 30
0.0
  0
VERTEX
  5
FBCB
  8
ALPHA
 10
1136.301668
 20
195.551032
 30
0.0
  0
VERTEX
  5
FBCC
  8
ALPHA
 10
1136.334785
 20
195.122819
 30
0.0
  0
VERTEX
  5
FBCD
  8
ALPHA
 10
1136.364624
 20
194.654086
 30
0.0
  0
VERTEX
  5
FBCE
  8
ALPHA
 10
1136.390411
 20
194.150306
 30
0.0
  0
VERTEX
  5
FBCF
  8
ALPHA
 10
1136.411328
 20
193.617954
 30
0.0
  0
VERTEX
  5
FBD0
  8
ALPHA
 10
1136.426745
 20
193.064444
 30
0.0
  0
VERTEX
  5
FBD1
  8
ALPHA
 10
1136.431203
 20
192.839361
 30
0.0
  0
SEQEND
  5
FBD2
  8
ALPHA
  0
LINE
  5
B86E
  8
ALPHA
 10
1122.844718
 20
206.206861
 30
0.0
 11
1122.844718
 21
207.406861
 31
0.0
  0
LINE
  5
B86F
  8
ALPHA
 10
1123.644718
 20
207.529803
 30
0.0
 11
1123.644718
 21
207.406861
 31
0.0
  0
LINE
  5
B870
  8
ALPHA
 10
1122.844718
 20
207.406861
 30
0.0
 11
1123.644718
 21
207.406861
 31
0.0
  0
LINE
  5
B871
  8
ALPHA
 10
1125.524406
 20
205.406861
 30
0.0
 11
1122.444718
 21
205.406861
 31
0.0
  0
LINE
  5
B872
  8
ALPHA
 10
1121.596101
 20
212.076718
 30
0.0
 11
1129.273532
 21
203.405737
 31
0.0
  0
LINE
  5
B873
  8
ALPHA
 10
1123.644718
 20
205.406861
 30
0.0
 11
1122.844718
 21
206.206861
 31
0.0
  0
LINE
  5
B874
  8
ALPHA
 10
1112.344718
 20
211.396502
 30
0.0
 11
1112.344718
 21
195.616052
 31
0.0
  0
LINE
  5
B875
  8
ALPHA
 10
1112.444718
 20
195.652449
 30
0.0
 11
1112.444718
 21
211.394756
 31
0.0
  0
LINE
  5
B876
  8
ALPHA
 10
1116.444718
 20
203.22304
 30
0.0
 11
1116.444718
 21
197.706861
 31
0.0
  0
ARC
  5
B877
  8
ALPHA
 10
1112.744718
 20
195.652449
 30
0.0
 40
0.3
 50
180.0
 51
220.0
  0
ARC
  5
B878
  8
ALPHA
 10
1112.644718
 20
195.616052
 30
0.0
 40
0.3
 50
180.0
 51
220.0
  0
LINE
  5
B879
  8
ALPHA
 10
1116.444718
 20
197.706861
 30
0.0
 11
1120.565934
 21
196.206861
 31
0.0
  0
ARC
  5
B87A
  8
ALPHA
 10
1120.102421
 20
210.73101
 30
0.0
 40
0.53
 50
41.522213
 51
89.0
  0
ARC
  5
B87B
  8
ALPHA
 10
1111.344756
 20
212.914185
 30
0.0
 40
1.5
 50
180.0
 51
269.0
  0
POLYLINE
  5
B87C
  8
ALPHA
 66
     1
 10
0.0
 20
0.0
 30
0.0
  0
VERTEX
  5
FBD3
  8
ALPHA
 10
1117.023401
 20
211.314835
 30
0.0
  0
VERTEX
  5
FBD4
  8
ALPHA
 10
1117.100298
 20
210.886026
 30
0.0
  0
VERTEX
  5
FBD5
  8
ALPHA
 10
1117.246505
 20
210.373307
 30
0.0
  0
VERTEX
  5
FBD6
  8
ALPHA
 10
1117.405064
 20
209.921892
 30
0.0
  0
VERTEX
  5
FBD7
  8
ALPHA
 10
1117.592703
 20
209.543958
 30
0.0
  0
VERTEX
  5
FBD8
  8
ALPHA
 10
1117.822242
 20
209.250459
 30
0.0
  0
VERTEX
  5
FBD9
  8
ALPHA
 10
1118.094718
 20
209.026861
 30
0.0
  0
SEQEND
  5
FBDA
  8
ALPHA
  0
POLYLINE
  5
B885
  8
ALPHA
 66
     1
 10
0.0
 20
0.0
 30
0.0
  0
VERTEX
  5
FBDB
  8
ALPHA
 10
1116.010471
 20
212.806885
 30
0.0
  0
VERTEX
  5
FBDC
  8
ALPHA
 10
1116.121249
 20
212.237029
 30
0.0
  0
VERTEX
  5
FBDD
  8
ALPHA
 10
1116.437798
 20
211.752415
 30
0.0
  0
VERTEX
  5
FBDE
  8
ALPHA
 10
1116.912529
 20
211.426104
 30
0.0
  0
VERTEX
  5
FBDF
  8
ALPHA
 10
1117.465795
 20
211.307113
 30
0.0
  0
SEQEND
  5
FBE0
  8
ALPHA
  0
POLYLINE
  5
B88C
  8
ALPHA
 66
     1
 10
0.0
 20
0.0
 30
0.0
  0
VERTEX
  5
FBE1
  8
ALPHA
 10
1117.465795
 20
212.806885
 30
0.0
  0
VERTEX
  5
FBE2
  8
ALPHA
 10
1117.457774
 20
212.233052
 30
0.0
  0
VERTEX
  5
FBE3
  8
ALPHA
 10
1117.454957
 20
211.746548
 30
0.0
  0
VERTEX
  5
FBE4
  8
ALPHA
 10
1117.457774
 20
211.421408
 30
0.0
  0
VERTEX
  5
FBE5
  8
ALPHA
 10
1117.465795
 20
211.307113
 30
0.0
  0
SEQEND
  5
FBE6
  8
ALPHA
  0
LINE
  5
B893
  8
ALPHA
 10
1118.094718
 20
209.026861
 30
0.0
 11
1118.094718
 21
211.296135
 31
0.0
  0
POLYLINE
  5
B894
  8
ALPHA
 66
     1
 10
0.0
 20
0.0
 30
0.0
  0
VERTEX
  5
FBE7
  8
ALPHA
 10
1120.111671
 20
212.760701
 30
0.0
  0
VERTEX
  5
FBE8
  8
ALPHA
 10
1120.103649
 20
212.186867
 30
0.0
  0
VERTEX
  5
FBE9
  8
ALPHA
 10
1120.100833
 20
211.700362
 30
0.0
  0
VERTEX
  5
FBEA
  8
ALPHA
 10
1120.103649
 20
211.375223
 30
0.0
  0
VERTEX
  5
FBEB
  8
ALPHA
 10
1120.111671
 20
211.260929
 30
0.0
  0
SEQEND
  5
FBEC
  8
ALPHA
  0
LINE
  5
B89B
  8
ALPHA
 10
1117.465795
 20
212.806885
 30
0.0
 11
1120.111671
 21
212.760701
 31
0.0
  0
LINE
  5
B89C
  8
ALPHA
 10
1109.844718
 20
212.914178
 30
0.0
 11
1116.010471
 21
212.80689
 31
0.0
  0
LINE
  5
B89D
  8
ALPHA
 10
1117.465795
 20
212.806885
 30
0.0
 11
1116.010471
 21
212.806885
 31
0.0
  0
LINE
  5
B89E
  8
ALPHA
 10
1120.111671
 20
211.260929
 30
0.0
 11
1111.318962
 21
211.414407
 31
0.0
  0
POLYLINE
  5
B89F
  8
ALPHA
 66
     1
 10
0.0
 20
0.0
 30
0.0
  0
VERTEX
  5
FBED
  8
ALPHA
 10
1121.994718
 20
234.169744
 30
0.0
  0
VERTEX
  5
FBEE
  8
ALPHA
 10
1121.408883
 20
234.051687
 30
0.0
  0
VERTEX
  5
FBEF
  8
ALPHA
 10
1120.917021
 20
233.718584
 30
0.0
  0
VERTEX
  5
FBF0
  8
ALPHA
 10
1120.594145
 20
233.228735
 30
0.0
  0
VERTEX
  5
FBF1
  8
ALPHA
 10
1120.481893
 20
232.656861
 30
0.0
  0
VERTEX
  5
FBF2
  8
ALPHA
 10
1120.594145
 20
232.084988
 30
0.0
  0
VERTEX
  5
FBF3
  8
ALPHA
 10
1120.917021
 20
231.595139
 30
0.0
  0
VERTEX
  5
FBF4
  8
ALPHA
 10
1121.408883
 20
231.262036
 30
0.0
  0
VERTEX
  5
FBF5
  8
ALPHA
 10
1121.994718
 20
231.143978
 30
0.0
  0
SEQEND
  5
FBF6
  8
ALPHA
  0
POLYLINE
  5
B8AA
  8
ALPHA
 66
     1
 10
0.0
 20
0.0
 30
0.0
  0
VERTEX
  5
FBF7
  8
ALPHA
 10
1121.994718
 20
234.106861
 30
0.0
  0
VERTEX
  5
FBF8
  8
ALPHA
 10
1121.433052
 20
233.993658
 30
0.0
  0
VERTEX
  5
FBF9
  8
ALPHA
 10
1120.96125
 20
233.673934
 30
0.0
  0
VERTEX
  5
FBFA
  8
ALPHA
 10
1120.652234
 20
233.204791
 30
0.0
  0
VERTEX
  5
FBFB
  8
ALPHA
 10
1120.544718
 20
232.656861
 30
0.0
  0
VERTEX
  5
FBFC
  8
ALPHA
 10
1120.652234
 20
232.108931
 30
0.0
  0
VERTEX
  5
FBFD
  8
ALPHA
 10
1120.96125
 20
231.639788
 30
0.0
  0
VERTEX
  5
FBFE
  8
ALPHA
 10
1121.433052
 20
231.320064
 30
0.0
  0
VERTEX
  5
FBFF
  8
ALPHA
 10
1121.994718
 20
231.206861
 30
0.0
  0
SEQEND
  5
FC00
  8
ALPHA
  0
POLYLINE
  5
B8B5
  8
ALPHA
 66
     1
 10
0.0
 20
0.0
 30
0.0
  0
VERTEX
  5
FC01
  8
ALPHA
 10
1121.994718
 20
226.669744
 30
0.0
  0
VERTEX
  5
FC02
  8
ALPHA
 10
1121.408883
 20
226.551687
 30
0.0
  0
VERTEX
  5
FC03
  8
ALPHA
 10
1120.917021
 20
226.218584
 30
0.0
  0
VERTEX
  5
FC04
  8
ALPHA
 10
1120.594145
 20
225.728735
 30
0.0
  0
VERTEX
  5
FC05
  8
ALPHA
 10
1120.481893
 20
225.156861
 30
0.0
  0
VERTEX
  5
FC06
  8
ALPHA
 10
1120.594145
 20
224.584988
 30
0.0
  0
VERTEX
  5
FC07
  8
ALPHA
 10
1120.917021
 20
224.095139
 30
0.0
  0
VERTEX
  5
FC08
  8
ALPHA
 10
1121.408883
 20
223.762036
 30
0.0
  0
VERTEX
  5
FC09
  8
ALPHA
 10
1121.994718
 20
223.643978
 30
0.0
  0
SEQEND
  5
FC0A
  8
ALPHA
  0
POLYLINE
  5
B8C0
  8
ALPHA
 66
     1
 10
0.0
 20
0.0
 30
0.0
  0
VERTEX
  5
FC0B
  8
ALPHA
 10
1121.994718
 20
226.606861
 30
0.0
  0
VERTEX
  5
FC0C
  8
ALPHA
 10
1121.433052
 20
226.493658
 30
0.0
  0
VERTEX
  5
FC0D
  8
ALPHA
 10
1120.96125
 20
226.173934
 30
0.0
  0
VERTEX
  5
FC0E
  8
ALPHA
 10
1120.652234
 20
225.704791
 30
0.0
  0
VERTEX
  5
FC0F
  8
ALPHA
 10
1120.544718
 20
225.156861
 30
0.0
  0
VERTEX
  5
FC10
  8
ALPHA
 10
1120.652234
 20
224.608931
 30
0.0
  0
VERTEX
  5
FC11
  8
ALPHA
 10
1120.96125
 20
224.139788
 30
0.0
  0
VERTEX
  5
FC12
  8
ALPHA
 10
1121.433052
 20
223.820064
 30
0.0
  0
VERTEX
  5
FC13
  8
ALPHA
 10
1121.994718
 20
223.706861
 30
0.0
  0
SEQEND
  5
FC14
  8
ALPHA
  0
POLYLINE
  5
B8CB
  8
ALPHA
 66
     1
 10
0.0
 20
0.0
 30
0.0
  0
VERTEX
  5
FC15
  8
ALPHA
 10
1121.994718
 20
219.211677
 30
0.0
  0
VERTEX
  5
FC16
  8
ALPHA
 10
1121.392777
 20
219.090387
 30
0.0
  0
VERTEX
  5
FC17
  8
ALPHA
 10
1120.887533
 20
218.748362
 30
0.0
  0
VERTEX
  5
FC18
  8
ALPHA
 10
1120.555408
 20
218.244699
 30
0.0
  0
VERTEX
  5
FC19
  8
ALPHA
 10
1120.439998
 20
217.656861
 30
0.0
  0
VERTEX
  5
FC1A
  8
ALPHA
 10
1120.555408
 20
217.069024
 30
0.0
  0
VERTEX
  5
FC1B
  8
ALPHA
 10
1120.887533
 20
216.56536
 30
0.0
  0
VERTEX
  5
FC1C
  8
ALPHA
 10
1121.392777
 20
216.223335
 30
0.0
  0
VERTEX
  5
FC1D
  8
ALPHA
 10
1121.994718
 20
216.102046
 30
0.0
  0
SEQEND
  5
FC1E
  8
ALPHA
  0
POLYLINE
  5
B8D6
  8
ALPHA
 66
     1
 10
0.0
 20
0.0
 30
0.0
  0
VERTEX
  5
FC1F
  8
ALPHA
 10
1121.994718
 20
219.106861
 30
0.0
  0
VERTEX
  5
FC20
  8
ALPHA
 10
1121.433061
 20
218.993662
 30
0.0
  0
VERTEX
  5
FC21
  8
ALPHA
 10
1120.961263
 20
218.673948
 30
0.0
  0
VERTEX
  5
FC22
  8
ALPHA
 10
1120.652235
 20
218.204793
 30
0.0
  0
VERTEX
  5
FC23
  8
ALPHA
 10
1120.544718
 20
217.656861
 30
0.0
  0
VERTEX
  5
FC24
  8
ALPHA
 10
1120.652235
 20
217.108929
 30
0.0
  0
VERTEX
  5
FC25
  8
ALPHA
 10
1120.961263
 20
216.639775
 30
0.0
  0
VERTEX
  5
FC26
  8
ALPHA
 10
1121.433061
 20
216.320061
 30
0.0
  0
VERTEX
  5
FC27
  8
ALPHA
 10
1121.994718
 20
216.206861
 30
0.0
  0
SEQEND
  5
FC28
  8
ALPHA
  0
LINE
  5
B8E1
  8
ALPHA
 10
1121.994718
 20
223.643978
 30
0.0
 11
1121.994718
 21
223.706861
 31
0.0
  0
LINE
  5
B8E2
  8
ALPHA
 10
1121.994718
 20
219.106861
 30
0.0
 11
1121.994718
 21
219.211677
 31
0.0
  0
LINE
  5
B8E3
  8
ALPHA
 10
1121.994718
 20
216.206861
 30
0.0
 11
1121.994718
 21
216.102046
 31
0.0
  0
LINE
  5
B8E4
  8
ALPHA
 10
1131.444718
 20
219.106861
 30
0.0
 11
1131.444718
 21
216.206861
 31
0.0
  0
LINE
  5
B8E5
  8
ALPHA
 10
1133.044718
 20
216.206861
 30
0.0
 11
1133.044718
 21
219.106861
 31
0.0
  0
LINE
  5
B8E6
  8
ALPHA
 10
1121.994718
 20
231.143978
 30
0.0
 11
1121.994718
 21
231.206861
 31
0.0
  0
LINE
  5
B8E7
  8
ALPHA
 10
1121.994718
 20
226.669744
 30
0.0
 11
1121.994718
 21
226.606861
 31
0.0
  0
LINE
  5
B8E8
  8
ALPHA
 10
1121.994718
 20
234.169744
 30
0.0
 11
1121.994718
 21
234.106861
 31
0.0
  0
POLYLINE
  5
B8E9
  8
ALPHA
 66
     1
 10
0.0
 20
0.0
 30
0.0
  0
VERTEX
  5
FC29
  8
ALPHA
 10
1115.630794
 20
236.61922
 30
0.0
  0
VERTEX
  5
FC2A
  8
ALPHA
 10
1115.717317
 20
236.075917
 30
0.0
  0
VERTEX
  5
FC2B
  8
ALPHA
 10
1115.783911
 20
235.520379
 30
0.0
  0
VERTEX
  5
FC2C
  8
ALPHA
 10
1115.833755
 20
234.972441
 30
0.0
  0
VERTEX
  5
FC2D
  8
ALPHA
 10
1115.869671
 20
234.445289
 30
0.0
  0
VERTEX
  5
FC2E
  8
ALPHA
 10
1115.894211
 20
233.946959
 30
0.0
  0
VERTEX
  5
FC2F
  8
ALPHA
 10
1115.909593
 20
233.481125
 30
0.0
  0
VERTEX
  5
FC30
  8
ALPHA
 10
1115.917681
 20
233.050534
 30
0.0
  0
VERTEX
  5
FC31
  8
ALPHA
 10
1115.920044
 20
232.656856
 30
0.0
  0
SEQEND
  5
FC32
  8
ALPHA
  0
POLYLINE
  5
B8F4
  8
ALPHA
 66
     1
 10
0.0
 20
0.0
 30
0.0
  0
VERTEX
  5
FC33
  8
ALPHA
 10
1115.691763
 20
229.223967
 30
0.0
  0
VERTEX
  5
FC34
  8
ALPHA
 10
1115.642
 20
229.428373
 30
0.0
  0
VERTEX
  5
FC35
  8
ALPHA
 10
1115.583333
 20
229.735456
 30
0.0
  0
VERTEX
  5
FC36
  8
ALPHA
 10
1115.532485
 20
230.068631
 30
0.0
  0
VERTEX
  5
FC37
  8
ALPHA
 10
1115.487889
 20
230.435107
 30
0.0
  0
VERTEX
  5
FC38
  8
ALPHA
 10
1115.450246
 20
230.830911
 30
0.0
  0
VERTEX
  5
FC39
  8
ALPHA
 10
1115.420438
 20
231.245655
 30
0.0
  0
VERTEX
  5
FC3A
  8
ALPHA
 10
1115.399449
 20
231.653742
 30
0.0
  0
VERTEX
  5
FC3B
  8
ALPHA
 10
1115.386781
 20
232.027984
 30
0.0
  0
SEQEND
  5
FC3C
  8
ALPHA
  0
POLYLINE
  5
B8FF
  8
ALPHA
 66
     1
 10
0.0
 20
0.0
 30
0.0
  0
VERTEX
  5
FC3D
  8
ALPHA
 10
1115.383345
 20
233.133991
 30
0.0
  0
VERTEX
  5
FC3E
  8
ALPHA
 10
1115.399299
 20
233.656492
 30
0.0
  0
VERTEX
  5
FC3F
  8
ALPHA
 10
1115.429751
 20
234.212032
 30
0.0
  0
VERTEX
  5
FC40
  8
ALPHA
 10
1115.472395
 20
234.727932
 30
0.0
  0
VERTEX
  5
FC41
  8
ALPHA
 10
1115.521927
 20
235.16574
 30
0.0
  0
VERTEX
  5
FC42
  8
ALPHA
 10
1115.577143
 20
235.541536
 30
0.0
  0
VERTEX
  5
FC43
  8
ALPHA
 10
1115.639688
 20
235.874483
 30
0.0
  0
VERTEX
  5
FC44
  8
ALPHA
 10
1115.691344
 20
236.087
 30
0.0
  0
SEQEND
  5
FC45
  8
ALPHA
  0
POLYLINE
  5
B909
  8
ALPHA
 66
     1
 10
0.0
 20
0.0
 30
0.0
  0
VERTEX
  5
FC46
  8
ALPHA
 10
1115.786523
 20
232.656859
 30
0.0
  0
VERTEX
  5
FC47
  8
ALPHA
 10
1115.809658
 20
233.823178
 30
0.0
  0
VERTEX
  5
FC48
  8
ALPHA
 10
1115.851802
 20
234.486507
 30
0.0
  0
SEQEND
  5
FC49
  8
ALPHA
  0
LINE
  5
B90E
  8
ALPHA
 10
1115.37871
 20
232.65686
 30
0.0
 11
1115.383345
 21
233.133991
 31
0.0
  0
POLYLINE
  5
B90F
  8
ALPHA
 66
     1
 10
0.0
 20
0.0
 30
0.0
  0
VERTEX
  5
FC4A
  8
ALPHA
 10
1115.920044
 20
232.656856
 30
0.0
  0
VERTEX
  5
FC4B
  8
ALPHA
 10
1115.914746
 20
232.068783
 30
0.0
  0
VERTEX
  5
FC4C
  8
ALPHA
 10
1115.896502
 20
231.424406
 30
0.0
  0
VERTEX
  5
FC4D
  8
ALPHA
 10
1115.861648
 20
230.735847
 30
0.0
  0
VERTEX
  5
FC4E
  8
ALPHA
 10
1115.812942
 20
230.093654
 30
0.0
  0
VERTEX
  5
FC4F
  8
ALPHA
 10
1115.756654
 20
229.54715
 30
0.0
  0
VERTEX
  5
FC50
  8
ALPHA
 10
1115.694504
 20
229.078371
 30
0.0
  0
VERTEX
  5
FC51
  8
ALPHA
 10
1115.62498
 20
228.663371
 30
0.0
  0
SEQEND
  5
FC52
  8
ALPHA
  0
POLYLINE
  5
B919
  8
ALPHA
 66
     1
 10
0.0
 20
0.0
 30
0.0
  0
VERTEX
  5
FC53
  8
ALPHA
 10
1115.907894
 20
232.656856
 30
0.0
  0
VERTEX
  5
FC54
  8
ALPHA
 10
1115.906641
 20
232.366783
 30
0.0
  0
VERTEX
  5
FC55
  8
ALPHA
 10
1115.889887
 20
231.594337
 30
0.0
  0
VERTEX
  5
FC56
  8
ALPHA
 10
1115.855826
 20
230.867283
 30
0.0
  0
VERTEX
  5
FC57
  8
ALPHA
 10
1115.806751
 20
230.202691
 30
0.0
  0
VERTEX
  5
FC58
  8
ALPHA
 10
1115.745823
 20
229.614725
 30
0.0
  0
VERTEX
  5
FC59
  8
ALPHA
 10
1115.676579
 20
229.114212
 30
0.0
  0
VERTEX
  5
FC5A
  8
ALPHA
 10
1115.60333
 20
228.709856
 30
0.0
  0
VERTEX
  5
FC5B
  8
ALPHA
 10
1115.531888
 20
228.408862
 30
0.0
  0
VERTEX
  5
FC5C
  8
ALPHA
 10
1115.472331
 20
228.22105
 30
0.0
  0
VERTEX
  5
FC5D
  8
ALPHA
 10
1115.458703
 20
228.186986
 30
0.0
  0
SEQEND
  5
FC5E
  8
ALPHA
  0
POLYLINE
  5
B926
  8
ALPHA
 66
     1
 10
0.0
 20
0.0
 30
0.0
  0
VERTEX
  5
FC5F
  8
ALPHA
 10
1115.386781
 20
232.027984
 30
0.0
  0
VERTEX
  5
FC60
  8
ALPHA
 10
1115.38049
 20
232.360105
 30
0.0
  0
VERTEX
  5
FC61
  8
ALPHA
 10
1115.37871
 20
232.65686
 30
0.0
  0
SEQEND
  5
FC62
  8
ALPHA
  0
POLYLINE
  5
B92B
  8
ALPHA
 66
     1
 10
0.0
 20
0.0
 30
0.0
  0
VERTEX
  5
FC63
  8
ALPHA
 10
1115.852295
 20
230.819461
 30
0.0
  0
VERTEX
  5
FC64
  8
ALPHA
 10
1115.809658
 20
231.490531
 30
0.0
  0
VERTEX
  5
FC65
  8
ALPHA
 10
1115.786523
 20
232.656859
 30
0.0
  0
SEQEND
  5
FC66
  8
ALPHA
  0
POLYLINE
  5
B930
  8
ALPHA
 66
     1
 10
0.0
 20
0.0
 30
0.0
  0
VERTEX
  5
FC67
  8
ALPHA
 10
1115.62498
 20
228.663371
 30
0.0
  0
VERTEX
  5
FC68
  8
ALPHA
 10
1115.543193
 20
228.281486
 30
0.0
  0
VERTEX
  5
FC69
  8
ALPHA
 10
1115.443991
 20
227.937011
 30
0.0
  0
VERTEX
  5
FC6A
  8
ALPHA
 10
1115.326932
 20
227.667238
 30
0.0
  0
VERTEX
  5
FC6B
  8
ALPHA
 10
1115.191815
 20
227.516701
 30
0.0
  0
VERTEX
  5
FC6C
  8
ALPHA
 10
1115.052786
 20
227.533108
 30
0.0
  0
VERTEX
  5
FC6D
  8
ALPHA
 10
1114.92921
 20
227.700487
 30
0.0
  0
VERTEX
  5
FC6E
  8
ALPHA
 10
1114.825817
 20
227.966361
 30
0.0
  0
VERTEX
  5
FC6F
  8
ALPHA
 10
1114.739722
 20
228.293553
 30
0.0
  0
VERTEX
  5
FC70
  8
ALPHA
 10
1114.669094
 20
228.652852
 30
0.0
  0
VERTEX
  5
FC71
  8
ALPHA
 10
1114.610309
 20
229.034047
 30
0.0
  0
VERTEX
  5
FC72
  8
ALPHA
 10
1114.559348
 20
229.447354
 30
0.0
  0
VERTEX
  5
FC73
  8
ALPHA
 10
1114.51468
 20
229.901909
 30
0.0
  0
VERTEX
  5
FC74
  8
ALPHA
 10
1114.476943
 20
230.392907
 30
0.0
  0
VERTEX
  5
FC75
  8
ALPHA
 10
1114.447096
 20
230.906947
 30
0.0
  0
VERTEX
  5
FC76
  8
ALPHA
 10
1114.426063
 20
231.413142
 30
0.0
  0
VERTEX
  5
FC77
  8
ALPHA
 10
1114.413373
 20
231.876824
 30
0.0
  0
VERTEX
  5
FC78
  8
ALPHA
 10
1114.407068
 20
232.289004
 30
0.0
  0
VERTEX
  5
FC79
  8
ALPHA
 10
1114.405283
 20
232.656859
 30
0.0
  0
SEQEND
  5
FC7A
  8
ALPHA
  0
POLYLINE
  5
B945
  8
ALPHA
 66
     1
 10
0.0
 20
0.0
 30
0.0
  0
VERTEX
  5
FC7B
  8
ALPHA
 10
1115.450017
 20
237.146351
 30
0.0
  0
VERTEX
  5
FC7C
  8
ALPHA
 10
1115.449281
 20
237.147459
 30
0.0
  0
VERTEX
  5
FC7D
  8
ALPHA
 10
1115.491586
 20
237.038405
 30
0.0
  0
VERTEX
  5
FC7E
  8
ALPHA
 10
1115.562895
 20
236.784537
 30
0.0
  0
VERTEX
  5
FC7F
  8
ALPHA
 10
1115.641882
 20
236.404547
 30
0.0
  0
VERTEX
  5
FC80
  8
ALPHA
 10
1115.719038
 20
235.909202
 30
0.0
  0
VERTEX
  5
FC81
  8
ALPHA
 10
1115.78828
 20
235.309221
 30
0.0
  0
VERTEX
  5
FC82
  8
ALPHA
 10
1115.844881
 20
234.618303
 30
0.0
  0
VERTEX
  5
FC83
  8
ALPHA
 10
1115.885042
 20
233.853549
 30
0.0
  0
VERTEX
  5
FC84
  8
ALPHA
 10
1115.905639
 20
233.036314
 30
0.0
  0
VERTEX
  5
FC85
  8
ALPHA
 10
1115.907901
 20
232.656856
 30
0.0
  0
SEQEND
  5
FC86
  8
ALPHA
  0
LINE
  5
B952
  8
ALPHA
 10
1121.744718
 20
286.556475
 30
0.0
 11
1121.744718
 21
283.757248
 31
0.0
  0
LINE
  5
B953
  8
ALPHA
 10
1128.944718
 20
284.326861
 30
0.0
 11
1128.944718
 21
283.706861
 31
0.0
  0
LINE
  5
B954
  8
ALPHA
 10
1129.694718
 20
286.606861
 30
0.0
 11
1129.694718
 21
283.856861
 31
0.0
  0
LINE
  5
B955
  8
ALPHA
 10
1131.444718
 20
286.606861
 30
0.0
 11
1131.444718
 21
283.706861
 31
0.0
  0
LINE
  5
B956
  8
ALPHA
 10
1133.044718
 20
283.706861
 30
0.0
 11
1133.044718
 21
286.606861
 31
0.0
  0
POLYLINE
  5
B957
  8
ALPHA
 66
     1
 10
0.0
 20
0.0
 30
0.0
  0
VERTEX
  5
FC87
  8
ALPHA
 10
1138.094718
 20
283.602046
 30
0.0
  0
VERTEX
  5
FC88
  8
ALPHA
 10
1138.696718
 20
283.72328
 30
0.0
  0
VERTEX
  5
FC89
  8
ALPHA
 10
1139.202026
 20
284.065291
 30
0.0
  0
VERTEX
  5
FC8A
  8
ALPHA
 10
1139.534202
 20
284.568979
 30
0.0
  0
VERTEX
  5
FC8B
  8
ALPHA
 10
1139.64963
 20
285.156861
 30
0.0
  0
VERTEX
  5
FC8C
  8
ALPHA
 10
1139.534202
 20
285.744744
 30
0.0
  0
VERTEX
  5
FC8D
  8
ALPHA
 10
1139.202026
 20
286.248432
 30
0.0
  0
VERTEX
  5
FC8E
  8
ALPHA
 10
1138.696718
 20
286.590443
 30
0.0
  0
VERTEX
  5
FC8F
  8
ALPHA
 10
1138.094718
 20
286.711677
 30
0.0
  0
SEQEND
  5
FC90
  8
ALPHA
  0
POLYLINE
  5
B962
  8
ALPHA
 66
     1
 10
0.0
 20
0.0
 30
0.0
  0
VERTEX
  5
FC91
  8
ALPHA
 10
1121.994718
 20
286.711677
 30
0.0
  0
VERTEX
  5
FC92
  8
ALPHA
 10
1121.392777
 20
286.590387
 30
0.0
  0
VERTEX
  5
FC93
  8
ALPHA
 10
1120.887533
 20
286.248362
 30
0.0
  0
VERTEX
  5
FC94
  8
ALPHA
 10
1120.555408
 20
285.744699
 30
0.0
  0
VERTEX
  5
FC95
  8
ALPHA
 10
1120.439998
 20
285.156861
 30
0.0
  0
VERTEX
  5
FC96
  8
ALPHA
 10
1120.555408
 20
284.569024
 30
0.0
  0
VERTEX
  5
FC97
  8
ALPHA
 10
1120.887533
 20
284.06536
 30
0.0
  0
VERTEX
  5
FC98
  8
ALPHA
 10
1121.392777
 20
283.723335
 30
0.0
  0
VERTEX
  5
FC99
  8
ALPHA
 10
1121.994718
 20
283.602046
 30
0.0
  0
SEQEND
  5
FC9A
  8
ALPHA
  0
POLYLINE
  5
B96D
  8
ALPHA
 66
     1
 10
0.0
 20
0.0
 30
0.0
  0
VERTEX
  5
FC9B
  8
ALPHA
 10
1121.994718
 20
286.606861
 30
0.0
  0
VERTEX
  5
FC9C
  8
ALPHA
 10
1121.433061
 20
286.493662
 30
0.0
  0
VERTEX
  5
FC9D
  8
ALPHA
 10
1120.961263
 20
286.173948
 30
0.0
  0
VERTEX
  5
FC9E
  8
ALPHA
 10
1120.652235
 20
285.704793
 30
0.0
  0
VERTEX
  5
FC9F
  8
ALPHA
 10
1120.544718
 20
285.156861
 30
0.0
  0
VERTEX
  5
FCA0
  8
ALPHA
 10
1120.652235
 20
284.608929
 30
0.0
  0
VERTEX
  5
FCA1
  8
ALPHA
 10
1120.961263
 20
284.139775
 30
0.0
  0
VERTEX
  5
FCA2
  8
ALPHA
 10
1121.433061
 20
283.820061
 30
0.0
  0
VERTEX
  5
FCA3
  8
ALPHA
 10
1121.994718
 20
283.706861
 30
0.0
  0
SEQEND
  5
FCA4
  8
ALPHA
  0
POLYLINE
  5
B978
  8
ALPHA
 66
     1
 10
0.0
 20
0.0
 30
0.0
  0
VERTEX
  5
FCA5
  8
ALPHA
 10
1138.094718
 20
283.706861
 30
0.0
  0
VERTEX
  5
FCA6
  8
ALPHA
 10
1138.656375
 20
283.820061
 30
0.0
  0
VERTEX
  5
FCA7
  8
ALPHA
 10
1139.128173
 20
284.139775
 30
0.0
  0
VERTEX
  5
FCA8
  8
ALPHA
 10
1139.437202
 20
284.608929
 30
0.0
  0
VERTEX
  5
FCA9
  8
ALPHA
 10
1139.544718
 20
285.156861
 30
0.0
  0
VERTEX
  5
FCAA
  8
ALPHA
 10
1139.437202
 20
285.704794
 30
0.0
  0
VERTEX
  5
FCAB
  8
ALPHA
 10
1139.128173
 20
286.173948
 30
0.0
  0
VERTEX
  5
FCAC
  8
ALPHA
 10
1138.656375
 20
286.493662
 30
0.0
  0
VERTEX
  5
FCAD
  8
ALPHA
 10
1138.094718
 20
286.606861
 30
0.0
  0
SEQEND
  5
FCAE
  8
ALPHA
  0
LINE
  5
B983
  8
ALPHA
 10
1121.994718
 20
283.706861
 30
0.0
 11
1138.094718
 21
283.706861
 31
0.0
  0
LINE
  5
B984
  8
ALPHA
 10
1121.994718
 20
283.602046
 30
0.0
 11
1138.094718
 21
283.602046
 31
0.0
  0
LINE
  5
B985
  8
ALPHA
 10
1138.094718
 20
279.211677
 30
0.0
 11
1121.994718
 21
279.211677
 31
0.0
  0
LINE
  5
B986
  8
ALPHA
 10
1138.094718
 20
279.106861
 30
0.0
 11
1121.994718
 21
279.106861
 31
0.0
  0
LINE
  5
B987
  8
ALPHA
 10
1121.994718
 20
276.206861
 30
0.0
 11
1138.094718
 21
276.206861
 31
0.0
  0
LINE
  5
B988
  8
ALPHA
 10
1121.994718
 20
276.102046
 30
0.0
 11
1138.094718
 21
276.102046
 31
0.0
  0
LINE
  5
B989
  8
ALPHA
 10
1138.094718
 20
271.711677
 30
0.0
 11
1121.994718
 21
271.711677
 31
0.0
  0
LINE
  5
B98A
  8
ALPHA
 10
1138.094718
 20
271.606861
 30
0.0
 11
1121.994718
 21
271.606861
 31
0.0
  0
LINE
  5
B98B
  8
ALPHA
 10
1121.994718
 20
268.706861
 30
0.0
 11
1138.094718
 21
268.706861
 31
0.0
  0
LINE
  5
B98C
  8
ALPHA
 10
1121.994718
 20
268.602046
 30
0.0
 11
1138.094718
 21
268.602046
 31
0.0
  0
LINE
  5
B98D
  8
ALPHA
 10
1138.094718
 20
264.211677
 30
0.0
 11
1121.994718
 21
264.211677
 31
0.0
  0
LINE
  5
B98E
  8
ALPHA
 10
1138.094718
 20
264.106861
 30
0.0
 11
1121.994718
 21
264.106861
 31
0.0
  0
LINE
  5
B98F
  8
ALPHA
 10
1121.994718
 20
261.206861
 30
0.0
 11
1138.094718
 21
261.206861
 31
0.0
  0
LINE
  5
B990
  8
ALPHA
 10
1121.994718
 20
261.102046
 30
0.0
 11
1138.094718
 21
261.102046
 31
0.0
  0
LINE
  5
B991
  8
ALPHA
 10
1138.094718
 20
256.711677
 30
0.0
 11
1121.994718
 21
256.711677
 31
0.0
  0
LINE
  5
B992
  8
ALPHA
 10
1138.094718
 20
256.606861
 30
0.0
 11
1121.994718
 21
256.606861
 31
0.0
  0
LINE
  5
B993
  8
ALPHA
 10
1121.994718
 20
253.706861
 30
0.0
 11
1138.094718
 21
253.706861
 31
0.0
  0
LINE
  5
B994
  8
ALPHA
 10
1121.994718
 20
253.602046
 30
0.0
 11
1138.094718
 21
253.602046
 31
0.0
  0
LINE
  5
B995
  8
ALPHA
 10
1138.094718
 20
249.211677
 30
0.0
 11
1121.994718
 21
249.211677
 31
0.0
  0
LINE
  5
B996
  8
ALPHA
 10
1138.094718
 20
249.106861
 30
0.0
 11
1121.994718
 21
249.106861
 31
0.0
  0
LINE
  5
B997
  8
ALPHA
 10
1121.994718
 20
246.206861
 30
0.0
 11
1138.094718
 21
246.206861
 31
0.0
  0
LINE
  5
B998
  8
ALPHA
 10
1121.994718
 20
246.102046
 30
0.0
 11
1138.094718
 21
246.102046
 31
0.0
  0
LINE
  5
B999
  8
ALPHA
 10
1138.094718
 20
241.669744
 30
0.0
 11
1121.994718
 21
241.669744
 31
0.0
  0
LINE
  5
B99A
  8
ALPHA
 10
1138.094718
 20
241.606861
 30
0.0
 11
1121.994718
 21
241.606861
 31
0.0
  0
LINE
  5
B99B
  8
ALPHA
 10
1121.994718
 20
238.706861
 30
0.0
 11
1138.094718
 21
238.706861
 31
0.0
  0
LINE
  5
B99C
  8
ALPHA
 10
1121.994718
 20
238.643978
 30
0.0
 11
1138.094718
 21
238.643978
 31
0.0
  0
LINE
  5
B99D
  8
ALPHA
 10
1138.094718
 20
249.106861
 30
0.0
 11
1138.094718
 21
249.211677
 31
0.0
  0
POLYLINE
  5
B99E
  8
ALPHA
 66
     1
 10
0.0
 20
0.0
 30
0.0
  0
VERTEX
  5
FCAF
  8
ALPHA
 10
1138.094718
 20
246.102046
 30
0.0
  0
VERTEX
  5
FCB0
  8
ALPHA
 10
1138.696718
 20
246.22328
 30
0.0
  0
VERTEX
  5
FCB1
  8
ALPHA
 10
1139.202026
 20
246.565291
 30
0.0
  0
VERTEX
  5
FCB2
  8
ALPHA
 10
1139.534202
 20
247.068979
 30
0.0
  0
VERTEX
  5
FCB3
  8
ALPHA
 10
1139.64963
 20
247.656861
 30
0.0
  0
VERTEX
  5
FCB4
  8
ALPHA
 10
1139.534202
 20
248.244744
 30
0.0
  0
VERTEX
  5
FCB5
  8
ALPHA
 10
1139.202026
 20
248.748432
 30
0.0
  0
VERTEX
  5
FCB6
  8
ALPHA
 10
1138.696718
 20
249.090443
 30
0.0
  0
VERTEX
  5
FCB7
  8
ALPHA
 10
1138.094718
 20
249.211677
 30
0.0
  0
SEQEND
  5
FCB8
  8
ALPHA
  0
LINE
  5
B9A9
  8
ALPHA
 10
1138.094718
 20
238.643978
 30
0.0
 11
1138.094718
 21
238.706861
 31
0.0
  0
LINE
  5
B9AA
  8
ALPHA
 10
1138.094718
 20
246.206861
 30
0.0
 11
1138.094718
 21
246.102046
 31
0.0
  0
LINE
  5
B9AB
  8
ALPHA
 10
1138.094718
 20
241.669744
 30
0.0
 11
1138.094718
 21
241.606861
 31
0.0
  0
POLYLINE
  5
B9AC
  8
ALPHA
 66
     1
 10
0.0
 20
0.0
 30
0.0
  0
VERTEX
  5
FCB9
  8
ALPHA
 10
1138.094718
 20
246.206861
 30
0.0
  0
VERTEX
  5
FCBA
  8
ALPHA
 10
1138.656375
 20
246.320061
 30
0.0
  0
VERTEX
  5
FCBB
  8
ALPHA
 10
1139.128173
 20
246.639775
 30
0.0
  0
VERTEX
  5
FCBC
  8
ALPHA
 10
1139.437202
 20
247.108929
 30
0.0
  0
VERTEX
  5
FCBD
  8
ALPHA
 10
1139.544718
 20
247.656861
 30
0.0
  0
VERTEX
  5
FCBE
  8
ALPHA
 10
1139.437202
 20
248.204794
 30
0.0
  0
VERTEX
  5
FCBF
  8
ALPHA
 10
1139.128173
 20
248.673948
 30
0.0
  0
VERTEX
  5
FCC0
  8
ALPHA
 10
1138.656375
 20
248.993662
 30
0.0
  0
VERTEX
  5
FCC1
  8
ALPHA
 10
1138.094718
 20
249.106861
 30
0.0
  0
SEQEND
  5
FCC2
  8
ALPHA
  0
POLYLINE
  5
B9B7
  8
ALPHA
 66
     1
 10
0.0
 20
0.0
 30
0.0
  0
VERTEX
  5
FCC3
  8
ALPHA
 10
1138.094718
 20
238.706861
 30
0.0
  0
VERTEX
  5
FCC4
  8
ALPHA
 10
1138.656384
 20
238.820065
 30
0.0
  0
VERTEX
  5
FCC5
  8
ALPHA
 10
1139.128187
 20
239.139788
 30
0.0
  0
VERTEX
  5
FCC6
  8
ALPHA
 10
1139.437203
 20
239.608932
 30
0.0
  0
VERTEX
  5
FCC7
  8
ALPHA
 10
1139.544718
 20
240.156862
 30
0.0
  0
VERTEX
  5
FCC8
  8
ALPHA
 10
1139.437202
 20
240.704792
 30
0.0
  0
VERTEX
  5
FCC9
  8
ALPHA
 10
1139.128186
 20
241.173935
 30
0.0
  0
VERTEX
  5
FCCA
  8
ALPHA
 10
1138.656384
 20
241.493658
 30
0.0
  0
VERTEX
  5
FCCB
  8
ALPHA
 10
1138.094718
 20
241.606861
 30
0.0
  0
SEQEND
  5
FCCC
  8
ALPHA
  0
POLYLINE
  5
B9C2
  8
ALPHA
 66
     1
 10
0.0
 20
0.0
 30
0.0
  0
VERTEX
  5
FCCD
  8
ALPHA
 10
1138.094718
 20
238.643978
 30
0.0
  0
VERTEX
  5
FCCE
  8
ALPHA
 10
1138.680589
 20
238.762002
 30
0.0
  0
VERTEX
  5
FCCF
  8
ALPHA
 10
1139.172489
 20
239.095097
 30
0.0
  0
VERTEX
  5
FCD0
  8
ALPHA
 10
1139.495395
 20
239.584961
 30
0.0
  0
VERTEX
  5
FCD1
  8
ALPHA
 10
1139.607659
 20
240.156862
 30
0.0
  0
VERTEX
  5
FCD2
  8
ALPHA
 10
1139.495395
 20
240.728762
 30
0.0
  0
VERTEX
  5
FCD3
  8
ALPHA
 10
1139.172489
 20
241.218626
 30
0.0
  0
VERTEX
  5
FCD4
  8
ALPHA
 10
1138.680589
 20
241.551721
 30
0.0
  0
VERTEX
  5
FCD5
  8
ALPHA
 10
1138.094718
 20
241.669744
 30
0.0
  0
SEQEND
  5
FCD6
  8
ALPHA
  0
LINE
  5
B9CD
  8
ALPHA
 10
1138.094718
 20
256.606861
 30
0.0
 11
1138.094718
 21
256.711677
 31
0.0
  0
LINE
  5
B9CE
  8
ALPHA
 10
1138.094718
 20
253.706861
 30
0.0
 11
1138.094718
 21
253.602046
 31
0.0
  0
POLYLINE
  5
B9CF
  8
ALPHA
 66
     1
 10
0.0
 20
0.0
 30
0.0
  0
VERTEX
  5
FCD7
  8
ALPHA
 10
1138.094718
 20
253.602046
 30
0.0
  0
VERTEX
  5
FCD8
  8
ALPHA
 10
1138.696718
 20
253.72328
 30
0.0
  0
VERTEX
  5
FCD9
  8
ALPHA
 10
1139.202026
 20
254.065291
 30
0.0
  0
VERTEX
  5
FCDA
  8
ALPHA
 10
1139.534202
 20
254.568979
 30
0.0
  0
VERTEX
  5
FCDB
  8
ALPHA
 10
1139.64963
 20
255.156861
 30
0.0
  0
VERTEX
  5
FCDC
  8
ALPHA
 10
1139.534202
 20
255.744744
 30
0.0
  0
VERTEX
  5
FCDD
  8
ALPHA
 10
1139.202026
 20
256.248432
 30
0.0
  0
VERTEX
  5
FCDE
  8
ALPHA
 10
1138.696718
 20
256.590443
 30
0.0
  0
VERTEX
  5
FCDF
  8
ALPHA
 10
1138.094718
 20
256.711677
 30
0.0
  0
SEQEND
  5
FCE0
  8
ALPHA
  0
POLYLINE
  5
B9DA
  8
ALPHA
 66
     1
 10
0.0
 20
0.0
 30
0.0
  0
VERTEX
  5
FCE1
  8
ALPHA
 10
1138.094718
 20
253.706861
 30
0.0
  0
VERTEX
  5
FCE2
  8
ALPHA
 10
1138.656375
 20
253.820061
 30
0.0
  0
VERTEX
  5
FCE3
  8
ALPHA
 10
1139.128173
 20
254.139775
 30
0.0
  0
VERTEX
  5
FCE4
  8
ALPHA
 10
1139.437202
 20
254.608929
 30
0.0
  0
VERTEX
  5
FCE5
  8
ALPHA
 10
1139.544718
 20
255.156861
 30
0.0
  0
VERTEX
  5
FCE6
  8
ALPHA
 10
1139.437202
 20
255.704794
 30
0.0
  0
VERTEX
  5
FCE7
  8
ALPHA
 10
1139.128173
 20
256.173948
 30
0.0
  0
VERTEX
  5
FCE8
  8
ALPHA
 10
1138.656375
 20
256.493662
 30
0.0
  0
VERTEX
  5
FCE9
  8
ALPHA
 10
1138.094718
 20
256.606861
 30
0.0
  0
SEQEND
  5
FCEA
  8
ALPHA
  0
LINE
  5
B9E5
  8
ALPHA
 10
1138.094718
 20
271.606861
 30
0.0
 11
1138.094718
 21
271.711677
 31
0.0
  0
LINE
  5
B9E6
  8
ALPHA
 10
1138.094718
 20
264.106861
 30
0.0
 11
1138.094718
 21
264.211677
 31
0.0
  0
LINE
  5
B9E7
  8
ALPHA
 10
1138.094718
 20
261.206861
 30
0.0
 11
1138.094718
 21
261.102046
 31
0.0
  0
LINE
  5
B9E8
  8
ALPHA
 10
1138.094718
 20
268.706861
 30
0.0
 11
1138.094718
 21
268.602046
 31
0.0
  0
POLYLINE
  5
B9E9
  8
ALPHA
 66
     1
 10
0.0
 20
0.0
 30
0.0
  0
VERTEX
  5
FCEB
  8
ALPHA
 10
1138.094718
 20
268.602046
 30
0.0
  0
VERTEX
  5
FCEC
  8
ALPHA
 10
1138.696718
 20
268.72328
 30
0.0
  0
VERTEX
  5
FCED
  8
ALPHA
 10
1139.202026
 20
269.065291
 30
0.0
  0
VERTEX
  5
FCEE
  8
ALPHA
 10
1139.534202
 20
269.568979
 30
0.0
  0
VERTEX
  5
FCEF
  8
ALPHA
 10
1139.64963
 20
270.156861
 30
0.0
  0
VERTEX
  5
FCF0
  8
ALPHA
 10
1139.534202
 20
270.744744
 30
0.0
  0
VERTEX
  5
FCF1
  8
ALPHA
 10
1139.202026
 20
271.248432
 30
0.0
  0
VERTEX
  5
FCF2
  8
ALPHA
 10
1138.696718
 20
271.590443
 30
0.0
  0
VERTEX
  5
FCF3
  8
ALPHA
 10
1138.094718
 20
271.711677
 30
0.0
  0
SEQEND
  5
FCF4
  8
ALPHA
  0
POLYLINE
  5
B9F4
  8
ALPHA
 66
     1
 10
0.0
 20
0.0
 30
0.0
  0
VERTEX
  5
FCF5
  8
ALPHA
 10
1138.094718
 20
261.102046
 30
0.0
  0
VERTEX
  5
FCF6
  8
ALPHA
 10
1138.696718
 20
261.22328
 30
0.0
  0
VERTEX
  5
FCF7
  8
ALPHA
 10
1139.202026
 20
261.565291
 30
0.0
  0
VERTEX
  5
FCF8
  8
ALPHA
 10
1139.534202
 20
262.068979
 30
0.0
  0
VERTEX
  5
FCF9
  8
ALPHA
 10
1139.64963
 20
262.656861
 30
0.0
  0
VERTEX
  5
FCFA
  8
ALPHA
 10
1139.534202
 20
263.244744
 30
0.0
  0
VERTEX
  5
FCFB
  8
ALPHA
 10
1139.202026
 20
263.748432
 30
0.0
  0
VERTEX
  5
FCFC
  8
ALPHA
 10
1138.696718
 20
264.090443
 30
0.0
  0
VERTEX
  5
FCFD
  8
ALPHA
 10
1138.094718
 20
264.211677
 30
0.0
  0
SEQEND
  5
FCFE
  8
ALPHA
  0
POLYLINE
  5
B9FF
  8
ALPHA
 66
     1
 10
0.0
 20
0.0
 30
0.0
  0
VERTEX
  5
FCFF
  8
ALPHA
 10
1138.094718
 20
268.706861
 30
0.0
  0
VERTEX
  5
FD00
  8
ALPHA
 10
1138.656375
 20
268.820061
 30
0.0
  0
VERTEX
  5
FD01
  8
ALPHA
 10
1139.128173
 20
269.139775
 30
0.0
  0
VERTEX
  5
FD02
  8
ALPHA
 10
1139.437202
 20
269.608929
 30
0.0
  0
VERTEX
  5
FD03
  8
ALPHA
 10
1139.544718
 20
270.156861
 30
0.0
  0
VERTEX
  5
FD04
  8
ALPHA
 10
1139.437202
 20
270.704794
 30
0.0
  0
VERTEX
  5
FD05
  8
ALPHA
 10
1139.128173
 20
271.173948
 30
0.0
  0
VERTEX
  5
FD06
  8
ALPHA
 10
1138.656375
 20
271.493662
 30
0.0
  0
VERTEX
  5
FD07
  8
ALPHA
 10
1138.094718
 20
271.606861
 30
0.0
  0
SEQEND
  5
FD08
  8
ALPHA
  0
POLYLINE
  5
BA0A
  8
ALPHA
 66
     1
 10
0.0
 20
0.0
 30
0.0
  0
VERTEX
  5
FD09
  8
ALPHA
 10
1138.094718
 20
261.206861
 30
0.0
  0
VERTEX
  5
FD0A
  8
ALPHA
 10
1138.656375
 20
261.320061
 30
0.0
  0
VERTEX
  5
FD0B
  8
ALPHA
 10
1139.128173
 20
261.639775
 30
0.0
  0
VERTEX
  5
FD0C
  8
ALPHA
 10
1139.437202
 20
262.108929
 30
0.0
  0
VERTEX
  5
FD0D
  8
ALPHA
 10
1139.544718
 20
262.656861
 30
0.0
  0
VERTEX
  5
FD0E
  8
ALPHA
 10
1139.437202
 20
263.204794
 30
0.0
  0
VERTEX
  5
FD0F
  8
ALPHA
 10
1139.128173
 20
263.673948
 30
0.0
  0
VERTEX
  5
FD10
  8
ALPHA
 10
1138.656375
 20
263.993662
 30
0.0
  0
VERTEX
  5
FD11
  8
ALPHA
 10
1138.094718
 20
264.106861
 30
0.0
  0
SEQEND
  5
FD12
  8
ALPHA
  0
LINE
  5
BA15
  8
ALPHA
 10
1138.094718
 20
279.106861
 30
0.0
 11
1138.094718
 21
279.211677
 31
0.0
  0
LINE
  5
BA16
  8
ALPHA
 10
1138.094718
 20
276.206861
 30
0.0
 11
1138.094718
 21
276.102046
 31
0.0
  0
LINE
  5
BA17
  8
ALPHA
 10
1138.094718
 20
283.706861
 30
0.0
 11
1138.094718
 21
283.602046
 31
0.0
  0
POLYLINE
  5
BA18
  8
ALPHA
 66
     1
 10
0.0
 20
0.0
 30
0.0
  0
VERTEX
  5
FD13
  8
ALPHA
 10
1138.094718
 20
276.102046
 30
0.0
  0
VERTEX
  5
FD14
  8
ALPHA
 10
1138.696718
 20
276.22328
 30
0.0
  0
VERTEX
  5
FD15
  8
ALPHA
 10
1139.202026
 20
276.565291
 30
0.0
  0
VERTEX
  5
FD16
  8
ALPHA
 10
1139.534202
 20
277.068979
 30
0.0
  0
VERTEX
  5
FD17
  8
ALPHA
 10
1139.64963
 20
277.656861
 30
0.0
  0
VERTEX
  5
FD18
  8
ALPHA
 10
1139.534202
 20
278.244744
 30
0.0
  0
VERTEX
  5
FD19
  8
ALPHA
 10
1139.202026
 20
278.748432
 30
0.0
  0
VERTEX
  5
FD1A
  8
ALPHA
 10
1138.696718
 20
279.090443
 30
0.0
  0
VERTEX
  5
FD1B
  8
ALPHA
 10
1138.094718
 20
279.211677
 30
0.0
  0
SEQEND
  5
FD1C
  8
ALPHA
  0
POLYLINE
  5
BA23
  8
ALPHA
 66
     1
 10
0.0
 20
0.0
 30
0.0
  0
VERTEX
  5
FD1D
  8
ALPHA
 10
1138.094718
 20
276.206861
 30
0.0
  0
VERTEX
  5
FD1E
  8
ALPHA
 10
1138.656375
 20
276.320061
 30
0.0
  0
VERTEX
  5
FD1F
  8
ALPHA
 10
1139.128173
 20
276.639775
 30
0.0
  0
VERTEX
  5
FD20
  8
ALPHA
 10
1139.437202
 20
277.108929
 30
0.0
  0
VERTEX
  5
FD21
  8
ALPHA
 10
1139.544718
 20
277.656861
 30
0.0
  0
VERTEX
  5
FD22
  8
ALPHA
 10
1139.437202
 20
278.204794
 30
0.0
  0
VERTEX
  5
FD23
  8
ALPHA
 10
1139.128173
 20
278.673948
 30
0.0
  0
VERTEX
  5
FD24
  8
ALPHA
 10
1138.656375
 20
278.993662
 30
0.0
  0
VERTEX
  5
FD25
  8
ALPHA
 10
1138.094718
 20
279.106861
 30
0.0
  0
SEQEND
  5
FD26
  8
ALPHA
  0
POLYLINE
  5
BA2E
  8
ALPHA
 66
     1
 10
0.0
 20
0.0
 30
0.0
  0
VERTEX
  5
FD27
  8
ALPHA
 10
1109.844718
 20
258.940836
 30
0.0
  0
VERTEX
  5
FD28
  8
ALPHA
 10
1110.036099
 20
262.741622
 30
0.0
  0
VERTEX
  5
FD29
  8
ALPHA
 10
1110.618695
 20
268.096081
 30
0.0
  0
VERTEX
  5
FD2A
  8
ALPHA
 10
1111.598928
 20
274.871323
 30
0.0
  0
SEQEND
  5
FD2B
  8
ALPHA
  0
POLYLINE
  5
BA34
  8
ALPHA
 66
     1
 10
0.0
 20
0.0
 30
0.0
  0
VERTEX
  5
FD2C
  8
ALPHA
 10
1121.994718
 20
256.711677
 30
0.0
  0
VERTEX
  5
FD2D
  8
ALPHA
 10
1121.392777
 20
256.590387
 30
0.0
  0
VERTEX
  5
FD2E
  8
ALPHA
 10
1120.887533
 20
256.248362
 30
0.0
  0
VERTEX
  5
FD2F
  8
ALPHA
 10
1120.555408
 20
255.744699
 30
0.0
  0
VERTEX
  5
FD30
  8
ALPHA
 10
1120.439998
 20
255.156861
 30
0.0
  0
VERTEX
  5
FD31
  8
ALPHA
 10
1120.555408
 20
254.569024
 30
0.0
  0
VERTEX
  5
FD32
  8
ALPHA
 10
1120.887533
 20
254.06536
 30
0.0
  0
VERTEX
  5
FD33
  8
ALPHA
 10
1121.392777
 20
253.723335
 30
0.0
  0
VERTEX
  5
FD34
  8
ALPHA
 10
1121.994718
 20
253.602046
 30
0.0
  0
SEQEND
  5
FD35
  8
ALPHA
  0
POLYLINE
  5
BA3F
  8
ALPHA
 66
     1
 10
0.0
 20
0.0
 30
0.0
  0
VERTEX
  5
FD36
  8
ALPHA
 10
1121.994718
 20
256.606861
 30
0.0
  0
VERTEX
  5
FD37
  8
ALPHA
 10
1121.433061
 20
256.493662
 30
0.0
  0
VERTEX
  5
FD38
  8
ALPHA
 10
1120.961263
 20
256.173948
 30
0.0
  0
VERTEX
  5
FD39
  8
ALPHA
 10
1120.652235
 20
255.704793
 30
0.0
  0
VERTEX
  5
FD3A
  8
ALPHA
 10
1120.544718
 20
255.156861
 30
0.0
  0
VERTEX
  5
FD3B
  8
ALPHA
 10
1120.652235
 20
254.608929
 30
0.0
  0
VERTEX
  5
FD3C
  8
ALPHA
 10
1120.961263
 20
254.139775
 30
0.0
  0
VERTEX
  5
FD3D
  8
ALPHA
 10
1121.433061
 20
253.820061
 30
0.0
  0
VERTEX
  5
FD3E
  8
ALPHA
 10
1121.994718
 20
253.706861
 30
0.0
  0
SEQEND
  5
FD3F
  8
ALPHA
  0
POLYLINE
  5
BA4A
  8
ALPHA
 66
     1
 10
0.0
 20
0.0
 30
0.0
  0
VERTEX
  5
FD40
  8
ALPHA
 10
1121.994718
 20
249.211677
 30
0.0
  0
VERTEX
  5
FD41
  8
ALPHA
 10
1121.392777
 20
249.090387
 30
0.0
  0
VERTEX
  5
FD42
  8
ALPHA
 10
1120.887533
 20
248.748362
 30
0.0
  0
VERTEX
  5
FD43
  8
ALPHA
 10
1120.555408
 20
248.244699
 30
0.0
  0
VERTEX
  5
FD44
  8
ALPHA
 10
1120.439998
 20
247.656861
 30
0.0
  0
VERTEX
  5
FD45
  8
ALPHA
 10
1120.555408
 20
247.069024
 30
0.0
  0
VERTEX
  5
FD46
  8
ALPHA
 10
1120.887533
 20
246.56536
 30
0.0
  0
VERTEX
  5
FD47
  8
ALPHA
 10
1121.392777
 20
246.223335
 30
0.0
  0
VERTEX
  5
FD48
  8
ALPHA
 10
1121.994718
 20
246.102046
 30
0.0
  0
SEQEND
  5
FD49
  8
ALPHA
  0
POLYLINE
  5
BA55
  8
ALPHA
 66
     1
 10
0.0
 20
0.0
 30
0.0
  0
VERTEX
  5
FD4A
  8
ALPHA
 10
1121.994718
 20
249.106861
 30
0.0
  0
VERTEX
  5
FD4B
  8
ALPHA
 10
1121.433061
 20
248.993662
 30
0.0
  0
VERTEX
  5
FD4C
  8
ALPHA
 10
1120.961263
 20
248.673948
 30
0.0
  0
VERTEX
  5
FD4D
  8
ALPHA
 10
1120.652235
 20
248.204793
 30
0.0
  0
VERTEX
  5
FD4E
  8
ALPHA
 10
1120.544718
 20
247.656861
 30
0.0
  0
VERTEX
  5
FD4F
  8
ALPHA
 10
1120.652235
 20
247.108929
 30
0.0
  0
VERTEX
  5
FD50
  8
ALPHA
 10
1120.961263
 20
246.639775
 30
0.0
  0
VERTEX
  5
FD51
  8
ALPHA
 10
1121.433061
 20
246.320061
 30
0.0
  0
VERTEX
  5
FD52
  8
ALPHA
 10
1121.994718
 20
246.206861
 30
0.0
  0
SEQEND
  5
FD53
  8
ALPHA
  0
POLYLINE
  5
BA60
  8
ALPHA
 66
     1
 10
0.0
 20
0.0
 30
0.0
  0
VERTEX
  5
FD54
  8
ALPHA
 10
1121.994718
 20
241.669744
 30
0.0
  0
VERTEX
  5
FD55
  8
ALPHA
 10
1121.408883
 20
241.551687
 30
0.0
  0
VERTEX
  5
FD56
  8
ALPHA
 10
1120.917021
 20
241.218584
 30
0.0
  0
VERTEX
  5
FD57
  8
ALPHA
 10
1120.594145
 20
240.728735
 30
0.0
  0
VERTEX
  5
FD58
  8
ALPHA
 10
1120.481893
 20
240.156861
 30
0.0
  0
VERTEX
  5
FD59
  8
ALPHA
 10
1120.594145
 20
239.584988
 30
0.0
  0
VERTEX
  5
FD5A
  8
ALPHA
 10
1120.917021
 20
239.095139
 30
0.0
  0
VERTEX
  5
FD5B
  8
ALPHA
 10
1121.408883
 20
238.762036
 30
0.0
  0
VERTEX
  5
FD5C
  8
ALPHA
 10
1121.994718
 20
238.643978
 30
0.0
  0
SEQEND
  5
FD5D
  8
ALPHA
  0
POLYLINE
  5
BA6B
  8
ALPHA
 66
     1
 10
0.0
 20
0.0
 30
0.0
  0
VERTEX
  5
FD5E
  8
ALPHA
 10
1121.994718
 20
241.606861
 30
0.0
  0
VERTEX
  5
FD5F
  8
ALPHA
 10
1121.433052
 20
241.493658
 30
0.0
  0
VERTEX
  5
FD60
  8
ALPHA
 10
1120.96125
 20
241.173934
 30
0.0
  0
VERTEX
  5
FD61
  8
ALPHA
 10
1120.652234
 20
240.704791
 30
0.0
  0
VERTEX
  5
FD62
  8
ALPHA
 10
1120.544718
 20
240.156861
 30
0.0
  0
VERTEX
  5
FD63
  8
ALPHA
 10
1120.652234
 20
239.608931
 30
0.0
  0
VERTEX
  5
FD64
  8
ALPHA
 10
1120.96125
 20
239.139788
 30
0.0
  0
VERTEX
  5
FD65
  8
ALPHA
 10
1121.433052
 20
238.820064
 30
0.0
  0
VERTEX
  5
FD66
  8
ALPHA
 10
1121.994718
 20
238.706861
 30
0.0
  0
SEQEND
  5
FD67
  8
ALPHA
  0
LINE
  5
BA76
  8
ALPHA
 10
1120.580529
 20
254.974361
 30
0.0
 11
1131.444718
 21
254.974361
 31
0.0
  0
LINE
  5
BA77
  8
ALPHA
 10
1121.994718
 20
249.106861
 30
0.0
 11
1121.994718
 21
249.211677
 31
0.0
  0
LINE
  5
BA78
  8
ALPHA
 10
1121.994718
 20
238.643978
 30
0.0
 11
1121.994718
 21
238.706861
 31
0.0
  0
LINE
  5
BA79
  8
ALPHA
 10
1121.994718
 20
241.669744
 30
0.0
 11
1121.994718
 21
241.606861
 31
0.0
  0
LINE
  5
BA7A
  8
ALPHA
 10
1121.994718
 20
246.206861
 30
0.0
 11
1121.994718
 21
246.102046
 31
0.0
  0
LINE
  5
BA7B
  8
ALPHA
 10
1131.444718
 20
249.106861
 30
0.0
 11
1131.444718
 21
246.206861
 31
0.0
  0
LINE
  5
BA7C
  8
ALPHA
 10
1133.044718
 20
246.206861
 30
0.0
 11
1133.044718
 21
249.106861
 31
0.0
  0
LINE
  5
BA7D
  8
ALPHA
 10
1136.044718
 20
249.106861
 30
0.0
 11
1136.044718
 21
246.206861
 31
0.0
  0
LINE
  5
BA7E
  8
ALPHA
 10
1121.994718
 20
256.606861
 30
0.0
 11
1121.994718
 21
256.711677
 31
0.0
  0
LINE
  5
BA7F
  8
ALPHA
 10
1121.994718
 20
253.706861
 30
0.0
 11
1121.994718
 21
253.602046
 31
0.0
  0
LINE
  5
BA80
  8
ALPHA
 10
1127.444718
 20
256.606861
 30
0.0
 11
1127.444718
 21
254.974361
 31
0.0
  0
LINE
  5
BA81
  8
ALPHA
 10
1131.444718
 20
256.606861
 30
0.0
 11
1131.444718
 21
253.706861
 31
0.0
  0
LINE
  5
BA82
  8
ALPHA
 10
1133.044718
 20
253.706861
 30
0.0
 11
1133.044718
 21
256.606861
 31
0.0
  0
LINE
  5
BA83
  8
ALPHA
 10
1136.044718
 20
254.606861
 30
0.0
 11
1136.044718
 21
253.706861
 31
0.0
  0
LINE
  5
BA84
  8
ALPHA
 10
1127.444718
 20
255.216861
 30
0.0
 11
1131.444718
 21
255.216861
 31
0.0
  0
LINE
  5
BA85
  8
ALPHA
 10
1127.444718
 20
255.101861
 30
0.0
 11
1131.444718
 21
255.101861
 31
0.0
  0
LINE
  5
BA86
  8
ALPHA
 10
1133.044718
 20
254.606861
 30
0.0
 11
1136.044718
 21
254.606861
 31
0.0
  0
POLYLINE
  5
BA87
  8
ALPHA
 66
     1
 10
0.0
 20
0.0
 30
0.0
  0
VERTEX
  5
FD68
  8
ALPHA
 10
1121.994718
 20
279.211677
 30
0.0
  0
VERTEX
  5
FD69
  8
ALPHA
 10
1121.392777
 20
279.090387
 30
0.0
  0
VERTEX
  5
FD6A
  8
ALPHA
 10
1120.887533
 20
278.748362
 30
0.0
  0
VERTEX
  5
FD6B
  8
ALPHA
 10
1120.555408
 20
278.244699
 30
0.0
  0
VERTEX
  5
FD6C
  8
ALPHA
 10
1120.439998
 20
277.656861
 30
0.0
  0
VERTEX
  5
FD6D
  8
ALPHA
 10
1120.555408
 20
277.069024
 30
0.0
  0
VERTEX
  5
FD6E
  8
ALPHA
 10
1120.887533
 20
276.56536
 30
0.0
  0
VERTEX
  5
FD6F
  8
ALPHA
 10
1121.392777
 20
276.223335
 30
0.0
  0
VERTEX
  5
FD70
  8
ALPHA
 10
1121.994718
 20
276.102046
 30
0.0
  0
SEQEND
  5
FD71
  8
ALPHA
  0
POLYLINE
  5
BA92
  8
ALPHA
 66
     1
 10
0.0
 20
0.0
 30
0.0
  0
VERTEX
  5
FD72
  8
ALPHA
 10
1121.994718
 20
279.106861
 30
0.0
  0
VERTEX
  5
FD73
  8
ALPHA
 10
1121.433061
 20
278.993662
 30
0.0
  0
VERTEX
  5
FD74
  8
ALPHA
 10
1120.961263
 20
278.673948
 30
0.0
  0
VERTEX
  5
FD75
  8
ALPHA
 10
1120.652235
 20
278.204793
 30
0.0
  0
VERTEX
  5
FD76
  8
ALPHA
 10
1120.544718
 20
277.656861
 30
0.0
  0
VERTEX
  5
FD77
  8
ALPHA
 10
1120.652235
 20
277.108929
 30
0.0
  0
VERTEX
  5
FD78
  8
ALPHA
 10
1120.961263
 20
276.639775
 30
0.0
  0
VERTEX
  5
FD79
  8
ALPHA
 10
1121.433061
 20
276.320061
 30
0.0
  0
VERTEX
  5
FD7A
  8
ALPHA
 10
1121.994718
 20
276.206861
 30
0.0
  0
SEQEND
  5
FD7B
  8
ALPHA
  0
POLYLINE
  5
BA9D
  8
ALPHA
 66
     1
 10
0.0
 20
0.0
 30
0.0
  0
VERTEX
  5
FD7C
  8
ALPHA
 10
1121.994718
 20
271.711677
 30
0.0
  0
VERTEX
  5
FD7D
  8
ALPHA
 10
1121.392777
 20
271.590387
 30
0.0
  0
VERTEX
  5
FD7E
  8
ALPHA
 10
1120.887533
 20
271.248362
 30
0.0
  0
VERTEX
  5
FD7F
  8
ALPHA
 10
1120.555408
 20
270.744699
 30
0.0
  0
VERTEX
  5
FD80
  8
ALPHA
 10
1120.439998
 20
270.156861
 30
0.0
  0
VERTEX
  5
FD81
  8
ALPHA
 10
1120.555408
 20
269.569024
 30
0.0
  0
VERTEX
  5
FD82
  8
ALPHA
 10
1120.887533
 20
269.06536
 30
0.0
  0
VERTEX
  5
FD83
  8
ALPHA
 10
1121.392777
 20
268.723335
 30
0.0
  0
VERTEX
  5
FD84
  8
ALPHA
 10
1121.994718
 20
268.602046
 30
0.0
  0
SEQEND
  5
FD85
  8
ALPHA
  0
POLYLINE
  5
BAA8
  8
ALPHA
 66
     1
 10
0.0
 20
0.0
 30
0.0
  0
VERTEX
  5
FD86
  8
ALPHA
 10
1121.994718
 20
271.606861
 30
0.0
  0
VERTEX
  5
FD87
  8
ALPHA
 10
1121.433061
 20
271.493662
 30
0.0
  0
VERTEX
  5
FD88
  8
ALPHA
 10
1120.961263
 20
271.173948
 30
0.0
  0
VERTEX
  5
FD89
  8
ALPHA
 10
1120.652235
 20
270.704793
 30
0.0
  0
VERTEX
  5
FD8A
  8
ALPHA
 10
1120.544718
 20
270.156861
 30
0.0
  0
VERTEX
  5
FD8B
  8
ALPHA
 10
1120.652235
 20
269.608929
 30
0.0
  0
VERTEX
  5
FD8C
  8
ALPHA
 10
1120.961263
 20
269.139775
 30
0.0
  0
VERTEX
  5
FD8D
  8
ALPHA
 10
1121.433061
 20
268.820061
 30
0.0
  0
VERTEX
  5
FD8E
  8
ALPHA
 10
1121.994718
 20
268.706861
 30
0.0
  0
SEQEND
  5
FD8F
  8
ALPHA
  0
LINE
  5
BAB3
  8
ALPHA
 10
1120.864403
 20
261.786824
 30
0.0
 11
1122.796132
 21
262.434986
 31
0.0
  0
POLYLINE
  5
BAB4
  8
ALPHA
 66
     1
 10
0.0
 20
0.0
 30
0.0
  0
VERTEX
  5
FD90
  8
ALPHA
 10
1121.994718
 20
264.211677
 30
0.0
  0
VERTEX
  5
FD91
  8
ALPHA
 10
1121.392777
 20
264.090387
 30
0.0
  0
VERTEX
  5
FD92
  8
ALPHA
 10
1120.887533
 20
263.748362
 30
0.0
  0
VERTEX
  5
FD93
  8
ALPHA
 10
1120.555408
 20
263.244699
 30
0.0
  0
VERTEX
  5
FD94
  8
ALPHA
 10
1120.439998
 20
262.656861
 30
0.0
  0
VERTEX
  5
FD95
  8
ALPHA
 10
1120.555408
 20
262.069024
 30
0.0
  0
VERTEX
  5
FD96
  8
ALPHA
 10
1120.887533
 20
261.56536
 30
0.0
  0
VERTEX
  5
FD97
  8
ALPHA
 10
1121.392777
 20
261.223335
 30
0.0
  0
VERTEX
  5
FD98
  8
ALPHA
 10
1121.994718
 20
261.102046
 30
0.0
  0
SEQEND
  5
FD99
  8
ALPHA
  0
POLYLINE
  5
BABF
  8
ALPHA
 66
     1
 10
0.0
 20
0.0
 30
0.0
  0
VERTEX
  5
FD9A
  8
ALPHA
 10
1121.994718
 20
264.106861
 30
0.0
  0
VERTEX
  5
FD9B
  8
ALPHA
 10
1121.433061
 20
263.993662
 30
0.0
  0
VERTEX
  5
FD9C
  8
ALPHA
 10
1120.961263
 20
263.673948
 30
0.0
  0
VERTEX
  5
FD9D
  8
ALPHA
 10
1120.652235
 20
263.204793
 30
0.0
  0
VERTEX
  5
FD9E
  8
ALPHA
 10
1120.544718
 20
262.656861
 30
0.0
  0
VERTEX
  5
FD9F
  8
ALPHA
 10
1120.652235
 20
262.108929
 30
0.0
  0
VERTEX
  5
FDA0
  8
ALPHA
 10
1120.961263
 20
261.639775
 30
0.0
  0
VERTEX
  5
FDA1
  8
ALPHA
 10
1121.433061
 20
261.320061
 30
0.0
  0
VERTEX
  5
FDA2
  8
ALPHA
 10
1121.994718
 20
261.206861
 30
0.0
  0
SEQEND
  5
FDA3
  8
ALPHA
  0
LINE
  5
BACA
  8
ALPHA
 10
1122.944718
 20
269.906969
 30
0.0
 11
1120.587783
 21
269.93739
 31
0.0
  0
LINE
  5
BACB
  8
ALPHA
 10
1122.944329
 20
270.379776
 30
0.0
 11
1120.594181
 21
270.408936
 31
0.0
  0
LINE
  5
BACC
  8
ALPHA
 10
1122.464905
 20
276.206861
 30
0.0
 11
1120.568268
 21
277.536846
 31
0.0
  0
LINE
  5
BACD
  8
ALPHA
 10
1122.518793
 20
276.206861
 30
0.0
 11
1120.560127
 21
277.578334
 31
0.0
  0
LINE
  5
BACE
  8
ALPHA
 10
1121.994718
 20
271.606861
 30
0.0
 11
1121.994718
 21
271.711677
 31
0.0
  0
LINE
  5
BACF
  8
ALPHA
 10
1121.994718
 20
264.106861
 30
0.0
 11
1121.994718
 21
264.211677
 31
0.0
  0
LINE
  5
BAD0
  8
ALPHA
 10
1121.994718
 20
261.206861
 30
0.0
 11
1121.994718
 21
261.102046
 31
0.0
  0
LINE
  5
BAD1
  8
ALPHA
 10
1121.994718
 20
268.706861
 30
0.0
 11
1121.994718
 21
268.602046
 31
0.0
  0
LINE
  5
BAD2
  8
ALPHA
 10
1122.944718
 20
264.106861
 30
0.0
 11
1122.944718
 21
261.206861
 31
0.0
  0
LINE
  5
BAD3
  8
ALPHA
 10
1122.944718
 20
271.606861
 30
0.0
 11
1122.944718
 21
268.706861
 31
0.0
  0
LINE
  5
BAD4
  8
ALPHA
 10
1127.444718
 20
264.106861
 30
0.0
 11
1127.444718
 21
261.206861
 31
0.0
  0
LINE
  5
BAD5
  8
ALPHA
 10
1127.444718
 20
271.606861
 30
0.0
 11
1127.444718
 21
268.706861
 31
0.0
  0
POLYLINE
  5
BAD6
  8
ALPHA
 66
     1
 10
0.0
 20
0.0
 30
0.0
  0
VERTEX
  5
FDA4
  8
ALPHA
 10
1135.344718
 20
263.773114
 30
0.0
  0
VERTEX
  5
FDA5
  8
ALPHA
 10
1135.32551
 20
263.600549
 30
0.0
  0
VERTEX
  5
FDA6
  8
ALPHA
 10
1135.269062
 20
263.437633
 30
0.0
  0
VERTEX
  5
FDA7
  8
ALPHA
 10
1135.179384
 20
263.293509
 30
0.0
  0
VERTEX
  5
FDA8
  8
ALPHA
 10
1135.059725
 20
263.172776
 30
0.0
  0
VERTEX
  5
FDA9
  8
ALPHA
 10
1134.918455
 20
263.083271
 30
0.0
  0
VERTEX
  5
FDAA
  8
ALPHA
 10
1134.760117
 20
263.027417
 30
0.0
  0
VERTEX
  5
FDAB
  8
ALPHA
 10
1134.594718
 20
263.008673
 30
0.0
  0
SEQEND
  5
FDAC
  8
ALPHA
  0
LINE
  5
BAE0
  8
ALPHA
 10
1131.444718
 20
264.106861
 30
0.0
 11
1131.444718
 21
261.206861
 31
0.0
  0
LINE
  5
BAE1
  8
ALPHA
 10
1131.444718
 20
271.606861
 30
0.0
 11
1131.444718
 21
268.706861
 31
0.0
  0
LINE
  5
BAE2
  8
ALPHA
 10
1133.044718
 20
268.706861
 30
0.0
 11
1133.044718
 21
271.606861
 31
0.0
  0
LINE
  5
BAE3
  8
ALPHA
 10
1133.044718
 20
261.206861
 30
0.0
 11
1133.044718
 21
264.106861
 31
0.0
  0
LINE
  5
BAE4
  8
ALPHA
 10
1134.194718
 20
263.008673
 30
0.0
 11
1134.194718
 21
262.956861
 31
0.0
  0
LINE
  5
BAE5
  8
ALPHA
 10
1134.194718
 20
269.956861
 30
0.0
 11
1134.194718
 21
269.905049
 31
0.0
  0
LINE
  5
BAE6
  8
ALPHA
 10
1134.594718
 20
264.106861
 30
0.0
 11
1134.594718
 21
263.008673
 31
0.0
  0
LINE
  5
BAE7
  8
ALPHA
 10
1134.594718
 20
269.905049
 30
0.0
 11
1134.594718
 21
268.706861
 31
0.0
  0
LINE
  5
BAE8
  8
ALPHA
 10
1135.344718
 20
264.106861
 30
0.0
 11
1135.344718
 21
263.773114
 31
0.0
  0
LINE
  5
BAE9
  8
ALPHA
 10
1135.344718
 20
269.140609
 30
0.0
 11
1135.344718
 21
268.706861
 31
0.0
  0
LINE
  5
BAEA
  8
ALPHA
 10
1122.796132
 20
262.434986
 30
0.0
 11
1122.944718
 21
262.484855
 31
0.0
  0
LINE
  5
BAEB
  8
ALPHA
 10
1122.944718
 20
271.421461
 30
0.0
 11
1127.444718
 21
271.421461
 31
0.0
  0
LINE
  5
BAEC
  8
ALPHA
 10
1122.944718
 20
270.411161
 30
0.0
 11
1127.444718
 21
270.411161
 31
0.0
  0
LINE
  5
BAED
  8
ALPHA
 10
1133.044718
 20
269.956861
 30
0.0
 11
1134.194718
 21
269.956861
 31
0.0
  0
LINE
  5
BAEE
  8
ALPHA
 10
1134.194718
 20
269.905049
 30
0.0
 11
1134.594718
 21
269.905049
 31
0.0
  0
POLYLINE
  5
BAEF
  8
ALPHA
 66
     1
 10
0.0
 20
0.0
 30
0.0
  0
VERTEX
  5
FDAD
  8
ALPHA
 10
1134.594718
 20
269.905049
 30
0.0
  0
VERTEX
  5
FDAE
  8
ALPHA
 10
1134.760117
 20
269.886305
 30
0.0
  0
VERTEX
  5
FDAF
  8
ALPHA
 10
1134.918455
 20
269.830452
 30
0.0
  0
VERTEX
  5
FDB0
  8
ALPHA
 10
1135.059725
 20
269.740947
 30
0.0
  0
VERTEX
  5
FDB1
  8
ALPHA
 10
1135.179384
 20
269.620214
 30
0.0
  0
VERTEX
  5
FDB2
  8
ALPHA
 10
1135.269062
 20
269.47609
 30
0.0
  0
VERTEX
  5
FDB3
  8
ALPHA
 10
1135.32551
 20
269.313174
 30
0.0
  0
VERTEX
  5
FDB4
  8
ALPHA
 10
1135.344718
 20
269.140609
 30
0.0
  0
SEQEND
  5
FDB5
  8
ALPHA
  0
LINE
  5
BAF9
  8
ALPHA
 10
1122.944718
 20
269.258361
 30
0.0
 11
1127.444718
 21
269.258361
 31
0.0
  0
LINE
  5
BAFA
  8
ALPHA
 10
1127.444718
 20
269.186861
 30
0.0
 11
1131.444718
 21
269.186861
 31
0.0
  0
LINE
  5
BAFB
  8
ALPHA
 10
1134.194718
 20
263.008673
 30
0.0
 11
1134.594718
 21
263.008673
 31
0.0
  0
LINE
  5
BAFC
  8
ALPHA
 10
1122.944718
 20
263.002561
 30
0.0
 11
1127.444718
 21
263.002561
 31
0.0
  0
LINE
  5
BAFD
  8
ALPHA
 10
1133.044718
 20
262.956861
 30
0.0
 11
1134.194718
 21
262.956861
 31
0.0
  0
LINE
  5
BAFE
  8
ALPHA
 10
1122.944718
 20
261.992261
 30
0.0
 11
1127.444718
 21
261.992261
 31
0.0
  0
LINE
  5
BAFF
  8
ALPHA
 10
1121.744718
 20
279.056475
 30
0.0
 11
1121.744718
 21
276.748874
 31
0.0
  0
LINE
  5
BB00
  8
ALPHA
 10
1121.994718
 20
279.106861
 30
0.0
 11
1121.994718
 21
279.211677
 31
0.0
  0
LINE
  5
BB01
  8
ALPHA
 10
1121.994718
 20
276.206861
 30
0.0
 11
1121.994718
 21
276.102046
 31
0.0
  0
LINE
  5
BB02
  8
ALPHA
 10
1121.994718
 20
283.706861
 30
0.0
 11
1121.994718
 21
283.602046
 31
0.0
  0
LINE
  5
BB03
  8
ALPHA
 10
1127.444718
 20
277.486861
 30
0.0
 11
1127.444718
 21
276.206861
 31
0.0
  0
LINE
  5
BB04
  8
ALPHA
 10
1127.444718
 20
279.106861
 30
0.0
 11
1127.444718
 21
278.584361
 31
0.0
  0
LINE
  5
BB05
  8
ALPHA
 10
1129.694718
 20
277.456861
 30
0.0
 11
1129.694718
 21
276.206861
 31
0.0
  0
LINE
  5
BB06
  8
ALPHA
 10
1129.694718
 20
278.584361
 30
0.0
 11
1129.694718
 21
277.486861
 31
0.0
  0
LINE
  5
BB07
  8
ALPHA
 10
1130.444718
 20
277.606861
 30
0.0
 11
1130.444718
 21
277.486861
 31
0.0
  0
LINE
  5
BB08
  8
ALPHA
 10
1130.744718
 20
278.584361
 30
0.0
 11
1130.744718
 21
277.656861
 31
0.0
  0
LINE
  5
BB09
  8
ALPHA
 10
1130.894718
 20
279.106861
 30
0.0
 11
1130.894718
 21
278.049361
 31
0.0
  0
LINE
  5
BB0A
  8
ALPHA
 10
1131.444718
 20
279.106861
 30
0.0
 11
1131.444718
 21
276.206861
 31
0.0
  0
LINE
  5
BB0B
  8
ALPHA
 10
1133.044718
 20
276.206861
 30
0.0
 11
1133.044718
 21
279.106861
 31
0.0
  0
LINE
  5
BB0C
  8
ALPHA
 10
1129.694718
 20
283.856861
 30
0.0
 11
1131.444718
 21
283.856861
 31
0.0
  0
LINE
  5
BB0D
  8
ALPHA
 10
1127.444718
 20
278.584361
 30
0.0
 11
1130.894718
 21
278.584361
 31
0.0
  0
LINE
  5
BB0E
  8
ALPHA
 10
1130.744718
 20
278.306861
 30
0.0
 11
1129.694718
 21
278.306861
 31
0.0
  0
LINE
  5
BB0F
  8
ALPHA
 10
1131.444718
 20
278.049361
 30
0.0
 11
1130.894718
 21
278.049361
 31
0.0
  0
LINE
  5
BB10
  8
ALPHA
 10
1130.744718
 20
277.656861
 30
0.0
 11
1131.444718
 21
277.656861
 31
0.0
  0
LINE
  5
BB11
  8
ALPHA
 10
1130.444718
 20
277.606861
 30
0.0
 11
1131.444718
 21
277.606861
 31
0.0
  0
LINE
  5
BB12
  8
ALPHA
 10
1127.444718
 20
277.486861
 30
0.0
 11
1131.444718
 21
277.486861
 31
0.0
  0
LINE
  5
BB13
  8
ALPHA
 10
1129.694718
 20
277.456861
 30
0.0
 11
1131.444718
 21
277.456861
 31
0.0
  0
LINE
  5
BB14
  8
ALPHA
 10
1109.844718
 20
275.01771
 30
0.0
 11
1111.598928
 21
274.871323
 31
0.0
  0
LINE
  5
BB15
  8
ALPHA
 10
1121.994718
 20
328.706861
 30
0.0
 11
1138.094718
 21
328.706861
 31
0.0
  0
LINE
  5
BB16
  8
ALPHA
 10
1121.994718
 20
328.602046
 30
0.0
 11
1138.094718
 21
328.602046
 31
0.0
  0
LINE
  5
BB17
  8
ALPHA
 10
1138.094718
 20
324.169744
 30
0.0
 11
1121.994718
 21
324.169744
 31
0.0
  0
LINE
  5
BB18
  8
ALPHA
 10
1138.094717
 20
324.106861
 30
0.0
 11
1121.994718
 21
324.106861
 31
0.0
  0
LINE
  5
BB19
  8
ALPHA
 10
1121.994718
 20
321.206861
 30
0.0
 11
1138.094718
 21
321.206861
 31
0.0
  0
LINE
  5
BB1A
  8
ALPHA
 10
1121.994718
 20
321.143978
 30
0.0
 11
1138.094718
 21
321.143978
 31
0.0
  0
LINE
  5
BB1B
  8
ALPHA
 10
1138.094718
 20
316.711677
 30
0.0
 11
1121.994718
 21
316.711677
 31
0.0
  0
LINE
  5
BB1C
  8
ALPHA
 10
1138.094718
 20
316.606861
 30
0.0
 11
1121.994718
 21
316.606861
 31
0.0
  0
LINE
  5
BB1D
  8
ALPHA
 10
1121.994718
 20
313.706861
 30
0.0
 11
1138.094718
 21
313.706861
 31
0.0
  0
LINE
  5
BB1E
  8
ALPHA
 10
1121.994718
 20
313.602046
 30
0.0
 11
1138.094718
 21
313.602046
 31
0.0
  0
LINE
  5
BB1F
  8
ALPHA
 10
1138.094718
 20
309.211677
 30
0.0
 11
1121.994718
 21
309.211677
 31
0.0
  0
LINE
  5
BB20
  8
ALPHA
 10
1138.094718
 20
309.106861
 30
0.0
 11
1121.994718
 21
309.106861
 31
0.0
  0
LINE
  5
BB21
  8
ALPHA
 10
1121.994718
 20
306.206861
 30
0.0
 11
1138.094718
 21
306.206861
 31
0.0
  0
LINE
  5
BB22
  8
ALPHA
 10
1121.994718
 20
306.102046
 30
0.0
 11
1138.094718
 21
306.102046
 31
0.0
  0
LINE
  5
BB23
  8
ALPHA
 10
1138.094718
 20
301.711677
 30
0.0
 11
1121.994718
 21
301.711677
 31
0.0
  0
LINE
  5
BB24
  8
ALPHA
 10
1138.094718
 20
301.606861
 30
0.0
 11
1121.994718
 21
301.606861
 31
0.0
  0
LINE
  5
BB25
  8
ALPHA
 10
1121.994718
 20
298.706861
 30
0.0
 11
1138.094718
 21
298.706861
 31
0.0
  0
LINE
  5
BB26
  8
ALPHA
 10
1121.994718
 20
298.602046
 30
0.0
 11
1138.094718
 21
298.602046
 31
0.0
  0
LINE
  5
BB27
  8
ALPHA
 10
1138.094718
 20
294.211677
 30
0.0
 11
1121.994718
 21
294.211677
 31
0.0
  0
LINE
  5
BB28
  8
ALPHA
 10
1138.094718
 20
294.106861
 30
0.0
 11
1121.994718
 21
294.106861
 31
0.0
  0
LINE
  5
BB29
  8
ALPHA
 10
1121.994718
 20
291.206861
 30
0.0
 11
1138.094718
 21
291.206861
 31
0.0
  0
LINE
  5
BB2A
  8
ALPHA
 10
1121.994718
 20
291.102046
 30
0.0
 11
1138.094718
 21
291.102046
 31
0.0
  0
LINE
  5
BB2B
  8
ALPHA
 10
1138.094718
 20
286.711677
 30
0.0
 11
1121.994718
 21
286.711677
 31
0.0
  0
LINE
  5
BB2C
  8
ALPHA
 10
1138.094718
 20
286.606861
 30
0.0
 11
1121.994718
 21
286.606861
 31
0.0
  0
POLYLINE
  5
BB2D
  8
ALPHA
 66
     1
 10
0.0
 20
0.0
 30
0.0
  0
VERTEX
  5
FDB6
  8
ALPHA
 10
1138.094718
 20
306.102046
 30
0.0
  0
VERTEX
  5
FDB7
  8
ALPHA
 10
1138.696718
 20
306.22328
 30
0.0
  0
VERTEX
  5
FDB8
  8
ALPHA
 10
1139.202026
 20
306.565291
 30
0.0
  0
VERTEX
  5
FDB9
  8
ALPHA
 10
1139.534202
 20
307.068979
 30
0.0
  0
VERTEX
  5
FDBA
  8
ALPHA
 10
1139.64963
 20
307.656861
 30
0.0
  0
VERTEX
  5
FDBB
  8
ALPHA
 10
1139.534202
 20
308.244744
 30
0.0
  0
VERTEX
  5
FDBC
  8
ALPHA
 10
1139.202026
 20
308.748432
 30
0.0
  0
VERTEX
  5
FDBD
  8
ALPHA
 10
1138.696718
 20
309.090443
 30
0.0
  0
VERTEX
  5
FDBE
  8
ALPHA
 10
1138.094718
 20
309.211677
 30
0.0
  0
SEQEND
  5
FDBF
  8
ALPHA
  0
POLYLINE
  5
BB38
  8
ALPHA
 66
     1
 10
0.0
 20
0.0
 30
0.0
  0
VERTEX
  5
FDC0
  8
ALPHA
 10
1138.094718
 20
306.206861
 30
0.0
  0
VERTEX
  5
FDC1
  8
ALPHA
 10
1138.656375
 20
306.320061
 30
0.0
  0
VERTEX
  5
FDC2
  8
ALPHA
 10
1139.128173
 20
306.639775
 30
0.0
  0
VERTEX
  5
FDC3
  8
ALPHA
 10
1139.437202
 20
307.108929
 30
0.0
  0
VERTEX
  5
FDC4
  8
ALPHA
 10
1139.544718
 20
307.656861
 30
0.0
  0
VERTEX
  5
FDC5
  8
ALPHA
 10
1139.437202
 20
308.204794
 30
0.0
  0
VERTEX
  5
FDC6
  8
ALPHA
 10
1139.128173
 20
308.673948
 30
0.0
  0
VERTEX
  5
FDC7
  8
ALPHA
 10
1138.656375
 20
308.993662
 30
0.0
  0
VERTEX
  5
FDC8
  8
ALPHA
 10
1138.094718
 20
309.106861
 30
0.0
  0
SEQEND
  5
FDC9
  8
ALPHA
  0
LINE
  5
BB43
  8
ALPHA
 10
1138.094718
 20
294.106861
 30
0.0
 11
1138.094718
 21
294.211677
 31
0.0
  0
LINE
  5
BB44
  8
ALPHA
 10
1138.094718
 20
286.606861
 30
0.0
 11
1138.094718
 21
286.711677
 31
0.0
  0
LINE
  5
BB45
  8
ALPHA
 10
1138.094718
 20
291.206861
 30
0.0
 11
1138.094718
 21
291.102046
 31
0.0
  0
POLYLINE
  5
BB46
  8
ALPHA
 66
     1
 10
0.0
 20
0.0
 30
0.0
  0
VERTEX
  5
FDCA
  8
ALPHA
 10
1138.094718
 20
291.102046
 30
0.0
  0
VERTEX
  5
FDCB
  8
ALPHA
 10
1138.696718
 20
291.22328
 30
0.0
  0
VERTEX
  5
FDCC
  8
ALPHA
 10
1139.202026
 20
291.565291
 30
0.0
  0
VERTEX
  5
FDCD
  8
ALPHA
 10
1139.534202
 20
292.068979
 30
0.0
  0
VERTEX
  5
FDCE
  8
ALPHA
 10
1139.64963
 20
292.656861
 30
0.0
  0
VERTEX
  5
FDCF
  8
ALPHA
 10
1139.534202
 20
293.244744
 30
0.0
  0
VERTEX
  5
FDD0
  8
ALPHA
 10
1139.202026
 20
293.748432
 30
0.0
  0
VERTEX
  5
FDD1
  8
ALPHA
 10
1138.696718
 20
294.090443
 30
0.0
  0
VERTEX
  5
FDD2
  8
ALPHA
 10
1138.094718
 20
294.211677
 30
0.0
  0
SEQEND
  5
FDD3
  8
ALPHA
  0
POLYLINE
  5
BB51
  8
ALPHA
 66
     1
 10
0.0
 20
0.0
 30
0.0
  0
VERTEX
  5
FDD4
  8
ALPHA
 10
1138.094718
 20
291.206861
 30
0.0
  0
VERTEX
  5
FDD5
  8
ALPHA
 10
1138.656375
 20
291.320061
 30
0.0
  0
VERTEX
  5
FDD6
  8
ALPHA
 10
1139.128173
 20
291.639775
 30
0.0
  0
VERTEX
  5
FDD7
  8
ALPHA
 10
1139.437202
 20
292.108929
 30
0.0
  0
VERTEX
  5
FDD8
  8
ALPHA
 10
1139.544718
 20
292.656861
 30
0.0
  0
VERTEX
  5
FDD9
  8
ALPHA
 10
1139.437202
 20
293.204794
 30
0.0
  0
VERTEX
  5
FDDA
  8
ALPHA
 10
1139.128173
 20
293.673948
 30
0.0
  0
VERTEX
  5
FDDB
  8
ALPHA
 10
1138.656375
 20
293.993662
 30
0.0
  0
VERTEX
  5
FDDC
  8
ALPHA
 10
1138.094718
 20
294.106861
 30
0.0
  0
SEQEND
  5
FDDD
  8
ALPHA
  0
LINE
  5
BB5C
  8
ALPHA
 10
1138.094718
 20
301.606861
 30
0.0
 11
1138.094718
 21
301.711677
 31
0.0
  0
LINE
  5
BB5D
  8
ALPHA
 10
1138.094718
 20
298.706861
 30
0.0
 11
1138.094718
 21
298.602046
 31
0.0
  0
LINE
  5
BB5E
  8
ALPHA
 10
1138.094718
 20
306.206861
 30
0.0
 11
1138.094718
 21
306.102046
 31
0.0
  0
POLYLINE
  5
BB5F
  8
ALPHA
 66
     1
 10
0.0
 20
0.0
 30
0.0
  0
VERTEX
  5
FDDE
  8
ALPHA
 10
1138.094718
 20
298.602046
 30
0.0
  0
VERTEX
  5
FDDF
  8
ALPHA
 10
1138.696718
 20
298.72328
 30
0.0
  0
VERTEX
  5
FDE0
  8
ALPHA
 10
1139.202026
 20
299.065291
 30
0.0
  0
VERTEX
  5
FDE1
  8
ALPHA
 10
1139.534202
 20
299.568979
 30
0.0
  0
VERTEX
  5
FDE2
  8
ALPHA
 10
1139.64963
 20
300.156861
 30
0.0
  0
VERTEX
  5
FDE3
  8
ALPHA
 10
1139.534202
 20
300.744744
 30
0.0
  0
VERTEX
  5
FDE4
  8
ALPHA
 10
1139.202026
 20
301.248432
 30
0.0
  0
VERTEX
  5
FDE5
  8
ALPHA
 10
1138.696718
 20
301.590443
 30
0.0
  0
VERTEX
  5
FDE6
  8
ALPHA
 10
1138.094718
 20
301.711677
 30
0.0
  0
SEQEND
  5
FDE7
  8
ALPHA
  0
POLYLINE
  5
BB6A
  8
ALPHA
 66
     1
 10
0.0
 20
0.0
 30
0.0
  0
VERTEX
  5
FDE8
  8
ALPHA
 10
1138.094718
 20
298.706861
 30
0.0
  0
VERTEX
  5
FDE9
  8
ALPHA
 10
1138.656375
 20
298.820061
 30
0.0
  0
VERTEX
  5
FDEA
  8
ALPHA
 10
1139.128173
 20
299.139775
 30
0.0
  0
VERTEX
  5
FDEB
  8
ALPHA
 10
1139.437202
 20
299.608929
 30
0.0
  0
VERTEX
  5
FDEC
  8
ALPHA
 10
1139.544718
 20
300.156861
 30
0.0
  0
VERTEX
  5
FDED
  8
ALPHA
 10
1139.437202
 20
300.704794
 30
0.0
  0
VERTEX
  5
FDEE
  8
ALPHA
 10
1139.128173
 20
301.173948
 30
0.0
  0
VERTEX
  5
FDEF
  8
ALPHA
 10
1138.656375
 20
301.493662
 30
0.0
  0
VERTEX
  5
FDF0
  8
ALPHA
 10
1138.094718
 20
301.606861
 30
0.0
  0
SEQEND
  5
FDF1
  8
ALPHA
  0
LINE
  5
BB75
  8
ALPHA
 10
1138.094718
 20
316.606861
 30
0.0
 11
1138.094718
 21
316.711677
 31
0.0
  0
LINE
  5
BB76
  8
ALPHA
 10
1138.094718
 20
309.106861
 30
0.0
 11
1138.094718
 21
309.211677
 31
0.0
  0
LINE
  5
BB77
  8
ALPHA
 10
1138.094718
 20
313.706861
 30
0.0
 11
1138.094718
 21
313.602046
 31
0.0
  0
POLYLINE
  5
BB78
  8
ALPHA
 66
     1
 10
0.0
 20
0.0
 30
0.0
  0
VERTEX
  5
FDF2
  8
ALPHA
 10
1138.094718
 20
313.602046
 30
0.0
  0
VERTEX
  5
FDF3
  8
ALPHA
 10
1138.696718
 20
313.72328
 30
0.0
  0
VERTEX
  5
FDF4
  8
ALPHA
 10
1139.202026
 20
314.065291
 30
0.0
  0
VERTEX
  5
FDF5
  8
ALPHA
 10
1139.534202
 20
314.568979
 30
0.0
  0
VERTEX
  5
FDF6
  8
ALPHA
 10
1139.64963
 20
315.156861
 30
0.0
  0
VERTEX
  5
FDF7
  8
ALPHA
 10
1139.534202
 20
315.744744
 30
0.0
  0
VERTEX
  5
FDF8
  8
ALPHA
 10
1139.202026
 20
316.248432
 30
0.0
  0
VERTEX
  5
FDF9
  8
ALPHA
 10
1138.696718
 20
316.590443
 30
0.0
  0
VERTEX
  5
FDFA
  8
ALPHA
 10
1138.094718
 20
316.711677
 30
0.0
  0
SEQEND
  5
FDFB
  8
ALPHA
  0
POLYLINE
  5
BB83
  8
ALPHA
 66
     1
 10
0.0
 20
0.0
 30
0.0
  0
VERTEX
  5
FDFC
  8
ALPHA
 10
1138.094718
 20
313.706861
 30
0.0
  0
VERTEX
  5
FDFD
  8
ALPHA
 10
1138.656375
 20
313.820061
 30
0.0
  0
VERTEX
  5
FDFE
  8
ALPHA
 10
1139.128173
 20
314.139775
 30
0.0
  0
VERTEX
  5
FDFF
  8
ALPHA
 10
1139.437202
 20
314.608929
 30
0.0
  0
VERTEX
  5
FE00
  8
ALPHA
 10
1139.544718
 20
315.156861
 30
0.0
  0
VERTEX
  5
FE01
  8
ALPHA
 10
1139.437202
 20
315.704794
 30
0.0
  0
VERTEX
  5
FE02
  8
ALPHA
 10
1139.128173
 20
316.173948
 30
0.0
  0
VERTEX
  5
FE03
  8
ALPHA
 10
1138.656375
 20
316.493662
 30
0.0
  0
VERTEX
  5
FE04
  8
ALPHA
 10
1138.094718
 20
316.606861
 30
0.0
  0
SEQEND
  5
FE05
  8
ALPHA
  0
LINE
  5
BB8E
  8
ALPHA
 10
1138.094718
 20
324.169744
 30
0.0
 11
1138.094717
 21
324.106861
 31
0.0
  0
LINE
  5
BB8F
  8
ALPHA
 10
1138.094718
 20
321.143978
 30
0.0
 11
1138.094718
 21
321.206861
 31
0.0
  0
LINE
  5
BB90
  8
ALPHA
 10
1138.094718
 20
328.706861
 30
0.0
 11
1138.094718
 21
328.602046
 31
0.0
  0
POLYLINE
  5
BB91
  8
ALPHA
 66
     1
 10
0.0
 20
0.0
 30
0.0
  0
VERTEX
  5
FE06
  8
ALPHA
 10
1138.094718
 20
321.206861
 30
0.0
  0
VERTEX
  5
FE07
  8
ALPHA
 10
1138.656384
 20
321.320065
 30
0.0
  0
VERTEX
  5
FE08
  8
ALPHA
 10
1139.128187
 20
321.639788
 30
0.0
  0
VERTEX
  5
FE09
  8
ALPHA
 10
1139.437203
 20
322.108932
 30
0.0
  0
VERTEX
  5
FE0A
  8
ALPHA
 10
1139.544718
 20
322.656862
 30
0.0
  0
VERTEX
  5
FE0B
  8
ALPHA
 10
1139.437202
 20
323.204792
 30
0.0
  0
VERTEX
  5
FE0C
  8
ALPHA
 10
1139.128186
 20
323.673935
 30
0.0
  0
VERTEX
  5
FE0D
  8
ALPHA
 10
1138.656383
 20
323.993659
 30
0.0
  0
VERTEX
  5
FE0E
  8
ALPHA
 10
1138.094717
 20
324.106861
 30
0.0
  0
SEQEND
  5
FE0F
  8
ALPHA
  0
POLYLINE
  5
BB9C
  8
ALPHA
 66
     1
 10
0.0
 20
0.0
 30
0.0
  0
VERTEX
  5
FE10
  8
ALPHA
 10
1138.094718
 20
321.143978
 30
0.0
  0
VERTEX
  5
FE11
  8
ALPHA
 10
1138.680589
 20
321.262002
 30
0.0
  0
VERTEX
  5
FE12
  8
ALPHA
 10
1139.172489
 20
321.595097
 30
0.0
  0
VERTEX
  5
FE13
  8
ALPHA
 10
1139.495395
 20
322.084961
 30
0.0
  0
VERTEX
  5
FE14
  8
ALPHA
 10
1139.607659
 20
322.656862
 30
0.0
  0
VERTEX
  5
FE15
  8
ALPHA
 10
1139.495395
 20
323.228762
 30
0.0
  0
VERTEX
  5
FE16
  8
ALPHA
 10
1139.172489
 20
323.718626
 30
0.0
  0
VERTEX
  5
FE17
  8
ALPHA
 10
1138.680589
 20
324.051721
 30
0.0
  0
VERTEX
  5
FE18
  8
ALPHA
 10
1138.094718
 20
324.169744
 30
0.0
  0
SEQEND
  5
FE19
  8
ALPHA
  0
LINE
  5
BBA7
  8
ALPHA
 10
1123.944718
 20
306.206861
 30
0.0
 11
1123.944718
 21
308.906861
 31
0.0
  0
LINE
  5
BBA8
  8
ALPHA
 10
1129.064718
 20
309.106861
 30
0.0
 11
1129.064718
 21
306.206861
 31
0.0
  0
LINE
  5
BBA9
  8
ALPHA
 10
1131.444718
 20
309.106861
 30
0.0
 11
1131.444718
 21
306.206861
 31
0.0
  0
LINE
  5
BBAA
  8
ALPHA
 10
1133.044718
 20
306.206861
 30
0.0
 11
1133.044718
 21
309.106861
 31
0.0
  0
POLYLINE
  5
BBAB
  8
ALPHA
 66
     1
 10
0.0
 20
0.0
 30
0.0
  0
VERTEX
  5
FE1A
  8
ALPHA
 10
1121.994718
 20
309.211677
 30
0.0
  0
VERTEX
  5
FE1B
  8
ALPHA
 10
1121.392777
 20
309.090387
 30
0.0
  0
VERTEX
  5
FE1C
  8
ALPHA
 10
1120.887533
 20
308.748362
 30
0.0
  0
VERTEX
  5
FE1D
  8
ALPHA
 10
1120.555408
 20
308.244699
 30
0.0
  0
VERTEX
  5
FE1E
  8
ALPHA
 10
1120.439998
 20
307.656861
 30
0.0
  0
VERTEX
  5
FE1F
  8
ALPHA
 10
1120.555408
 20
307.069024
 30
0.0
  0
VERTEX
  5
FE20
  8
ALPHA
 10
1120.887533
 20
306.56536
 30
0.0
  0
VERTEX
  5
FE21
  8
ALPHA
 10
1121.392777
 20
306.223335
 30
0.0
  0
VERTEX
  5
FE22
  8
ALPHA
 10
1121.994718
 20
306.102046
 30
0.0
  0
SEQEND
  5
FE23
  8
ALPHA
  0
POLYLINE
  5
BBB6
  8
ALPHA
 66
     1
 10
0.0
 20
0.0
 30
0.0
  0
VERTEX
  5
FE24
  8
ALPHA
 10
1121.994718
 20
309.106861
 30
0.0
  0
VERTEX
  5
FE25
  8
ALPHA
 10
1121.433061
 20
308.993662
 30
0.0
  0
VERTEX
  5
FE26
  8
ALPHA
 10
1120.961263
 20
308.673948
 30
0.0
  0
VERTEX
  5
FE27
  8
ALPHA
 10
1120.652235
 20
308.204793
 30
0.0
  0
VERTEX
  5
FE28
  8
ALPHA
 10
1120.544718
 20
307.656861
 30
0.0
  0
VERTEX
  5
FE29
  8
ALPHA
 10
1120.652235
 20
307.108929
 30
0.0
  0
VERTEX
  5
FE2A
  8
ALPHA
 10
1120.961263
 20
306.639775
 30
0.0
  0
VERTEX
  5
FE2B
  8
ALPHA
 10
1121.433061
 20
306.320061
 30
0.0
  0
VERTEX
  5
FE2C
  8
ALPHA
 10
1121.994718
 20
306.206861
 30
0.0
  0
SEQEND
  5
FE2D
  8
ALPHA
  0
LINE
  5
BBC1
  8
ALPHA
 10
1120.663418
 20
308.221772
 30
0.0
 11
1123.944718
 21
307.027476
 31
0.0
  0
POLYLINE
  5
BBC2
  8
ALPHA
 66
     1
 10
0.0
 20
0.0
 30
0.0
  0
VERTEX
  5
FE2E
  8
ALPHA
 10
1121.994718
 20
301.711677
 30
0.0
  0
VERTEX
  5
FE2F
  8
ALPHA
 10
1121.392777
 20
301.590387
 30
0.0
  0
VERTEX
  5
FE30
  8
ALPHA
 10
1120.887533
 20
301.248362
 30
0.0
  0
VERTEX
  5
FE31
  8
ALPHA
 10
1120.555408
 20
300.744699
 30
0.0
  0
VERTEX
  5
FE32
  8
ALPHA
 10
1120.439998
 20
300.156861
 30
0.0
  0
VERTEX
  5
FE33
  8
ALPHA
 10
1120.555408
 20
299.569024
 30
0.0
  0
VERTEX
  5
FE34
  8
ALPHA
 10
1120.887533
 20
299.06536
 30
0.0
  0
VERTEX
  5
FE35
  8
ALPHA
 10
1121.392777
 20
298.723335
 30
0.0
  0
VERTEX
  5
FE36
  8
ALPHA
 10
1121.994718
 20
298.602046
 30
0.0
  0
SEQEND
  5
FE37
  8
ALPHA
  0
POLYLINE
  5
BBCD
  8
ALPHA
 66
     1
 10
0.0
 20
0.0
 30
0.0
  0
VERTEX
  5
FE38
  8
ALPHA
 10
1121.994718
 20
301.606861
 30
0.0
  0
VERTEX
  5
FE39
  8
ALPHA
 10
1121.433061
 20
301.493662
 30
0.0
  0
VERTEX
  5
FE3A
  8
ALPHA
 10
1120.961263
 20
301.173948
 30
0.0
  0
VERTEX
  5
FE3B
  8
ALPHA
 10
1120.652235
 20
300.704793
 30
0.0
  0
VERTEX
  5
FE3C
  8
ALPHA
 10
1120.544718
 20
300.156861
 30
0.0
  0
VERTEX
  5
FE3D
  8
ALPHA
 10
1120.652235
 20
299.608929
 30
0.0
  0
VERTEX
  5
FE3E
  8
ALPHA
 10
1120.961263
 20
299.139775
 30
0.0
  0
VERTEX
  5
FE3F
  8
ALPHA
 10
1121.433061
 20
298.820061
 30
0.0
  0
VERTEX
  5
FE40
  8
ALPHA
 10
1121.994718
 20
298.706861
 30
0.0
  0
SEQEND
  5
FE41
  8
ALPHA
  0
POLYLINE
  5
BBD8
  8
ALPHA
 66
     1
 10
0.0
 20
0.0
 30
0.0
  0
VERTEX
  5
FE42
  8
ALPHA
 10
1121.994718
 20
294.211677
 30
0.0
  0
VERTEX
  5
FE43
  8
ALPHA
 10
1121.392777
 20
294.090387
 30
0.0
  0
VERTEX
  5
FE44
  8
ALPHA
 10
1120.887533
 20
293.748362
 30
0.0
  0
VERTEX
  5
FE45
  8
ALPHA
 10
1120.555408
 20
293.244699
 30
0.0
  0
VERTEX
  5
FE46
  8
ALPHA
 10
1120.439998
 20
292.656861
 30
0.0
  0
VERTEX
  5
FE47
  8
ALPHA
 10
1120.555408
 20
292.069024
 30
0.0
  0
VERTEX
  5
FE48
  8
ALPHA
 10
1120.887533
 20
291.56536
 30
0.0
  0
VERTEX
  5
FE49
  8
ALPHA
 10
1121.392777
 20
291.223335
 30
0.0
  0
VERTEX
  5
FE4A
  8
ALPHA
 10
1121.994718
 20
291.102046
 30
0.0
  0
SEQEND
  5
FE4B
  8
ALPHA
  0
POLYLINE
  5
BBE3
  8
ALPHA
 66
     1
 10
0.0
 20
0.0
 30
0.0
  0
VERTEX
  5
FE4C
  8
ALPHA
 10
1121.994718
 20
294.106861
 30
0.0
  0
VERTEX
  5
FE4D
  8
ALPHA
 10
1121.433061
 20
293.993662
 30
0.0
  0
VERTEX
  5
FE4E
  8
ALPHA
 10
1120.961263
 20
293.673948
 30
0.0
  0
VERTEX
  5
FE4F
  8
ALPHA
 10
1120.652235
 20
293.204793
 30
0.0
  0
VERTEX
  5
FE50
  8
ALPHA
 10
1120.544718
 20
292.656861
 30
0.0
  0
VERTEX
  5
FE51
  8
ALPHA
 10
1120.652235
 20
292.108929
 30
0.0
  0
VERTEX
  5
FE52
  8
ALPHA
 10
1120.961263
 20
291.639775
 30
0.0
  0
VERTEX
  5
FE53
  8
ALPHA
 10
1121.433061
 20
291.320061
 30
0.0
  0
VERTEX
  5
FE54
  8
ALPHA
 10
1121.994718
 20
291.206861
 30
0.0
  0
SEQEND
  5
FE55
  8
ALPHA
  0
LINE
  5
BBEE
  8
ALPHA
 10
1121.994718
 20
294.106861
 30
0.0
 11
1121.994718
 21
294.211677
 31
0.0
  0
LINE
  5
BBEF
  8
ALPHA
 10
1121.994718
 20
286.606861
 30
0.0
 11
1121.994718
 21
286.711677
 31
0.0
  0
LINE
  5
BBF0
  8
ALPHA
 10
1121.994718
 20
291.206861
 30
0.0
 11
1121.994718
 21
291.102046
 31
0.0
  0
LINE
  5
BBF1
  8
ALPHA
 10
1123.944718
 20
291.206861
 30
0.0
 11
1123.944718
 21
294.106861
 31
0.0
  0
LINE
  5
BBF2
  8
ALPHA
 10
1124.444718
 20
292.346861
 30
0.0
 11
1124.444718
 21
294.106861
 31
0.0
  0
LINE
  5
BBF3
  8
ALPHA
 10
1127.444718
 20
286.606861
 30
0.0
 11
1127.444718
 21
284.326861
 31
0.0
  0
LINE
  5
BBF4
  8
ALPHA
 10
1127.444718
 20
294.106861
 30
0.0
 11
1127.444718
 21
291.206861
 31
0.0
  0
LINE
  5
BBF5
  8
ALPHA
 10
1130.744718
 20
294.106861
 30
0.0
 11
1130.744718
 21
291.506861
 31
0.0
  0
LINE
  5
BBF6
  8
ALPHA
 10
1130.894718
 20
292.906861
 30
0.0
 11
1130.894718
 21
291.506861
 31
0.0
  0
LINE
  5
BBF7
  8
ALPHA
 10
1131.444718
 20
294.106861
 30
0.0
 11
1131.444718
 21
291.206861
 31
0.0
  0
LINE
  5
BBF8
  8
ALPHA
 10
1133.044718
 20
291.206861
 30
0.0
 11
1133.044718
 21
294.106861
 31
0.0
  0
LINE
  5
BBF9
  8
ALPHA
 10
1135.344718
 20
294.066724
 30
0.0
 11
1135.344718
 21
293.266999
 31
0.0
  0
LINE
  5
BBFA
  8
ALPHA
 10
1133.044718
 20
294.066861
 30
0.0
 11
1135.344718
 21
294.066861
 31
0.0
  0
LINE
  5
BBFB
  8
ALPHA
 10
1133.044718
 20
293.266861
 30
0.0
 11
1135.344718
 21
293.266861
 31
0.0
  0
LINE
  5
BBFC
  8
ALPHA
 10
1130.894718
 20
292.906861
 30
0.0
 11
1131.444718
 21
292.906861
 31
0.0
  0
LINE
  5
BBFD
  8
ALPHA
 10
1127.444718
 20
292.346861
 30
0.0
 11
1124.444718
 21
292.346861
 31
0.0
  0
LINE
  5
BBFE
  8
ALPHA
 10
1130.744718
 20
291.506861
 30
0.0
 11
1131.444718
 21
291.506861
 31
0.0
  0
LINE
  5
BBFF
  8
ALPHA
 10
1127.444718
 20
284.326861
 30
0.0
 11
1129.694718
 21
284.326861
 31
0.0
  0
LINE
  5
BC00
  8
ALPHA
 10
1121.994718
 20
301.606861
 30
0.0
 11
1121.994718
 21
301.711677
 31
0.0
  0
LINE
  5
BC01
  8
ALPHA
 10
1121.994718
 20
298.706861
 30
0.0
 11
1121.994718
 21
298.602046
 31
0.0
  0
LINE
  5
BC02
  8
ALPHA
 10
1121.994718
 20
306.206861
 30
0.0
 11
1121.994718
 21
306.102046
 31
0.0
  0
LINE
  5
BC03
  8
ALPHA
 10
1123.944718
 20
298.706861
 30
0.0
 11
1123.944718
 21
301.606861
 31
0.0
  0
LINE
  5
BC04
  8
ALPHA
 10
1124.444718
 20
298.706861
 30
0.0
 11
1124.444718
 21
301.606861
 31
0.0
  0
LINE
  5
BC05
  8
ALPHA
 10
1129.064718
 20
301.606861
 30
0.0
 11
1129.064718
 21
301.206861
 31
0.0
  0
LINE
  5
BC06
  8
ALPHA
 10
1130.744718
 20
300.756861
 30
0.0
 11
1130.744718
 21
298.706861
 31
0.0
  0
LINE
  5
BC07
  8
ALPHA
 10
1130.744718
 20
306.606861
 30
0.0
 11
1130.744718
 21
306.206861
 31
0.0
  0
LINE
  5
BC08
  8
ALPHA
 10
1130.894718
 20
301.206861
 30
0.0
 11
1130.894718
 21
300.756861
 31
0.0
  0
LINE
  5
BC09
  8
ALPHA
 10
1131.444718
 20
301.606861
 30
0.0
 11
1131.444718
 21
298.706861
 31
0.0
  0
LINE
  5
BC0A
  8
ALPHA
 10
1133.044718
 20
298.706861
 30
0.0
 11
1133.044718
 21
301.606861
 31
0.0
  0
LINE
  5
BC0B
  8
ALPHA
 10
1130.744718
 20
306.606861
 30
0.0
 11
1131.444718
 21
306.606861
 31
0.0
  0
LINE
  5
BC0C
  8
ALPHA
 10
1129.064718
 20
301.206861
 30
0.0
 11
1131.444718
 21
301.206861
 31
0.0
  0
LINE
  5
BC0D
  8
ALPHA
 10
1131.444718
 20
300.756861
 30
0.0
 11
1130.744718
 21
300.756861
 31
0.0
  0
POLYLINE
  5
BC0E
  8
ALPHA
 66
     1
 10
0.0
 20
0.0
 30
0.0
  0
VERTEX
  5
FE56
  8
ALPHA
 10
1121.994718
 20
324.169744
 30
0.0
  0
VERTEX
  5
FE57
  8
ALPHA
 10
1121.408883
 20
324.051687
 30
0.0
  0
VERTEX
  5
FE58
  8
ALPHA
 10
1120.917021
 20
323.718584
 30
0.0
  0
VERTEX
  5
FE59
  8
ALPHA
 10
1120.594145
 20
323.228735
 30
0.0
  0
VERTEX
  5
FE5A
  8
ALPHA
 10
1120.481893
 20
322.656861
 30
0.0
  0
VERTEX
  5
FE5B
  8
ALPHA
 10
1120.594145
 20
322.084988
 30
0.0
  0
VERTEX
  5
FE5C
  8
ALPHA
 10
1120.917021
 20
321.595139
 30
0.0
  0
VERTEX
  5
FE5D
  8
ALPHA
 10
1121.408883
 20
321.262036
 30
0.0
  0
VERTEX
  5
FE5E
  8
ALPHA
 10
1121.994718
 20
321.143978
 30
0.0
  0
SEQEND
  5
FE5F
  8
ALPHA
  0
POLYLINE
  5
BC19
  8
ALPHA
 66
     1
 10
0.0
 20
0.0
 30
0.0
  0
VERTEX
  5
FE60
  8
ALPHA
 10
1121.994718
 20
324.106861
 30
0.0
  0
VERTEX
  5
FE61
  8
ALPHA
 10
1121.433052
 20
323.993658
 30
0.0
  0
VERTEX
  5
FE62
  8
ALPHA
 10
1120.96125
 20
323.673934
 30
0.0
  0
VERTEX
  5
FE63
  8
ALPHA
 10
1120.652234
 20
323.204791
 30
0.0
  0
VERTEX
  5
FE64
  8
ALPHA
 10
1120.544718
 20
322.656861
 30
0.0
  0
VERTEX
  5
FE65
  8
ALPHA
 10
1120.652234
 20
322.108931
 30
0.0
  0
VERTEX
  5
FE66
  8
ALPHA
 10
1120.96125
 20
321.639788
 30
0.0
  0
VERTEX
  5
FE67
  8
ALPHA
 10
1121.433052
 20
321.320064
 30
0.0
  0
VERTEX
  5
FE68
  8
ALPHA
 10
1121.994718
 20
321.206861
 30
0.0
  0
SEQEND
  5
FE69
  8
ALPHA
  0
POLYLINE
  5
BC24
  8
ALPHA
 66
     1
 10
0.0
 20
0.0
 30
0.0
  0
VERTEX
  5
FE6A
  8
ALPHA
 10
1121.994718
 20
316.711677
 30
0.0
  0
VERTEX
  5
FE6B
  8
ALPHA
 10
1121.392777
 20
316.590387
 30
0.0
  0
VERTEX
  5
FE6C
  8
ALPHA
 10
1120.887533
 20
316.248362
 30
0.0
  0
VERTEX
  5
FE6D
  8
ALPHA
 10
1120.555408
 20
315.744699
 30
0.0
  0
VERTEX
  5
FE6E
  8
ALPHA
 10
1120.439998
 20
315.156861
 30
0.0
  0
VERTEX
  5
FE6F
  8
ALPHA
 10
1120.555408
 20
314.569024
 30
0.0
  0
VERTEX
  5
FE70
  8
ALPHA
 10
1120.887533
 20
314.06536
 30
0.0
  0
VERTEX
  5
FE71
  8
ALPHA
 10
1121.392777
 20
313.723335
 30
0.0
  0
VERTEX
  5
FE72
  8
ALPHA
 10
1121.994718
 20
313.602046
 30
0.0
  0
SEQEND
  5
FE73
  8
ALPHA
  0
POLYLINE
  5
BC2F
  8
ALPHA
 66
     1
 10
0.0
 20
0.0
 30
0.0
  0
VERTEX
  5
FE74
  8
ALPHA
 10
1121.994718
 20
316.606861
 30
0.0
  0
VERTEX
  5
FE75
  8
ALPHA
 10
1121.433061
 20
316.493662
 30
0.0
  0
VERTEX
  5
FE76
  8
ALPHA
 10
1120.961263
 20
316.173948
 30
0.0
  0
VERTEX
  5
FE77
  8
ALPHA
 10
1120.652235
 20
315.704793
 30
0.0
  0
VERTEX
  5
FE78
  8
ALPHA
 10
1120.544718
 20
315.156861
 30
0.0
  0
VERTEX
  5
FE79
  8
ALPHA
 10
1120.652235
 20
314.608929
 30
0.0
  0
VERTEX
  5
FE7A
  8
ALPHA
 10
1120.961263
 20
314.139775
 30
0.0
  0
VERTEX
  5
FE7B
  8
ALPHA
 10
1121.433061
 20
313.820061
 30
0.0
  0
VERTEX
  5
FE7C
  8
ALPHA
 10
1121.994718
 20
313.706861
 30
0.0
  0
SEQEND
  5
FE7D
  8
ALPHA
  0
LINE
  5
BC3A
  8
ALPHA
 10
1121.994718
 20
316.606861
 30
0.0
 11
1121.994718
 21
316.711677
 31
0.0
  0
LINE
  5
BC3B
  8
ALPHA
 10
1121.994718
 20
309.106861
 30
0.0
 11
1121.994718
 21
309.211677
 31
0.0
  0
LINE
  5
BC3C
  8
ALPHA
 10
1121.994718
 20
313.706861
 30
0.0
 11
1121.994718
 21
313.602046
 31
0.0
  0
LINE
  5
BC3D
  8
ALPHA
 10
1125.944718
 20
316.506861
 30
0.0
 11
1125.944718
 21
316.606861
 31
0.0
  0
LINE
  5
BC3E
  8
ALPHA
 10
1129.944718
 20
316.506861
 30
0.0
 11
1129.944718
 21
313.706861
 31
0.0
  0
LINE
  5
BC3F
  8
ALPHA
 10
1130.444718
 20
309.106861
 30
0.0
 11
1130.444718
 21
307.406861
 31
0.0
  0
LINE
  5
BC40
  8
ALPHA
 10
1131.444718
 20
316.606861
 30
0.0
 11
1131.444718
 21
313.706861
 31
0.0
  0
LINE
  5
BC41
  8
ALPHA
 10
1133.044718
 20
313.706861
 30
0.0
 11
1133.044718
 21
316.606861
 31
0.0
  0
LINE
  5
BC42
  8
ALPHA
 10
1131.444718
 20
316.506861
 30
0.0
 11
1125.944718
 21
316.506861
 31
0.0
  0
LINE
  5
BC43
  8
ALPHA
 10
1130.444718
 20
307.406861
 30
0.0
 11
1131.444718
 21
307.406861
 31
0.0
  0
LINE
  5
BC44
  8
ALPHA
 10
1123.395223
 20
309.106861
 30
0.0
 11
1123.944718
 21
308.906861
 31
0.0
  0
LINE
  5
BC45
  8
ALPHA
 10
1121.994718
 20
321.143978
 30
0.0
 11
1121.994718
 21
321.206861
 31
0.0
  0
LINE
  5
BC46
  8
ALPHA
 10
1121.994718
 20
324.169744
 30
0.0
 11
1121.994718
 21
324.106861
 31
0.0
  0
LINE
  5
BC47
  8
ALPHA
 10
1121.994718
 20
328.706861
 30
0.0
 11
1121.994718
 21
328.602046
 31
0.0
  0
LINE
  5
BC48
  8
ALPHA
 10
1254.044671
 20
417.256861
 30
0.0
 11
1135.381925
 21
417.256861
 31
0.0
  0
LINE
  5
BC49
  8
ALPHA
 10
1252.365866
 20
416.274314
 30
0.0
 11
1141.663507
 21
416.274314
 31
0.0
  0
LINE
  5
BC4A
  8
ALPHA
 10
1276.044718
 20
411.756861
 30
0.0
 11
1142.770927
 21
411.756861
 31
0.0
  0
LINE
  5
BC4B
  8
ALPHA
 10
1240.044718
 20
408.756861
 30
0.0
 11
1146.544718
 21
408.756861
 31
0.0
  0
LINE
  5
BCB2
  8
ALPHA
 10
1276.044718
 20
411.756861
 30
0.0
 11
1289.044718
 21
440.256861
 31
0.0
  0
LINE
  5
BCB3
  8
ALPHA
 10
1252.388862
 20
414.956861
 30
0.0
 11
1277.504367
 21
414.956861
 31
0.0
  0
POLYLINE
  5
BCB4
  8
ALPHA
 66
     1
 10
0.0
 20
0.0
 30
0.0
  0
VERTEX
  5
FE7E
  8
ALPHA
 10
1254.013345
 20
419.285065
 30
0.0
  0
VERTEX
  5
FE7F
  8
ALPHA
 10
1253.584252
 20
419.513795
 30
0.0
  0
VERTEX
  5
FE80
  8
ALPHA
 10
1253.183037
 20
419.698588
 30
0.0
  0
VERTEX
  5
FE81
  8
ALPHA
 10
1252.811257
 20
419.846605
 30
0.0
  0
VERTEX
  5
FE82
  8
ALPHA
 10
1252.468479
 20
419.964449
 30
0.0
  0
VERTEX
  5
FE83
  8
ALPHA
 10
1252.154094
 20
420.057545
 30
0.0
  0
VERTEX
  5
FE84
  8
ALPHA
 10
1251.866853
 20
420.130524
 30
0.0
  0
VERTEX
  5
FE85
  8
ALPHA
 10
1251.604509
 20
420.187382
 30
0.0
  0
VERTEX
  5
FE86
  8
ALPHA
 10
1251.364349
 20
420.231414
 30
0.0
  0
VERTEX
  5
FE87
  8
ALPHA
 10
1251.143633
 20
420.265236
 30
0.0
  0
SEQEND
  5
FE88
  8
ALPHA
  0
LINE
  5
BCC0
  8
ALPHA
 10
1254.013345
 20
419.285065
 30
0.0
 11
1246.076091
 21
419.285065
 31
0.0
  0
LINE
  5
BCC1
  8
ALPHA
 10
1254.044702
 20
418.756861
 30
0.0
 11
1254.013345
 21
418.756861
 31
0.0
  0
LINE
  5
BCC2
  8
ALPHA
 10
1254.013345
 20
419.285065
 30
0.0
 11
1254.013345
 21
418.756861
 31
0.0
  0
LINE
  5
BCC3
  8
ALPHA
 10
1254.044718
 20
418.756861
 30
0.0
 11
1254.044718
 21
417.256861
 31
0.0
  0
LINE
  5
BCC4
  8
ALPHA
 10
1240.044718
 20
411.756861
 30
0.0
 11
1240.044718
 21
408.756861
 31
0.0
  0
LINE
  5
BCC5
  8
ALPHA
 10
1242.044718
 20
408.756861
 30
0.0
 11
1242.044718
 21
411.756861
 31
0.0
  0
LINE
  5
BCC6
  8
ALPHA
 10
1240.044718
 20
408.756861
 30
0.0
 11
1242.044718
 21
408.756861
 31
0.0
  0
POLYLINE
  5
BCC7
  8
ALPHA
 66
     1
 10
0.0
 20
0.0
 30
0.0
  0
VERTEX
  5
FE89
  8
ALPHA
 10
1249.170903
 20
420.286624
 30
0.0
  0
VERTEX
  5
FE8A
  8
ALPHA
 10
1249.165226
 20
420.289617
 30
0.0
  0
VERTEX
  5
FE8B
  8
ALPHA
 10
1249.149428
 20
420.290868
 30
0.0
  0
SEQEND
  5
FE8C
  8
ALPHA
  0
LINE
  5
BCCC
  8
ALPHA
 10
1250.884542
 20
420.264377
 30
0.0
 11
1250.894718
 21
420.254329
 31
0.0
  0
LINE
  5
BCCD
  8
ALPHA
 10
1251.143633
 20
420.265236
 30
0.0
 11
1250.939867
 21
420.290884
 31
0.0
  0
POLYLINE
  5
BCCE
  8
ALPHA
 66
     1
 10
0.0
 20
0.0
 30
0.0
  0
VERTEX
  5
FE8D
  8
ALPHA
 10
1249.173932
 20
420.290518
 30
0.0
  0
VERTEX
  5
FE8E
  8
ALPHA
 10
1249.190038
 20
420.288567
 30
0.0
  0
VERTEX
  5
FE8F
  8
ALPHA
 10
1249.196643
 20
420.284961
 30
0.0
  0
VERTEX
  5
FE90
  8
ALPHA
 10
1249.196751
 20
420.284312
 30
0.0
  0
SEQEND
  5
FE91
  8
ALPHA
  0
POLYLINE
  5
BCD4
  8
ALPHA
 66
     1
 10
0.0
 20
0.0
 30
0.0
  0
VERTEX
  5
FE92
  8
ALPHA
 10
1249.196751
 20
420.241824
 30
0.0
  0
VERTEX
  5
FE93
  8
ALPHA
 10
1249.238118
 20
420.236852
 30
0.0
  0
VERTEX
  5
FE94
  8
ALPHA
 10
1249.304142
 20
420.233822
 30
0.0
  0
VERTEX
  5
FE95
  8
ALPHA
 10
1249.310067
 20
420.233819
 30
0.0
  0
SEQEND
  5
FE96
  8
ALPHA
  0
POLYLINE
  5
BCDA
  8
ALPHA
 66
     1
 10
0.0
 20
0.0
 30
0.0
  0
VERTEX
  5
FE97
  8
ALPHA
 10
1249.222359
 20
420.234382
 30
0.0
  0
VERTEX
  5
FE98
  8
ALPHA
 10
1249.165822
 20
420.238113
 30
0.0
  0
VERTEX
  5
FE99
  8
ALPHA
 10
1249.127878
 20
420.244461
 30
0.0
  0
VERTEX
  5
FE9A
  8
ALPHA
 10
1249.110897
 20
420.2534
 30
0.0
  0
VERTEX
  5
FE9B
  8
ALPHA
 10
1249.110358
 20
420.255536
 30
0.0
  0
SEQEND
  5
FE9C
  8
ALPHA
  0
POLYLINE
  5
BCE1
  8
ALPHA
 66
     1
 10
0.0
 20
0.0
 30
0.0
  0
VERTEX
  5
FE9D
  8
ALPHA
 10
1249.149428
 20
420.290868
 30
0.0
  0
VERTEX
  5
FE9E
  8
ALPHA
 10
1248.949363
 20
420.26573
 30
0.0
  0
VERTEX
  5
FE9F
  8
ALPHA
 10
1248.730349
 20
420.232294
 30
0.0
  0
VERTEX
  5
FEA0
  8
ALPHA
 10
1248.490343
 20
420.188459
 30
0.0
  0
VERTEX
  5
FEA1
  8
ALPHA
 10
1248.227063
 20
420.131572
 30
0.0
  0
VERTEX
  5
FEA2
  8
ALPHA
 10
1247.93824
 20
420.058338
 30
0.0
  0
VERTEX
  5
FEA3
  8
ALPHA
 10
1247.622061
 20
419.9648
 30
0.0
  0
VERTEX
  5
FEA4
  8
ALPHA
 10
1247.277711
 20
419.846432
 30
0.0
  0
VERTEX
  5
FEA5
  8
ALPHA
 10
1246.904989
 20
419.697985
 30
0.0
  0
VERTEX
  5
FEA6
  8
ALPHA
 10
1246.504525
 20
419.513446
 30
0.0
  0
SEQEND
  5
FEA7
  8
ALPHA
  0
POLYLINE
  5
BCED
  8
ALPHA
 66
     1
 10
0.0
 20
0.0
 30
0.0
  0
VERTEX
  5
FEA8
  8
ALPHA
 10
1249.731187
 20
420.268707
 30
0.0
  0
VERTEX
  5
FEA9
  8
ALPHA
 10
1249.807356
 20
420.278969
 30
0.0
  0
VERTEX
  5
FEAA
  8
ALPHA
 10
1249.887272
 20
420.285873
 30
0.0
  0
VERTEX
  5
FEAB
  8
ALPHA
 10
1249.971634
 20
420.289861
 30
0.0
  0
VERTEX
  5
FEAC
  8
ALPHA
 10
1250.0591
 20
420.290885
 30
0.0
  0
VERTEX
  5
FEAD
  8
ALPHA
 10
1250.145895
 20
420.288874
 30
0.0
  0
VERTEX
  5
FEAE
  8
ALPHA
 10
1250.228861
 20
420.283937
 30
0.0
  0
VERTEX
  5
FEAF
  8
ALPHA
 10
1250.307572
 20
420.275999
 30
0.0
  0
VERTEX
  5
FEB0
  8
ALPHA
 10
1250.382711
 20
420.264377
 30
0.0
  0
SEQEND
  5
FEB1
  8
ALPHA
  0
POLYLINE
  5
BCF8
  8
ALPHA
 66
     1
 10
0.0
 20
0.0
 30
0.0
  0
VERTEX
  5
FEB2
  8
ALPHA
 10
1249.731187
 20
420.268707
 30
0.0
  0
VERTEX
  5
FEB3
  8
ALPHA
 10
1249.652972
 20
420.257495
 30
0.0
  0
VERTEX
  5
FEB4
  8
ALPHA
 10
1249.562629
 20
420.247668
 30
0.0
  0
VERTEX
  5
FEB5
  8
ALPHA
 10
1249.468685
 20
420.240169
 30
0.0
  0
VERTEX
  5
FEB6
  8
ALPHA
 10
1249.378691
 20
420.23543
 30
0.0
  0
VERTEX
  5
FEB7
  8
ALPHA
 10
1249.294542
 20
420.233455
 30
0.0
  0
VERTEX
  5
FEB8
  8
ALPHA
 10
1249.222359
 20
420.234382
 30
0.0
  0
SEQEND
  5
FEB9
  8
ALPHA
  0
LINE
  5
BD01
  8
ALPHA
 10
1246.076091
 20
418.756861
 30
0.0
 11
1246.044734
 21
418.756861
 31
0.0
  0
POLYLINE
  5
BD02
  8
ALPHA
 66
     1
 10
0.0
 20
0.0
 30
0.0
  0
VERTEX
  5
FEBA
  8
ALPHA
 10
1250.939867
 20
420.290884
 30
0.0
  0
VERTEX
  5
FEBB
  8
ALPHA
 10
1250.907691
 20
420.290327
 30
0.0
  0
VERTEX
  5
FEBC
  8
ALPHA
 10
1250.883921
 20
420.287703
 30
0.0
  0
VERTEX
  5
FEBD
  8
ALPHA
 10
1250.870416
 20
420.282676
 30
0.0
  0
VERTEX
  5
FEBE
  8
ALPHA
 10
1250.868318
 20
420.278827
 30
0.0
  0
SEQEND
  5
FEBF
  8
ALPHA
  0
POLYLINE
  5
BD09
  8
ALPHA
 66
     1
 10
0.0
 20
0.0
 30
0.0
  0
VERTEX
  5
FEC0
  8
ALPHA
 10
1250.88406
 20
420.245507
 30
0.0
  0
VERTEX
  5
FEC1
  8
ALPHA
 10
1250.853943
 20
420.238939
 30
0.0
  0
VERTEX
  5
FEC2
  8
ALPHA
 10
1250.807457
 20
420.234867
 30
0.0
  0
VERTEX
  5
FEC3
  8
ALPHA
 10
1250.744928
 20
420.233409
 30
0.0
  0
VERTEX
  5
FEC4
  8
ALPHA
 10
1250.671942
 20
420.234852
 30
0.0
  0
VERTEX
  5
FEC5
  8
ALPHA
 10
1250.596128
 20
420.238922
 30
0.0
  0
VERTEX
  5
FEC6
  8
ALPHA
 10
1250.518388
 20
420.245537
 30
0.0
  0
VERTEX
  5
FEC7
  8
ALPHA
 10
1250.444769
 20
420.254322
 30
0.0
  0
VERTEX
  5
FEC8
  8
ALPHA
 10
1250.382711
 20
420.264377
 30
0.0
  0
SEQEND
  5
FEC9
  8
ALPHA
  0
POLYLINE
  5
BD14
  8
ALPHA
 66
     1
 10
0.0
 20
0.0
 30
0.0
  0
VERTEX
  5
FECA
  8
ALPHA
 10
1250.868318
 20
420.278827
 30
0.0
  0
VERTEX
  5
FECB
  8
ALPHA
 10
1250.869815
 20
420.27494
 30
0.0
  0
VERTEX
  5
FECC
  8
ALPHA
 10
1250.884542
 20
420.264377
 30
0.0
  0
SEQEND
  5
FECD
  8
ALPHA
  0
POLYLINE
  5
BD19
  8
ALPHA
 66
     1
 10
0.0
 20
0.0
 30
0.0
  0
VERTEX
  5
FECE
  8
ALPHA
 10
1249.148152
 20
420.276037
 30
0.0
  0
VERTEX
  5
FECF
  8
ALPHA
 10
1249.165534
 20
420.282198
 30
0.0
  0
VERTEX
  5
FED0
  8
ALPHA
 10
1249.170903
 20
420.286624
 30
0.0
  0
SEQEND
  5
FED1
  8
ALPHA
  0
LINE
  5
BD1E
  8
ALPHA
 10
1246.504525
 20
419.513446
 30
0.0
 11
1246.076091
 21
419.285065
 31
0.0
  0
LINE
  5
BD1F
  8
ALPHA
 10
1250.894718
 20
420.254329
 30
0.0
 11
1250.88406
 21
420.245507
 31
0.0
  0
POLYLINE
  5
BD20
  8
ALPHA
 66
     1
 10
0.0
 20
0.0
 30
0.0
  0
VERTEX
  5
FED2
  8
ALPHA
 10
1249.110358
 20
420.255536
 30
0.0
  0
VERTEX
  5
FED3
  8
ALPHA
 10
1249.117999
 20
420.264273
 30
0.0
  0
VERTEX
  5
FED4
  8
ALPHA
 10
1249.148152
 20
420.276037
 30
0.0
  0
SEQEND
  5
FED5
  8
ALPHA
  0
LINE
  5
BD25
  8
ALPHA
 10
1246.044718
 20
418.756861
 30
0.0
 11
1246.044718
 21
417.256861
 31
0.0
  0
LINE
  5
BD26
  8
ALPHA
 10
1246.076091
 20
419.285065
 30
0.0
 11
1246.076091
 21
418.756861
 31
0.0
  0
LINE
  5
BD27
  8
ALPHA
 10
1249.148152
 20
420.276037
 30
0.0
 11
1249.148152
 21
420.241069
 31
0.0
  0
LINE
  5
BD28
  8
ALPHA
 10
1249.170903
 20
420.237777
 30
0.0
 11
1249.170903
 21
420.286603
 31
0.0
  0
LINE
  5
BD29
  8
ALPHA
 10
1249.196751
 20
420.236072
 30
0.0
 11
1249.196751
 21
420.284219
 31
0.0
  0
LINE
  5
BD2A
  8
ALPHA
 10
1250.868317
 20
420.242074
 30
0.0
 11
1250.868317
 21
420.278482
 31
0.0
  0
LINE
  5
BD2B
  8
ALPHA
 10
1250.884542
 20
420.264377
 30
0.0
 11
1250.884542
 21
420.245905
 31
0.0
  0
LINE
  5
BD2C
  8
ALPHA
 10
1252.444718
 20
411.756861
 30
0.0
 11
1252.348715
 21
417.256861
 31
0.0
  0
LINE
  5
BD2D
  8
ALPHA
 10
1297.544718
 20
440.756861
 30
0.0
 11
1296.444718
 21
440.756861
 31
0.0
  0
LINE
  5
BD2E
  8
ALPHA
 10
1299.044718
 20
440.256861
 30
0.0
 11
1289.044718
 21
440.256861
 31
0.0
  0
LINE
  5
BD2F
  8
ALPHA
 10
1287.283428
 20
436.395571
 30
0.0
 11
1287.044718
 21
436.156861
 31
0.0
  0
LINE
  5
BD30
  8
ALPHA
 10
1287.044718
 20
436.156793
 30
0.0
 11
1287.044718
 21
435.872246
 31
0.0
  0
LINE
  5
BD31
  8
ALPHA
 10
1296.444718
 20
440.256861
 30
0.0
 11
1296.444718
 21
440.756861
 31
0.0
  0
LINE
  5
BD32
  8
ALPHA
 10
1297.544718
 20
440.256861
 30
0.0
 11
1297.544718
 21
440.756861
 31
0.0
  0
LINE
  5
C77F
  8
ALPHA
 10
1138.094718
 20
376.711677
 30
0.0
 11
1121.994718
 21
376.711677
 31
0.0
  0
LINE
  5
C780
  8
ALPHA
 10
1138.094718
 20
376.606861
 30
0.0
 11
1121.994718
 21
376.606861
 31
0.0
  0
LINE
  5
C781
  8
ALPHA
 10
1121.994718
 20
373.706861
 30
0.0
 11
1138.094718
 21
373.706861
 31
0.0
  0
LINE
  5
C782
  8
ALPHA
 10
1121.994718
 20
373.602046
 30
0.0
 11
1138.094718
 21
373.602046
 31
0.0
  0
LINE
  5
C783
  8
ALPHA
 10
1138.094718
 20
369.211677
 30
0.0
 11
1121.994718
 21
369.211677
 31
0.0
  0
LINE
  5
C784
  8
ALPHA
 10
1138.094718
 20
369.106861
 30
0.0
 11
1121.994718
 21
369.106861
 31
0.0
  0
LINE
  5
C785
  8
ALPHA
 10
1121.994718
 20
366.206861
 30
0.0
 11
1138.094718
 21
366.206861
 31
0.0
  0
LINE
  5
C786
  8
ALPHA
 10
1121.994718
 20
366.102046
 30
0.0
 11
1138.094718
 21
366.102046
 31
0.0
  0
LINE
  5
C787
  8
ALPHA
 10
1138.094718
 20
361.711677
 30
0.0
 11
1121.994718
 21
361.711677
 31
0.0
  0
LINE
  5
C788
  8
ALPHA
 10
1138.094718
 20
361.606861
 30
0.0
 11
1121.994718
 21
361.606861
 31
0.0
  0
LINE
  5
C789
  8
ALPHA
 10
1121.994718
 20
358.706861
 30
0.0
 11
1138.094718
 21
358.706861
 31
0.0
  0
LINE
  5
C78A
  8
ALPHA
 10
1121.994718
 20
358.602046
 30
0.0
 11
1138.094718
 21
358.602046
 31
0.0
  0
LINE
  5
C78B
  8
ALPHA
 10
1138.094718
 20
354.211677
 30
0.0
 11
1121.994718
 21
354.211677
 31
0.0
  0
LINE
  5
C78C
  8
ALPHA
 10
1138.094718
 20
354.106861
 30
0.0
 11
1121.994718
 21
354.106861
 31
0.0
  0
LINE
  5
C78D
  8
ALPHA
 10
1121.994718
 20
351.206861
 30
0.0
 11
1138.094718
 21
351.206861
 31
0.0
  0
LINE
  5
C78E
  8
ALPHA
 10
1121.994718
 20
351.102046
 30
0.0
 11
1138.094718
 21
351.102046
 31
0.0
  0
LINE
  5
C78F
  8
ALPHA
 10
1138.094718
 20
346.711677
 30
0.0
 11
1121.994718
 21
346.711677
 31
0.0
  0
LINE
  5
C790
  8
ALPHA
 10
1138.094718
 20
346.606861
 30
0.0
 11
1121.994718
 21
346.606861
 31
0.0
  0
LINE
  5
C791
  8
ALPHA
 10
1121.994718
 20
343.706861
 30
0.0
 11
1138.094718
 21
343.706861
 31
0.0
  0
LINE
  5
C792
  8
ALPHA
 10
1121.994718
 20
343.602046
 30
0.0
 11
1138.094718
 21
343.602046
 31
0.0
  0
LINE
  5
C793
  8
ALPHA
 10
1138.094718
 20
339.211677
 30
0.0
 11
1121.994718
 21
339.211677
 31
0.0
  0
LINE
  5
C794
  8
ALPHA
 10
1138.094718
 20
339.106861
 30
0.0
 11
1121.994718
 21
339.106861
 31
0.0
  0
LINE
  5
C795
  8
ALPHA
 10
1121.994718
 20
336.206861
 30
0.0
 11
1138.094718
 21
336.206861
 31
0.0
  0
LINE
  5
C796
  8
ALPHA
 10
1121.994718
 20
336.102046
 30
0.0
 11
1138.094718
 21
336.102046
 31
0.0
  0
LINE
  5
C797
  8
ALPHA
 10
1138.094718
 20
331.711677
 30
0.0
 11
1121.994718
 21
331.711677
 31
0.0
  0
LINE
  5
C798
  8
ALPHA
 10
1138.094718
 20
331.606861
 30
0.0
 11
1121.994718
 21
331.606861
 31
0.0
  0
POLYLINE
  5
C799
  8
ALPHA
 66
     1
 10
0.0
 20
0.0
 30
0.0
  0
VERTEX
  5
FED6
  8
ALPHA
 10
1138.094718
 20
351.102046
 30
0.0
  0
VERTEX
  5
FED7
  8
ALPHA
 10
1138.696718
 20
351.22328
 30
0.0
  0
VERTEX
  5
FED8
  8
ALPHA
 10
1139.202026
 20
351.565291
 30
0.0
  0
VERTEX
  5
FED9
  8
ALPHA
 10
1139.534202
 20
352.068979
 30
0.0
  0
VERTEX
  5
FEDA
  8
ALPHA
 10
1139.64963
 20
352.656861
 30
0.0
  0
VERTEX
  5
FEDB
  8
ALPHA
 10
1139.534202
 20
353.244744
 30
0.0
  0
VERTEX
  5
FEDC
  8
ALPHA
 10
1139.202026
 20
353.748432
 30
0.0
  0
VERTEX
  5
FEDD
  8
ALPHA
 10
1138.696718
 20
354.090443
 30
0.0
  0
VERTEX
  5
FEDE
  8
ALPHA
 10
1138.094718
 20
354.211677
 30
0.0
  0
SEQEND
  5
FEDF
  8
ALPHA
  0
POLYLINE
  5
C7A4
  8
ALPHA
 66
     1
 10
0.0
 20
0.0
 30
0.0
  0
VERTEX
  5
FEE0
  8
ALPHA
 10
1138.094718
 20
351.206861
 30
0.0
  0
VERTEX
  5
FEE1
  8
ALPHA
 10
1138.656375
 20
351.320061
 30
0.0
  0
VERTEX
  5
FEE2
  8
ALPHA
 10
1139.128173
 20
351.639775
 30
0.0
  0
VERTEX
  5
FEE3
  8
ALPHA
 10
1139.437202
 20
352.108929
 30
0.0
  0
VERTEX
  5
FEE4
  8
ALPHA
 10
1139.544718
 20
352.656861
 30
0.0
  0
VERTEX
  5
FEE5
  8
ALPHA
 10
1139.437202
 20
353.204794
 30
0.0
  0
VERTEX
  5
FEE6
  8
ALPHA
 10
1139.128173
 20
353.673948
 30
0.0
  0
VERTEX
  5
FEE7
  8
ALPHA
 10
1138.656375
 20
353.993662
 30
0.0
  0
VERTEX
  5
FEE8
  8
ALPHA
 10
1138.094718
 20
354.106861
 30
0.0
  0
SEQEND
  5
FEE9
  8
ALPHA
  0
LINE
  5
C7AF
  8
ALPHA
 10
1138.094718
 20
339.106861
 30
0.0
 11
1138.094718
 21
339.211677
 31
0.0
  0
LINE
  5
C7B0
  8
ALPHA
 10
1138.094718
 20
331.606861
 30
0.0
 11
1138.094718
 21
331.711677
 31
0.0
  0
LINE
  5
C7B1
  8
ALPHA
 10
1138.094718
 20
336.206861
 30
0.0
 11
1138.094718
 21
336.102046
 31
0.0
  0
POLYLINE
  5
C7B2
  8
ALPHA
 66
     1
 10
0.0
 20
0.0
 30
0.0
  0
VERTEX
  5
FEEA
  8
ALPHA
 10
1138.094718
 20
336.102046
 30
0.0
  0
VERTEX
  5
FEEB
  8
ALPHA
 10
1138.696718
 20
336.22328
 30
0.0
  0
VERTEX
  5
FEEC
  8
ALPHA
 10
1139.202026
 20
336.565291
 30
0.0
  0
VERTEX
  5
FEED
  8
ALPHA
 10
1139.534202
 20
337.068979
 30
0.0
  0
VERTEX
  5
FEEE
  8
ALPHA
 10
1139.64963
 20
337.656861
 30
0.0
  0
VERTEX
  5
FEEF
  8
ALPHA
 10
1139.534202
 20
338.244744
 30
0.0
  0
VERTEX
  5
FEF0
  8
ALPHA
 10
1139.202026
 20
338.748432
 30
0.0
  0
VERTEX
  5
FEF1
  8
ALPHA
 10
1138.696718
 20
339.090443
 30
0.0
  0
VERTEX
  5
FEF2
  8
ALPHA
 10
1138.094718
 20
339.211677
 30
0.0
  0
SEQEND
  5
FEF3
  8
ALPHA
  0
POLYLINE
  5
C7BD
  8
ALPHA
 66
     1
 10
0.0
 20
0.0
 30
0.0
  0
VERTEX
  5
FEF4
  8
ALPHA
 10
1138.094718
 20
336.206861
 30
0.0
  0
VERTEX
  5
FEF5
  8
ALPHA
 10
1138.656375
 20
336.320061
 30
0.0
  0
VERTEX
  5
FEF6
  8
ALPHA
 10
1139.128173
 20
336.639775
 30
0.0
  0
VERTEX
  5
FEF7
  8
ALPHA
 10
1139.437202
 20
337.108929
 30
0.0
  0
VERTEX
  5
FEF8
  8
ALPHA
 10
1139.544718
 20
337.656861
 30
0.0
  0
VERTEX
  5
FEF9
  8
ALPHA
 10
1139.437202
 20
338.204794
 30
0.0
  0
VERTEX
  5
FEFA
  8
ALPHA
 10
1139.128173
 20
338.673948
 30
0.0
  0
VERTEX
  5
FEFB
  8
ALPHA
 10
1138.656375
 20
338.993662
 30
0.0
  0
VERTEX
  5
FEFC
  8
ALPHA
 10
1138.094718
 20
339.106861
 30
0.0
  0
SEQEND
  5
FEFD
  8
ALPHA
  0
POLYLINE
  5
C7C8
  8
ALPHA
 66
     1
 10
0.0
 20
0.0
 30
0.0
  0
VERTEX
  5
FEFE
  8
ALPHA
 10
1138.094718
 20
343.602046
 30
0.0
  0
VERTEX
  5
FEFF
  8
ALPHA
 10
1138.696718
 20
343.72328
 30
0.0
  0
VERTEX
  5
FF00
  8
ALPHA
 10
1139.202026
 20
344.065291
 30
0.0
  0
VERTEX
  5
FF01
  8
ALPHA
 10
1139.534202
 20
344.568979
 30
0.0
  0
VERTEX
  5
FF02
  8
ALPHA
 10
1139.64963
 20
345.156861
 30
0.0
  0
VERTEX
  5
FF03
  8
ALPHA
 10
1139.534202
 20
345.744744
 30
0.0
  0
VERTEX
  5
FF04
  8
ALPHA
 10
1139.202026
 20
346.248432
 30
0.0
  0
VERTEX
  5
FF05
  8
ALPHA
 10
1138.696718
 20
346.590443
 30
0.0
  0
VERTEX
  5
FF06
  8
ALPHA
 10
1138.094718
 20
346.711677
 30
0.0
  0
SEQEND
  5
FF07
  8
ALPHA
  0
POLYLINE
  5
C7D3
  8
ALPHA
 66
     1
 10
0.0
 20
0.0
 30
0.0
  0
VERTEX
  5
FF08
  8
ALPHA
 10
1138.094718
 20
343.706861
 30
0.0
  0
VERTEX
  5
FF09
  8
ALPHA
 10
1138.656375
 20
343.820061
 30
0.0
  0
VERTEX
  5
FF0A
  8
ALPHA
 10
1139.128173
 20
344.139775
 30
0.0
  0
VERTEX
  5
FF0B
  8
ALPHA
 10
1139.437202
 20
344.608929
 30
0.0
  0
VERTEX
  5
FF0C
  8
ALPHA
 10
1139.544718
 20
345.156861
 30
0.0
  0
VERTEX
  5
FF0D
  8
ALPHA
 10
1139.437202
 20
345.704794
 30
0.0
  0
VERTEX
  5
FF0E
  8
ALPHA
 10
1139.128173
 20
346.173948
 30
0.0
  0
VERTEX
  5
FF0F
  8
ALPHA
 10
1138.656375
 20
346.493662
 30
0.0
  0
VERTEX
  5
FF10
  8
ALPHA
 10
1138.094718
 20
346.606861
 30
0.0
  0
SEQEND
  5
FF11
  8
ALPHA
  0
LINE
  5
C7DE
  8
ALPHA
 10
1138.094718
 20
346.606861
 30
0.0
 11
1138.094718
 21
346.711677
 31
0.0
  0
LINE
  5
C7DF
  8
ALPHA
 10
1138.094718
 20
343.706861
 30
0.0
 11
1138.094718
 21
343.602046
 31
0.0
  0
LINE
  5
C7E0
  8
ALPHA
 10
1138.094718
 20
351.206861
 30
0.0
 11
1138.094718
 21
351.102046
 31
0.0
  0
POLYLINE
  5
C7E1
  8
ALPHA
 66
     1
 10
0.0
 20
0.0
 30
0.0
  0
VERTEX
  5
FF12
  8
ALPHA
 10
1138.094718
 20
358.602046
 30
0.0
  0
VERTEX
  5
FF13
  8
ALPHA
 10
1138.696718
 20
358.72328
 30
0.0
  0
VERTEX
  5
FF14
  8
ALPHA
 10
1139.202026
 20
359.065291
 30
0.0
  0
VERTEX
  5
FF15
  8
ALPHA
 10
1139.534202
 20
359.568979
 30
0.0
  0
VERTEX
  5
FF16
  8
ALPHA
 10
1139.64963
 20
360.156861
 30
0.0
  0
VERTEX
  5
FF17
  8
ALPHA
 10
1139.534202
 20
360.744744
 30
0.0
  0
VERTEX
  5
FF18
  8
ALPHA
 10
1139.202026
 20
361.248432
 30
0.0
  0
VERTEX
  5
FF19
  8
ALPHA
 10
1138.696718
 20
361.590443
 30
0.0
  0
VERTEX
  5
FF1A
  8
ALPHA
 10
1138.094718
 20
361.711677
 30
0.0
  0
SEQEND
  5
FF1B
  8
ALPHA
  0
POLYLINE
  5
C7EC
  8
ALPHA
 66
     1
 10
0.0
 20
0.0
 30
0.0
  0
VERTEX
  5
FF1C
  8
ALPHA
 10
1138.094718
 20
358.706861
 30
0.0
  0
VERTEX
  5
FF1D
  8
ALPHA
 10
1138.656375
 20
358.820061
 30
0.0
  0
VERTEX
  5
FF1E
  8
ALPHA
 10
1139.128173
 20
359.139775
 30
0.0
  0
VERTEX
  5
FF1F
  8
ALPHA
 10
1139.437202
 20
359.608929
 30
0.0
  0
VERTEX
  5
FF20
  8
ALPHA
 10
1139.544718
 20
360.156861
 30
0.0
  0
VERTEX
  5
FF21
  8
ALPHA
 10
1139.437202
 20
360.704794
 30
0.0
  0
VERTEX
  5
FF22
  8
ALPHA
 10
1139.128173
 20
361.173948
 30
0.0
  0
VERTEX
  5
FF23
  8
ALPHA
 10
1138.656375
 20
361.493662
 30
0.0
  0
VERTEX
  5
FF24
  8
ALPHA
 10
1138.094718
 20
361.606861
 30
0.0
  0
SEQEND
  5
FF25
  8
ALPHA
  0
LINE
  5
C7F7
  8
ALPHA
 10
1138.094718
 20
361.606861
 30
0.0
 11
1138.094718
 21
361.711677
 31
0.0
  0
LINE
  5
C7F8
  8
ALPHA
 10
1138.094718
 20
354.106861
 30
0.0
 11
1138.094718
 21
354.211677
 31
0.0
  0
LINE
  5
C7F9
  8
ALPHA
 10
1138.094718
 20
358.706861
 30
0.0
 11
1138.094718
 21
358.602046
 31
0.0
  0
POLYLINE
  5
C7FA
  8
ALPHA
 66
     1
 10
0.0
 20
0.0
 30
0.0
  0
VERTEX
  5
FF26
  8
ALPHA
 10
1138.094718
 20
373.602046
 30
0.0
  0
VERTEX
  5
FF27
  8
ALPHA
 10
1138.696718
 20
373.72328
 30
0.0
  0
VERTEX
  5
FF28
  8
ALPHA
 10
1139.202026
 20
374.065291
 30
0.0
  0
VERTEX
  5
FF29
  8
ALPHA
 10
1139.534202
 20
374.568979
 30
0.0
  0
VERTEX
  5
FF2A
  8
ALPHA
 10
1139.64963
 20
375.156861
 30
0.0
  0
VERTEX
  5
FF2B
  8
ALPHA
 10
1139.534202
 20
375.744744
 30
0.0
  0
VERTEX
  5
FF2C
  8
ALPHA
 10
1139.202026
 20
376.248432
 30
0.0
  0
VERTEX
  5
FF2D
  8
ALPHA
 10
1138.696718
 20
376.590443
 30
0.0
  0
VERTEX
  5
FF2E
  8
ALPHA
 10
1138.094718
 20
376.711677
 30
0.0
  0
SEQEND
  5
FF2F
  8
ALPHA
  0
POLYLINE
  5
C805
  8
ALPHA
 66
     1
 10
0.0
 20
0.0
 30
0.0
  0
VERTEX
  5
FF30
  8
ALPHA
 10
1138.094718
 20
366.102046
 30
0.0
  0
VERTEX
  5
FF31
  8
ALPHA
 10
1138.696718
 20
366.22328
 30
0.0
  0
VERTEX
  5
FF32
  8
ALPHA
 10
1139.202026
 20
366.565291
 30
0.0
  0
VERTEX
  5
FF33
  8
ALPHA
 10
1139.534202
 20
367.068979
 30
0.0
  0
VERTEX
  5
FF34
  8
ALPHA
 10
1139.64963
 20
367.656861
 30
0.0
  0
VERTEX
  5
FF35
  8
ALPHA
 10
1139.534202
 20
368.244744
 30
0.0
  0
VERTEX
  5
FF36
  8
ALPHA
 10
1139.202026
 20
368.748432
 30
0.0
  0
VERTEX
  5
FF37
  8
ALPHA
 10
1138.696718
 20
369.090443
 30
0.0
  0
VERTEX
  5
FF38
  8
ALPHA
 10
1138.094718
 20
369.211677
 30
0.0
  0
SEQEND
  5
FF39
  8
ALPHA
  0
POLYLINE
  5
C810
  8
ALPHA
 66
     1
 10
0.0
 20
0.0
 30
0.0
  0
VERTEX
  5
FF3A
  8
ALPHA
 10
1138.094718
 20
373.706861
 30
0.0
  0
VERTEX
  5
FF3B
  8
ALPHA
 10
1138.656375
 20
373.820061
 30
0.0
  0
VERTEX
  5
FF3C
  8
ALPHA
 10
1139.128173
 20
374.139775
 30
0.0
  0
VERTEX
  5
FF3D
  8
ALPHA
 10
1139.437202
 20
374.608929
 30
0.0
  0
VERTEX
  5
FF3E
  8
ALPHA
 10
1139.544718
 20
375.156861
 30
0.0
  0
VERTEX
  5
FF3F
  8
ALPHA
 10
1139.437202
 20
375.704794
 30
0.0
  0
VERTEX
  5
FF40
  8
ALPHA
 10
1139.128173
 20
376.173948
 30
0.0
  0
VERTEX
  5
FF41
  8
ALPHA
 10
1138.656375
 20
376.493662
 30
0.0
  0
VERTEX
  5
FF42
  8
ALPHA
 10
1138.094718
 20
376.606861
 30
0.0
  0
SEQEND
  5
FF43
  8
ALPHA
  0
POLYLINE
  5
C81B
  8
ALPHA
 66
     1
 10
0.0
 20
0.0
 30
0.0
  0
VERTEX
  5
FF44
  8
ALPHA
 10
1138.094718
 20
366.206861
 30
0.0
  0
VERTEX
  5
FF45
  8
ALPHA
 10
1138.656375
 20
366.320061
 30
0.0
  0
VERTEX
  5
FF46
  8
ALPHA
 10
1139.128173
 20
366.639775
 30
0.0
  0
VERTEX
  5
FF47
  8
ALPHA
 10
1139.437202
 20
367.108929
 30
0.0
  0
VERTEX
  5
FF48
  8
ALPHA
 10
1139.544718
 20
367.656861
 30
0.0
  0
VERTEX
  5
FF49
  8
ALPHA
 10
1139.437202
 20
368.204794
 30
0.0
  0
VERTEX
  5
FF4A
  8
ALPHA
 10
1139.128173
 20
368.673948
 30
0.0
  0
VERTEX
  5
FF4B
  8
ALPHA
 10
1138.656375
 20
368.993662
 30
0.0
  0
VERTEX
  5
FF4C
  8
ALPHA
 10
1138.094718
 20
369.106861
 30
0.0
  0
SEQEND
  5
FF4D
  8
ALPHA
  0
LINE
  5
C826
  8
ALPHA
 10
1138.094718
 20
376.606861
 30
0.0
 11
1138.094718
 21
376.711677
 31
0.0
  0
LINE
  5
C827
  8
ALPHA
 10
1138.094718
 20
369.106861
 30
0.0
 11
1138.094718
 21
369.211677
 31
0.0
  0
LINE
  5
C828
  8
ALPHA
 10
1138.094718
 20
366.206861
 30
0.0
 11
1138.094718
 21
366.102046
 31
0.0
  0
LINE
  5
C829
  8
ALPHA
 10
1138.094718
 20
373.706861
 30
0.0
 11
1138.094718
 21
373.602046
 31
0.0
  0
POLYLINE
  5
C82A
  8
ALPHA
 66
     1
 10
0.0
 20
0.0
 30
0.0
  0
VERTEX
  5
FF4E
  8
ALPHA
 10
1121.994718
 20
354.211677
 30
0.0
  0
VERTEX
  5
FF4F
  8
ALPHA
 10
1121.392777
 20
354.090387
 30
0.0
  0
VERTEX
  5
FF50
  8
ALPHA
 10
1120.887533
 20
353.748362
 30
0.0
  0
VERTEX
  5
FF51
  8
ALPHA
 10
1120.555408
 20
353.244699
 30
0.0
  0
VERTEX
  5
FF52
  8
ALPHA
 10
1120.439998
 20
352.656861
 30
0.0
  0
VERTEX
  5
FF53
  8
ALPHA
 10
1120.555408
 20
352.069024
 30
0.0
  0
VERTEX
  5
FF54
  8
ALPHA
 10
1120.887533
 20
351.56536
 30
0.0
  0
VERTEX
  5
FF55
  8
ALPHA
 10
1121.392777
 20
351.223335
 30
0.0
  0
VERTEX
  5
FF56
  8
ALPHA
 10
1121.994718
 20
351.102046
 30
0.0
  0
SEQEND
  5
FF57
  8
ALPHA
  0
POLYLINE
  5
C835
  8
ALPHA
 66
     1
 10
0.0
 20
0.0
 30
0.0
  0
VERTEX
  5
FF58
  8
ALPHA
 10
1121.994718
 20
354.106861
 30
0.0
  0
VERTEX
  5
FF59
  8
ALPHA
 10
1121.433061
 20
353.993662
 30
0.0
  0
VERTEX
  5
FF5A
  8
ALPHA
 10
1120.961263
 20
353.673948
 30
0.0
  0
VERTEX
  5
FF5B
  8
ALPHA
 10
1120.652235
 20
353.204793
 30
0.0
  0
VERTEX
  5
FF5C
  8
ALPHA
 10
1120.544718
 20
352.656861
 30
0.0
  0
VERTEX
  5
FF5D
  8
ALPHA
 10
1120.652235
 20
352.108929
 30
0.0
  0
VERTEX
  5
FF5E
  8
ALPHA
 10
1120.961263
 20
351.639775
 30
0.0
  0
VERTEX
  5
FF5F
  8
ALPHA
 10
1121.433061
 20
351.320061
 30
0.0
  0
VERTEX
  5
FF60
  8
ALPHA
 10
1121.994718
 20
351.206861
 30
0.0
  0
SEQEND
  5
FF61
  8
ALPHA
  0
POLYLINE
  5
C840
  8
ALPHA
 66
     1
 10
0.0
 20
0.0
 30
0.0
  0
VERTEX
  5
FF62
  8
ALPHA
 10
1121.994718
 20
346.711677
 30
0.0
  0
VERTEX
  5
FF63
  8
ALPHA
 10
1121.392777
 20
346.590387
 30
0.0
  0
VERTEX
  5
FF64
  8
ALPHA
 10
1120.887533
 20
346.248362
 30
0.0
  0
VERTEX
  5
FF65
  8
ALPHA
 10
1120.555408
 20
345.744699
 30
0.0
  0
VERTEX
  5
FF66
  8
ALPHA
 10
1120.439998
 20
345.156861
 30
0.0
  0
VERTEX
  5
FF67
  8
ALPHA
 10
1120.555408
 20
344.569024
 30
0.0
  0
VERTEX
  5
FF68
  8
ALPHA
 10
1120.887533
 20
344.06536
 30
0.0
  0
VERTEX
  5
FF69
  8
ALPHA
 10
1121.392777
 20
343.723335
 30
0.0
  0
VERTEX
  5
FF6A
  8
ALPHA
 10
1121.994718
 20
343.602046
 30
0.0
  0
SEQEND
  5
FF6B
  8
ALPHA
  0
POLYLINE
  5
C84B
  8
ALPHA
 66
     1
 10
0.0
 20
0.0
 30
0.0
  0
VERTEX
  5
FF6C
  8
ALPHA
 10
1121.994718
 20
346.606861
 30
0.0
  0
VERTEX
  5
FF6D
  8
ALPHA
 10
1121.433061
 20
346.493662
 30
0.0
  0
VERTEX
  5
FF6E
  8
ALPHA
 10
1120.961263
 20
346.173948
 30
0.0
  0
VERTEX
  5
FF6F
  8
ALPHA
 10
1120.652235
 20
345.704793
 30
0.0
  0
VERTEX
  5
FF70
  8
ALPHA
 10
1120.544718
 20
345.156861
 30
0.0
  0
VERTEX
  5
FF71
  8
ALPHA
 10
1120.652235
 20
344.608929
 30
0.0
  0
VERTEX
  5
FF72
  8
ALPHA
 10
1120.961263
 20
344.139775
 30
0.0
  0
VERTEX
  5
FF73
  8
ALPHA
 10
1121.433061
 20
343.820061
 30
0.0
  0
VERTEX
  5
FF74
  8
ALPHA
 10
1121.994718
 20
343.706861
 30
0.0
  0
SEQEND
  5
FF75
  8
ALPHA
  0
POLYLINE
  5
C856
  8
ALPHA
 66
     1
 10
0.0
 20
0.0
 30
0.0
  0
VERTEX
  5
FF76
  8
ALPHA
 10
1121.994718
 20
339.211677
 30
0.0
  0
VERTEX
  5
FF77
  8
ALPHA
 10
1121.392777
 20
339.090387
 30
0.0
  0
VERTEX
  5
FF78
  8
ALPHA
 10
1120.887533
 20
338.748362
 30
0.0
  0
VERTEX
  5
FF79
  8
ALPHA
 10
1120.555408
 20
338.244699
 30
0.0
  0
VERTEX
  5
FF7A
  8
ALPHA
 10
1120.439998
 20
337.656861
 30
0.0
  0
VERTEX
  5
FF7B
  8
ALPHA
 10
1120.555408
 20
337.069024
 30
0.0
  0
VERTEX
  5
FF7C
  8
ALPHA
 10
1120.887533
 20
336.56536
 30
0.0
  0
VERTEX
  5
FF7D
  8
ALPHA
 10
1121.392777
 20
336.223335
 30
0.0
  0
VERTEX
  5
FF7E
  8
ALPHA
 10
1121.994718
 20
336.102046
 30
0.0
  0
SEQEND
  5
FF7F
  8
ALPHA
  0
POLYLINE
  5
C861
  8
ALPHA
 66
     1
 10
0.0
 20
0.0
 30
0.0
  0
VERTEX
  5
FF80
  8
ALPHA
 10
1121.994718
 20
339.106861
 30
0.0
  0
VERTEX
  5
FF81
  8
ALPHA
 10
1121.433061
 20
338.993662
 30
0.0
  0
VERTEX
  5
FF82
  8
ALPHA
 10
1120.961263
 20
338.673948
 30
0.0
  0
VERTEX
  5
FF83
  8
ALPHA
 10
1120.652235
 20
338.204793
 30
0.0
  0
VERTEX
  5
FF84
  8
ALPHA
 10
1120.544718
 20
337.656861
 30
0.0
  0
VERTEX
  5
FF85
  8
ALPHA
 10
1120.652235
 20
337.108929
 30
0.0
  0
VERTEX
  5
FF86
  8
ALPHA
 10
1120.961263
 20
336.639775
 30
0.0
  0
VERTEX
  5
FF87
  8
ALPHA
 10
1121.433061
 20
336.320061
 30
0.0
  0
VERTEX
  5
FF88
  8
ALPHA
 10
1121.994718
 20
336.206861
 30
0.0
  0
SEQEND
  5
FF89
  8
ALPHA
  0
LINE
  5
C86C
  8
ALPHA
 10
1121.994718
 20
339.106861
 30
0.0
 11
1121.994718
 21
339.211677
 31
0.0
  0
LINE
  5
C86D
  8
ALPHA
 10
1121.994718
 20
331.606861
 30
0.0
 11
1121.994718
 21
331.711677
 31
0.0
  0
LINE
  5
C86E
  8
ALPHA
 10
1121.994718
 20
336.206861
 30
0.0
 11
1121.994718
 21
336.102046
 31
0.0
  0
LINE
  5
C86F
  8
ALPHA
 10
1121.994718
 20
346.606861
 30
0.0
 11
1121.994718
 21
346.711677
 31
0.0
  0
LINE
  5
C870
  8
ALPHA
 10
1121.994718
 20
343.706861
 30
0.0
 11
1121.994718
 21
343.602046
 31
0.0
  0
LINE
  5
C871
  8
ALPHA
 10
1121.994718
 20
351.206861
 30
0.0
 11
1121.994718
 21
351.102046
 31
0.0
  0
LINE
  5
C872
  8
ALPHA
 10
1120.709638
 20
374.521781
 30
0.0
 11
1122.794718
 21
376.606861
 31
0.0
  0
POLYLINE
  5
C873
  8
ALPHA
 66
     1
 10
0.0
 20
0.0
 30
0.0
  0
VERTEX
  5
FF8A
  8
ALPHA
 10
1121.994718
 20
376.711677
 30
0.0
  0
VERTEX
  5
FF8B
  8
ALPHA
 10
1121.392777
 20
376.590387
 30
0.0
  0
VERTEX
  5
FF8C
  8
ALPHA
 10
1120.887533
 20
376.248362
 30
0.0
  0
VERTEX
  5
FF8D
  8
ALPHA
 10
1120.555408
 20
375.744699
 30
0.0
  0
VERTEX
  5
FF8E
  8
ALPHA
 10
1120.439998
 20
375.156861
 30
0.0
  0
VERTEX
  5
FF8F
  8
ALPHA
 10
1120.555408
 20
374.569024
 30
0.0
  0
VERTEX
  5
FF90
  8
ALPHA
 10
1120.887533
 20
374.06536
 30
0.0
  0
VERTEX
  5
FF91
  8
ALPHA
 10
1121.392777
 20
373.723335
 30
0.0
  0
VERTEX
  5
FF92
  8
ALPHA
 10
1121.994718
 20
373.602046
 30
0.0
  0
SEQEND
  5
FF93
  8
ALPHA
  0
POLYLINE
  5
C87E
  8
ALPHA
 66
     1
 10
0.0
 20
0.0
 30
0.0
  0
VERTEX
  5
FF94
  8
ALPHA
 10
1121.994718
 20
376.606861
 30
0.0
  0
VERTEX
  5
FF95
  8
ALPHA
 10
1121.433061
 20
376.493662
 30
0.0
  0
VERTEX
  5
FF96
  8
ALPHA
 10
1120.961263
 20
376.173948
 30
0.0
  0
VERTEX
  5
FF97
  8
ALPHA
 10
1120.652235
 20
375.704793
 30
0.0
  0
VERTEX
  5
FF98
  8
ALPHA
 10
1120.544718
 20
375.156861
 30
0.0
  0
VERTEX
  5
FF99
  8
ALPHA
 10
1120.652235
 20
374.608929
 30
0.0
  0
VERTEX
  5
FF9A
  8
ALPHA
 10
1120.961263
 20
374.139775
 30
0.0
  0
VERTEX
  5
FF9B
  8
ALPHA
 10
1121.433061
 20
373.820061
 30
0.0
  0
VERTEX
  5
FF9C
  8
ALPHA
 10
1121.994718
 20
373.706861
 30
0.0
  0
SEQEND
  5
FF9D
  8
ALPHA
  0
POLYLINE
  5
C889
  8
ALPHA
 66
     1
 10
0.0
 20
0.0
 30
0.0
  0
VERTEX
  5
FF9E
  8
ALPHA
 10
1121.994718
 20
369.211677
 30
0.0
  0
VERTEX
  5
FF9F
  8
ALPHA
 10
1121.392777
 20
369.090387
 30
0.0
  0
VERTEX
  5
FFA0
  8
ALPHA
 10
1120.887533
 20
368.748362
 30
0.0
  0
VERTEX
  5
FFA1
  8
ALPHA
 10
1120.555408
 20
368.244699
 30
0.0
  0
VERTEX
  5
FFA2
  8
ALPHA
 10
1120.439998
 20
367.656861
 30
0.0
  0
VERTEX
  5
FFA3
  8
ALPHA
 10
1120.555408
 20
367.069024
 30
0.0
  0
VERTEX
  5
FFA4
  8
ALPHA
 10
1120.887533
 20
366.56536
 30
0.0
  0
VERTEX
  5
FFA5
  8
ALPHA
 10
1121.392777
 20
366.223335
 30
0.0
  0
VERTEX
  5
FFA6
  8
ALPHA
 10
1121.994718
 20
366.102046
 30
0.0
  0
SEQEND
  5
FFA7
  8
ALPHA
  0
POLYLINE
  5
C894
  8
ALPHA
 66
     1
 10
0.0
 20
0.0
 30
0.0
  0
VERTEX
  5
FFA8
  8
ALPHA
 10
1121.994718
 20
369.106861
 30
0.0
  0
VERTEX
  5
FFA9
  8
ALPHA
 10
1121.433061
 20
368.993662
 30
0.0
  0
VERTEX
  5
FFAA
  8
ALPHA
 10
1120.961263
 20
368.673948
 30
0.0
  0
VERTEX
  5
FFAB
  8
ALPHA
 10
1120.652235
 20
368.204793
 30
0.0
  0
VERTEX
  5
FFAC
  8
ALPHA
 10
1120.544718
 20
367.656861
 30
0.0
  0
VERTEX
  5
FFAD
  8
ALPHA
 10
1120.652235
 20
367.108929
 30
0.0
  0
VERTEX
  5
FFAE
  8
ALPHA
 10
1120.961263
 20
366.639775
 30
0.0
  0
VERTEX
  5
FFAF
  8
ALPHA
 10
1121.433061
 20
366.320061
 30
0.0
  0
VERTEX
  5
FFB0
  8
ALPHA
 10
1121.994718
 20
366.206861
 30
0.0
  0
SEQEND
  5
FFB1
  8
ALPHA
  0
POLYLINE
  5
C89F
  8
ALPHA
 66
     1
 10
0.0
 20
0.0
 30
0.0
  0
VERTEX
  5
FFB2
  8
ALPHA
 10
1121.994718
 20
361.711677
 30
0.0
  0
VERTEX
  5
FFB3
  8
ALPHA
 10
1121.392777
 20
361.590387
 30
0.0
  0
VERTEX
  5
FFB4
  8
ALPHA
 10
1120.887533
 20
361.248362
 30
0.0
  0
VERTEX
  5
FFB5
  8
ALPHA
 10
1120.555408
 20
360.744699
 30
0.0
  0
VERTEX
  5
FFB6
  8
ALPHA
 10
1120.439998
 20
360.156861
 30
0.0
  0
VERTEX
  5
FFB7
  8
ALPHA
 10
1120.555408
 20
359.569024
 30
0.0
  0
VERTEX
  5
FFB8
  8
ALPHA
 10
1120.887533
 20
359.06536
 30
0.0
  0
VERTEX
  5
FFB9
  8
ALPHA
 10
1121.392777
 20
358.723335
 30
0.0
  0
VERTEX
  5
FFBA
  8
ALPHA
 10
1121.994718
 20
358.602046
 30
0.0
  0
SEQEND
  5
FFBB
  8
ALPHA
  0
POLYLINE
  5
C8AA
  8
ALPHA
 66
     1
 10
0.0
 20
0.0
 30
0.0
  0
VERTEX
  5
FFBC
  8
ALPHA
 10
1121.994718
 20
361.606861
 30
0.0
  0
VERTEX
  5
FFBD
  8
ALPHA
 10
1121.433061
 20
361.493662
 30
0.0
  0
VERTEX
  5
FFBE
  8
ALPHA
 10
1120.961263
 20
361.173948
 30
0.0
  0
VERTEX
  5
FFBF
  8
ALPHA
 10
1120.652235
 20
360.704793
 30
0.0
  0
VERTEX
  5
FFC0
  8
ALPHA
 10
1120.544718
 20
360.156861
 30
0.0
  0
VERTEX
  5
FFC1
  8
ALPHA
 10
1120.652235
 20
359.608929
 30
0.0
  0
VERTEX
  5
FFC2
  8
ALPHA
 10
1120.961263
 20
359.139775
 30
0.0
  0
VERTEX
  5
FFC3
  8
ALPHA
 10
1121.433061
 20
358.820061
 30
0.0
  0
VERTEX
  5
FFC4
  8
ALPHA
 10
1121.994718
 20
358.706861
 30
0.0
  0
SEQEND
  5
FFC5
  8
ALPHA
  0
LINE
  5
C8B5
  8
ALPHA
 10
1121.994718
 20
361.606861
 30
0.0
 11
1121.994718
 21
361.711677
 31
0.0
  0
LINE
  5
C8B6
  8
ALPHA
 10
1121.994718
 20
354.106861
 30
0.0
 11
1121.994718
 21
354.211677
 31
0.0
  0
LINE
  5
C8B7
  8
ALPHA
 10
1121.994718
 20
358.706861
 30
0.0
 11
1121.994718
 21
358.602046
 31
0.0
  0
LINE
  5
C8B8
  8
ALPHA
 10
1121.994718
 20
376.606861
 30
0.0
 11
1121.994718
 21
376.711677
 31
0.0
  0
LINE
  5
C8B9
  8
ALPHA
 10
1121.994718
 20
369.106861
 30
0.0
 11
1121.994718
 21
369.211677
 31
0.0
  0
LINE
  5
C8BA
  8
ALPHA
 10
1121.994718
 20
366.206861
 30
0.0
 11
1121.994718
 21
366.102046
 31
0.0
  0
LINE
  5
C8BB
  8
ALPHA
 10
1121.994718
 20
373.706861
 30
0.0
 11
1121.994718
 21
373.602046
 31
0.0
  0
LINE
  5
C8BC
  8
ALPHA
 10
1137.602549
 20
416.756861
 30
0.0
 11
1138.690189
 21
416.756861
 31
0.0
  0
LINE
  5
C8BD
  8
ALPHA
 10
1137.79609
 20
416.506861
 30
0.0
 11
1137.612334
 21
416.506861
 31
0.0
  0
LINE
  5
C8BE
  8
ALPHA
 10
1134.382078
 20
416.274314
 30
0.0
 11
1140.676248
 21
416.274314
 31
0.0
  0
LINE
  5
C8BF
  8
ALPHA
 10
1137.605705
 20
416.187712
 30
0.0
 11
1137.762753
 21
416.187712
 31
0.0
  0
LINE
  5
C8C0
  8
ALPHA
 10
1137.650382
 20
413.82601
 30
0.0
 11
1137.617932
 21
413.82601
 31
0.0
  0
LINE
  5
C8C1
  8
ALPHA
 10
1137.612341
 20
413.506861
 30
0.0
 11
1137.64479
 21
413.506861
 31
0.0
  0
LINE
  5
C8C2
  8
ALPHA
 10
1138.502126
 20
413.256861
 30
0.0
 11
1137.414898
 21
413.256861
 31
0.0
  0
LINE
  5
C8C3
  8
ALPHA
 10
1137.482301
 20
404.156861
 30
0.0
 11
1138.086147
 21
404.156861
 31
0.0
  0
LINE
  5
C8C4
  8
ALPHA
 10
1138.020129
 20
400.406861
 30
0.0
 11
1137.416405
 21
400.406861
 31
0.0
  0
LINE
  5
C8C5
  8
ALPHA
 10
1142.598769
 20
400.156861
 30
0.0
 11
1134.100747
 21
400.156861
 31
0.0
  0
LINE
  5
C8C6
  8
ALPHA
 10
1143.544718
 20
399.356861
 30
0.0
 11
1111.31854
 21
398.794351
 31
0.0
  0
LINE
  5
C8C7
  8
ALPHA
 10
1117.465795
 20
397.401881
 30
0.0
 11
1143.544718
 21
397.85709
 31
0.0
  0
LINE
  5
C8C8
  8
ALPHA
 10
1137.645989
 20
415.421755
 30
0.0
 11
1137.617948
 21
415.357925
 31
0.0
  0
LINE
  5
C8C9
  8
ALPHA
 10
1137.617716
 20
415.038776
 30
0.0
 11
1137.640382
 21
415.102606
 31
0.0
  0
POLYLINE
  5
C8CA
  8
ALPHA
 66
     1
 10
0.0
 20
0.0
 30
0.0
  0
VERTEX
  5
FFC6
  8
ALPHA
 10
1138.12245
 20
404.332508
 30
0.0
  0
VERTEX
  5
FFC7
  8
ALPHA
 10
1137.988069
 20
403.810145
 30
0.0
  0
VERTEX
  5
FFC8
  8
ALPHA
 10
1137.847967
 20
403.541121
 30
0.0
  0
VERTEX
  5
FFC9
  8
ALPHA
 10
1137.711235
 20
403.543269
 30
0.0
  0
VERTEX
  5
FFCA
  8
ALPHA
 10
1137.586066
 20
403.815522
 30
0.0
  0
VERTEX
  5
FFCB
  8
ALPHA
 10
1137.479472
 20
404.338797
 30
0.0
  0
VERTEX
  5
FFCC
  8
ALPHA
 10
1137.396411
 20
405.08166
 30
0.0
  0
VERTEX
  5
FFCD
  8
ALPHA
 10
1137.340462
 20
406.003564
 30
0.0
  0
VERTEX
  5
FFCE
  8
ALPHA
 10
1137.314066
 20
407.055807
 30
0.0
  0
VERTEX
  5
FFCF
  8
ALPHA
 10
1137.318534
 20
408.174314
 30
0.0
  0
SEQEND
  5
FFD0
  8
ALPHA
  0
LINE
  5
C8D6
  8
ALPHA
 10
1138.094718
 20
384.211677
 30
0.0
 11
1121.994718
 21
384.211677
 31
0.0
  0
LINE
  5
C8D7
  8
ALPHA
 10
1138.094718
 20
384.106861
 30
0.0
 11
1121.994718
 21
384.106861
 31
0.0
  0
LINE
  5
C8D8
  8
ALPHA
 10
1121.994718
 20
381.206861
 30
0.0
 11
1138.094718
 21
381.206861
 31
0.0
  0
LINE
  5
C8D9
  8
ALPHA
 10
1121.994718
 20
381.102046
 30
0.0
 11
1138.094718
 21
381.102046
 31
0.0
  0
LINE
  5
C8DA
  8
ALPHA
 10
1137.627755
 20
403.590372
 30
0.0
 11
1137.60111
 21
403.335053
 31
0.0
  0
LINE
  5
C8DB
  8
ALPHA
 10
1137.617657
 20
403.015904
 30
0.0
 11
1137.632128
 21
403.207393
 31
0.0
  0
POLYLINE
  5
C8DC
  8
ALPHA
 66
     1
 10
0.0
 20
0.0
 30
0.0
  0
VERTEX
  5
FFD1
  8
ALPHA
 10
1137.318534
 20
408.174314
 30
0.0
  0
VERTEX
  5
FFD2
  8
ALPHA
 10
1137.353472
 20
409.293646
 30
0.0
  0
VERTEX
  5
FFD3
  8
ALPHA
 10
1137.417145
 20
410.348378
 30
0.0
  0
VERTEX
  5
FFD4
  8
ALPHA
 10
1137.505959
 20
411.271988
 30
0.0
  0
VERTEX
  5
FFD5
  8
ALPHA
 10
1137.615675
 20
412.014872
 30
0.0
  0
VERTEX
  5
FFD6
  8
ALPHA
 10
1137.741159
 20
412.536135
 30
0.0
  0
VERTEX
  5
FFD7
  8
ALPHA
 10
1137.876226
 20
412.804702
 30
0.0
  0
VERTEX
  5
FFD8
  8
ALPHA
 10
1138.013021
 20
412.802458
 30
0.0
  0
VERTEX
  5
FFD9
  8
ALPHA
 10
1138.143299
 20
412.529967
 30
0.0
  0
VERTEX
  5
FFDA
  8
ALPHA
 10
1138.258759
 20
412.006168
 30
0.0
  0
SEQEND
  5
FFDB
  8
ALPHA
  0
LINE
  5
C8E8
  8
ALPHA
 10
1137.635233
 20
401.16484
 30
0.0
 11
1137.614038
 21
401.22867
 31
0.0
  0
LINE
  5
C8E9
  8
ALPHA
 10
1137.601738
 20
400.845691
 30
0.0
 11
1137.628501
 21
400.781861
 31
0.0
  0
POLYLINE
  5
C8EA
  8
ALPHA
 66
     1
 10
0.0
 20
0.0
 30
0.0
  0
VERTEX
  5
FFDC
  8
ALPHA
 10
1138.094718
 20
381.102046
 30
0.0
  0
VERTEX
  5
FFDD
  8
ALPHA
 10
1138.696718
 20
381.22328
 30
0.0
  0
VERTEX
  5
FFDE
  8
ALPHA
 10
1139.202026
 20
381.565291
 30
0.0
  0
VERTEX
  5
FFDF
  8
ALPHA
 10
1139.534202
 20
382.068979
 30
0.0
  0
VERTEX
  5
FFE0
  8
ALPHA
 10
1139.64963
 20
382.656861
 30
0.0
  0
VERTEX
  5
FFE1
  8
ALPHA
 10
1139.534202
 20
383.244744
 30
0.0
  0
VERTEX
  5
FFE2
  8
ALPHA
 10
1139.202026
 20
383.748432
 30
0.0
  0
VERTEX
  5
FFE3
  8
ALPHA
 10
1138.696718
 20
384.090443
 30
0.0
  0
VERTEX
  5
FFE4
  8
ALPHA
 10
1138.094718
 20
384.211677
 30
0.0
  0
SEQEND
  5
FFE5
  8
ALPHA
  0
POLYLINE
  5
C8F5
  8
ALPHA
 66
     1
 10
0.0
 20
0.0
 30
0.0
  0
VERTEX
  5
FFE6
  8
ALPHA
 10
1138.094718
 20
381.206861
 30
0.0
  0
VERTEX
  5
FFE7
  8
ALPHA
 10
1138.656375
 20
381.320061
 30
0.0
  0
VERTEX
  5
FFE8
  8
ALPHA
 10
1139.128173
 20
381.639775
 30
0.0
  0
VERTEX
  5
FFE9
  8
ALPHA
 10
1139.437202
 20
382.108929
 30
0.0
  0
VERTEX
  5
FFEA
  8
ALPHA
 10
1139.544718
 20
382.656861
 30
0.0
  0
VERTEX
  5
FFEB
  8
ALPHA
 10
1139.437202
 20
383.204794
 30
0.0
  0
VERTEX
  5
FFEC
  8
ALPHA
 10
1139.128173
 20
383.673948
 30
0.0
  0
VERTEX
  5
FFED
  8
ALPHA
 10
1138.656375
 20
383.993662
 30
0.0
  0
VERTEX
  5
FFEE
  8
ALPHA
 10
1138.094718
 20
384.106861
 30
0.0
  0
SEQEND
  5
FFEF
  8
ALPHA
  0
LINE
  5
C900
  8
ALPHA
 10
1138.094718
 20
384.106861
 30
0.0
 11
1138.094718
 21
384.211677
 31
0.0
  0
LINE
  5
C901
  8
ALPHA
 10
1138.094718
 20
381.206861
 30
0.0
 11
1138.094718
 21
381.102046
 31
0.0
  0
LINE
  5
C902
  8
ALPHA
 10
1140.676248
 20
416.274314
 30
0.0
 11
1140.436533
 21
400.156861
 31
0.0
  0
LINE
  5
C903
  8
ALPHA
 10
1141.663507
 20
416.274314
 30
0.0
 11
1141.423717
 21
400.156861
 31
0.0
  0
LINE
  5
C904
  8
ALPHA
 10
1142.598769
 20
400.156861
 30
0.0
 11
1142.770927
 21
411.756861
 31
0.0
  0
LINE
  5
C905
  8
ALPHA
 10
1146.544718
 20
408.756861
 30
0.0
 11
1146.544718
 21
411.756861
 31
0.0
  0
POLYLINE
  5
C906
  8
ALPHA
 66
     1
 10
0.0
 20
0.0
 30
0.0
  0
VERTEX
  5
FFF0
  8
ALPHA
 10
1138.258759
 20
412.006168
 30
0.0
  0
VERTEX
  5
FFF1
  8
ALPHA
 10
1138.352362
 20
411.262928
 30
0.0
  0
VERTEX
  5
FFF2
  8
ALPHA
 10
1138.418176
 20
410.341335
 30
0.0
  0
VERTEX
  5
FFF3
  8
ALPHA
 10
1138.451583
 20
409.290432
 30
0.0
  0
VERTEX
  5
FFF4
  8
ALPHA
 10
1138.449689
 20
408.174314
 30
0.0
  0
SEQEND
  5
FFF5
  8
ALPHA
  0
POLYLINE
  5
C90D
  8
ALPHA
 66
     1
 10
0.0
 20
0.0
 30
0.0
  0
VERTEX
  5
FFF6
  8
ALPHA
 10
1138.166909
 20
412.256272
 30
0.0
  0
VERTEX
  5
FFF7
  8
ALPHA
 10
1138.169858
 20
412.248374
 30
0.0
  0
VERTEX
  5
FFF8
  8
ALPHA
 10
1138.197023
 20
412.156818
 30
0.0
  0
VERTEX
  5
FFF9
  8
ALPHA
 10
1138.236313
 20
411.980804
 30
0.0
  0
VERTEX
  5
FFFA
  8
ALPHA
 10
1138.279134
 20
411.730038
 30
0.0
  0
VERTEX
  5
FFFB
  8
ALPHA
 10
1138.321259
 20
411.410391
 30
0.0
  0
VERTEX
  5
FFFC
  8
ALPHA
 10
1138.35986
 20
411.027978
 30
0.0
  0
VERTEX
  5
FFFD
  8
ALPHA
 10
1138.393034
 20
410.588704
 30
0.0
  0
VERTEX
  5
FFFE
  8
ALPHA
 10
1138.419171
 20
410.099927
 30
0.0
  0
VERTEX
  5
FFFF
  8
ALPHA
 10
1138.43708
 20
409.570035
 30
0.0
  0
VERTEX
  5
10000
  8
ALPHA
 10
1138.445823
 20
409.008667
 30
0.0
  0
VERTEX
  5
10001
  8
ALPHA
 10
1138.444815
 20
408.426419
 30
0.0
  0
VERTEX
  5
10002
  8
ALPHA
 10
1138.441309
 20
408.174421
 30
0.0
  0
SEQEND
  5
10003
  8
ALPHA
  0
POLYLINE
  5
C91C
  8
ALPHA
 66
     1
 10
0.0
 20
0.0
 30
0.0
  0
VERTEX
  5
10004
  8
ALPHA
 10
1137.699916
 20
403.781861
 30
0.0
  0
VERTEX
  5
10005
  8
ALPHA
 10
1137.694879
 20
403.775409
 30
0.0
  0
VERTEX
  5
10006
  8
ALPHA
 10
1137.689966
 20
403.768972
 30
0.0
  0
VERTEX
  5
10007
  8
ALPHA
 10
1137.685177
 20
403.762551
 30
0.0
  0
VERTEX
  5
10008
  8
ALPHA
 10
1137.680516
 20
403.756145
 30
0.0
  0
VERTEX
  5
10009
  8
ALPHA
 10
1137.675984
 20
403.749755
 30
0.0
  0
VERTEX
  5
1000A
  8
ALPHA
 10
1137.671583
 20
403.74338
 30
0.0
  0
VERTEX
  5
1000B
  8
ALPHA
 10
1137.667316
 20
403.73702
 30
0.0
  0
VERTEX
  5
1000C
  8
ALPHA
 10
1137.663185
 20
403.730675
 30
0.0
  0
VERTEX
  5
1000D
  8
ALPHA
 10
1137.659191
 20
403.724346
 30
0.0
  0
VERTEX
  5
1000E
  8
ALPHA
 10
1137.655337
 20
403.718032
 30
0.0
  0
SEQEND
  5
1000F
  8
ALPHA
  0
LINE
  5
C929
  8
ALPHA
 10
1143.544718
 20
408.756861
 30
0.0
 11
1146.544718
 21
408.756861
 31
0.0
  0
LINE
  5
C92A
  8
ALPHA
 10
1137.764557
 20
403.781861
 30
0.0
 11
1137.699916
 21
403.781861
 31
0.0
  0
LINE
  5
C92B
  8
ALPHA
 10
1137.933612
 20
403.781861
 30
0.0
 11
1137.909065
 21
403.781861
 31
0.0
  0
LINE
  5
C92C
  8
ALPHA
 10
1137.674515
 20
403.398883
 30
0.0
 11
1137.724994
 21
403.398883
 31
0.0
  0
LINE
  5
C92D
  8
ALPHA
 10
1137.763408
 20
403.015904
 30
0.0
 11
1137.797478
 21
403.015904
 31
0.0
  0
LINE
  5
C92E
  8
ALPHA
 10
1143.544718
 20
402.306861
 30
0.0
 11
1142.630678
 21
402.306861
 31
0.0
  0
LINE
  5
C92F
  8
ALPHA
 10
1137.771685
 20
401.547819
 30
0.0
 11
1137.737617
 21
401.547819
 31
0.0
  0
LINE
  5
C930
  8
ALPHA
 10
1137.685713
 20
401.16484
 30
0.0
 11
1137.635237
 21
401.16484
 31
0.0
  0
LINE
  5
C931
  8
ALPHA
 10
1137.628507
 20
400.781861
 30
0.0
 11
1137.678981
 21
400.781861
 31
0.0
  0
LINE
  5
C932
  8
ALPHA
 10
1137.838339
 20
400.781861
 30
0.0
 11
1137.872945
 21
400.781861
 31
0.0
  0
LINE
  5
C933
  8
ALPHA
 10
1137.678976
 20
400.781861
 30
0.0
 11
1137.708296
 21
400.845691
 31
0.0
  0
LINE
  5
C934
  8
ALPHA
 10
1138.027877
 20
404.099204
 30
0.0
 11
1138.022079
 21
404.084469
 31
0.0
  0
LINE
  5
C935
  8
ALPHA
 10
1137.709381
 20
401.22867
 30
0.0
 11
1137.685709
 21
401.16484
 31
0.0
  0
LINE
  5
C936
  8
ALPHA
 10
1137.651064
 20
403.335053
 30
0.0
 11
1137.674505
 21
403.398883
 31
0.0
  0
POLYLINE
  5
C937
  8
ALPHA
 66
     1
 10
0.0
 20
0.0
 30
0.0
  0
VERTEX
  5
10010
  8
ALPHA
 10
1137.655337
 20
403.718032
 30
0.0
  0
VERTEX
  5
10011
  8
ALPHA
 10
1137.653614
 20
403.712121
 30
0.0
  0
VERTEX
  5
10012
  8
ALPHA
 10
1137.651955
 20
403.706219
 30
0.0
  0
VERTEX
  5
10013
  8
ALPHA
 10
1137.65036
 20
403.700327
 30
0.0
  0
VERTEX
  5
10014
  8
ALPHA
 10
1137.64883
 20
403.694443
 30
0.0
  0
VERTEX
  5
10015
  8
ALPHA
 10
1137.647364
 20
403.688569
 30
0.0
  0
VERTEX
  5
10016
  8
ALPHA
 10
1137.645962
 20
403.682704
 30
0.0
  0
VERTEX
  5
10017
  8
ALPHA
 10
1137.644623
 20
403.676848
 30
0.0
  0
VERTEX
  5
10018
  8
ALPHA
 10
1137.643348
 20
403.671001
 30
0.0
  0
VERTEX
  5
10019
  8
ALPHA
 10
1137.642136
 20
403.665163
 30
0.0
  0
VERTEX
  5
1001A
  8
ALPHA
 10
1137.640988
 20
403.659334
 30
0.0
  0
SEQEND
  5
1001B
  8
ALPHA
  0
POLYLINE
  5
C944
  8
ALPHA
 66
     1
 10
0.0
 20
0.0
 30
0.0
  0
VERTEX
  5
1001C
  8
ALPHA
 10
1137.909065
 20
403.781861
 30
0.0
  0
VERTEX
  5
1001D
  8
ALPHA
 10
1137.905114
 20
403.766324
 30
0.0
  0
VERTEX
  5
1001E
  8
ALPHA
 10
1137.90135
 20
403.75081
 30
0.0
  0
VERTEX
  5
1001F
  8
ALPHA
 10
1137.897773
 20
403.73532
 30
0.0
  0
VERTEX
  5
10020
  8
ALPHA
 10
1137.894382
 20
403.719854
 30
0.0
  0
VERTEX
  5
10021
  8
ALPHA
 10
1137.891178
 20
403.704412
 30
0.0
  0
VERTEX
  5
10022
  8
ALPHA
 10
1137.888159
 20
403.688994
 30
0.0
  0
VERTEX
  5
10023
  8
ALPHA
 10
1137.885326
 20
403.6736
 30
0.0
  0
VERTEX
  5
10024
  8
ALPHA
 10
1137.882679
 20
403.65823
 30
0.0
  0
VERTEX
  5
10025
  8
ALPHA
 10
1137.880216
 20
403.642885
 30
0.0
  0
VERTEX
  5
10026
  8
ALPHA
 10
1137.877939
 20
403.627563
 30
0.0
  0
VERTEX
  5
10027
  8
ALPHA
 10
1137.875848
 20
403.612265
 30
0.0
  0
VERTEX
  5
10028
  8
ALPHA
 10
1137.873943
 20
403.596992
 30
0.0
  0
VERTEX
  5
10029
  8
ALPHA
 10
1137.872223
 20
403.581742
 30
0.0
  0
VERTEX
  5
1002A
  8
ALPHA
 10
1137.87069
 20
403.566517
 30
0.0
  0
SEQEND
  5
1002B
  8
ALPHA
  0
LINE
  5
C955
  8
ALPHA
 10
1137.640966
 20
403.659336
 30
0.0
 11
1137.627755
 21
403.590372
 31
0.0
  0
LINE
  5
C956
  8
ALPHA
 10
1137.708296
 20
400.845691
 30
0.0
 11
1137.733181
 21
400.973351
 31
0.0
  0
LINE
  5
C957
  8
ALPHA
 10
1137.728585
 20
401.35633
 30
0.0
 11
1137.709381
 21
401.22867
 31
0.0
  0
LINE
  5
C958
  8
ALPHA
 10
1137.632128
 20
403.207393
 30
0.0
 11
1137.651064
 21
403.335053
 31
0.0
  0
LINE
  5
C959
  8
ALPHA
 10
1137.733181
 20
400.973351
 30
0.0
 11
1137.760381
 21
401.22867
 31
0.0
  0
LINE
  5
C95A
  8
ALPHA
 10
1137.870682
 20
403.566518
 30
0.0
 11
1137.848786
 21
403.335053
 31
0.0
  0
LINE
  5
C95B
  8
ALPHA
 10
1137.839807
 20
402.824415
 30
0.0
 11
1137.882111
 21
403.271223
 31
0.0
  0
LINE
  5
C95C
  8
ALPHA
 10
1137.737614
 20
401.547819
 30
0.0
 11
1137.728585
 21
401.35633
 31
0.0
  0
POLYLINE
  5
C95D
  8
ALPHA
 66
     1
 10
0.0
 20
0.0
 30
0.0
  0
VERTEX
  5
1002C
  8
ALPHA
 10
1138.294776
 20
408.156861
 30
0.0
  0
VERTEX
  5
1002D
  8
ALPHA
 10
1138.329917
 20
409.040849
 30
0.0
  0
VERTEX
  5
1002E
  8
ALPHA
 10
1138.393577
 20
409.868958
 30
0.0
  0
VERTEX
  5
1002F
  8
ALPHA
 10
1138.419749
 20
410.082833
 30
0.0
  0
SEQEND
  5
10030
  8
ALPHA
  0
LINE
  5
C963
  8
ALPHA
 10
1137.760381
 20
401.22867
 30
0.0
 11
1137.771682
 21
401.547819
 31
0.0
  0
POLYLINE
  5
C964
  8
ALPHA
 66
     1
 10
0.0
 20
0.0
 30
0.0
  0
VERTEX
  5
10031
  8
ALPHA
 10
1138.449689
 20
408.174314
 30
0.0
  0
VERTEX
  5
10032
  8
ALPHA
 10
1138.412292
 20
407.056374
 30
0.0
  0
VERTEX
  5
10033
  8
ALPHA
 10
1138.341595
 20
406.001532
 30
0.0
  0
VERTEX
  5
10034
  8
ALPHA
 10
1138.242814
 20
405.076813
 30
0.0
  0
VERTEX
  5
10035
  8
ALPHA
 10
1138.12245
 20
404.332508
 30
0.0
  0
SEQEND
  5
10036
  8
ALPHA
  0
POLYLINE
  5
C96B
  8
ALPHA
 66
     1
 10
0.0
 20
0.0
 30
0.0
  0
VERTEX
  5
10037
  8
ALPHA
 10
1137.923452
 20
403.652765
 30
0.0
  0
VERTEX
  5
10038
  8
ALPHA
 10
1137.923656
 20
403.662052
 30
0.0
  0
VERTEX
  5
10039
  8
ALPHA
 10
1137.923941
 20
403.67133
 30
0.0
  0
VERTEX
  5
1003A
  8
ALPHA
 10
1137.924307
 20
403.680597
 30
0.0
  0
VERTEX
  5
1003B
  8
ALPHA
 10
1137.924754
 20
403.689854
 30
0.0
  0
VERTEX
  5
1003C
  8
ALPHA
 10
1137.925282
 20
403.699101
 30
0.0
  0
VERTEX
  5
1003D
  8
ALPHA
 10
1137.925889
 20
403.708337
 30
0.0
  0
VERTEX
  5
1003E
  8
ALPHA
 10
1137.926577
 20
403.717563
 30
0.0
  0
VERTEX
  5
1003F
  8
ALPHA
 10
1137.927344
 20
403.726779
 30
0.0
  0
VERTEX
  5
10040
  8
ALPHA
 10
1137.928191
 20
403.735985
 30
0.0
  0
VERTEX
  5
10041
  8
ALPHA
 10
1137.929117
 20
403.74518
 30
0.0
  0
VERTEX
  5
10042
  8
ALPHA
 10
1137.930122
 20
403.754366
 30
0.0
  0
VERTEX
  5
10043
  8
ALPHA
 10
1137.931206
 20
403.763541
 30
0.0
  0
VERTEX
  5
10044
  8
ALPHA
 10
1137.93237
 20
403.772706
 30
0.0
  0
VERTEX
  5
10045
  8
ALPHA
 10
1137.933612
 20
403.781861
 30
0.0
  0
SEQEND
  5
10046
  8
ALPHA
  0
POLYLINE
  5
C97C
  8
ALPHA
 66
     1
 10
0.0
 20
0.0
 30
0.0
  0
VERTEX
  5
10047
  8
ALPHA
 10
1138.441301
 20
408.174421
 30
0.0
  0
VERTEX
  5
10048
  8
ALPHA
 10
1138.434641
 20
407.870528
 30
0.0
  0
VERTEX
  5
10049
  8
ALPHA
 10
1138.411341
 20
407.221887
 30
0.0
  0
VERTEX
  5
1004A
  8
ALPHA
 10
1138.377516
 20
406.610105
 30
0.0
  0
VERTEX
  5
1004B
  8
ALPHA
 10
1138.334846
 20
406.046363
 30
0.0
  0
VERTEX
  5
1004C
  8
ALPHA
 10
1138.285236
 20
405.539898
 30
0.0
  0
VERTEX
  5
1004D
  8
ALPHA
 10
1138.230779
 20
405.098158
 30
0.0
  0
VERTEX
  5
1004E
  8
ALPHA
 10
1138.17391
 20
404.727465
 30
0.0
  0
VERTEX
  5
1004F
  8
ALPHA
 10
1138.117484
 20
404.432593
 30
0.0
  0
VERTEX
  5
10050
  8
ALPHA
 10
1138.065904
 20
404.219717
 30
0.0
  0
VERTEX
  5
10051
  8
ALPHA
 10
1138.027877
 20
404.099204
 30
0.0
  0
SEQEND
  5
10052
  8
ALPHA
  0
LINE
  5
C989
  8
ALPHA
 10
1137.848786
 20
403.335053
 30
0.0
 11
1137.839807
 21
402.824415
 31
0.0
  0
LINE
  5
C98A
  8
ALPHA
 10
1137.882111
 20
403.271223
 30
0.0
 11
1137.838333
 21
400.781861
 31
0.0
  0
LINE
  5
C98B
  8
ALPHA
 10
1137.872939
 20
400.781861
 30
0.0
 11
1137.923431
 21
403.652766
 31
0.0
  0
LINE
  5
C98C
  8
ALPHA
 10
1138.086111
 20
404.156861
 30
0.0
 11
1138.020138
 21
400.406861
 31
0.0
  0
LINE
  5
C98D
  8
ALPHA
 10
1137.797496
 20
403.015904
 30
0.0
 11
1137.797418
 21
403.335053
 31
0.0
  0
LINE
  5
C98E
  8
ALPHA
 10
1137.76113
 20
403.207393
 30
0.0
 11
1137.763426
 21
403.015904
 31
0.0
  0
POLYLINE
  5
C98F
  8
ALPHA
 66
     1
 10
0.0
 20
0.0
 30
0.0
  0
VERTEX
  5
10053
  8
ALPHA
 10
1137.797418
 20
403.335053
 30
0.0
  0
VERTEX
  5
10054
  8
ALPHA
 10
1137.784522
 20
403.516391
 30
0.0
  0
VERTEX
  5
10055
  8
ALPHA
 10
1137.784039
 20
403.524617
 30
0.0
  0
VERTEX
  5
10056
  8
ALPHA
 10
1137.783624
 20
403.532841
 30
0.0
  0
VERTEX
  5
10057
  8
ALPHA
 10
1137.783279
 20
403.541064
 30
0.0
  0
VERTEX
  5
10058
  8
ALPHA
 10
1137.783002
 20
403.549286
 30
0.0
  0
VERTEX
  5
10059
  8
ALPHA
 10
1137.782794
 20
403.557506
 30
0.0
  0
VERTEX
  5
1005A
  8
ALPHA
 10
1137.782654
 20
403.565725
 30
0.0
  0
VERTEX
  5
1005B
  8
ALPHA
 10
1137.782583
 20
403.573942
 30
0.0
  0
VERTEX
  5
1005C
  8
ALPHA
 10
1137.782579
 20
403.582158
 30
0.0
  0
VERTEX
  5
1005D
  8
ALPHA
 10
1137.782644
 20
403.590372
 30
0.0
  0
SEQEND
  5
1005E
  8
ALPHA
  0
POLYLINE
  5
C99C
  8
ALPHA
 66
     1
 10
0.0
 20
0.0
 30
0.0
  0
VERTEX
  5
1005F
  8
ALPHA
 10
1137.782644
 20
403.590372
 30
0.0
  0
VERTEX
  5
10060
  8
ALPHA
 10
1137.781752
 20
403.602955
 30
0.0
  0
VERTEX
  5
10061
  8
ALPHA
 10
1137.781011
 20
403.61558
 30
0.0
  0
VERTEX
  5
10062
  8
ALPHA
 10
1137.780419
 20
403.628245
 30
0.0
  0
VERTEX
  5
10063
  8
ALPHA
 10
1137.779976
 20
403.64095
 30
0.0
  0
VERTEX
  5
10064
  8
ALPHA
 10
1137.779682
 20
403.653696
 30
0.0
  0
VERTEX
  5
10065
  8
ALPHA
 10
1137.779535
 20
403.666482
 30
0.0
  0
VERTEX
  5
10066
  8
ALPHA
 10
1137.779536
 20
403.679308
 30
0.0
  0
VERTEX
  5
10067
  8
ALPHA
 10
1137.779682
 20
403.692176
 30
0.0
  0
VERTEX
  5
10068
  8
ALPHA
 10
1137.779975
 20
403.705083
 30
0.0
  0
VERTEX
  5
10069
  8
ALPHA
 10
1137.780412
 20
403.718032
 30
0.0
  0
SEQEND
  5
1006A
  8
ALPHA
  0
POLYLINE
  5
C9A9
  8
ALPHA
 66
     1
 10
0.0
 20
0.0
 30
0.0
  0
VERTEX
  5
1006B
  8
ALPHA
 10
1138.341213
 20
406.130486
 30
0.0
  0
VERTEX
  5
1006C
  8
ALPHA
 10
1138.316749
 20
406.447315
 30
0.0
  0
VERTEX
  5
1006D
  8
ALPHA
 10
1138.290325
 20
407.273784
 30
0.0
  0
VERTEX
  5
1006E
  8
ALPHA
 10
1138.294776
 20
408.156861
 30
0.0
  0
SEQEND
  5
1006F
  8
ALPHA
  0
LINE
  5
C9AF
  8
ALPHA
 10
1137.746414
 20
403.335053
 30
0.0
 11
1137.76113
 21
403.207393
 31
0.0
  0
LINE
  5
C9B0
  8
ALPHA
 10
1137.780412
 20
403.718032
 30
0.0
 11
1137.764557
 21
403.781861
 31
0.0
  0
LINE
  5
C9B1
  8
ALPHA
 10
1137.724984
 20
403.398883
 30
0.0
 11
1137.746414
 21
403.335053
 31
0.0
  0
POLYLINE
  5
C9B2
  8
ALPHA
 66
     1
 10
0.0
 20
0.0
 30
0.0
  0
VERTEX
  5
10070
  8
ALPHA
 10
1138.337049
 20
416.506861
 30
0.0
  0
VERTEX
  5
10071
  8
ALPHA
 10
1138.327508
 20
416.496283
 30
0.0
  0
VERTEX
  5
10072
  8
ALPHA
 10
1138.318074
 20
416.485681
 30
0.0
  0
VERTEX
  5
10073
  8
ALPHA
 10
1138.308749
 20
416.475055
 30
0.0
  0
VERTEX
  5
10074
  8
ALPHA
 10
1138.299532
 20
416.464404
 30
0.0
  0
VERTEX
  5
10075
  8
ALPHA
 10
1138.290423
 20
416.45373
 30
0.0
  0
VERTEX
  5
10076
  8
ALPHA
 10
1138.281422
 20
416.443031
 30
0.0
  0
SEQEND
  5
10077
  8
ALPHA
  0
POLYLINE
  5
C9BB
  8
ALPHA
 66
     1
 10
0.0
 20
0.0
 30
0.0
  0
VERTEX
  5
10078
  8
ALPHA
 10
1141.663507
 20
416.274314
 30
0.0
  0
VERTEX
  5
10079
  8
ALPHA
 10
1141.317905
 20
416.27838
 30
0.0
  0
VERTEX
  5
1007A
  8
ALPHA
 10
1141.014904
 20
416.279793
 30
0.0
  0
VERTEX
  5
1007B
  8
ALPHA
 10
1140.791853
 20
416.27838
 30
0.0
  0
VERTEX
  5
1007C
  8
ALPHA
 10
1140.676248
 20
416.274314
 30
0.0
  0
SEQEND
  5
1007D
  8
ALPHA
  0
LINE
  5
C9C2
  8
ALPHA
 10
1138.018913
 20
416.506861
 30
0.0
 11
1137.985032
 21
416.506861
 31
0.0
  0
LINE
  5
C9C3
  8
ALPHA
 10
1138.348857
 20
416.506861
 30
0.0
 11
1138.337033
 21
416.506861
 31
0.0
  0
LINE
  5
C9C4
  8
ALPHA
 10
1138.297754
 20
416.187712
 30
0.0
 11
1138.321401
 21
416.187712
 31
0.0
  0
LINE
  5
C9C5
  8
ALPHA
 10
1138.202984
 20
415.804734
 30
0.0
 11
1138.232216
 21
415.804734
 31
0.0
  0
LINE
  5
C9C6
  8
ALPHA
 10
1137.67843
 20
415.421755
 30
0.0
 11
1137.645978
 21
415.421755
 31
0.0
  0
LINE
  5
C9C7
  8
ALPHA
 10
1138.303437
 20
415.166436
 30
0.0
 11
1138.279791
 21
415.166436
 31
0.0
  0
LINE
  5
C9C8
  8
ALPHA
 10
1137.640387
 20
415.102606
 30
0.0
 11
1137.672838
 21
415.102606
 31
0.0
  0
LINE
  5
C9C9
  8
ALPHA
 10
1138.2753
 20
414.911117
 30
0.0
 11
1138.298946
 21
414.911117
 31
0.0
  0
LINE
  5
C9CA
  8
ALPHA
 10
1138.198312
 20
414.208989
 30
0.0
 11
1138.169104
 21
414.208989
 31
0.0
  0
LINE
  5
C9CB
  8
ALPHA
 10
1138.116978
 20
413.88984
 30
0.0
 11
1137.94517
 21
413.88984
 31
0.0
  0
LINE
  5
C9CC
  8
ALPHA
 10
1138.285768
 20
413.82601
 30
0.0
 11
1138.2503
 21
413.82601
 31
0.0
  0
LINE
  5
C9CD
  8
ALPHA
 10
1138.238806
 20
413.506861
 30
0.0
 11
1138.286096
 21
413.506861
 31
0.0
  0
LINE
  5
C9CE
  8
ALPHA
 10
1137.904562
 20
413.506861
 30
0.0
 11
1138.110244
 21
413.506861
 31
0.0
  0
POLYLINE
  5
C9CF
  8
ALPHA
 66
     1
 10
0.0
 20
0.0
 30
0.0
  0
VERTEX
  5
1007E
  8
ALPHA
 10
1138.690192
 20
416.756861
 30
0.0
  0
VERTEX
  5
1007F
  8
ALPHA
 10
1138.681014
 20
416.74076
 30
0.0
  0
VERTEX
  5
10080
  8
ALPHA
 10
1138.672174
 20
416.724568
 30
0.0
  0
VERTEX
  5
10081
  8
ALPHA
 10
1138.663669
 20
416.708284
 30
0.0
  0
VERTEX
  5
10082
  8
ALPHA
 10
1138.655498
 20
416.691912
 30
0.0
  0
VERTEX
  5
10083
  8
ALPHA
 10
1138.647657
 20
416.67545
 30
0.0
  0
VERTEX
  5
10084
  8
ALPHA
 10
1138.640144
 20
416.658902
 30
0.0
  0
VERTEX
  5
10085
  8
ALPHA
 10
1138.632958
 20
416.642268
 30
0.0
  0
VERTEX
  5
10086
  8
ALPHA
 10
1138.626096
 20
416.625548
 30
0.0
  0
VERTEX
  5
10087
  8
ALPHA
 10
1138.619556
 20
416.608745
 30
0.0
  0
VERTEX
  5
10088
  8
ALPHA
 10
1138.613335
 20
416.591858
 30
0.0
  0
VERTEX
  5
10089
  8
ALPHA
 10
1138.607431
 20
416.57489
 30
0.0
  0
VERTEX
  5
1008A
  8
ALPHA
 10
1138.601842
 20
416.557842
 30
0.0
  0
VERTEX
  5
1008B
  8
ALPHA
 10
1138.596565
 20
416.540713
 30
0.0
  0
VERTEX
  5
1008C
  8
ALPHA
 10
1138.591599
 20
416.523507
 30
0.0
  0
VERTEX
  5
1008D
  8
ALPHA
 10
1138.586596
 20
416.50489
 30
0.0
  0
VERTEX
  5
1008E
  8
ALPHA
 10
1138.581953
 20
416.486183
 30
0.0
  0
VERTEX
  5
1008F
  8
ALPHA
 10
1138.577671
 20
416.467385
 30
0.0
  0
VERTEX
  5
10090
  8
ALPHA
 10
1138.573754
 20
416.448496
 30
0.0
  0
VERTEX
  5
10091
  8
ALPHA
 10
1138.570202
 20
416.429515
 30
0.0
  0
VERTEX
  5
10092
  8
ALPHA
 10
1138.567019
 20
416.410442
 30
0.0
  0
VERTEX
  5
10093
  8
ALPHA
 10
1138.564207
 20
416.391277
 30
0.0
  0
VERTEX
  5
10094
  8
ALPHA
 10
1138.561767
 20
416.372019
 30
0.0
  0
VERTEX
  5
10095
  8
ALPHA
 10
1138.559703
 20
416.352667
 30
0.0
  0
VERTEX
  5
10096
  8
ALPHA
 10
1138.558016
 20
416.333221
 30
0.0
  0
VERTEX
  5
10097
  8
ALPHA
 10
1138.556709
 20
416.31368
 30
0.0
  0
VERTEX
  5
10098
  8
ALPHA
 10
1138.555784
 20
416.294045
 30
0.0
  0
VERTEX
  5
10099
  8
ALPHA
 10
1138.555243
 20
416.274314
 30
0.0
  0
SEQEND
  5
1009A
  8
ALPHA
  0
LINE
  5
C9ED
  8
ALPHA
 10
1138.31659
 20
413.88984
 30
0.0
 11
1138.285787
 21
413.82601
 31
0.0
  0
LINE
  5
C9EE
  8
ALPHA
 10
1138.267188
 20
416.123882
 30
0.0
 11
1138.297768
 21
416.187712
 31
0.0
  0
LINE
  5
C9EF
  8
ALPHA
 10
1137.644793
 20
413.506861
 30
0.0
 11
1137.673079
 21
413.570691
 31
0.0
  0
LINE
  5
C9F0
  8
ALPHA
 10
1138.286099
 20
413.506861
 30
0.0
 11
1138.310975
 21
413.570691
 31
0.0
  0
POLYLINE
  5
C9F1
  8
ALPHA
 66
     1
 10
0.0
 20
0.0
 30
0.0
  0
VERTEX
  5
1009B
  8
ALPHA
 10
1138.281422
 20
416.443031
 30
0.0
  0
VERTEX
  5
1009C
  8
ALPHA
 10
1138.276775
 20
416.430416
 30
0.0
  0
VERTEX
  5
1009D
  8
ALPHA
 10
1138.272285
 20
416.417768
 30
0.0
  0
VERTEX
  5
1009E
  8
ALPHA
 10
1138.267952
 20
416.405086
 30
0.0
  0
VERTEX
  5
1009F
  8
ALPHA
 10
1138.263777
 20
416.392371
 30
0.0
  0
VERTEX
  5
100A0
  8
ALPHA
 10
1138.25976
 20
416.379622
 30
0.0
  0
VERTEX
  5
100A1
  8
ALPHA
 10
1138.255901
 20
416.366839
 30
0.0
  0
VERTEX
  5
100A2
  8
ALPHA
 10
1138.252201
 20
416.354023
 30
0.0
  0
VERTEX
  5
100A3
  8
ALPHA
 10
1138.248661
 20
416.341173
 30
0.0
  0
VERTEX
  5
100A4
  8
ALPHA
 10
1138.245281
 20
416.32829
 30
0.0
  0
VERTEX
  5
100A5
  8
ALPHA
 10
1138.242062
 20
416.315372
 30
0.0
  0
SEQEND
  5
100A6
  8
ALPHA
  0
LINE
  5
C9FE
  8
ALPHA
 10
1137.673245
 20
413.88984
 30
0.0
 11
1137.650401
 21
413.82601
 31
0.0
  0
LINE
  5
C9FF
  8
ALPHA
 10
1138.341298
 20
415.294095
 30
0.0
 11
1138.303447
 21
415.166436
 31
0.0
  0
POLYLINE
  5
CA00
  8
ALPHA
 66
     1
 10
0.0
 20
0.0
 30
0.0
  0
VERTEX
  5
100A7
  8
ALPHA
 10
1137.985048
 20
416.506861
 30
0.0
  0
VERTEX
  5
100A8
  8
ALPHA
 10
1137.981769
 20
416.493897
 30
0.0
  0
VERTEX
  5
100A9
  8
ALPHA
 10
1137.978675
 20
416.480935
 30
0.0
  0
VERTEX
  5
100AA
  8
ALPHA
 10
1137.975765
 20
416.467977
 30
0.0
  0
VERTEX
  5
100AB
  8
ALPHA
 10
1137.973037
 20
416.455024
 30
0.0
  0
VERTEX
  5
100AC
  8
ALPHA
 10
1137.97049
 20
416.442075
 30
0.0
  0
VERTEX
  5
100AD
  8
ALPHA
 10
1137.968122
 20
416.429131
 30
0.0
  0
VERTEX
  5
100AE
  8
ALPHA
 10
1137.965931
 20
416.416193
 30
0.0
  0
VERTEX
  5
100AF
  8
ALPHA
 10
1137.963917
 20
416.403261
 30
0.0
  0
VERTEX
  5
100B0
  8
ALPHA
 10
1137.962077
 20
416.390336
 30
0.0
  0
VERTEX
  5
100B1
  8
ALPHA
 10
1137.960411
 20
416.377418
 30
0.0
  0
VERTEX
  5
100B2
  8
ALPHA
 10
1137.958916
 20
416.364506
 30
0.0
  0
VERTEX
  5
100B3
  8
ALPHA
 10
1137.957594
 20
416.351602
 30
0.0
  0
VERTEX
  5
100B4
  8
ALPHA
 10
1137.956442
 20
416.338705
 30
0.0
  0
VERTEX
  5
100B5
  8
ALPHA
 10
1137.95546
 20
416.325814
 30
0.0
  0
VERTEX
  5
100B6
  8
ALPHA
 10
1137.954648
 20
416.31293
 30
0.0
  0
VERTEX
  5
100B7
  8
ALPHA
 10
1137.954004
 20
416.300052
 30
0.0
  0
VERTEX
  5
100B8
  8
ALPHA
 10
1137.953528
 20
416.28718
 30
0.0
  0
VERTEX
  5
100B9
  8
ALPHA
 10
1137.953218
 20
416.274314
 30
0.0
  0
SEQEND
  5
100BA
  8
ALPHA
  0
POLYLINE
  5
CA15
  8
ALPHA
 66
     1
 10
0.0
 20
0.0
 30
0.0
  0
VERTEX
  5
100BB
  8
ALPHA
 10
1140.676248
 20
416.274314
 30
0.0
  0
VERTEX
  5
100BC
  8
ALPHA
 10
1140.756284
 20
416.651605
 30
0.0
  0
VERTEX
  5
100BD
  8
ALPHA
 10
1140.971423
 20
416.970112
 30
0.0
  0
VERTEX
  5
100BE
  8
ALPHA
 10
1141.289626
 20
417.182402
 30
0.0
  0
VERTEX
  5
100BF
  8
ALPHA
 10
1141.663507
 20
417.256861
 30
0.0
  0
SEQEND
  5
100C0
  8
ALPHA
  0
LINE
  5
CA1C
  8
ALPHA
 10
1138.329617
 20
413.95367
 30
0.0
 11
1138.31659
 21
413.88984
 31
0.0
  0
LINE
  5
CA1D
  8
ALPHA
 10
1138.310975
 20
413.570691
 30
0.0
 11
1138.337046
 21
413.698351
 31
0.0
  0
LINE
  5
CA1E
  8
ALPHA
 10
1137.673079
 20
413.570691
 30
0.0
 11
1137.703721
 21
413.76218
 31
0.0
  0
LINE
  5
CA1F
  8
ALPHA
 10
1138.337046
 20
413.698351
 30
0.0
 11
1138.357208
 21
413.82601
 31
0.0
  0
LINE
  5
CA20
  8
ALPHA
 10
1138.247321
 20
415.996223
 30
0.0
 11
1138.267188
 21
416.123882
 31
0.0
  0
POLYLINE
  5
CA21
  8
ALPHA
 66
     1
 10
0.0
 20
0.0
 30
0.0
  0
VERTEX
  5
100C1
  8
ALPHA
 10
1138.242062
 20
416.315372
 30
0.0
  0
VERTEX
  5
100C2
  8
ALPHA
 10
1138.241301
 20
416.310237
 30
0.0
  0
VERTEX
  5
100C3
  8
ALPHA
 10
1138.240566
 20
416.305103
 30
0.0
  0
VERTEX
  5
100C4
  8
ALPHA
 10
1138.239859
 20
416.29997
 30
0.0
  0
VERTEX
  5
100C5
  8
ALPHA
 10
1138.239178
 20
416.294837
 30
0.0
  0
VERTEX
  5
100C6
  8
ALPHA
 10
1138.238524
 20
416.289705
 30
0.0
  0
VERTEX
  5
100C7
  8
ALPHA
 10
1138.237896
 20
416.284574
 30
0.0
  0
VERTEX
  5
100C8
  8
ALPHA
 10
1138.237296
 20
416.279444
 30
0.0
  0
VERTEX
  5
100C9
  8
ALPHA
 10
1138.213325
 20
416.060053
 30
0.0
  0
SEQEND
  5
100CA
  8
ALPHA
  0
LINE
  5
CA2C
  8
ALPHA
 10
1137.691828
 20
414.0175
 30
0.0
 11
1137.673245
 21
413.88984
 31
0.0
  0
LINE
  5
CA2D
  8
ALPHA
 10
1138.34871
 20
415.038776
 30
0.0
 11
1138.375941
 21
415.230266
 31
0.0
  0
LINE
  5
CA2E
  8
ALPHA
 10
1138.343785
 20
414.081329
 30
0.0
 11
1138.329617
 21
413.95367
 31
0.0
  0
LINE
  5
CA2F
  8
ALPHA
 10
1138.355448
 20
415.421755
 30
0.0
 11
1138.341298
 21
415.294095
 31
0.0
  0
LINE
  5
CA30
  8
ALPHA
 10
1137.703721
 20
413.76218
 30
0.0
 11
1137.724627
 21
414.0175
 31
0.0
  0
LINE
  5
CA31
  8
ALPHA
 10
1138.375941
 20
415.230266
 30
0.0
 11
1138.391269
 21
415.421755
 31
0.0
  0
LINE
  5
CA32
  8
ALPHA
 10
1138.357208
 20
413.82601
 30
0.0
 11
1138.372544
 21
414.0175
 31
0.0
  0
LINE
  5
CA33
  8
ALPHA
 10
1138.232228
 20
415.804734
 30
0.0
 11
1138.247321
 21
415.996223
 31
0.0
  0
LINE
  5
CA34
  8
ALPHA
 10
1137.706108
 20
414.208989
 30
0.0
 11
1137.691828
 21
414.0175
 31
0.0
  0
LINE
  5
CA35
  8
ALPHA
 10
1138.371863
 20
415.677074
 30
0.0
 11
1138.355448
 21
415.421755
 31
0.0
  0
LINE
  5
CA36
  8
ALPHA
 10
1138.351999
 20
414.208989
 30
0.0
 11
1138.343785
 21
414.081329
 31
0.0
  0
LINE
  5
CA37
  8
ALPHA
 10
1137.884394
 20
415.868563
 30
0.0
 11
1137.784139
 21
414.272819
 31
0.0
  0
LINE
  5
CA38
  8
ALPHA
 10
1137.798491
 20
414.145159
 30
0.0
 11
1137.898921
 21
415.740904
 31
0.0
  0
LINE
  5
CA39
  8
ALPHA
 10
1137.724627
 20
414.0175
 30
0.0
 11
1137.741205
 21
414.336649
 31
0.0
  0
LINE
  5
CA3A
  8
ALPHA
 10
1138.372544
 20
414.0175
 30
0.0
 11
1138.381904
 21
414.208989
 31
0.0
  0
LINE
  5
CA3B
  8
ALPHA
 10
1137.714938
 20
414.400478
 30
0.0
 11
1137.706108
 21
414.208989
 31
0.0
  0
LINE
  5
CA3C
  8
ALPHA
 10
1138.391269
 20
415.421755
 30
0.0
 11
1138.401748
 21
415.677074
 31
0.0
  0
LINE
  5
CA3D
  8
ALPHA
 10
1138.213325
 20
416.060053
 30
0.0
 11
1138.202996
 21
415.804734
 31
0.0
  0
POLYLINE
  5
CA3E
  8
ALPHA
 66
     1
 10
0.0
 20
0.0
 30
0.0
  0
VERTEX
  5
100CB
  8
ALPHA
 10
1137.764288
 20
416.274314
 30
0.0
  0
VERTEX
  5
100CC
  8
ALPHA
 10
1137.764604
 20
416.287394
 30
0.0
  0
VERTEX
  5
100CD
  8
ALPHA
 10
1137.765092
 20
416.300456
 30
0.0
  0
VERTEX
  5
100CE
  8
ALPHA
 10
1137.76575
 20
416.313499
 30
0.0
  0
VERTEX
  5
100CF
  8
ALPHA
 10
1137.766579
 20
416.326522
 30
0.0
  0
VERTEX
  5
100D0
  8
ALPHA
 10
1137.76758
 20
416.339527
 30
0.0
  0
VERTEX
  5
100D1
  8
ALPHA
 10
1137.76875
 20
416.352512
 30
0.0
  0
VERTEX
  5
100D2
  8
ALPHA
 10
1137.770091
 20
416.365479
 30
0.0
  0
VERTEX
  5
100D3
  8
ALPHA
 10
1137.771602
 20
416.378427
 30
0.0
  0
VERTEX
  5
100D4
  8
ALPHA
 10
1137.773283
 20
416.391357
 30
0.0
  0
VERTEX
  5
100D5
  8
ALPHA
 10
1137.775133
 20
416.404267
 30
0.0
  0
VERTEX
  5
100D6
  8
ALPHA
 10
1137.777154
 20
416.417159
 30
0.0
  0
VERTEX
  5
100D7
  8
ALPHA
 10
1137.779345
 20
416.430031
 30
0.0
  0
VERTEX
  5
100D8
  8
ALPHA
 10
1137.781707
 20
416.442885
 30
0.0
  0
VERTEX
  5
100D9
  8
ALPHA
 10
1137.784241
 20
416.455719
 30
0.0
  0
VERTEX
  5
100DA
  8
ALPHA
 10
1137.786948
 20
416.468534
 30
0.0
  0
VERTEX
  5
100DB
  8
ALPHA
 10
1137.789827
 20
416.48133
 30
0.0
  0
VERTEX
  5
100DC
  8
ALPHA
 10
1137.792879
 20
416.494105
 30
0.0
  0
VERTEX
  5
100DD
  8
ALPHA
 10
1137.796106
 20
416.506861
 30
0.0
  0
SEQEND
  5
100DE
  8
ALPHA
  0
POLYLINE
  5
CA53
  8
ALPHA
 66
     1
 10
0.0
 20
0.0
 30
0.0
  0
VERTEX
  5
100DF
  8
ALPHA
 10
1137.987098
 20
416.274314
 30
0.0
  0
VERTEX
  5
100E0
  8
ALPHA
 10
1137.987414
 20
416.287394
 30
0.0
  0
VERTEX
  5
100E1
  8
ALPHA
 10
1137.987901
 20
416.300456
 30
0.0
  0
VERTEX
  5
100E2
  8
ALPHA
 10
1137.98856
 20
416.313498
 30
0.0
  0
VERTEX
  5
100E3
  8
ALPHA
 10
1137.98939
 20
416.326522
 30
0.0
  0
VERTEX
  5
100E4
  8
ALPHA
 10
1137.99039
 20
416.339526
 30
0.0
  0
VERTEX
  5
100E5
  8
ALPHA
 10
1137.991561
 20
416.352512
 30
0.0
  0
VERTEX
  5
100E6
  8
ALPHA
 10
1137.992903
 20
416.365478
 30
0.0
  0
VERTEX
  5
100E7
  8
ALPHA
 10
1137.994414
 20
416.378427
 30
0.0
  0
VERTEX
  5
100E8
  8
ALPHA
 10
1137.996096
 20
416.391356
 30
0.0
  0
VERTEX
  5
100E9
  8
ALPHA
 10
1137.997947
 20
416.404266
 30
0.0
  0
VERTEX
  5
100EA
  8
ALPHA
 10
1137.999969
 20
416.417158
 30
0.0
  0
VERTEX
  5
100EB
  8
ALPHA
 10
1138.002161
 20
416.430031
 30
0.0
  0
VERTEX
  5
100EC
  8
ALPHA
 10
1138.004524
 20
416.442884
 30
0.0
  0
VERTEX
  5
100ED
  8
ALPHA
 10
1138.007059
 20
416.455719
 30
0.0
  0
VERTEX
  5
100EE
  8
ALPHA
 10
1138.009767
 20
416.468534
 30
0.0
  0
VERTEX
  5
100EF
  8
ALPHA
 10
1138.012647
 20
416.481329
 30
0.0
  0
VERTEX
  5
100F0
  8
ALPHA
 10
1138.015701
 20
416.494105
 30
0.0
  0
VERTEX
  5
100F1
  8
ALPHA
 10
1138.018929
 20
416.506861
 30
0.0
  0
SEQEND
  5
100F2
  8
ALPHA
  0
LINE
  5
CA68
  8
ALPHA
 10
1137.717181
 20
414.528138
 30
0.0
 11
1137.714938
 21
414.400478
 31
0.0
  0
LINE
  5
CA69
  8
ALPHA
 10
1137.762767
 20
416.187712
 30
0.0
 11
1137.764288
 21
416.274314
 31
0.0
  0
LINE
  5
CA6A
  8
ALPHA
 10
1137.741205
 20
414.336649
 30
0.0
 11
1137.745692
 21
414.591968
 31
0.0
  0
LINE
  5
CA6B
  8
ALPHA
 10
1137.953218
 20
416.274314
 30
0.0
 11
1137.904565
 21
413.506861
 31
0.0
  0
LINE
  5
CA6C
  8
ALPHA
 10
1137.945174
 20
413.88984
 30
0.0
 11
1137.987098
 21
416.274314
 31
0.0
  0
LINE
  5
CA6D
  8
ALPHA
 10
1138.110246
 20
413.506861
 30
0.0
 11
1138.116982
 21
413.88984
 31
0.0
  0
LINE
  5
CA6E
  8
ALPHA
 10
1138.279801
 20
415.166436
 30
0.0
 11
1138.275309
 21
414.911117
 31
0.0
  0
LINE
  5
CA6F
  8
ALPHA
 10
1138.374109
 20
415.804734
 30
0.0
 11
1138.371863
 21
415.677074
 31
0.0
  0
LINE
  5
CA70
  8
ALPHA
 10
1138.356491
 20
414.464308
 30
0.0
 11
1138.351999
 21
414.208989
 31
0.0
  0
LINE
  5
CA71
  8
ALPHA
 10
1138.401748
 20
415.677074
 30
0.0
 11
1138.403994
 21
415.804734
 31
0.0
  0
LINE
  5
CA72
  8
ALPHA
 10
1138.381904
 20
414.208989
 30
0.0
 11
1138.386397
 21
414.464308
 31
0.0
  0
LINE
  5
CA73
  8
ALPHA
 10
1138.555243
 20
416.274314
 30
0.0
 11
1138.50213
 21
413.256861
 31
0.0
  0
LINE
  5
CA74
  8
ALPHA
 10
1141.663507
 20
416.274314
 30
0.0
 11
1141.663507
 21
417.256861
 31
0.0
  0
LINE
  5
CA75
  8
ALPHA
 10
1138.386397
 20
414.464308
 30
0.0
 11
1138.3849
 21
414.719627
 31
0.0
  0
LINE
  5
CA76
  8
ALPHA
 10
1138.403994
 20
415.804734
 30
0.0
 11
1138.402501
 21
416.060053
 31
0.0
  0
LINE
  5
CA77
  8
ALPHA
 10
1137.715082
 20
414.719627
 30
0.0
 11
1137.717181
 21
414.528138
 31
0.0
  0
LINE
  5
CA78
  8
ALPHA
 10
1138.169095
 20
414.208989
 30
0.0
 11
1138.171559
 21
414.0175
 31
0.0
  0
LINE
  5
CA79
  8
ALPHA
 10
1137.745692
 20
414.591968
 30
0.0
 11
1137.740332
 21
414.911117
 31
0.0
  0
LINE
  5
CA7A
  8
ALPHA
 10
1138.201912
 20
414.081329
 30
0.0
 11
1138.198303
 21
414.208989
 31
0.0
  0
LINE
  5
CA7B
  8
ALPHA
 10
1138.349053
 20
414.719627
 30
0.0
 11
1138.356491
 21
414.464308
 31
0.0
  0
LINE
  5
CA7C
  8
ALPHA
 10
1137.707531
 20
414.911117
 30
0.0
 11
1137.715082
 21
414.719627
 31
0.0
  0
LINE
  5
CA7D
  8
ALPHA
 10
1138.171559
 20
414.0175
 30
0.0
 11
1138.179869
 21
413.82601
 31
0.0
  0
LINE
  5
CA7E
  8
ALPHA
 10
1137.740332
 20
414.911117
 30
0.0
 11
1137.728398
 21
415.166436
 31
0.0
  0
LINE
  5
CA7F
  8
ALPHA
 10
1138.365556
 20
415.996223
 30
0.0
 11
1138.374109
 21
415.804734
 31
0.0
  0
LINE
  5
CA80
  8
ALPHA
 10
1138.3849
 20
414.719627
 30
0.0
 11
1138.376302
 21
414.911117
 31
0.0
  0
POLYLINE
  5
CA81
  8
ALPHA
 66
     1
 10
0.0
 20
0.0
 30
0.0
  0
VERTEX
  5
100F3
  8
ALPHA
 10
1138.402501
 20
416.060053
 30
0.0
  0
VERTEX
  5
100F4
  8
ALPHA
 10
1138.385833
 20
416.279459
 30
0.0
  0
VERTEX
  5
100F5
  8
ALPHA
 10
1138.385483
 20
416.2846
 30
0.0
  0
VERTEX
  5
100F6
  8
ALPHA
 10
1138.38516
 20
416.289738
 30
0.0
  0
VERTEX
  5
100F7
  8
ALPHA
 10
1138.384863
 20
416.294872
 30
0.0
  0
VERTEX
  5
100F8
  8
ALPHA
 10
1138.384594
 20
416.300002
 30
0.0
  0
VERTEX
  5
100F9
  8
ALPHA
 10
1138.384351
 20
416.305129
 30
0.0
  0
VERTEX
  5
100FA
  8
ALPHA
 10
1138.384135
 20
416.310252
 30
0.0
  0
VERTEX
  5
100FB
  8
ALPHA
 10
1138.383946
 20
416.315372
 30
0.0
  0
SEQEND
  5
100FC
  8
ALPHA
  0
LINE
  5
CA8C
  8
ALPHA
 10
1138.21139
 20
413.95367
 30
0.0
 11
1138.201912
 21
414.081329
 31
0.0
  0
LINE
  5
CA8D
  8
ALPHA
 10
1137.693435
 20
415.038776
 30
0.0
 11
1137.707531
 21
414.911117
 31
0.0
  0
LINE
  5
CA8E
  8
ALPHA
 10
1137.784139
 20
414.272819
 30
0.0
 11
1137.798491
 21
414.145159
 31
0.0
  0
LINE
  5
CA8F
  8
ALPHA
 10
1137.898921
 20
415.740904
 30
0.0
 11
1137.884394
 21
415.868563
 31
0.0
  0
LINE
  5
CA90
  8
ALPHA
 10
1138.179869
 20
413.82601
 30
0.0
 11
1138.195175
 21
413.698351
 31
0.0
  0
LINE
  5
CA91
  8
ALPHA
 10
1138.333436
 20
414.847287
 30
0.0
 11
1138.349053
 21
414.719627
 31
0.0
  0
LINE
  5
CA92
  8
ALPHA
 10
1138.349952
 20
416.123882
 30
0.0
 11
1138.365556
 21
415.996223
 31
0.0
  0
POLYLINE
  5
CA93
  8
ALPHA
 66
     1
 10
0.0
 20
0.0
 30
0.0
  0
VERTEX
  5
100FD
  8
ALPHA
 10
1138.383946
 20
416.315372
 30
0.0
  0
VERTEX
  5
100FE
  8
ALPHA
 10
1138.382623
 20
416.326179
 30
0.0
  0
VERTEX
  5
100FF
  8
ALPHA
 10
1138.381423
 20
416.336956
 30
0.0
  0
VERTEX
  5
10100
  8
ALPHA
 10
1138.380345
 20
416.347702
 30
0.0
  0
VERTEX
  5
10101
  8
ALPHA
 10
1138.379388
 20
416.358417
 30
0.0
  0
VERTEX
  5
10102
  8
ALPHA
 10
1138.378551
 20
416.369102
 30
0.0
  0
VERTEX
  5
10103
  8
ALPHA
 10
1138.377834
 20
416.379755
 30
0.0
  0
VERTEX
  5
10104
  8
ALPHA
 10
1138.377236
 20
416.390378
 30
0.0
  0
VERTEX
  5
10105
  8
ALPHA
 10
1138.376756
 20
416.40097
 30
0.0
  0
VERTEX
  5
10106
  8
ALPHA
 10
1138.376394
 20
416.411532
 30
0.0
  0
VERTEX
  5
10107
  8
ALPHA
 10
1138.37615
 20
416.422062
 30
0.0
  0
VERTEX
  5
10108
  8
ALPHA
 10
1138.376024
 20
416.432562
 30
0.0
  0
VERTEX
  5
10109
  8
ALPHA
 10
1138.376014
 20
416.443031
 30
0.0
  0
SEQEND
  5
1010A
  8
ALPHA
  0
LINE
  5
CAA2
  8
ALPHA
 10
1137.728398
 20
415.166436
 30
0.0
 11
1137.704485
 21
415.357925
 31
0.0
  0
LINE
  5
CAA3
  8
ALPHA
 10
1138.195175
 20
413.698351
 30
0.0
 11
1138.216395
 21
413.570691
 31
0.0
  0
LINE
  5
CAA4
  8
ALPHA
 10
1138.222009
 20
413.88984
 30
0.0
 11
1138.21139
 21
413.95367
 31
0.0
  0
LINE
  5
CAA5
  8
ALPHA
 10
1138.376302
 20
414.911117
 30
0.0
 11
1138.34871
 21
415.038776
 31
0.0
  0
LINE
  5
CAA6
  8
ALPHA
 10
1138.298955
 20
414.911117
 30
0.0
 11
1138.333436
 21
414.847287
 31
0.0
  0
LINE
  5
CAA7
  8
ALPHA
 10
1137.704485
 20
415.357925
 30
0.0
 11
1137.678441
 21
415.421755
 31
0.0
  0
LINE
  5
CAA8
  8
ALPHA
 10
1138.250319
 20
413.82601
 30
0.0
 11
1138.222009
 21
413.88984
 31
0.0
  0
LINE
  5
CAA9
  8
ALPHA
 10
1138.321415
 20
416.187712
 30
0.0
 11
1138.349952
 21
416.123882
 31
0.0
  0
POLYLINE
  5
CAAA
  8
ALPHA
 66
     1
 10
0.0
 20
0.0
 30
0.0
  0
VERTEX
  5
1010B
  8
ALPHA
 10
1138.376014
 20
416.443031
 30
0.0
  0
VERTEX
  5
1010C
  8
ALPHA
 10
1138.371149
 20
416.453716
 30
0.0
  0
VERTEX
  5
1010D
  8
ALPHA
 10
1138.36642
 20
416.464382
 30
0.0
  0
VERTEX
  5
1010E
  8
ALPHA
 10
1138.361828
 20
416.47503
 30
0.0
  0
VERTEX
  5
1010F
  8
ALPHA
 10
1138.357373
 20
416.485659
 30
0.0
  0
VERTEX
  5
10110
  8
ALPHA
 10
1138.353054
 20
416.496269
 30
0.0
  0
VERTEX
  5
10111
  8
ALPHA
 10
1138.348873
 20
416.506861
 30
0.0
  0
SEQEND
  5
10112
  8
ALPHA
  0
LINE
  5
CAB3
  8
ALPHA
 10
1137.672833
 20
415.102606
 30
0.0
 11
1137.693435
 21
415.038776
 31
0.0
  0
LINE
  5
CAB4
  8
ALPHA
 10
1138.216395
 20
413.570691
 30
0.0
 11
1138.238809
 21
413.506861
 31
0.0
  0
POLYLINE
  5
CAB5
  8
ALPHA
 66
     1
 10
0.0
 20
0.0
 30
0.0
  0
VERTEX
  5
10113
  8
ALPHA
 10
1121.994718
 20
384.211677
 30
0.0
  0
VERTEX
  5
10114
  8
ALPHA
 10
1121.392777
 20
384.090387
 30
0.0
  0
VERTEX
  5
10115
  8
ALPHA
 10
1120.887533
 20
383.748362
 30
0.0
  0
VERTEX
  5
10116
  8
ALPHA
 10
1120.555408
 20
383.244699
 30
0.0
  0
VERTEX
  5
10117
  8
ALPHA
 10
1120.439998
 20
382.656861
 30
0.0
  0
VERTEX
  5
10118
  8
ALPHA
 10
1120.555408
 20
382.069024
 30
0.0
  0
VERTEX
  5
10119
  8
ALPHA
 10
1120.887533
 20
381.56536
 30
0.0
  0
VERTEX
  5
1011A
  8
ALPHA
 10
1121.392777
 20
381.223335
 30
0.0
  0
VERTEX
  5
1011B
  8
ALPHA
 10
1121.994718
 20
381.102046
 30
0.0
  0
SEQEND
  5
1011C
  8
ALPHA
  0
POLYLINE
  5
CAC0
  8
ALPHA
 66
     1
 10
0.0
 20
0.0
 30
0.0
  0
VERTEX
  5
1011D
  8
ALPHA
 10
1121.994718
 20
384.106861
 30
0.0
  0
VERTEX
  5
1011E
  8
ALPHA
 10
1121.433061
 20
383.993662
 30
0.0
  0
VERTEX
  5
1011F
  8
ALPHA
 10
1120.961263
 20
383.673948
 30
0.0
  0
VERTEX
  5
10120
  8
ALPHA
 10
1120.652235
 20
383.204793
 30
0.0
  0
VERTEX
  5
10121
  8
ALPHA
 10
1120.544718
 20
382.656861
 30
0.0
  0
VERTEX
  5
10122
  8
ALPHA
 10
1120.652235
 20
382.108929
 30
0.0
  0
VERTEX
  5
10123
  8
ALPHA
 10
1120.961263
 20
381.639775
 30
0.0
  0
VERTEX
  5
10124
  8
ALPHA
 10
1121.433061
 20
381.320061
 30
0.0
  0
VERTEX
  5
10125
  8
ALPHA
 10
1121.994718
 20
381.206861
 30
0.0
  0
SEQEND
  5
10126
  8
ALPHA
  0
LINE
  5
CACB
  8
ALPHA
 10
1127.394718
 20
381.206861
 30
0.0
 11
1130.294718
 21
384.106861
 31
0.0
  0
LINE
  5
CACC
  8
ALPHA
 10
1121.994718
 20
384.106861
 30
0.0
 11
1121.994718
 21
384.211677
 31
0.0
  0
LINE
  5
CACD
  8
ALPHA
 10
1121.994718
 20
381.206861
 30
0.0
 11
1121.994718
 21
381.102046
 31
0.0
  0
POLYLINE
  5
CACE
  8
ALPHA
 66
     1
 10
0.0
 20
0.0
 30
0.0
  0
VERTEX
  5
10127
  8
ALPHA
 10
1115.672202
 20
388.84704
 30
0.0
  0
VERTEX
  5
10128
  8
ALPHA
 10
1115.511869
 20
388.084739
 30
0.0
  0
VERTEX
  5
10129
  8
ALPHA
 10
1115.328725
 20
387.599741
 30
0.0
  0
VERTEX
  5
1012A
  8
ALPHA
 10
1115.135501
 20
387.431193
 30
0.0
  0
SEQEND
  5
1012B
  8
ALPHA
  0
POLYLINE
  5
CAD4
  8
ALPHA
 66
     1
 10
0.0
 20
0.0
 30
0.0
  0
VERTEX
  5
1012C
  8
ALPHA
 10
1115.135501
 20
387.431193
 30
0.0
  0
VERTEX
  5
1012D
  8
ALPHA
 10
1114.94292
 20
387.59796
 30
0.0
  0
VERTEX
  5
1012E
  8
ALPHA
 10
1114.766642
 20
388.091885
 30
0.0
  0
VERTEX
  5
1012F
  8
ALPHA
 10
1114.617653
 20
388.872295
 30
0.0
  0
VERTEX
  5
10130
  8
ALPHA
 10
1114.503109
 20
389.885012
 30
0.0
  0
VERTEX
  5
10131
  8
ALPHA
 10
1114.427906
 20
391.067867
 30
0.0
  0
VERTEX
  5
10132
  8
ALPHA
 10
1114.395404
 20
392.349289
 30
0.0
  0
VERTEX
  5
10133
  8
ALPHA
 10
1114.407122
 20
393.649124
 30
0.0
  0
VERTEX
  5
10134
  8
ALPHA
 10
1114.461696
 20
394.875337
 30
0.0
  0
VERTEX
  5
10135
  8
ALPHA
 10
1114.553626
 20
395.941596
 30
0.0
  0
VERTEX
  5
10136
  8
ALPHA
 10
1114.673847
 20
396.786836
 30
0.0
  0
VERTEX
  5
10137
  8
ALPHA
 10
1114.810557
 20
397.380999
 30
0.0
  0
SEQEND
  5
10138
  8
ALPHA
  0
POLYLINE
  5
CAE2
  8
ALPHA
 66
     1
 10
0.0
 20
0.0
 30
0.0
  0
VERTEX
  5
10139
  8
ALPHA
 10
1115.502134
 20
397.079583
 30
0.0
  0
VERTEX
  5
1013A
  8
ALPHA
 10
1115.547644
 20
396.921664
 30
0.0
  0
VERTEX
  5
1013B
  8
ALPHA
 10
1115.649832
 20
396.444452
 30
0.0
  0
VERTEX
  5
1013C
  8
ALPHA
 10
1115.741234
 20
395.83646
 30
0.0
  0
VERTEX
  5
1013D
  8
ALPHA
 10
1115.81523
 20
395.139985
 30
0.0
  0
VERTEX
  5
1013E
  8
ALPHA
 10
1115.86938
 20
394.388495
 30
0.0
  0
VERTEX
  5
1013F
  8
ALPHA
 10
1115.903081
 20
393.610966
 30
0.0
  0
VERTEX
  5
10140
  8
ALPHA
 10
1115.916883
 20
392.831172
 30
0.0
  0
VERTEX
  5
10141
  8
ALPHA
 10
1115.911953
 20
392.069052
 30
0.0
  0
VERTEX
  5
10142
  8
ALPHA
 10
1115.890022
 20
391.341259
 30
0.0
  0
VERTEX
  5
10143
  8
ALPHA
 10
1115.853048
 20
390.662337
 30
0.0
  0
VERTEX
  5
10144
  8
ALPHA
 10
1115.803434
 20
390.044393
 30
0.0
  0
VERTEX
  5
10145
  8
ALPHA
 10
1115.743688
 20
389.496757
 30
0.0
  0
VERTEX
  5
10146
  8
ALPHA
 10
1115.676751
 20
389.027282
 30
0.0
  0
VERTEX
  5
10147
  8
ALPHA
 10
1115.60603
 20
388.642618
 30
0.0
  0
VERTEX
  5
10148
  8
ALPHA
 10
1115.536155
 20
388.349142
 30
0.0
  0
VERTEX
  5
10149
  8
ALPHA
 10
1115.476718
 20
388.160515
 30
0.0
  0
VERTEX
  5
1014A
  8
ALPHA
 10
1115.466618
 20
388.134448
 30
0.0
  0
SEQEND
  5
1014B
  8
ALPHA
  0
ARC
  5
CAF6
  8
ALPHA
 10
1111.344718
 20
397.29458
 30
0.0
 40
1.5
 50
91.0
 51
180.0
  0
POLYLINE
  5
CAF7
  8
ALPHA
 66
     1
 10
0.0
 20
0.0
 30
0.0
  0
VERTEX
  5
1014C
  8
ALPHA
 10
1116.314855
 20
398.853093
 30
0.0
  0
VERTEX
  5
1014D
  8
ALPHA
 10
1115.940907
 20
398.684555
 30
0.0
  0
VERTEX
  5
1014E
  8
ALPHA
 10
1115.666345
 20
398.378014
 30
0.0
  0
VERTEX
  5
1014F
  8
ALPHA
 10
1115.53801
 20
397.985759
 30
0.0
  0
SEQEND
  5
10150
  8
ALPHA
  0
POLYLINE
  5
CAFD
  8
ALPHA
 66
     1
 10
0.0
 20
0.0
 30
0.0
  0
VERTEX
  5
10151
  8
ALPHA
 10
1115.354425
 20
398.409812
 30
0.0
  0
VERTEX
  5
10152
  8
ALPHA
 10
1115.598134
 20
398.591328
 30
0.0
  0
VERTEX
  5
10153
  8
ALPHA
 10
1115.8317
 20
398.71476
 30
0.0
  0
VERTEX
  5
10154
  8
ALPHA
 10
1116.043467
 20
398.793776
 30
0.0
  0
VERTEX
  5
10155
  8
ALPHA
 10
1116.218973
 20
398.83855
 30
0.0
  0
VERTEX
  5
10156
  8
ALPHA
 10
1116.314853
 20
398.8531
 30
0.0
  0
SEQEND
  5
10157
  8
ALPHA
  0
POLYLINE
  5
CB05
  8
ALPHA
 66
     1
 10
0.0
 20
0.0
 30
0.0
  0
VERTEX
  5
10158
  8
ALPHA
 10
1115.843497
 20
398.593719
 30
0.0
  0
VERTEX
  5
10159
  8
ALPHA
 10
1115.824382
 20
398.575571
 30
0.0
  0
VERTEX
  5
1015A
  8
ALPHA
 10
1115.79541
 20
398.546613
 30
0.0
  0
VERTEX
  5
1015B
  8
ALPHA
 10
1115.765177
 20
398.514307
 30
0.0
  0
VERTEX
  5
1015C
  8
ALPHA
 10
1115.734885
 20
398.479616
 30
0.0
  0
VERTEX
  5
1015D
  8
ALPHA
 10
1115.703026
 20
398.440312
 30
0.0
  0
VERTEX
  5
1015E
  8
ALPHA
 10
1115.669877
 20
398.395856
 30
0.0
  0
VERTEX
  5
1015F
  8
ALPHA
 10
1115.635807
 20
398.345626
 30
0.0
  0
VERTEX
  5
10160
  8
ALPHA
 10
1115.601518
 20
398.28929
 30
0.0
  0
VERTEX
  5
10161
  8
ALPHA
 10
1115.569042
 20
398.229041
 30
0.0
  0
VERTEX
  5
10162
  8
ALPHA
 10
1115.5392
 20
398.165878
 30
0.0
  0
VERTEX
  5
10163
  8
ALPHA
 10
1115.512271
 20
398.100057
 30
0.0
  0
VERTEX
  5
10164
  8
ALPHA
 10
1115.48844
 20
398.031707
 30
0.0
  0
SEQEND
  5
10165
  8
ALPHA
  0
POLYLINE
  5
CB14
  8
ALPHA
 66
     1
 10
0.0
 20
0.0
 30
0.0
  0
VERTEX
  5
10166
  8
ALPHA
 10
1117.465795
 20
398.901652
 30
0.0
  0
VERTEX
  5
10167
  8
ALPHA
 10
1116.904416
 20
398.779145
 30
0.0
  0
VERTEX
  5
10168
  8
ALPHA
 10
1116.431679
 20
398.45004
 30
0.0
  0
VERTEX
  5
10169
  8
ALPHA
 10
1116.118051
 20
397.963777
 30
0.0
  0
VERTEX
  5
1016A
  8
ALPHA
 10
1116.010471
 20
397.401881
 30
0.0
  0
SEQEND
  5
1016B
  8
ALPHA
  0
POLYLINE
  5
CB1B
  8
ALPHA
 66
     1
 10
0.0
 20
0.0
 30
0.0
  0
VERTEX
  5
1016C
  8
ALPHA
 10
1116.314855
 20
398.853093
 30
0.0
  0
VERTEX
  5
1016D
  8
ALPHA
 10
1116.26359
 20
398.831272
 30
0.0
  0
VERTEX
  5
1016E
  8
ALPHA
 10
1116.118582
 20
398.765785
 30
0.0
  0
VERTEX
  5
1016F
  8
ALPHA
 10
1115.943886
 20
398.649822
 30
0.0
  0
VERTEX
  5
10170
  8
ALPHA
 10
1115.762275
 20
398.469744
 30
0.0
  0
VERTEX
  5
10171
  8
ALPHA
 10
1115.597043
 20
398.208963
 30
0.0
  0
SEQEND
  5
10172
  8
ALPHA
  0
POLYLINE
  5
CB23
  8
ALPHA
 66
     1
 10
0.0
 20
0.0
 30
0.0
  0
VERTEX
  5
10173
  8
ALPHA
 10
1115.597043
 20
398.208963
 30
0.0
  0
VERTEX
  5
10174
  8
ALPHA
 10
1115.479861
 20
397.849141
 30
0.0
  0
VERTEX
  5
10175
  8
ALPHA
 10
1115.463157
 20
397.392356
 30
0.0
  0
SEQEND
  5
10176
  8
ALPHA
  0
POLYLINE
  5
CB28
  8
ALPHA
 66
     1
 10
0.0
 20
0.0
 30
0.0
  0
VERTEX
  5
10177
  8
ALPHA
 10
1115.48844
 20
398.031707
 30
0.0
  0
VERTEX
  5
10178
  8
ALPHA
 10
1115.467866
 20
397.960919
 30
0.0
  0
VERTEX
  5
10179
  8
ALPHA
 10
1115.450664
 20
397.887497
 30
0.0
  0
VERTEX
  5
1017A
  8
ALPHA
 10
1115.43708
 20
397.811627
 30
0.0
  0
VERTEX
  5
1017B
  8
ALPHA
 10
1115.427353
 20
397.733616
 30
0.0
  0
VERTEX
  5
1017C
  8
ALPHA
 10
1115.421679
 20
397.653821
 30
0.0
  0
VERTEX
  5
1017D
  8
ALPHA
 10
1115.420205
 20
397.572298
 30
0.0
  0
VERTEX
  5
1017E
  8
ALPHA
 10
1115.423137
 20
397.488879
 30
0.0
  0
VERTEX
  5
1017F
  8
ALPHA
 10
1115.43068
 20
397.404086
 30
0.0
  0
VERTEX
  5
10180
  8
ALPHA
 10
1115.442948
 20
397.318457
 30
0.0
  0
VERTEX
  5
10181
  8
ALPHA
 10
1115.459964
 20
397.232517
 30
0.0
  0
VERTEX
  5
10182
  8
ALPHA
 10
1115.481851
 20
397.146129
 30
0.0
  0
SEQEND
  5
10183
  8
ALPHA
  0
POLYLINE
  5
CB36
  8
ALPHA
 66
     1
 10
0.0
 20
0.0
 30
0.0
  0
VERTEX
  5
10184
  8
ALPHA
 10
1114.810573
 20
397.380999
 30
0.0
  0
VERTEX
  5
10185
  8
ALPHA
 10
1114.918917
 20
397.806778
 30
0.0
  0
VERTEX
  5
10186
  8
ALPHA
 10
1115.117895
 20
398.153729
 30
0.0
  0
VERTEX
  5
10187
  8
ALPHA
 10
1115.354425
 20
398.409812
 30
0.0
  0
SEQEND
  5
10188
  8
ALPHA
  0
POLYLINE
  5
CB3C
  8
ALPHA
 66
     1
 10
0.0
 20
0.0
 30
0.0
  0
VERTEX
  5
10189
  8
ALPHA
 10
1111.598928
 20
397.325108
 30
0.0
  0
VERTEX
  5
1018A
  8
ALPHA
 10
1111.710268
 20
397.888093
 30
0.0
  0
VERTEX
  5
1018B
  8
ALPHA
 10
1112.031948
 20
398.372813
 30
0.0
  0
VERTEX
  5
1018C
  8
ALPHA
 10
1112.516071
 20
398.701531
 30
0.0
  0
VERTEX
  5
1018D
  8
ALPHA
 10
1113.095809
 20
398.825374
 30
0.0
  0
SEQEND
  5
1018E
  8
ALPHA
  0
LINE
  5
CB43
  8
ALPHA
 10
1111.598928
 20
397.325108
 30
0.0
 11
1114.810557
 21
397.380999
 31
0.0
  0
LINE
  5
CB44
  8
ALPHA
 10
1116.010471
 20
397.401878
 30
0.0
 11
1115.463196
 21
397.392357
 31
0.0
  0
LINE
  5
CB45
  8
ALPHA
 10
1117.465795
 20
397.401881
 30
0.0
 11
1116.010471
 21
397.401881
 31
0.0
  0
POLYLINE
  5
CB46
  8
ALPHA
 66
     1
 10
0.0
 20
0.0
 30
0.0
  0
VERTEX
  5
1018F
  8
ALPHA
 10
1117.465795
 20
398.901652
 30
0.0
  0
VERTEX
  5
10190
  8
ALPHA
 10
1117.457761
 20
398.786834
 30
0.0
  0
VERTEX
  5
10191
  8
ALPHA
 10
1117.454957
 20
398.460503
 30
0.0
  0
VERTEX
  5
10192
  8
ALPHA
 10
1117.45781
 20
397.972144
 30
0.0
  0
VERTEX
  5
10193
  8
ALPHA
 10
1117.465795
 20
397.401881
 30
0.0
  0
SEQEND
  5
10194
  8
ALPHA
  0
LINE
  5
CB4D
  8
ALPHA
 10
1115.463199
 20
397.392357
 30
0.0
 11
1115.500406
 21
397.084872
 31
0.0
  0
POLYLINE
  5
CB4E
  8
ALPHA
 66
     1
 10
0.0
 20
0.0
 30
0.0
  0
VERTEX
  5
10195
  8
ALPHA
 10
1115.680842
 20
396.413412
 30
0.0
  0
VERTEX
  5
10196
  8
ALPHA
 10
1115.782475
 20
395.643869
 30
0.0
  0
VERTEX
  5
10197
  8
ALPHA
 10
1115.866423
 20
394.664282
 30
0.0
  0
VERTEX
  5
10198
  8
ALPHA
 10
1115.918604
 20
393.504127
 30
0.0
  0
VERTEX
  5
10199
  8
ALPHA
 10
1115.926992
 20
392.249137
 30
0.0
  0
VERTEX
  5
1019A
  8
ALPHA
 10
1115.886872
 20
390.996723
 30
0.0
  0
VERTEX
  5
1019B
  8
ALPHA
 10
1115.799919
 20
389.83733
 30
0.0
  0
VERTEX
  5
1019C
  8
ALPHA
 10
1115.672202
 20
388.84704
 30
0.0
  0
SEQEND
  5
1019D
  8
ALPHA
  0
LINE
  5
CB58
  8
ALPHA
 10
1115.311869
 20
396.621202
 30
0.0
 11
1115.632855
 21
396.523735
 31
0.0
  0
LINE
  5
CB59
  8
ALPHA
 10
1115.57197
 20
396.987704
 30
0.0
 11
1115.680842
 21
396.413412
 31
0.0
  0
POLYLINE
  5
CB5A
  8
ALPHA
 66
     1
 10
0.0
 20
0.0
 30
0.0
  0
VERTEX
  5
1019E
  8
ALPHA
 10
1115.694708
 20
389.153227
 30
0.0
  0
VERTEX
  5
1019F
  8
ALPHA
 10
1115.590056
 20
389.598491
 30
0.0
  0
VERTEX
  5
101A0
  8
ALPHA
 10
1115.476028
 20
390.417192
 30
0.0
  0
VERTEX
  5
101A1
  8
ALPHA
 10
1115.401193
 20
391.372923
 30
0.0
  0
VERTEX
  5
101A2
  8
ALPHA
 10
1115.368843
 20
392.408643
 30
0.0
  0
VERTEX
  5
101A3
  8
ALPHA
 10
1115.380544
 20
393.459721
 30
0.0
  0
VERTEX
  5
101A4
  8
ALPHA
 10
1115.434997
 20
394.451659
 30
0.0
  0
VERTEX
  5
101A5
  8
ALPHA
 10
1115.526747
 20
395.314285
 30
0.0
  0
VERTEX
  5
101A6
  8
ALPHA
 10
1115.646744
 20
395.997911
 30
0.0
  0
VERTEX
  5
101A7
  8
ALPHA
 10
1115.692667
 20
396.159522
 30
0.0
  0
SEQEND
  5
101A8
  8
ALPHA
  0
LINE
  5
CB66
  8
ALPHA
 10
1115.463196
 20
397.392357
 30
0.0
 11
1115.57197
 21
396.987704
 31
0.0
  0
LINE
  5
CB67
  8
ALPHA
 10
1115.500406
 20
397.084872
 30
0.0
 11
1115.502134
 21
397.079583
 31
0.0
  0
POLYLINE
  5
CB68
  8
ALPHA
 66
     1
 10
0.0
 20
0.0
 30
0.0
  0
VERTEX
  5
101A9
  8
ALPHA
 10
1114.810573
 20
397.380999
 30
0.0
  0
VERTEX
  5
101AA
  8
ALPHA
 10
1114.959136
 20
396.948655
 30
0.0
  0
VERTEX
  5
101AB
  8
ALPHA
 10
1115.311869
 20
396.621202
 30
0.0
  0
SEQEND
  5
101AC
  8
ALPHA
  0
LINE
  5
CB6D
  8
ALPHA
 10
1115.481851
 20
397.146129
 30
0.0
 11
1115.500364
 21
397.084858
 31
0.0
  0
POLYLINE
  5
CB6E
  8
ALPHA
 66
     1
 10
0.0
 20
0.0
 30
0.0
  0
VERTEX
  5
101AD
  8
ALPHA
 10
1134.416569
 20
408.174314
 30
0.0
  0
VERTEX
  5
101AE
  8
ALPHA
 10
1134.440149
 20
409.311528
 30
0.0
  0
VERTEX
  5
101AF
  8
ALPHA
 10
1134.469969
 20
410.380927
 30
0.0
  0
VERTEX
  5
101B0
  8
ALPHA
 10
1134.50469
 20
411.315445
 30
0.0
  0
VERTEX
  5
101B1
  8
ALPHA
 10
1134.543187
 20
412.06536
 30
0.0
  0
VERTEX
  5
101B2
  8
ALPHA
 10
1134.584239
 20
412.590648
 30
0.0
  0
SEQEND
  5
101B3
  8
ALPHA
  0
LINE
  5
CB76
  8
ALPHA
 10
1134.100747
 20
400.156861
 30
0.0
 11
1134.382078
 21
416.274314
 31
0.0
  0
POLYLINE
  5
CB77
  8
ALPHA
 66
     1
 10
0.0
 20
0.0
 30
0.0
  0
VERTEX
  5
101B4
  8
ALPHA
 10
1134.704902
 20
412.58768
 30
0.0
  0
VERTEX
  5
101B5
  8
ALPHA
 10
1134.736312
 20
412.061064
 30
0.0
  0
VERTEX
  5
101B6
  8
ALPHA
 10
1134.759136
 20
411.310885
 30
0.0
  0
SEQEND
  5
101B7
  8
ALPHA
  0
POLYLINE
  5
CB7C
  8
ALPHA
 66
     1
 10
0.0
 20
0.0
 30
0.0
  0
VERTEX
  5
101B8
  8
ALPHA
 10
1134.696042
 20
412.603064
 30
0.0
  0
VERTEX
  5
101B9
  8
ALPHA
 10
1134.694334
 20
412.610999
 30
0.0
  0
VERTEX
  5
101BA
  8
ALPHA
 10
1134.694452
 20
412.608793
 30
0.0
  0
VERTEX
  5
101BB
  8
ALPHA
 10
1134.700408
 20
412.560215
 30
0.0
  0
VERTEX
  5
101BC
  8
ALPHA
 10
1134.708431
 20
412.475492
 30
0.0
  0
VERTEX
  5
101BD
  8
ALPHA
 10
1134.717089
 20
412.360389
 30
0.0
  0
VERTEX
  5
101BE
  8
ALPHA
 10
1134.725763
 20
412.217893
 30
0.0
  0
VERTEX
  5
101BF
  8
ALPHA
 10
1134.734124
 20
412.049158
 30
0.0
  0
VERTEX
  5
101C0
  8
ALPHA
 10
1134.741988
 20
411.854733
 30
0.0
  0
VERTEX
  5
101C1
  8
ALPHA
 10
1134.749229
 20
411.635226
 30
0.0
  0
VERTEX
  5
101C2
  8
ALPHA
 10
1134.755668
 20
411.391269
 30
0.0
  0
VERTEX
  5
101C3
  8
ALPHA
 10
1134.761168
 20
411.123261
 30
0.0
  0
VERTEX
  5
101C4
  8
ALPHA
 10
1134.765643
 20
410.831743
 30
0.0
  0
VERTEX
  5
101C5
  8
ALPHA
 10
1134.768949
 20
410.517754
 30
0.0
  0
VERTEX
  5
101C6
  8
ALPHA
 10
1134.770921
 20
410.18267
 30
0.0
  0
VERTEX
  5
101C7
  8
ALPHA
 10
1134.771479
 20
409.827869
 30
0.0
  0
VERTEX
  5
101C8
  8
ALPHA
 10
1134.770527
 20
409.455026
 30
0.0
  0
VERTEX
  5
101C9
  8
ALPHA
 10
1134.767933
 20
409.066033
 30
0.0
  0
VERTEX
  5
101CA
  8
ALPHA
 10
1134.763646
 20
408.663052
 30
0.0
  0
SEQEND
  5
101CB
  8
ALPHA
  0
LINE
  5
CB91
  8
ALPHA
 10
1134.409566
 20
404.156861
 30
0.0
 11
1134.589326
 21
404.156861
 31
0.0
  0
LINE
  5
CB92
  8
ALPHA
 10
1134.523767
 20
403.781861
 30
0.0
 11
1134.4376
 21
403.781861
 31
0.0
  0
LINE
  5
CB93
  8
ALPHA
 10
1134.437613
 20
403.398883
 30
0.0
 11
1134.468235
 21
403.398883
 31
0.0
  0
LINE
  5
CB94
  8
ALPHA
 10
1134.452601
 20
402.505266
 30
0.0
 11
1134.421979
 21
402.505266
 31
0.0
  0
LINE
  5
CB95
  8
ALPHA
 10
1134.415292
 20
402.122286
 30
0.0
 11
1134.445913
 21
402.122286
 31
0.0
  0
LINE
  5
CB96
  8
ALPHA
 10
1134.42921
 20
401.16484
 30
0.0
 11
1134.398589
 21
401.16484
 31
0.0
  0
LINE
  5
CB97
  8
ALPHA
 10
1134.382563
 20
400.781861
 30
0.0
 11
1134.420871
 21
400.781861
 31
0.0
  0
LINE
  5
CB98
  8
ALPHA
 10
1134.466998
 20
400.781861
 30
0.0
 11
1134.477684
 21
400.781861
 31
0.0
  0
LINE
  5
CB99
  8
ALPHA
 10
1134.523721
 20
400.406861
 30
0.0
 11
1134.344074
 21
400.406861
 31
0.0
  0
POLYLINE
  5
CB9A
  8
ALPHA
 66
     1
 10
0.0
 20
0.0
 30
0.0
  0
VERTEX
  5
101CC
  8
ALPHA
 10
1134.550943
 20
403.781861
 30
0.0
  0
VERTEX
  5
101CD
  8
ALPHA
 10
1134.546355
 20
403.763969
 30
0.0
  0
VERTEX
  5
101CE
  8
ALPHA
 10
1134.542025
 20
403.746107
 30
0.0
  0
VERTEX
  5
101CF
  8
ALPHA
 10
1134.537952
 20
403.728277
 30
0.0
  0
VERTEX
  5
101D0
  8
ALPHA
 10
1134.534133
 20
403.710479
 30
0.0
  0
VERTEX
  5
101D1
  8
ALPHA
 10
1134.530568
 20
403.692712
 30
0.0
  0
VERTEX
  5
101D2
  8
ALPHA
 10
1134.527256
 20
403.674978
 30
0.0
  0
VERTEX
  5
101D3
  8
ALPHA
 10
1134.524194
 20
403.657276
 30
0.0
  0
VERTEX
  5
101D4
  8
ALPHA
 10
1134.521382
 20
403.639607
 30
0.0
  0
VERTEX
  5
101D5
  8
ALPHA
 10
1134.518818
 20
403.621972
 30
0.0
  0
VERTEX
  5
101D6
  8
ALPHA
 10
1134.516502
 20
403.604369
 30
0.0
  0
VERTEX
  5
101D7
  8
ALPHA
 10
1134.514434
 20
403.5868
 30
0.0
  0
VERTEX
  5
101D8
  8
ALPHA
 10
1134.512612
 20
403.569263
 30
0.0
  0
VERTEX
  5
101D9
  8
ALPHA
 10
1134.511038
 20
403.551759
 30
0.0
  0
VERTEX
  5
101DA
  8
ALPHA
 10
1134.50971
 20
403.534288
 30
0.0
  0
VERTEX
  5
101DB
  8
ALPHA
 10
1134.508629
 20
403.51685
 30
0.0
  0
VERTEX
  5
101DC
  8
ALPHA
 10
1134.507793
 20
403.499444
 30
0.0
  0
SEQEND
  5
101DD
  8
ALPHA
  0
LINE
  5
CBAD
  8
ALPHA
 10
1134.539792
 20
403.738325
 30
0.0
 11
1134.53845
 21
403.730927
 31
0.0
  0
POLYLINE
  5
CBAE
  8
ALPHA
 66
     1
 10
0.0
 20
0.0
 30
0.0
  0
VERTEX
  5
101DE
  8
ALPHA
 10
1134.550331
 20
403.755343
 30
0.0
  0
VERTEX
  5
101DF
  8
ALPHA
 10
1134.503266
 20
403.48433
 30
0.0
  0
VERTEX
  5
101E0
  8
ALPHA
 10
1134.462268
 20
403.485378
 30
0.0
  0
VERTEX
  5
101E1
  8
ALPHA
 10
1134.429728
 20
403.758071
 30
0.0
  0
SEQEND
  5
101E2
  8
ALPHA
  0
LINE
  5
CBB4
  8
ALPHA
 10
1134.420865
 20
400.781861
 30
0.0
 11
1134.43028
 21
400.845691
 31
0.0
  0
LINE
  5
CBB5
  8
ALPHA
 10
1134.516212
 20
403.718032
 30
0.0
 11
1134.520139
 21
403.750116
 31
0.0
  0
LINE
  5
CBB6
  8
ALPHA
 10
1134.520139
 20
403.750116
 30
0.0
 11
1134.522607
 21
403.771317
 31
0.0
  0
LINE
  5
CBB7
  8
ALPHA
 10
1134.522607
 20
403.771317
 30
0.0
 11
1134.523767
 21
403.781861
 31
0.0
  0
POLYLINE
  5
CBB8
  8
ALPHA
 66
     1
 10
0.0
 20
0.0
 30
0.0
  0
VERTEX
  5
101E3
  8
ALPHA
 10
1134.573788
 20
404.01494
 30
0.0
  0
VERTEX
  5
101E4
  8
ALPHA
 10
1134.560205
 20
403.887972
 30
0.0
  0
VERTEX
  5
101E5
  8
ALPHA
 10
1134.548325
 20
403.793831
 30
0.0
  0
VERTEX
  5
101E6
  8
ALPHA
 10
1134.539792
 20
403.738325
 30
0.0
  0
SEQEND
  5
101E7
  8
ALPHA
  0
LINE
  5
CBBE
  8
ALPHA
 10
1134.458713
 20
402.569095
 30
0.0
 11
1134.452617
 21
402.505266
 31
0.0
  0
LINE
  5
CBBF
  8
ALPHA
 10
1134.435301
 20
401.22867
 30
0.0
 11
1134.429206
 21
401.16484
 31
0.0
  0
POLYLINE
  5
CBC0
  8
ALPHA
 66
     1
 10
0.0
 20
0.0
 30
0.0
  0
VERTEX
  5
101E8
  8
ALPHA
 10
1134.4376
 20
403.781861
 30
0.0
  0
VERTEX
  5
101E9
  8
ALPHA
 10
1134.436966
 20
403.774204
 30
0.0
  0
VERTEX
  5
101EA
  8
ALPHA
 10
1134.436384
 20
403.766547
 30
0.0
  0
VERTEX
  5
101EB
  8
ALPHA
 10
1134.435856
 20
403.758889
 30
0.0
  0
VERTEX
  5
101EC
  8
ALPHA
 10
1134.43538
 20
403.751231
 30
0.0
  0
VERTEX
  5
101ED
  8
ALPHA
 10
1134.434956
 20
403.743572
 30
0.0
  0
VERTEX
  5
101EE
  8
ALPHA
 10
1134.434586
 20
403.735914
 30
0.0
  0
VERTEX
  5
101EF
  8
ALPHA
 10
1134.434268
 20
403.728255
 30
0.0
  0
VERTEX
  5
101F0
  8
ALPHA
 10
1134.434002
 20
403.720595
 30
0.0
  0
VERTEX
  5
101F1
  8
ALPHA
 10
1134.43379
 20
403.712936
 30
0.0
  0
VERTEX
  5
101F2
  8
ALPHA
 10
1134.382557
 20
400.781861
 30
0.0
  0
SEQEND
  5
101F3
  8
ALPHA
  0
LINE
  5
CBCD
  8
ALPHA
 10
1134.459273
 20
402.313777
 30
0.0
 11
1134.463756
 21
402.377606
 31
0.0
  0
POLYLINE
  5
CBCE
  8
ALPHA
 66
     1
 10
0.0
 20
0.0
 30
0.0
  0
VERTEX
  5
101F4
  8
ALPHA
 10
1134.486747
 20
403.526542
 30
0.0
  0
VERTEX
  5
101F5
  8
ALPHA
 10
1134.487635
 20
403.540075
 30
0.0
  0
VERTEX
  5
101F6
  8
ALPHA
 10
1134.488709
 20
403.553631
 30
0.0
  0
VERTEX
  5
101F7
  8
ALPHA
 10
1134.489969
 20
403.567208
 30
0.0
  0
VERTEX
  5
101F8
  8
ALPHA
 10
1134.491415
 20
403.580808
 30
0.0
  0
VERTEX
  5
101F9
  8
ALPHA
 10
1134.493047
 20
403.594431
 30
0.0
  0
VERTEX
  5
101FA
  8
ALPHA
 10
1134.494865
 20
403.608075
 30
0.0
  0
VERTEX
  5
101FB
  8
ALPHA
 10
1134.496871
 20
403.621742
 30
0.0
  0
VERTEX
  5
101FC
  8
ALPHA
 10
1134.499065
 20
403.635432
 30
0.0
  0
VERTEX
  5
101FD
  8
ALPHA
 10
1134.501446
 20
403.649144
 30
0.0
  0
VERTEX
  5
101FE
  8
ALPHA
 10
1134.504017
 20
403.662877
 30
0.0
  0
VERTEX
  5
101FF
  8
ALPHA
 10
1134.506778
 20
403.676633
 30
0.0
  0
VERTEX
  5
10200
  8
ALPHA
 10
1134.509731
 20
403.690411
 30
0.0
  0
VERTEX
  5
10201
  8
ALPHA
 10
1134.512875
 20
403.704211
 30
0.0
  0
VERTEX
  5
10202
  8
ALPHA
 10
1134.516212
 20
403.718032
 30
0.0
  0
SEQEND
  5
10203
  8
ALPHA
  0
POLYLINE
  5
CBDF
  8
ALPHA
 66
     1
 10
0.0
 20
0.0
 30
0.0
  0
VERTEX
  5
10204
  8
ALPHA
 10
1134.619314
 20
404.576151
 30
0.0
  0
VERTEX
  5
10205
  8
ALPHA
 10
1134.600186
 20
404.281159
 30
0.0
  0
VERTEX
  5
10206
  8
ALPHA
 10
1134.550331
 20
403.755343
 30
0.0
  0
SEQEND
  5
10207
  8
ALPHA
  0
LINE
  5
CBE4
  8
ALPHA
 10
1134.43028
 20
400.845691
 30
0.0
 11
1134.440344
 21
401.037181
 31
0.0
  0
POLYLINE
  5
CBE5
  8
ALPHA
 66
     1
 10
0.0
 20
0.0
 30
0.0
  0
VERTEX
  5
10208
  8
ALPHA
 10
1134.666823
 20
405.392888
 30
0.0
  0
VERTEX
  5
10209
  8
ALPHA
 10
1134.649319
 20
405.03186
 30
0.0
  0
VERTEX
  5
1020A
  8
ALPHA
 10
1134.635202
 20
404.820818
 30
0.0
  0
SEQEND
  5
1020B
  8
ALPHA
  0
LINE
  5
CBEA
  8
ALPHA
 10
1134.464284
 20
402.696755
 30
0.0
 11
1134.458713
 21
402.569095
 31
0.0
  0
LINE
  5
CBEB
  8
ALPHA
 10
1134.440872
 20
401.35633
 30
0.0
 11
1134.435301
 21
401.22867
 31
0.0
  0
LINE
  5
CBEC
  8
ALPHA
 10
1134.507788
 20
403.499445
 30
0.0
 11
1134.501061
 21
403.335053
 31
0.0
  0
LINE
  5
CBED
  8
ALPHA
 10
1134.492142
 20
402.824415
 30
0.0
 11
1134.510475
 21
403.271223
 31
0.0
  0
LINE
  5
CBEE
  8
ALPHA
 10
1134.463756
 20
402.377606
 30
0.0
 11
1134.473302
 21
402.632926
 31
0.0
  0
LINE
  5
CBEF
  8
ALPHA
 10
1134.440344
 20
401.037181
 30
0.0
 11
1134.449889
 21
401.292499
 31
0.0
  0
POLYLINE
  5
CBF0
  8
ALPHA
 66
     1
 10
0.0
 20
0.0
 30
0.0
  0
VERTEX
  5
1020C
  8
ALPHA
 10
1134.731129
 20
407.037145
 30
0.0
  0
VERTEX
  5
1020D
  8
ALPHA
 10
1134.694112
 20
405.967201
 30
0.0
  0
VERTEX
  5
1020E
  8
ALPHA
 10
1134.682198
 20
405.718439
 30
0.0
  0
SEQEND
  5
1020F
  8
ALPHA
  0
LINE
  5
CBF5
  8
ALPHA
 10
1137.60111
 20
403.335053
 30
0.0
 11
1137.585571
 21
403.079734
 31
0.0
  0
LINE
  5
CBF6
  8
ALPHA
 10
1137.607624
 20
402.760584
 30
0.0
 11
1137.617657
 21
403.015904
 31
0.0
  0
LINE
  5
CBF7
  8
ALPHA
 10
1137.585571
 20
403.079734
 30
0.0
 11
1137.574443
 21
402.760584
 31
0.0
  0
LINE
  5
CBF8
  8
ALPHA
 10
1134.473302
 20
402.632926
 30
0.0
 11
1134.478351
 21
402.824415
 31
0.0
  0
LINE
  5
CBF9
  8
ALPHA
 10
1134.449889
 20
401.292499
 30
0.0
 11
1134.454938
 21
401.483989
 31
0.0
  0
LINE
  5
CBFA
  8
ALPHA
 10
1134.469307
 20
402.888244
 30
0.0
 11
1134.464284
 21
402.696755
 31
0.0
  0
LINE
  5
CBFB
  8
ALPHA
 10
1134.445895
 20
401.547819
 30
0.0
 11
1134.440872
 21
401.35633
 31
0.0
  0
POLYLINE
  5
CBFC
  8
ALPHA
 66
     1
 10
0.0
 20
0.0
 30
0.0
  0
VERTEX
  5
10210
  8
ALPHA
 10
1134.526744
 20
403.589375
 30
0.0
  0
VERTEX
  5
10211
  8
ALPHA
 10
1134.527026
 20
403.601549
 30
0.0
  0
VERTEX
  5
10212
  8
ALPHA
 10
1134.527448
 20
403.613703
 30
0.0
  0
VERTEX
  5
10213
  8
ALPHA
 10
1134.528007
 20
403.625839
 30
0.0
  0
VERTEX
  5
10214
  8
ALPHA
 10
1134.528705
 20
403.637955
 30
0.0
  0
VERTEX
  5
10215
  8
ALPHA
 10
1134.52954
 20
403.650052
 30
0.0
  0
VERTEX
  5
10216
  8
ALPHA
 10
1134.530512
 20
403.66213
 30
0.0
  0
VERTEX
  5
10217
  8
ALPHA
 10
1134.531621
 20
403.674189
 30
0.0
  0
VERTEX
  5
10218
  8
ALPHA
 10
1134.532866
 20
403.686229
 30
0.0
  0
VERTEX
  5
10219
  8
ALPHA
 10
1134.534247
 20
403.69825
 30
0.0
  0
VERTEX
  5
1021A
  8
ALPHA
 10
1134.535764
 20
403.710251
 30
0.0
  0
VERTEX
  5
1021B
  8
ALPHA
 10
1134.537416
 20
403.722234
 30
0.0
  0
VERTEX
  5
1021C
  8
ALPHA
 10
1134.539203
 20
403.734197
 30
0.0
  0
VERTEX
  5
1021D
  8
ALPHA
 10
1134.541127
 20
403.746142
 30
0.0
  0
VERTEX
  5
1021E
  8
ALPHA
 10
1134.543186
 20
403.758067
 30
0.0
  0
VERTEX
  5
1021F
  8
ALPHA
 10
1134.545381
 20
403.769974
 30
0.0
  0
VERTEX
  5
10220
  8
ALPHA
 10
1134.547711
 20
403.781861
 30
0.0
  0
SEQEND
  5
10221
  8
ALPHA
  0
LINE
  5
CC0F
  8
ALPHA
 10
1134.757296
 20
408.174314
 30
0.0
 11
1134.731129
 21
407.037145
 31
0.0
  0
POLYLINE
  5
CC10
  8
ALPHA
 66
     1
 10
0.0
 20
0.0
 30
0.0
  0
VERTEX
  5
10222
  8
ALPHA
 10
1134.756295
 20
408.174317
 30
0.0
  0
VERTEX
  5
10223
  8
ALPHA
 10
1134.746226
 20
407.668992
 30
0.0
  0
VERTEX
  5
10224
  8
ALPHA
 10
1134.735759
 20
407.243431
 30
0.0
  0
VERTEX
  5
10225
  8
ALPHA
 10
1134.723951
 20
406.833014
 30
0.0
  0
VERTEX
  5
10226
  8
ALPHA
 10
1134.710945
 20
406.440496
 30
0.0
  0
VERTEX
  5
10227
  8
ALPHA
 10
1134.696958
 20
406.06826
 30
0.0
  0
VERTEX
  5
10228
  8
ALPHA
 10
1134.682198
 20
405.718439
 30
0.0
  0
VERTEX
  5
10229
  8
ALPHA
 10
1134.666823
 20
405.392888
 30
0.0
  0
VERTEX
  5
1022A
  8
ALPHA
 10
1134.651084
 20
405.093289
 30
0.0
  0
VERTEX
  5
1022B
  8
ALPHA
 10
1134.635202
 20
404.820818
 30
0.0
  0
VERTEX
  5
1022C
  8
ALPHA
 10
1134.619314
 20
404.576151
 30
0.0
  0
VERTEX
  5
1022D
  8
ALPHA
 10
1134.603622
 20
404.35977
 30
0.0
  0
VERTEX
  5
1022E
  8
ALPHA
 10
1134.588375
 20
404.172483
 30
0.0
  0
VERTEX
  5
1022F
  8
ALPHA
 10
1134.573788
 20
404.01494
 30
0.0
  0
SEQEND
  5
10230
  8
ALPHA
  0
LINE
  5
CC20
  8
ALPHA
 10
1137.416415
 20
400.406861
 30
0.0
 11
1137.482307
 21
404.156861
 31
0.0
  0
LINE
  5
CC21
  8
ALPHA
 10
1137.574443
 20
402.760584
 30
0.0
 11
1137.557615
 21
401.803138
 31
0.0
  0
LINE
  5
CC22
  8
ALPHA
 10
1137.590795
 20
401.803138
 30
0.0
 11
1137.607624
 21
402.760584
 31
0.0
  0
LINE
  5
CC23
  8
ALPHA
 10
1134.344084
 20
400.406861
 30
0.0
 11
1134.409572
 21
404.156861
 31
0.0
  0
LINE
  5
CC24
  8
ALPHA
 10
1134.421996
 20
402.505266
 30
0.0
 11
1134.437603
 21
403.398883
 31
0.0
  0
LINE
  5
CC25
  8
ALPHA
 10
1134.398585
 20
401.16484
 30
0.0
 11
1134.415307
 21
402.122286
 31
0.0
  0
LINE
  5
CC26
  8
ALPHA
 10
1134.449239
 20
401.739308
 30
0.0
 11
1134.445895
 21
401.547819
 31
0.0
  0
LINE
  5
CC27
  8
ALPHA
 10
1134.471537
 20
403.015904
 30
0.0
 11
1134.469307
 21
402.888244
 31
0.0
  0
LINE
  5
CC28
  8
ALPHA
 10
1134.478351
 20
402.824415
 30
0.0
 11
1134.48281
 21
403.079734
 31
0.0
  0
LINE
  5
CC29
  8
ALPHA
 10
1134.454938
 20
401.483989
 30
0.0
 11
1134.460512
 21
401.803138
 31
0.0
  0
LINE
  5
CC2A
  8
ALPHA
 10
1134.501061
 20
403.335053
 30
0.0
 11
1134.492142
 21
402.824415
 31
0.0
  0
LINE
  5
CC2B
  8
ALPHA
 10
1134.510475
 20
403.271223
 30
0.0
 11
1134.466992
 21
400.781861
 31
0.0
  0
LINE
  5
CC2C
  8
ALPHA
 10
1134.477678
 20
400.781861
 30
0.0
 11
1134.52672
 21
403.589376
 31
0.0
  0
LINE
  5
CC2D
  8
ALPHA
 10
1134.589005
 20
404.143282
 30
0.0
 11
1134.523731
 21
400.406861
 31
0.0
  0
LINE
  5
CC2E
  8
ALPHA
 10
1134.763646
 20
408.663052
 30
0.0
 11
1134.756305
 21
408.174317
 31
0.0
  0
LINE
  5
CC2F
  8
ALPHA
 10
1134.770826
 20
409.309983
 30
0.0
 11
1134.757296
 21
408.174314
 31
0.0
  0
LINE
  5
CC30
  8
ALPHA
 10
1134.450906
 20
401.930797
 30
0.0
 11
1134.449239
 21
401.739308
 31
0.0
  0
LINE
  5
CC31
  8
ALPHA
 10
1134.473203
 20
403.207393
 30
0.0
 11
1134.471537
 21
403.015904
 31
0.0
  0
LINE
  5
CC32
  8
ALPHA
 10
1134.460512
 20
401.803138
 30
0.0
 11
1134.462153
 21
401.994628
 31
0.0
  0
LINE
  5
CC33
  8
ALPHA
 10
1134.48281
 20
403.079734
 30
0.0
 11
1134.484451
 21
403.271223
 31
0.0
  0
POLYLINE
  5
CC34
  8
ALPHA
 66
     1
 10
0.0
 20
0.0
 30
0.0
  0
VERTEX
  5
10231
  8
ALPHA
 10
1134.484451
 20
403.271223
 30
0.0
  0
VERTEX
  5
10232
  8
ALPHA
 10
1134.484039
 20
403.458422
 30
0.0
  0
VERTEX
  5
10233
  8
ALPHA
 10
1134.484108
 20
403.466009
 30
0.0
  0
VERTEX
  5
10234
  8
ALPHA
 10
1134.484235
 20
403.473591
 30
0.0
  0
VERTEX
  5
10235
  8
ALPHA
 10
1134.484421
 20
403.481169
 30
0.0
  0
VERTEX
  5
10236
  8
ALPHA
 10
1134.484664
 20
403.488743
 30
0.0
  0
VERTEX
  5
10237
  8
ALPHA
 10
1134.484966
 20
403.496311
 30
0.0
  0
VERTEX
  5
10238
  8
ALPHA
 10
1134.485324
 20
403.503876
 30
0.0
  0
VERTEX
  5
10239
  8
ALPHA
 10
1134.485741
 20
403.511436
 30
0.0
  0
VERTEX
  5
1023A
  8
ALPHA
 10
1134.486215
 20
403.518991
 30
0.0
  0
VERTEX
  5
1023B
  8
ALPHA
 10
1134.486747
 20
403.526542
 30
0.0
  0
SEQEND
  5
1023C
  8
ALPHA
  0
LINE
  5
CC41
  8
ALPHA
 10
1134.771195
 20
410.377356
 30
0.0
 11
1134.770826
 21
409.309983
 31
0.0
  0
LINE
  5
CC42
  8
ALPHA
 10
1137.557615
 20
401.803138
 30
0.0
 11
1137.557524
 21
401.483989
 31
0.0
  0
LINE
  5
CC43
  8
ALPHA
 10
1134.462153
 20
401.994628
 30
0.0
 11
1134.461527
 21
402.249946
 31
0.0
  0
LINE
  5
CC44
  8
ALPHA
 10
1137.591853
 20
401.547819
 30
0.0
 11
1137.590795
 21
401.803138
 31
0.0
  0
LINE
  5
CC45
  8
ALPHA
 10
1134.449794
 20
402.058457
 30
0.0
 11
1134.450906
 21
401.930797
 31
0.0
  0
LINE
  5
CC46
  8
ALPHA
 10
1134.472091
 20
403.335053
 30
0.0
 11
1134.473203
 21
403.207393
 31
0.0
  0
LINE
  5
CC47
  8
ALPHA
 10
1134.759136
 20
411.310885
 30
0.0
 11
1134.771195
 21
410.377356
 31
0.0
  0
LINE
  5
CC48
  8
ALPHA
 10
1137.557524
 20
401.483989
 30
0.0
 11
1137.564088
 21
401.22867
 31
0.0
  0
LINE
  5
CC49
  8
ALPHA
 10
1134.461527
 20
402.249946
 30
0.0
 11
1134.459273
 21
402.313777
 31
0.0
  0
LINE
  5
CC4A
  8
ALPHA
 10
1137.599592
 20
401.35633
 30
0.0
 11
1137.591853
 21
401.547819
 31
0.0
  0
POLYLINE
  5
CC4B
  8
ALPHA
 66
     1
 10
0.0
 20
0.0
 30
0.0
  0
VERTEX
  5
1023D
  8
ALPHA
 10
1134.429728
 20
403.758071
 30
0.0
  0
VERTEX
  5
1023E
  8
ALPHA
 10
1134.407119
 20
404.284729
 30
0.0
  0
VERTEX
  5
1023F
  8
ALPHA
 10
1134.394897
 20
405.035147
 30
0.0
  0
VERTEX
  5
10240
  8
ALPHA
 10
1134.39287
 20
405.969251
 30
0.0
  0
VERTEX
  5
10241
  8
ALPHA
 10
1134.40042
 20
407.03754
 30
0.0
  0
VERTEX
  5
10242
  8
ALPHA
 10
1134.416569
 20
408.174314
 30
0.0
  0
SEQEND
  5
10243
  8
ALPHA
  0
LINE
  5
CC53
  8
ALPHA
 10
1134.445928
 20
402.122286
 30
0.0
 11
1134.449794
 21
402.058457
 31
0.0
  0
LINE
  5
CC54
  8
ALPHA
 10
1134.468225
 20
403.398883
 30
0.0
 11
1134.472091
 21
403.335053
 31
0.0
  0
LINE
  5
CC55
  8
ALPHA
 10
1137.564088
 20
401.22867
 30
0.0
 11
1137.581756
 21
400.973351
 31
0.0
  0
LINE
  5
CC56
  8
ALPHA
 10
1137.614038
 20
401.22867
 30
0.0
 11
1137.599592
 21
401.35633
 31
0.0
  0
LINE
  5
CC57
  8
ALPHA
 10
1137.581756
 20
400.973351
 30
0.0
 11
1137.601738
 21
400.845691
 31
0.0
  0
ARC
  5
CC58
  8
ALPHA
 10
1135.381925
 20
416.256861
 30
0.0
 40
1.0
 50
90.0
 51
179.0
  0
LINE
  5
CC59
  8
ALPHA
 10
1134.697179
 20
416.756861
 30
0.0
 11
1135.020819
 21
416.756861
 31
0.0
  0
LINE
  5
CC5A
  8
ALPHA
 10
1134.649413
 20
416.506861
 30
0.0
 11
1134.646542
 21
416.506861
 31
0.0
  0
LINE
  5
CC5B
  8
ALPHA
 10
1134.735278
 20
416.506861
 30
0.0
 11
1134.725264
 21
416.506861
 31
0.0
  0
LINE
  5
CC5C
  8
ALPHA
 10
1134.842199
 20
416.506861
 30
0.0
 11
1134.834466
 21
416.506861
 31
0.0
  0
LINE
  5
CC5D
  8
ALPHA
 10
1134.799404
 20
416.187712
 30
0.0
 11
1134.807119
 21
416.187712
 31
0.0
  0
LINE
  5
CC5E
  8
ALPHA
 10
1134.611985
 20
416.187712
 30
0.0
 11
1134.617728
 21
416.187712
 31
0.0
  0
LINE
  5
CC5F
  8
ALPHA
 10
1134.764411
 20
415.804734
 30
0.0
 11
1134.773735
 21
415.804734
 31
0.0
  0
LINE
  5
CC60
  8
ALPHA
 10
1134.584392
 20
415.804734
 30
0.0
 11
1134.591251
 21
415.804734
 31
0.0
  0
LINE
  5
CC61
  8
ALPHA
 10
1134.599897
 20
415.166436
 30
0.0
 11
1134.594155
 21
415.166436
 31
0.0
  0
LINE
  5
CC62
  8
ALPHA
 10
1134.589697
 20
414.911117
 30
0.0
 11
1134.59544
 21
414.911117
 31
0.0
  0
LINE
  5
CC63
  8
ALPHA
 10
1137.555482
 20
414.847287
 30
0.0
 11
1137.592886
 21
414.847287
 31
0.0
  0
LINE
  5
CC64
  8
ALPHA
 10
1137.577423
 20
414.272819
 30
0.0
 11
1137.545377
 21
414.272819
 31
0.0
  0
LINE
  5
CC65
  8
ALPHA
 10
1134.562026
 20
414.208989
 30
0.0
 11
1134.55519
 21
414.208989
 31
0.0
  0
LINE
  5
CC66
  8
ALPHA
 10
1134.714462
 20
413.88984
 30
0.0
 11
1134.662019
 21
413.88984
 31
0.0
  0
LINE
  5
CC67
  8
ALPHA
 10
1134.577926
 20
413.82601
 30
0.0
 11
1134.569313
 21
413.82601
 31
0.0
  0
LINE
  5
CC68
  8
ALPHA
 10
1134.797419
 20
413.82601
 30
0.0
 11
1134.742922
 21
413.82601
 31
0.0
  0
LINE
  5
CC69
  8
ALPHA
 10
1134.722428
 20
413.506861
 30
0.0
 11
1134.791859
 21
413.506861
 31
0.0
  0
LINE
  5
CC6A
  8
ALPHA
 10
1134.562336
 20
413.506861
 30
0.0
 11
1134.57382
 21
413.506861
 31
0.0
  0
LINE
  5
CC6B
  8
ALPHA
 10
1134.645319
 20
413.506861
 30
0.0
 11
1134.707774
 21
413.506861
 31
0.0
  0
LINE
  5
CC6C
  8
ALPHA
 10
1134.834137
 20
413.256861
 30
0.0
 11
1134.510618
 21
413.256861
 31
0.0
  0
POLYLINE
  5
CC6D
  8
ALPHA
 66
     1
 10
0.0
 20
0.0
 30
0.0
  0
VERTEX
  5
10244
  8
ALPHA
 10
1135.020821
 20
416.756861
 30
0.0
  0
VERTEX
  5
10245
  8
ALPHA
 10
1135.011715
 20
416.740768
 30
0.0
  0
VERTEX
  5
10246
  8
ALPHA
 10
1135.002944
 20
416.724583
 30
0.0
  0
VERTEX
  5
10247
  8
ALPHA
 10
1134.994505
 20
416.708306
 30
0.0
  0
VERTEX
  5
10248
  8
ALPHA
 10
1134.986396
 20
416.69194
 30
0.0
  0
VERTEX
  5
10249
  8
ALPHA
 10
1134.978615
 20
416.675486
 30
0.0
  0
VERTEX
  5
1024A
  8
ALPHA
 10
1134.971159
 20
416.658943
 30
0.0
  0
VERTEX
  5
1024B
  8
ALPHA
 10
1134.964027
 20
416.642314
 30
0.0
  0
VERTEX
  5
1024C
  8
ALPHA
 10
1134.957217
 20
416.625599
 30
0.0
  0
VERTEX
  5
1024D
  8
ALPHA
 10
1134.950725
 20
416.6088
 30
0.0
  0
VERTEX
  5
1024E
  8
ALPHA
 10
1134.94455
 20
416.591918
 30
0.0
  0
VERTEX
  5
1024F
  8
ALPHA
 10
1134.938689
 20
416.574953
 30
0.0
  0
VERTEX
  5
10250
  8
ALPHA
 10
1134.933141
 20
416.557906
 30
0.0
  0
VERTEX
  5
10251
  8
ALPHA
 10
1134.927902
 20
416.54078
 30
0.0
  0
VERTEX
  5
10252
  8
ALPHA
 10
1134.922972
 20
416.523574
 30
0.0
  0
VERTEX
  5
10253
  8
ALPHA
 10
1134.918004
 20
416.504957
 30
0.0
  0
VERTEX
  5
10254
  8
ALPHA
 10
1134.913394
 20
416.486249
 30
0.0
  0
VERTEX
  5
10255
  8
ALPHA
 10
1134.909142
 20
416.467449
 30
0.0
  0
VERTEX
  5
10256
  8
ALPHA
 10
1134.905251
 20
416.448557
 30
0.0
  0
VERTEX
  5
10257
  8
ALPHA
 10
1134.901724
 20
416.429573
 30
0.0
  0
VERTEX
  5
10258
  8
ALPHA
 10
1134.898562
 20
416.410496
 30
0.0
  0
VERTEX
  5
10259
  8
ALPHA
 10
1134.895768
 20
416.391325
 30
0.0
  0
VERTEX
  5
1025A
  8
ALPHA
 10
1134.893345
 20
416.372061
 30
0.0
  0
VERTEX
  5
1025B
  8
ALPHA
 10
1134.891295
 20
416.352702
 30
0.0
  0
VERTEX
  5
1025C
  8
ALPHA
 10
1134.889619
 20
416.333248
 30
0.0
  0
VERTEX
  5
1025D
  8
ALPHA
 10
1134.88832
 20
416.313699
 30
0.0
  0
VERTEX
  5
1025E
  8
ALPHA
 10
1134.887401
 20
416.294055
 30
0.0
  0
VERTEX
  5
1025F
  8
ALPHA
 10
1134.886864
 20
416.274314
 30
0.0
  0
SEQEND
  5
10260
  8
ALPHA
  0
POLYLINE
  5
CC8B
  8
ALPHA
 66
     1
 10
0.0
 20
0.0
 30
0.0
  0
VERTEX
  5
10261
  8
ALPHA
 10
1134.834482
 20
416.506861
 30
0.0
  0
VERTEX
  5
10262
  8
ALPHA
 10
1134.829578
 20
416.496279
 30
0.0
  0
VERTEX
  5
10263
  8
ALPHA
 10
1134.824793
 20
416.485674
 30
0.0
  0
VERTEX
  5
10264
  8
ALPHA
 10
1134.820126
 20
416.475047
 30
0.0
  0
VERTEX
  5
10265
  8
ALPHA
 10
1134.815577
 20
416.464397
 30
0.0
  0
VERTEX
  5
10266
  8
ALPHA
 10
1134.811147
 20
416.453725
 30
0.0
  0
VERTEX
  5
10267
  8
ALPHA
 10
1134.806834
 20
416.443031
 30
0.0
  0
SEQEND
  5
10268
  8
ALPHA
  0
POLYLINE
  5
CC94
  8
ALPHA
 66
     1
 10
0.0
 20
0.0
 30
0.0
  0
VERTEX
  5
10269
  8
ALPHA
 10
1134.646558
 20
416.506861
 30
0.0
  0
VERTEX
  5
1026A
  8
ALPHA
 10
1134.642227
 20
416.496278
 30
0.0
  0
VERTEX
  5
1026B
  8
ALPHA
 10
1134.638016
 20
416.485673
 30
0.0
  0
VERTEX
  5
1026C
  8
ALPHA
 10
1134.633925
 20
416.475046
 30
0.0
  0
VERTEX
  5
1026D
  8
ALPHA
 10
1134.629953
 20
416.464396
 30
0.0
  0
VERTEX
  5
1026E
  8
ALPHA
 10
1134.626101
 20
416.453725
 30
0.0
  0
VERTEX
  5
1026F
  8
ALPHA
 10
1134.622368
 20
416.443031
 30
0.0
  0
SEQEND
  5
10270
  8
ALPHA
  0
POLYLINE
  5
CC9D
  8
ALPHA
 66
     1
 10
0.0
 20
0.0
 30
0.0
  0
VERTEX
  5
10271
  8
ALPHA
 10
1137.612349
 20
416.506861
 30
0.0
  0
VERTEX
  5
10272
  8
ALPHA
 10
1137.609073
 20
416.493898
 30
0.0
  0
VERTEX
  5
10273
  8
ALPHA
 10
1137.605982
 20
416.480937
 30
0.0
  0
VERTEX
  5
10274
  8
ALPHA
 10
1137.603074
 20
416.46798
 30
0.0
  0
VERTEX
  5
10275
  8
ALPHA
 10
1137.600348
 20
416.455027
 30
0.0
  0
VERTEX
  5
10276
  8
ALPHA
 10
1137.597803
 20
416.442078
 30
0.0
  0
VERTEX
  5
10277
  8
ALPHA
 10
1137.595437
 20
416.429135
 30
0.0
  0
VERTEX
  5
10278
  8
ALPHA
 10
1137.593248
 20
416.416197
 30
0.0
  0
VERTEX
  5
10279
  8
ALPHA
 10
1137.591235
 20
416.403265
 30
0.0
  0
VERTEX
  5
1027A
  8
ALPHA
 10
1137.589397
 20
416.39034
 30
0.0
  0
VERTEX
  5
1027B
  8
ALPHA
 10
1137.587731
 20
416.377422
 30
0.0
  0
VERTEX
  5
1027C
  8
ALPHA
 10
1137.586238
 20
416.36451
 30
0.0
  0
VERTEX
  5
1027D
  8
ALPHA
 10
1137.584917
 20
416.351606
 30
0.0
  0
VERTEX
  5
1027E
  8
ALPHA
 10
1137.583766
 20
416.338708
 30
0.0
  0
VERTEX
  5
1027F
  8
ALPHA
 10
1137.582785
 20
416.325817
 30
0.0
  0
VERTEX
  5
10280
  8
ALPHA
 10
1137.581973
 20
416.312932
 30
0.0
  0
VERTEX
  5
10281
  8
ALPHA
 10
1137.581329
 20
416.300053
 30
0.0
  0
VERTEX
  5
10282
  8
ALPHA
 10
1137.580853
 20
416.287181
 30
0.0
  0
VERTEX
  5
10283
  8
ALPHA
 10
1137.580544
 20
416.274314
 30
0.0
  0
SEQEND
  5
10284
  8
ALPHA
  0
POLYLINE
  5
CCB2
  8
ALPHA
 66
     1
 10
0.0
 20
0.0
 30
0.0
  0
VERTEX
  5
10285
  8
ALPHA
 10
1134.72528
 20
416.506861
 30
0.0
  0
VERTEX
  5
10286
  8
ALPHA
 10
1134.722024
 20
416.493904
 30
0.0
  0
VERTEX
  5
10287
  8
ALPHA
 10
1134.718952
 20
416.480949
 30
0.0
  0
VERTEX
  5
10288
  8
ALPHA
 10
1134.716062
 20
416.467997
 30
0.0
  0
VERTEX
  5
10289
  8
ALPHA
 10
1134.713353
 20
416.455049
 30
0.0
  0
VERTEX
  5
1028A
  8
ALPHA
 10
1134.710823
 20
416.442104
 30
0.0
  0
VERTEX
  5
1028B
  8
ALPHA
 10
1134.70847
 20
416.429163
 30
0.0
  0
VERTEX
  5
1028C
  8
ALPHA
 10
1134.706294
 20
416.416228
 30
0.0
  0
VERTEX
  5
1028D
  8
ALPHA
 10
1134.704292
 20
416.403297
 30
0.0
  0
VERTEX
  5
1028E
  8
ALPHA
 10
1134.702464
 20
416.390373
 30
0.0
  0
VERTEX
  5
1028F
  8
ALPHA
 10
1134.700808
 20
416.377454
 30
0.0
  0
VERTEX
  5
10290
  8
ALPHA
 10
1134.699323
 20
416.364542
 30
0.0
  0
VERTEX
  5
10291
  8
ALPHA
 10
1134.698008
 20
416.351635
 30
0.0
  0
VERTEX
  5
10292
  8
ALPHA
 10
1134.696864
 20
416.338735
 30
0.0
  0
VERTEX
  5
10293
  8
ALPHA
 10
1134.695888
 20
416.32584
 30
0.0
  0
VERTEX
  5
10294
  8
ALPHA
 10
1134.69508
 20
416.31295
 30
0.0
  0
VERTEX
  5
10295
  8
ALPHA
 10
1134.694439
 20
416.300066
 30
0.0
  0
VERTEX
  5
10296
  8
ALPHA
 10
1134.693966
 20
416.287187
 30
0.0
  0
VERTEX
  5
10297
  8
ALPHA
 10
1134.693658
 20
416.274314
 30
0.0
  0
SEQEND
  5
10298
  8
ALPHA
  0
POLYLINE
  5
CCC7
  8
ALPHA
 66
     1
 10
0.0
 20
0.0
 30
0.0
  0
VERTEX
  5
10299
  8
ALPHA
 10
1134.806834
 20
416.443031
 30
0.0
  0
VERTEX
  5
1029A
  8
ALPHA
 10
1134.803785
 20
416.430449
 30
0.0
  0
VERTEX
  5
1029B
  8
ALPHA
 10
1134.800894
 20
416.417826
 30
0.0
  0
VERTEX
  5
1029C
  8
ALPHA
 10
1134.79816
 20
416.405162
 30
0.0
  0
VERTEX
  5
1029D
  8
ALPHA
 10
1134.795586
 20
416.392458
 30
0.0
  0
VERTEX
  5
1029E
  8
ALPHA
 10
1134.79317
 20
416.379712
 30
0.0
  0
VERTEX
  5
1029F
  8
ALPHA
 10
1134.790915
 20
416.366926
 30
0.0
  0
VERTEX
  5
102A0
  8
ALPHA
 10
1134.788821
 20
416.354099
 30
0.0
  0
VERTEX
  5
102A1
  8
ALPHA
 10
1134.786888
 20
416.341231
 30
0.0
  0
VERTEX
  5
102A2
  8
ALPHA
 10
1134.785119
 20
416.328322
 30
0.0
  0
VERTEX
  5
102A3
  8
ALPHA
 10
1134.783513
 20
416.315372
 30
0.0
  0
SEQEND
  5
102A4
  8
ALPHA
  0
POLYLINE
  5
CCD4
  8
ALPHA
 66
     1
 10
0.0
 20
0.0
 30
0.0
  0
VERTEX
  5
102A5
  8
ALPHA
 10
1134.622368
 20
416.443031
 30
0.0
  0
VERTEX
  5
102A6
  8
ALPHA
 10
1134.619515
 20
416.430453
 30
0.0
  0
VERTEX
  5
102A7
  8
ALPHA
 10
1134.61682
 20
416.417833
 30
0.0
  0
VERTEX
  5
102A8
  8
ALPHA
 10
1134.614284
 20
416.405171
 30
0.0
  0
VERTEX
  5
102A9
  8
ALPHA
 10
1134.611906
 20
416.392468
 30
0.0
  0
VERTEX
  5
102AA
  8
ALPHA
 10
1134.609688
 20
416.379723
 30
0.0
  0
VERTEX
  5
102AB
  8
ALPHA
 10
1134.607631
 20
416.366937
 30
0.0
  0
VERTEX
  5
102AC
  8
ALPHA
 10
1134.605735
 20
416.354108
 30
0.0
  0
VERTEX
  5
102AD
  8
ALPHA
 10
1134.604001
 20
416.341238
 30
0.0
  0
VERTEX
  5
102AE
  8
ALPHA
 10
1134.602431
 20
416.328326
 30
0.0
  0
VERTEX
  5
102AF
  8
ALPHA
 10
1134.601025
 20
416.315372
 30
0.0
  0
SEQEND
  5
102B0
  8
ALPHA
  0
LINE
  5
CCE1
  8
ALPHA
 10
1134.788758
 20
416.123882
 30
0.0
 11
1134.799418
 21
416.187712
 31
0.0
  0
POLYLINE
  5
CCE2
  8
ALPHA
 66
     1
 10
0.0
 20
0.0
 30
0.0
  0
VERTEX
  5
102B1
  8
ALPHA
 10
1134.584239
 20
412.590648
 30
0.0
  0
VERTEX
  5
102B2
  8
ALPHA
 10
1134.626335
 20
412.861446
 30
0.0
  0
VERTEX
  5
102B3
  8
ALPHA
 10
1134.667359
 20
412.860367
 30
0.0
  0
VERTEX
  5
102B4
  8
ALPHA
 10
1134.704902
 20
412.58768
 30
0.0
  0
SEQEND
  5
102B5
  8
ALPHA
  0
LINE
  5
CCE8
  8
ALPHA
 10
1137.617948
 20
415.357925
 30
0.0
 11
1137.587777
 21
415.166436
 31
0.0
  0
LINE
  5
CCE9
  8
ALPHA
 10
1134.586359
 20
413.88984
 30
0.0
 11
1134.577945
 21
413.82601
 31
0.0
  0
LINE
  5
CCEA
  8
ALPHA
 10
1137.592879
 20
414.847287
 30
0.0
 11
1137.617716
 21
415.038776
 31
0.0
  0
LINE
  5
CCEB
  8
ALPHA
 10
1134.603806
 20
416.123882
 30
0.0
 11
1134.612
 21
416.187712
 31
0.0
  0
LINE
  5
CCEC
  8
ALPHA
 10
1134.573823
 20
413.506861
 30
0.0
 11
1134.580785
 21
413.570691
 31
0.0
  0
LINE
  5
CCED
  8
ALPHA
 10
1134.610882
 20
415.294095
 30
0.0
 11
1134.599907
 21
415.166436
 31
0.0
  0
POLYLINE
  5
CCEE
  8
ALPHA
 66
     1
 10
0.0
 20
0.0
 30
0.0
  0
VERTEX
  5
102B6
  8
ALPHA
 10
1134.783513
 20
416.315372
 30
0.0
  0
VERTEX
  5
102B7
  8
ALPHA
 10
1134.783075
 20
416.310241
 30
0.0
  0
VERTEX
  5
102B8
  8
ALPHA
 10
1134.782662
 20
416.30511
 30
0.0
  0
VERTEX
  5
102B9
  8
ALPHA
 10
1134.782277
 20
416.299978
 30
0.0
  0
VERTEX
  5
102BA
  8
ALPHA
 10
1134.781918
 20
416.294846
 30
0.0
  0
VERTEX
  5
102BB
  8
ALPHA
 10
1134.781585
 20
416.289714
 30
0.0
  0
VERTEX
  5
102BC
  8
ALPHA
 10
1134.781279
 20
416.284581
 30
0.0
  0
VERTEX
  5
102BD
  8
ALPHA
 10
1134.780999
 20
416.279448
 30
0.0
  0
VERTEX
  5
102BE
  8
ALPHA
 10
1134.770739
 20
416.060053
 30
0.0
  0
SEQEND
  5
102BF
  8
ALPHA
  0
POLYLINE
  5
CCF9
  8
ALPHA
 66
     1
 10
0.0
 20
0.0
 30
0.0
  0
VERTEX
  5
102C0
  8
ALPHA
 10
1134.601025
 20
416.315372
 30
0.0
  0
VERTEX
  5
102C1
  8
ALPHA
 10
1134.600627
 20
416.310242
 30
0.0
  0
VERTEX
  5
102C2
  8
ALPHA
 10
1134.600254
 20
416.305111
 30
0.0
  0
VERTEX
  5
102C3
  8
ALPHA
 10
1134.599909
 20
416.299979
 30
0.0
  0
VERTEX
  5
102C4
  8
ALPHA
 10
1134.599589
 20
416.294847
 30
0.0
  0
VERTEX
  5
102C5
  8
ALPHA
 10
1134.599296
 20
416.289715
 30
0.0
  0
VERTEX
  5
102C6
  8
ALPHA
 10
1134.599029
 20
416.284582
 30
0.0
  0
VERTEX
  5
102C7
  8
ALPHA
 10
1134.598789
 20
416.279448
 30
0.0
  0
VERTEX
  5
102C8
  8
ALPHA
 10
1134.590226
 20
416.060053
 30
0.0
  0
SEQEND
  5
102C9
  8
ALPHA
  0
LINE
  5
CD04
  8
ALPHA
 10
1134.590424
 20
413.95367
 30
0.0
 11
1134.586359
 21
413.88984
 31
0.0
  0
LINE
  5
CD05
  8
ALPHA
 10
1134.580785
 20
413.570691
 30
0.0
 11
1134.588933
 21
413.698351
 31
0.0
  0
LINE
  5
CD06
  8
ALPHA
 10
1134.780854
 20
415.996223
 30
0.0
 11
1134.788758
 21
416.123882
 31
0.0
  0
LINE
  5
CD07
  8
ALPHA
 10
1134.588933
 20
413.698351
 30
0.0
 11
1134.595647
 21
413.82601
 31
0.0
  0
POLYLINE
  5
CD08
  8
ALPHA
 66
     1
 10
0.0
 20
0.0
 30
0.0
  0
VERTEX
  5
102CA
  8
ALPHA
 10
1134.809394
 20
415.421755
 30
0.0
  0
VERTEX
  5
102CB
  8
ALPHA
 10
1134.76827
 20
414.623925
 30
0.0
  0
VERTEX
  5
102CC
  8
ALPHA
 10
1134.728006
 20
413.82601
 30
0.0
  0
SEQEND
  5
102CD
  8
ALPHA
  0
POLYLINE
  5
CD0D
  8
ALPHA
 66
     1
 10
0.0
 20
0.0
 30
0.0
  0
VERTEX
  5
102CE
  8
ALPHA
 10
1134.742942
 20
413.82601
 30
0.0
  0
VERTEX
  5
102CF
  8
ALPHA
 10
1134.779112
 20
414.528172
 30
0.0
  0
VERTEX
  5
102D0
  8
ALPHA
 10
1134.815968
 20
415.230266
 30
0.0
  0
SEQEND
  5
102D1
  8
ALPHA
  0
LINE
  5
CD12
  8
ALPHA
 10
1134.597382
 20
415.996223
 30
0.0
 11
1134.603806
 21
416.123882
 31
0.0
  0
LINE
  5
CD13
  8
ALPHA
 10
1134.609374
 20
415.038776
 30
0.0
 11
1134.618671
 21
415.230266
 31
0.0
  0
LINE
  5
CD14
  8
ALPHA
 10
1134.616062
 20
415.421755
 30
0.0
 11
1134.610882
 21
415.294095
 31
0.0
  0
LINE
  5
CD15
  8
ALPHA
 10
1134.595621
 20
414.081329
 30
0.0
 11
1134.590424
 21
413.95367
 31
0.0
  0
LINE
  5
CD16
  8
ALPHA
 10
1134.815968
 20
415.230266
 30
0.0
 11
1134.823312
 21
415.421755
 31
0.0
  0
LINE
  5
CD17
  8
ALPHA
 10
1134.773748
 20
415.804734
 30
0.0
 11
1134.780854
 21
415.996223
 31
0.0
  0
POLYLINE
  5
CD18
  8
ALPHA
 66
     1
 10
0.0
 20
0.0
 30
0.0
  0
VERTEX
  5
102D2
  8
ALPHA
 10
1134.645339
 20
416.443031
 30
0.0
  0
VERTEX
  5
102D3
  8
ALPHA
 10
1134.645705
 20
416.453722
 30
0.0
  0
VERTEX
  5
102D4
  8
ALPHA
 10
1134.646196
 20
416.464391
 30
0.0
  0
VERTEX
  5
102D5
  8
ALPHA
 10
1134.646815
 20
416.47504
 30
0.0
  0
VERTEX
  5
102D6
  8
ALPHA
 10
1134.647559
 20
416.485668
 30
0.0
  0
VERTEX
  5
102D7
  8
ALPHA
 10
1134.648431
 20
416.496275
 30
0.0
  0
VERTEX
  5
102D8
  8
ALPHA
 10
1134.649429
 20
416.506861
 30
0.0
  0
SEQEND
  5
102D9
  8
ALPHA
  0
LINE
  5
CD21
  8
ALPHA
 10
1134.618671
 20
415.230266
 30
0.0
 11
1134.625019
 21
415.421755
 31
0.0
  0
LINE
  5
CD22
  8
ALPHA
 10
1134.595647
 20
413.82601
 30
0.0
 11
1134.602003
 21
414.0175
 31
0.0
  0
LINE
  5
CD23
  8
ALPHA
 10
1134.817809
 20
415.677074
 30
0.0
 11
1134.809394
 21
415.421755
 31
0.0
  0
LINE
  5
CD24
  8
ALPHA
 10
1134.591264
 20
415.804734
 30
0.0
 11
1134.597382
 21
415.996223
 31
0.0
  0
LINE
  5
CD25
  8
ALPHA
 10
1134.622673
 20
414.145159
 30
0.0
 11
1134.671237
 21
415.740904
 31
0.0
  0
LINE
  5
CD26
  8
ALPHA
 10
1134.668625
 20
415.868563
 30
0.0
 11
1134.620233
 21
414.272819
 31
0.0
  0
LINE
  5
CD27
  8
ALPHA
 10
1134.623489
 20
415.677074
 30
0.0
 11
1134.616062
 21
415.421755
 31
0.0
  0
LINE
  5
CD28
  8
ALPHA
 10
1134.599341
 20
414.208989
 30
0.0
 11
1134.595621
 21
414.081329
 31
0.0
  0
POLYLINE
  5
CD29
  8
ALPHA
 66
     1
 10
0.0
 20
0.0
 30
0.0
  0
VERTEX
  5
102DA
  8
ALPHA
 10
1137.467898
 20
416.274314
 30
0.0
  0
VERTEX
  5
102DB
  8
ALPHA
 10
1137.468438
 20
416.294049
 30
0.0
  0
VERTEX
  5
102DC
  8
ALPHA
 10
1137.469362
 20
416.313688
 30
0.0
  0
VERTEX
  5
102DD
  8
ALPHA
 10
1137.470666
 20
416.333232
 30
0.0
  0
VERTEX
  5
102DE
  8
ALPHA
 10
1137.47235
 20
416.352681
 30
0.0
  0
VERTEX
  5
102DF
  8
ALPHA
 10
1137.47441
 20
416.372035
 30
0.0
  0
VERTEX
  5
102E0
  8
ALPHA
 10
1137.476845
 20
416.391296
 30
0.0
  0
VERTEX
  5
102E1
  8
ALPHA
 10
1137.479652
 20
416.410463
 30
0.0
  0
VERTEX
  5
102E2
  8
ALPHA
 10
1137.482829
 20
416.429538
 30
0.0
  0
VERTEX
  5
102E3
  8
ALPHA
 10
1137.486373
 20
416.44852
 30
0.0
  0
VERTEX
  5
102E4
  8
ALPHA
 10
1137.490283
 20
416.46741
 30
0.0
  0
VERTEX
  5
102E5
  8
ALPHA
 10
1137.494556
 20
416.486209
 30
0.0
  0
VERTEX
  5
102E6
  8
ALPHA
 10
1137.49919
 20
416.504916
 30
0.0
  0
VERTEX
  5
102E7
  8
ALPHA
 10
1137.504183
 20
416.523533
 30
0.0
  0
VERTEX
  5
102E8
  8
ALPHA
 10
1137.509138
 20
416.540739
 30
0.0
  0
VERTEX
  5
102E9
  8
ALPHA
 10
1137.514403
 20
416.557867
 30
0.0
  0
VERTEX
  5
102EA
  8
ALPHA
 10
1137.51998
 20
416.574915
 30
0.0
  0
VERTEX
  5
102EB
  8
ALPHA
 10
1137.525871
 20
416.591882
 30
0.0
  0
VERTEX
  5
102EC
  8
ALPHA
 10
1137.532079
 20
416.608767
 30
0.0
  0
VERTEX
  5
102ED
  8
ALPHA
 10
1137.538605
 20
416.625568
 30
0.0
  0
VERTEX
  5
102EE
  8
ALPHA
 10
1137.545451
 20
416.642286
 30
0.0
  0
VERTEX
  5
102EF
  8
ALPHA
 10
1137.552621
 20
416.658918
 30
0.0
  0
VERTEX
  5
102F0
  8
ALPHA
 10
1137.560116
 20
416.675464
 30
0.0
  0
VERTEX
  5
102F1
  8
ALPHA
 10
1137.567939
 20
416.691923
 30
0.0
  0
VERTEX
  5
102F2
  8
ALPHA
 10
1137.576092
 20
416.708293
 30
0.0
  0
VERTEX
  5
102F3
  8
ALPHA
 10
1137.584577
 20
416.724574
 30
0.0
  0
VERTEX
  5
102F4
  8
ALPHA
 10
1137.593396
 20
416.740763
 30
0.0
  0
VERTEX
  5
102F5
  8
ALPHA
 10
1137.602552
 20
416.756861
 30
0.0
  0
SEQEND
  5
102F6
  8
ALPHA
  0
POLYLINE
  5
CD47
  8
ALPHA
 66
     1
 10
0.0
 20
0.0
 30
0.0
  0
VERTEX
  5
102F7
  8
ALPHA
 10
1134.563311
 20
416.274314
 30
0.0
  0
VERTEX
  5
102F8
  8
ALPHA
 10
1134.563841
 20
416.293882
 30
0.0
  0
VERTEX
  5
102F9
  8
ALPHA
 10
1134.564747
 20
416.313367
 30
0.0
  0
VERTEX
  5
102FA
  8
ALPHA
 10
1134.566027
 20
416.33277
 30
0.0
  0
VERTEX
  5
102FB
  8
ALPHA
 10
1134.567679
 20
416.352091
 30
0.0
  0
VERTEX
  5
102FC
  8
ALPHA
 10
1134.569702
 20
416.371331
 30
0.0
  0
VERTEX
  5
102FD
  8
ALPHA
 10
1134.572095
 20
416.390491
 30
0.0
  0
VERTEX
  5
102FE
  8
ALPHA
 10
1134.574856
 20
416.409571
 30
0.0
  0
VERTEX
  5
102FF
  8
ALPHA
 10
1134.577984
 20
416.428572
 30
0.0
  0
VERTEX
  5
10300
  8
ALPHA
 10
1134.581477
 20
416.447495
 30
0.0
  0
VERTEX
  5
10301
  8
ALPHA
 10
1134.585334
 20
416.46634
 30
0.0
  0
VERTEX
  5
10302
  8
ALPHA
 10
1134.589554
 20
416.485107
 30
0.0
  0
VERTEX
  5
10303
  8
ALPHA
 10
1134.594134
 20
416.503798
 30
0.0
  0
VERTEX
  5
10304
  8
ALPHA
 10
1134.599075
 20
416.522414
 30
0.0
  0
VERTEX
  5
10305
  8
ALPHA
 10
1134.603984
 20
416.539632
 30
0.0
  0
VERTEX
  5
10306
  8
ALPHA
 10
1134.609205
 20
416.556783
 30
0.0
  0
VERTEX
  5
10307
  8
ALPHA
 10
1134.614741
 20
416.573867
 30
0.0
  0
VERTEX
  5
10308
  8
ALPHA
 10
1134.620593
 20
416.590881
 30
0.0
  0
VERTEX
  5
10309
  8
ALPHA
 10
1134.626766
 20
416.607824
 30
0.0
  0
VERTEX
  5
1030A
  8
ALPHA
 10
1134.633262
 20
416.624695
 30
0.0
  0
VERTEX
  5
1030B
  8
ALPHA
 10
1134.640083
 20
416.641491
 30
0.0
  0
VERTEX
  5
1030C
  8
ALPHA
 10
1134.647233
 20
416.658212
 30
0.0
  0
VERTEX
  5
1030D
  8
ALPHA
 10
1134.654714
 20
416.674855
 30
0.0
  0
VERTEX
  5
1030E
  8
ALPHA
 10
1134.662528
 20
416.69142
 30
0.0
  0
VERTEX
  5
1030F
  8
ALPHA
 10
1134.67068
 20
416.707905
 30
0.0
  0
VERTEX
  5
10310
  8
ALPHA
 10
1134.67917
 20
416.724308
 30
0.0
  0
VERTEX
  5
10311
  8
ALPHA
 10
1134.688004
 20
416.740627
 30
0.0
  0
VERTEX
  5
10312
  8
ALPHA
 10
1134.697182
 20
416.756861
 30
0.0
  0
SEQEND
  5
10313
  8
ALPHA
  0
LINE
  5
CD65
  8
ALPHA
 10
1134.602003
 20
414.0175
 30
0.0
 11
1134.60686
 21
414.208989
 31
0.0
  0
LINE
  5
CD66
  8
ALPHA
 10
1134.823312
 20
415.421755
 30
0.0
 11
1134.829779
 21
415.677074
 31
0.0
  0
LINE
  5
CD67
  8
ALPHA
 10
1134.770739
 20
416.060053
 30
0.0
 11
1134.764423
 21
415.804734
 31
0.0
  0
POLYLINE
  5
CD68
  8
ALPHA
 66
     1
 10
0.0
 20
0.0
 30
0.0
  0
VERTEX
  5
10314
  8
ALPHA
 10
1134.703672
 20
416.274314
 30
0.0
  0
VERTEX
  5
10315
  8
ALPHA
 10
1134.703986
 20
416.287397
 30
0.0
  0
VERTEX
  5
10316
  8
ALPHA
 10
1134.70447
 20
416.30046
 30
0.0
  0
VERTEX
  5
10317
  8
ALPHA
 10
1134.705125
 20
416.313505
 30
0.0
  0
VERTEX
  5
10318
  8
ALPHA
 10
1134.70595
 20
416.32653
 30
0.0
  0
VERTEX
  5
10319
  8
ALPHA
 10
1134.706944
 20
416.339536
 30
0.0
  0
VERTEX
  5
1031A
  8
ALPHA
 10
1134.708107
 20
416.352523
 30
0.0
  0
VERTEX
  5
1031B
  8
ALPHA
 10
1134.70944
 20
416.36549
 30
0.0
  0
VERTEX
  5
1031C
  8
ALPHA
 10
1134.710942
 20
416.378439
 30
0.0
  0
VERTEX
  5
1031D
  8
ALPHA
 10
1134.712613
 20
416.391368
 30
0.0
  0
VERTEX
  5
1031E
  8
ALPHA
 10
1134.714452
 20
416.404278
 30
0.0
  0
VERTEX
  5
1031F
  8
ALPHA
 10
1134.71646
 20
416.417169
 30
0.0
  0
VERTEX
  5
10320
  8
ALPHA
 10
1134.718638
 20
416.430041
 30
0.0
  0
VERTEX
  5
10321
  8
ALPHA
 10
1134.720986
 20
416.442894
 30
0.0
  0
VERTEX
  5
10322
  8
ALPHA
 10
1134.723504
 20
416.455727
 30
0.0
  0
VERTEX
  5
10323
  8
ALPHA
 10
1134.726194
 20
416.46854
 30
0.0
  0
VERTEX
  5
10324
  8
ALPHA
 10
1134.729055
 20
416.481334
 30
0.0
  0
VERTEX
  5
10325
  8
ALPHA
 10
1134.732088
 20
416.494108
 30
0.0
  0
VERTEX
  5
10326
  8
ALPHA
 10
1134.735294
 20
416.506861
 30
0.0
  0
SEQEND
  5
10327
  8
ALPHA
  0
LINE
  5
CD7D
  8
ALPHA
 10
1134.625019
 20
415.421755
 30
0.0
 11
1134.630986
 21
415.677074
 31
0.0
  0
LINE
  5
CD7E
  8
ALPHA
 10
1134.590226
 20
416.060053
 30
0.0
 11
1134.584405
 21
415.804734
 31
0.0
  0
POLYLINE
  5
CD7F
  8
ALPHA
 66
     1
 10
0.0
 20
0.0
 30
0.0
  0
VERTEX
  5
10328
  8
ALPHA
 10
1134.635481
 20
416.315372
 30
0.0
  0
VERTEX
  5
10329
  8
ALPHA
 10
1134.63572
 20
416.328296
 30
0.0
  0
VERTEX
  5
1032A
  8
ALPHA
 10
1134.636127
 20
416.341186
 30
0.0
  0
VERTEX
  5
1032B
  8
ALPHA
 10
1134.636702
 20
416.354039
 30
0.0
  0
VERTEX
  5
1032C
  8
ALPHA
 10
1134.637442
 20
416.366858
 30
0.0
  0
VERTEX
  5
1032D
  8
ALPHA
 10
1134.638348
 20
416.379642
 30
0.0
  0
VERTEX
  5
1032E
  8
ALPHA
 10
1134.639418
 20
416.39239
 30
0.0
  0
VERTEX
  5
1032F
  8
ALPHA
 10
1134.640653
 20
416.405103
 30
0.0
  0
VERTEX
  5
10330
  8
ALPHA
 10
1134.642052
 20
416.417781
 30
0.0
  0
VERTEX
  5
10331
  8
ALPHA
 10
1134.643614
 20
416.430424
 30
0.0
  0
VERTEX
  5
10332
  8
ALPHA
 10
1134.645339
 20
416.443031
 30
0.0
  0
SEQEND
  5
10333
  8
ALPHA
  0
LINE
  5
CD8C
  8
ALPHA
 10
1137.414901
 20
413.256861
 30
0.0
 11
1137.467898
 21
416.274314
 31
0.0
  0
LINE
  5
CD8D
  8
ALPHA
 10
1137.580544
 20
416.274314
 30
0.0
 11
1137.555475
 21
414.847287
 31
0.0
  0
LINE
  5
CD8E
  8
ALPHA
 10
1137.587777
 20
415.166436
 30
0.0
 11
1137.605719
 21
416.187712
 31
0.0
  0
LINE
  5
CD8F
  8
ALPHA
 10
1134.510622
 20
413.256861
 30
0.0
 11
1134.563311
 21
416.274314
 31
0.0
  0
LINE
  5
CD90
  8
ALPHA
 10
1134.594165
 20
415.166436
 30
0.0
 11
1134.589706
 21
414.911117
 31
0.0
  0
LINE
  5
CD91
  8
ALPHA
 10
1134.625718
 20
415.804734
 30
0.0
 11
1134.623489
 21
415.677074
 31
0.0
  0
LINE
  5
CD92
  8
ALPHA
 10
1134.6038
 20
414.464308
 30
0.0
 11
1134.599341
 21
414.208989
 31
0.0
  0
LINE
  5
CD93
  8
ALPHA
 10
1134.630986
 20
415.677074
 30
0.0
 11
1134.633215
 21
415.804734
 31
0.0
  0
LINE
  5
CD94
  8
ALPHA
 10
1134.60686
 20
414.208989
 30
0.0
 11
1134.611319
 21
414.464308
 31
0.0
  0
LINE
  5
CD95
  8
ALPHA
 10
1134.693658
 20
416.274314
 30
0.0
 11
1134.645322
 21
413.506861
 31
0.0
  0
LINE
  5
CD96
  8
ALPHA
 10
1134.662024
 20
413.88984
 30
0.0
 11
1134.703672
 21
416.274314
 31
0.0
  0
LINE
  5
CD97
  8
ALPHA
 10
1134.707777
 20
413.506861
 30
0.0
 11
1134.714467
 21
413.88984
 31
0.0
  0
LINE
  5
CD98
  8
ALPHA
 10
1134.728006
 20
413.82601
 30
0.0
 11
1134.722431
 21
413.506861
 31
0.0
  0
LINE
  5
CD99
  8
ALPHA
 10
1134.820039
 20
415.804734
 30
0.0
 11
1134.817809
 21
415.677074
 31
0.0
  0
LINE
  5
CD9A
  8
ALPHA
 10
1134.829779
 20
415.677074
 30
0.0
 11
1134.832009
 21
415.804734
 31
0.0
  0
LINE
  5
CD9B
  8
ALPHA
 10
1134.791863
 20
413.506861
 30
0.0
 11
1134.797438
 21
413.82601
 31
0.0
  0
LINE
  5
CD9C
  8
ALPHA
 10
1134.886864
 20
416.274314
 30
0.0
 11
1134.834141
 21
413.256861
 31
0.0
  0
LINE
  5
CD9D
  8
ALPHA
 10
1134.611319
 20
414.464308
 30
0.0
 11
1134.614265
 21
414.719627
 31
0.0
  0
LINE
  5
CD9E
  8
ALPHA
 10
1134.633215
 20
415.804734
 30
0.0
 11
1134.636166
 21
416.060053
 31
0.0
  0
LINE
  5
CD9F
  8
ALPHA
 10
1134.555181
 20
414.208989
 30
0.0
 11
1134.553195
 21
414.0175
 31
0.0
  0
POLYLINE
  5
CDA0
  8
ALPHA
 66
     1
 10
0.0
 20
0.0
 30
0.0
  0
VERTEX
  5
10334
  8
ALPHA
 10
1134.839663
 20
416.443031
 30
0.0
  0
VERTEX
  5
10335
  8
ALPHA
 10
1134.839775
 20
416.453725
 30
0.0
  0
VERTEX
  5
10336
  8
ALPHA
 10
1134.840012
 20
416.464397
 30
0.0
  0
VERTEX
  5
10337
  8
ALPHA
 10
1134.840375
 20
416.475046
 30
0.0
  0
VERTEX
  5
10338
  8
ALPHA
 10
1134.840863
 20
416.485673
 30
0.0
  0
VERTEX
  5
10339
  8
ALPHA
 10
1134.841476
 20
416.496278
 30
0.0
  0
VERTEX
  5
1033A
  8
ALPHA
 10
1134.842215
 20
416.506861
 30
0.0
  0
SEQEND
  5
1033B
  8
ALPHA
  0
LINE
  5
CDA9
  8
ALPHA
 10
1134.832009
 20
415.804734
 30
0.0
 11
1134.834464
 21
416.060053
 31
0.0
  0
LINE
  5
CDAA
  8
ALPHA
 10
1134.561168
 20
414.081329
 30
0.0
 11
1134.562017
 21
414.208989
 31
0.0
  0
LINE
  5
CDAB
  8
ALPHA
 10
1134.605282
 20
414.719627
 30
0.0
 11
1134.6038
 21
414.464308
 31
0.0
  0
LINE
  5
CDAC
  8
ALPHA
 10
1134.553195
 20
414.0175
 30
0.0
 11
1134.552582
 21
413.82601
 31
0.0
  0
POLYLINE
  5
CDAD
  8
ALPHA
 66
     1
 10
0.0
 20
0.0
 30
0.0
  0
VERTEX
  5
1033C
  8
ALPHA
 10
1134.83179
 20
416.315372
 30
0.0
  0
VERTEX
  5
1033D
  8
ALPHA
 10
1134.831828
 20
416.328301
 30
0.0
  0
VERTEX
  5
1033E
  8
ALPHA
 10
1134.832035
 20
416.341194
 30
0.0
  0
VERTEX
  5
1033F
  8
ALPHA
 10
1134.832409
 20
416.35405
 30
0.0
  0
VERTEX
  5
10340
  8
ALPHA
 10
1134.83295
 20
416.36687
 30
0.0
  0
VERTEX
  5
10341
  8
ALPHA
 10
1134.833658
 20
416.379654
 30
0.0
  0
VERTEX
  5
10342
  8
ALPHA
 10
1134.83453
 20
416.392402
 30
0.0
  0
VERTEX
  5
10343
  8
ALPHA
 10
1134.835567
 20
416.405114
 30
0.0
  0
VERTEX
  5
10344
  8
ALPHA
 10
1134.836769
 20
416.417789
 30
0.0
  0
VERTEX
  5
10345
  8
ALPHA
 10
1134.838134
 20
416.430428
 30
0.0
  0
VERTEX
  5
10346
  8
ALPHA
 10
1134.839663
 20
416.443031
 30
0.0
  0
SEQEND
  5
10347
  8
ALPHA
  0
LINE
  5
CDBA
  8
ALPHA
 10
1134.626094
 20
415.996223
 30
0.0
 11
1134.625718
 21
415.804734
 31
0.0
  0
LINE
  5
CDBB
  8
ALPHA
 10
1134.614265
 20
414.719627
 30
0.0
 11
1134.614597
 21
414.911117
 31
0.0
  0
LINE
  5
CDBC
  8
ALPHA
 10
1134.81943
 20
415.996223
 30
0.0
 11
1134.820039
 21
415.804734
 31
0.0
  0
POLYLINE
  5
CDBD
  8
ALPHA
 66
     1
 10
0.0
 20
0.0
 30
0.0
  0
VERTEX
  5
10348
  8
ALPHA
 10
1134.636166
 20
416.060053
 30
0.0
  0
VERTEX
  5
10349
  8
ALPHA
 10
1134.63486
 20
416.279454
 30
0.0
  0
VERTEX
  5
1034A
  8
ALPHA
 10
1134.63487
 20
416.284592
 30
0.0
  0
VERTEX
  5
1034B
  8
ALPHA
 10
1134.634905
 20
416.289727
 30
0.0
  0
VERTEX
  5
1034C
  8
ALPHA
 10
1134.634968
 20
416.294861
 30
0.0
  0
VERTEX
  5
1034D
  8
ALPHA
 10
1134.635056
 20
416.299992
 30
0.0
  0
VERTEX
  5
1034E
  8
ALPHA
 10
1134.635171
 20
416.305121
 30
0.0
  0
VERTEX
  5
1034F
  8
ALPHA
 10
1134.635313
 20
416.310248
 30
0.0
  0
VERTEX
  5
10350
  8
ALPHA
 10
1134.635481
 20
416.315372
 30
0.0
  0
SEQEND
  5
10351
  8
ALPHA
  0
LINE
  5
CDC8
  8
ALPHA
 10
1134.561713
 20
413.95367
 30
0.0
 11
1134.561168
 21
414.081329
 31
0.0
  0
POLYLINE
  5
CDC9
  8
ALPHA
 66
     1
 10
0.0
 20
0.0
 30
0.0
  0
VERTEX
  5
10352
  8
ALPHA
 10
1134.834464
 20
416.060053
 30
0.0
  0
VERTEX
  5
10353
  8
ALPHA
 10
1134.831449
 20
416.279454
 30
0.0
  0
VERTEX
  5
10354
  8
ALPHA
 10
1134.831418
 20
416.284593
 30
0.0
  0
VERTEX
  5
10355
  8
ALPHA
 10
1134.831414
 20
416.289728
 30
0.0
  0
VERTEX
  5
10356
  8
ALPHA
 10
1134.831436
 20
416.294862
 30
0.0
  0
VERTEX
  5
10357
  8
ALPHA
 10
1134.831485
 20
416.299993
 30
0.0
  0
VERTEX
  5
10358
  8
ALPHA
 10
1134.83156
 20
416.305122
 30
0.0
  0
VERTEX
  5
10359
  8
ALPHA
 10
1134.831662
 20
416.310248
 30
0.0
  0
VERTEX
  5
1035A
  8
ALPHA
 10
1134.83179
 20
416.315372
 30
0.0
  0
SEQEND
  5
1035B
  8
ALPHA
  0
LINE
  5
CDD4
  8
ALPHA
 10
1134.552582
 20
413.82601
 30
0.0
 11
1134.554481
 21
413.698351
 31
0.0
  0
LINE
  5
CDD5
  8
ALPHA
 10
1134.623905
 20
416.123882
 30
0.0
 11
1134.626094
 21
415.996223
 31
0.0
  0
LINE
  5
CDD6
  8
ALPHA
 10
1134.603079
 20
414.847287
 30
0.0
 11
1134.605282
 21
414.719627
 31
0.0
  0
LINE
  5
CDD7
  8
ALPHA
 10
1134.620233
 20
414.272819
 30
0.0
 11
1134.622673
 21
414.145159
 31
0.0
  0
LINE
  5
CDD8
  8
ALPHA
 10
1134.671237
 20
415.740904
 30
0.0
 11
1134.668625
 21
415.868563
 31
0.0
  0
LINE
  5
CDD9
  8
ALPHA
 10
1137.545383
 20
414.272819
 30
0.0
 11
1137.551562
 21
414.0175
 31
0.0
  0
LINE
  5
CDDA
  8
ALPHA
 10
1137.583662
 20
414.0175
 30
0.0
 11
1137.57743
 21
414.272819
 31
0.0
  0
LINE
  5
CDDB
  8
ALPHA
 10
1134.554481
 20
413.698351
 30
0.0
 11
1134.557817
 21
413.570691
 31
0.0
  0
LINE
  5
CDDC
  8
ALPHA
 10
1134.563391
 20
413.88984
 30
0.0
 11
1134.561713
 21
413.95367
 31
0.0
  0
LINE
  5
CDDD
  8
ALPHA
 10
1134.815762
 20
416.123882
 30
0.0
 11
1134.81943
 21
415.996223
 31
0.0
  0
LINE
  5
CDDE
  8
ALPHA
 10
1134.614597
 20
414.911117
 30
0.0
 11
1134.609374
 21
415.038776
 31
0.0
  0
LINE
  5
CDDF
  8
ALPHA
 10
1137.551562
 20
414.0175
 30
0.0
 11
1137.563106
 21
413.76218
 31
0.0
  0
LINE
  5
CDE0
  8
ALPHA
 10
1134.557817
 20
413.570691
 30
0.0
 11
1134.562339
 21
413.506861
 31
0.0
  0
LINE
  5
CDE1
  8
ALPHA
 10
1134.569332
 20
413.82601
 30
0.0
 11
1134.563391
 21
413.88984
 31
0.0
  0
LINE
  5
CDE2
  8
ALPHA
 10
1134.617742
 20
416.187712
 30
0.0
 11
1134.623905
 21
416.123882
 31
0.0
  0
LINE
  5
CDE3
  8
ALPHA
 10
1137.59753
 20
413.88984
 30
0.0
 11
1137.583662
 21
414.0175
 31
0.0
  0
LINE
  5
CDE4
  8
ALPHA
 10
1134.595448
 20
414.911117
 30
0.0
 11
1134.603079
 21
414.847287
 31
0.0
  0
LINE
  5
CDE5
  8
ALPHA
 10
1137.563106
 20
413.76218
 30
0.0
 11
1137.586548
 21
413.570691
 31
0.0
  0
LINE
  5
CDE6
  8
ALPHA
 10
1134.807133
 20
416.187712
 30
0.0
 11
1134.815762
 21
416.123882
 31
0.0
  0
LINE
  5
CDE7
  8
ALPHA
 10
1137.586548
 20
413.570691
 30
0.0
 11
1137.612344
 21
413.506861
 31
0.0
  0
LINE
  5
CDE8
  8
ALPHA
 10
1137.617951
 20
413.82601
 30
0.0
 11
1137.59753
 21
413.88984
 31
0.0
  0
ENDSEC
  0
EOF
