999
DXF file: Y:\78_2023_515_Modélisation ABE7-9\CAD3D\ABE7 R16T330\ABE7_R16T330_2D-top.dxf
999
Pro/ENGINEER 2018260 by Parametric Technology Corporation
  0
SECTION
  2
HEADER
  9
$ACADVER
  1
AC1027
  9
$DWGCODEPAGE
  3
ANSI_1252
  9
$EXTMAX
 10
558.8
 20
431.8
 30
0.0
  9
$EXTMIN
 10
0.0
 20
0.0
 30
0.0
  9
$LIMMIN
 10
0.0
 20
0.0
  9
$LIMMAX
 10
558.8
 20
431.8
  9
$VIEWCTR
 10
279.4
 20
215.9
  9
$VIEWSIZE
 40
431.8
  9
$CLAYER
  8
0
  9
$LTSCALE
 40
30.734
  9
$CELTYPE
  6
BYLAYER
  9
$DIMSCALE
 40
1.0
  9
$DIMASZ
 40
0.1875
  9
$DIMEXO
 40
0.0625
  9
$DIMDLI
 40
21.2344
  9
$DIMEXE
 40
0.125
  9
$DIMCEN
 40
5.0292
  9
$DIMLFAC
 40
1.0
  9
$DIMBLK
  1
_CLOSED
  9
$DIMALT
 70
0
  9
$DIMALTF
 40
0.0393700787
  9
$DIMTXT
 40
0.15625
  9
$DIMTOL
 70
0
  9
$DIMLIM
 70
0
  9
$DIMTFAC
 40
1.0
  9
$DIMGAP
 40
0.625
  9
$DIMDSEP
 70
46
  9
$AUNITS
 70
0
  9
$PDMODE
 70
3
  9
$PDSIZE
 40
0.3125
  9
$HANDSEED
  5
523
  9
$TILEMODE
 70
1
  9
$MEASUREMENT
 70
1
  9
$INSUNITS
 70
4
  0
ENDSEC
  0
SECTION
  2
CLASSES
  0
CLASS
  1
ACDBDICTIONARYWDFLT
  2
AcDbDictionaryWithDefault
  3
AutoCAD 2000
 90
0
 91
1
280
0
281
0
  0
CLASS
  1
ACDBPLACEHOLDER
  2
AcDbPlaceHolder
  3
AutoCAD 2000
 90
0
 91
1
280
0
281
0
  0
CLASS
  1
LAYOUT
  2
AcDbLayout
  3
AutoCAD 2000
 90
0
 91
0
280
0
281
0
  0
ENDSEC
  0
SECTION
  2
TABLES
  0
TABLE
  2
VPORT
  5
8
100
AcDbSymbolTable
 70
2
  0
VPORT
  5
1F4
100
AcDbSymbolTableRecord
100
AcDbViewportTableRecord
  2
*ACTIVE
 70
0
 10
0.0
 20
0.0
 11
1.0
 21
1.0
 12
279.4
 22
215.9
 13
0.0
 23
0.0
 14
1.0
 24
1.0
 15
0.0
 25
0.0
 16
0.0
 26
0.0
 36
1.0
 17
0.0
 27
0.0
 37
0.0
 40
431.8
 41
1.2941176471
 42
50.0
 43
0.0
 44
0.0
 50
0.0
 51
0.0
 71
0
 72
100
 73
1
 74
1
 75
0
 76
0
 77
0
 78
0
  0
ENDTAB
  0
TABLE
  2
LTYPE
  5
5
100
AcDbSymbolTable
 70
6
  0
LTYPE
  5
14
100
AcDbSymbolTableRecord
100
AcDbLinetypeTableRecord
  2
BYBLOCK
 70
0
  3

 72
65
 73
0
 40
0.0
  0
LTYPE
  5
15
100
AcDbSymbolTableRecord
100
AcDbLinetypeTableRecord
  2
BYLAYER
 70
0
  3

 72
65
 73
0
 40
0.0
  0
LTYPE
  5
16
100
AcDbSymbolTableRecord
100
AcDbLinetypeTableRecord
  2
CONTINUOUS
 70
64
  3
Solid line
 72
65
 73
0
 40
0.0
  0
LTYPE
  5
1F5
100
AcDbSymbolTableRecord
100
AcDbLinetypeTableRecord
  2
CENTER
 70
64
  3
____ _ ____ _ ____ _ ____ _ ____ _ ____ _ ____
 72
65
 73
4
 40
0.6
 49
0.375
 74
0
 49
-0.075
 74
0
 49
0.075
 74
0
 49
-0.075
 74
0
  0
LTYPE
  5
1F6
100
AcDbSymbolTableRecord
100
AcDbLinetypeTableRecord
  2
HIDDEN
 70
64
  3
- - - - - - - - - - - - - - - - - - - -
 72
65
 73
2
 40
0.2
 49
0.1
 74
0
 49
-0.1
 74
0
  0
LTYPE
  5
1F7
100
AcDbSymbolTableRecord
100
AcDbLinetypeTableRecord
  2
PHANTOM
 70
64
  3
_____ _ _ _____ _ _ _____ _ _ _____
 72
65
 73
6
 40
0.8
 49
0.45
 74
0
 49
-0.05
 74
0
 49
0.1
 74
0
 49
-0.05
 74
0
 49
0.1
 74
0
 49
-0.05
 74
0
  0
LTYPE
  5
1F8
100
AcDbSymbolTableRecord
100
AcDbLinetypeTableRecord
  2
DOT
 70
64
  3
. . . . . . . . . . . . . . . . . . . .
 72
65
 73
2
 40
0.2
 49
0.1
 74
0
 49
-0.1
 74
0
  0
LTYPE
  5
1F9
100
AcDbSymbolTableRecord
100
AcDbLinetypeTableRecord
  2
DASHED
 70
64
  3
- - - - - - - - - - - - - - - - - - - -
 72
65
 73
2
 40
0.2
 49
0.1
 74
0
 49
-0.1
 74
0
  0
ENDTAB
  0
TABLE
  2
LAYER
  5
2
100
AcDbSymbolTable
 70
36
  0
LAYER
  5
10
100
AcDbSymbolTableRecord
100
AcDbLayerTableRecord
  2
0
 70
0
 62
7
  6
CONTINUOUS
370
-3
390
F
  0
LAYER
  5
1FA
100
AcDbSymbolTableRecord
100
AcDbLayerTableRecord
  2
DEFAULT_1
 70
0
 62
7
  6
CENTER
370
-3
390
F
  0
LAYER
  5
1FB
100
AcDbSymbolTableRecord
100
AcDbLayerTableRecord
  2
DEFAULT_2
 70
0
 62
8
  6
HIDDEN
370
-3
390
F
  0
LAYER
  5
1FC
100
AcDbSymbolTableRecord
100
AcDbLayerTableRecord
  2
DEFAULT_3
 70
0
 62
7
  6
PHANTOM
370
-3
390
F
  0
LAYER
  5
1FD
100
AcDbSymbolTableRecord
100
AcDbLayerTableRecord
  2
01_ALL_DTM_PLN
 70
0
 62
7
  6
CONTINUOUS
370
-3
390
F
  0
LAYER
  5
1FE
100
AcDbSymbolTableRecord
100
AcDbLayerTableRecord
  2
01__ASM_ALL_DTM_PLN
 70
0
 62
7
  6
CONTINUOUS
370
-3
390
F
  0
LAYER
  5
1FF
100
AcDbSymbolTableRecord
100
AcDbLayerTableRecord
  2
01__ASM_DEF_DTM_PLN
 70
0
 62
7
  6
CONTINUOUS
370
-3
390
F
  0
LAYER
  5
200
100
AcDbSymbolTableRecord
100
AcDbLayerTableRecord
  2
01___PRT_ALL_DTM_PLN
 70
0
 62
7
  6
CONTINUOUS
370
-3
390
F
  0
LAYER
  5
201
100
AcDbSymbolTableRecord
100
AcDbLayerTableRecord
  2
01___PRT_DEF_DTM_PLN
 70
0
 62
7
  6
CONTINUOUS
370
-3
390
F
  0
LAYER
  5
202
100
AcDbSymbolTableRecord
100
AcDbLayerTableRecord
  2
02_ALL_AXES
 70
0
 62
7
  6
CONTINUOUS
370
-3
390
F
  0
LAYER
  5
203
100
AcDbSymbolTableRecord
100
AcDbLayerTableRecord
  2
02__ASM_ALL_AXES
 70
0
 62
7
  6
CONTINUOUS
370
-3
390
F
  0
LAYER
  5
204
100
AcDbSymbolTableRecord
100
AcDbLayerTableRecord
  2
02___PRT_ALL_AXES
 70
0
 62
7
  6
CONTINUOUS
370
-3
390
F
  0
LAYER
  5
205
100
AcDbSymbolTableRecord
100
AcDbLayerTableRecord
  2
03_ALL_CURVES
 70
0
 62
7
  6
CONTINUOUS
370
-3
390
F
  0
LAYER
  5
206
100
AcDbSymbolTableRecord
100
AcDbLayerTableRecord
  2
03__ASM_ALL_CURVES
 70
0
 62
7
  6
CONTINUOUS
370
-3
390
F
  0
LAYER
  5
207
100
AcDbSymbolTableRecord
100
AcDbLayerTableRecord
  2
03___PRT_ALL_CURVES
 70
0
 62
7
  6
CONTINUOUS
370
-3
390
F
  0
LAYER
  5
208
100
AcDbSymbolTableRecord
100
AcDbLayerTableRecord
  2
04_ALL_DTM_PNT
 70
0
 62
7
  6
CONTINUOUS
370
-3
390
F
  0
LAYER
  5
209
100
AcDbSymbolTableRecord
100
AcDbLayerTableRecord
  2
04__ASM_ALL_DTM_PNT
 70
0
 62
7
  6
CONTINUOUS
370
-3
390
F
  0
LAYER
  5
20A
100
AcDbSymbolTableRecord
100
AcDbLayerTableRecord
  2
04___PRT_ALL_DTM_PNT
 70
0
 62
7
  6
CONTINUOUS
370
-3
390
F
  0
LAYER
  5
20B
100
AcDbSymbolTableRecord
100
AcDbLayerTableRecord
  2
05_ALL_DTM_CSYS
 70
0
 62
7
  6
CONTINUOUS
370
-3
390
F
  0
LAYER
  5
20C
100
AcDbSymbolTableRecord
100
AcDbLayerTableRecord
  2
05__ASM_ALL_DTM_CSYS
 70
0
 62
7
  6
CONTINUOUS
370
-3
390
F
  0
LAYER
  5
20D
100
AcDbSymbolTableRecord
100
AcDbLayerTableRecord
  2
05__ASM_DEF_DTM_CSYS
 70
0
 62
7
  6
CONTINUOUS
370
-3
390
F
  0
LAYER
  5
20E
100
AcDbSymbolTableRecord
100
AcDbLayerTableRecord
  2
05___PRT_ALL_DTM_CSYS
 70
0
 62
7
  6
CONTINUOUS
370
-3
390
F
  0
LAYER
  5
20F
100
AcDbSymbolTableRecord
100
AcDbLayerTableRecord
  2
05___PRT_DEF_DTM_CSYS
 70
0
 62
7
  6
CONTINUOUS
370
-3
390
F
  0
LAYER
  5
210
100
AcDbSymbolTableRecord
100
AcDbLayerTableRecord
  2
06_ALL_SURFS
 70
0
 62
7
  6
CONTINUOUS
370
-3
390
F
  0
LAYER
  5
211
100
AcDbSymbolTableRecord
100
AcDbLayerTableRecord
  2
06__ASM_ALL_SURFS
 70
0
 62
7
  6
CONTINUOUS
370
-3
390
F
  0
LAYER
  5
212
100
AcDbSymbolTableRecord
100
AcDbLayerTableRecord
  2
06___PRT_ALL_SURFS
 70
0
 62
7
  6
CONTINUOUS
370
-3
390
F
  0
LAYER
  5
213
100
AcDbSymbolTableRecord
100
AcDbLayerTableRecord
  2
07__ASM_ALL_SKELETONS
 70
0
 62
7
  6
CONTINUOUS
370
-3
390
F
  0
ENDTAB
  0
TABLE
  2
STYLE
  5
3
100
AcDbSymbolTable
 70
1
  0
STYLE
  5
11
100
AcDbSymbolTableRecord
100
AcDbTextStyleTableRecord
  2
STANDARD
 70
0
 40
0.0
 41
0.8
 50
0.0
 71
0
 42
0.2
  3
txt
  4

  0
STYLE
  5
214
100
AcDbSymbolTableRecord
100
AcDbTextStyleTableRecord
  2
TEXTSTYLE_1
 70
0
 40
0.0
 41
0.8
 50
0.0
 71
0
 42
0.2
  3
gdt
  4

  0
ENDTAB
  0
TABLE
  2
VIEW
  5
6
100
AcDbSymbolTable
 70
0
  0
ENDTAB
  0
TABLE
  2
UCS
  5
7
100
AcDbSymbolTable
 70
0
  0
ENDTAB
  0
TABLE
  2
APPID
  5
9
100
AcDbSymbolTable
 70
1
  0
APPID
  5
215
100
AcDbSymbolTableRecord
100
AcDbRegAppTableRecord
  2
ACAD
 70
0
  0
ENDTAB
  0
TABLE
  2
BLOCK_RECORD
  5
1
100
AcDbSymbolTable
 70
0
  0
BLOCK_RECORD
  5
216
100
AcDbSymbolTableRecord
100
AcDbBlockTableRecord
  2
*Model_Space
  0
BLOCK_RECORD
  5
217
100
AcDbSymbolTableRecord
100
AcDbBlockTableRecord
  2
*Paper_Space
  0
BLOCK_RECORD
  5
218
100
AcDbSymbolTableRecord
100
AcDbBlockTableRecord
  2
_CLOSED
  0
ENDTAB
  0
TABLE
  2
DIMSTYLE
  5
A
100
AcDbSymbolTable
 70
1
100
AcDbDimStyleTable
 71
0
  0
DIMSTYLE
105
219
100
AcDbSymbolTableRecord
100
AcDbDimStyleTableRecord
  2
STANDARD
 70
0
  3

  4

 40
1.0
 41
0.1875
 42
0.0625
 43
0.38
 44
0.125
 45
0.0
 46
0.0
 47
0.01
 48
0.01
140
0.15625
141
0.09
142
0.0
143
25.4
144
1.0
145
0.0
146
1.0
147
0.625
 71
0.0
 72
0.0
 73
1
 74
1
 75
0
 76
0
 77
0
 78
8
 79
2
170
0
171
1
172
0
173
0
174
0
175
0
176
0
177
0
178
0
270
2
179
2
271
2
272
2
273
2
274
2
275
0
280
0
281
0
282
0
283
1
284
8
285
0
286
0
287
3
288
0
340
11
278
46
341
218
342
218
343
218
344
218
  0
ENDTAB
  0
ENDSEC
  0
SECTION
  2
BLOCKS
  0
BLOCK
  5
20
100
AcDbEntity
  8
0
100
AcDbBlockBegin
  2
*Model_Space
 70
0
 10
0.0
 20
0.0
 30
0.0
  3
*Model_Space
  1

  0
ENDBLK
  5
21
100
AcDbEntity
  8
0
100
AcDbBlockEnd
  0
BLOCK
  5
1C
100
AcDbEntity
  8
0
100
AcDbBlockBegin
  2
*Paper_Space
 70
0
 10
0.0
 20
0.0
 30
0.0
  3
*Paper_Space
  1

  0
ENDBLK
  5
1D
100
AcDbEntity
  8
0
100
AcDbBlockEnd
  0
BLOCK
  5
21A
100
AcDbEntity
  8
0
100
AcDbBlockBegin
  2
_CLOSED
 70
64
 10
0.0
 20
0.0
  3
_CLOSED
  1

  0
LINE
  5
21B
100
AcDbEntity
  8
0
  6
BYBLOCK
 62
0
100
AcDbLine
 10
0.0
 20
0.0
 11
-1.0
 21
0.1666666667
  0
LINE
  5
21C
100
AcDbEntity
  8
0
  6
BYBLOCK
 62
0
100
AcDbLine
 10
-1.0
 20
0.1666666667
 11
-1.0
 21
-0.1666666667
  0
LINE
  5
21D
100
AcDbEntity
  8
0
  6
BYBLOCK
 62
0
100
AcDbLine
 10
-1.0
 20
-0.1666666667
 11
0.0
 21
0.0
  0
LINE
  5
21E
100
AcDbEntity
  8
0
  6
BYBLOCK
 62
0
100
AcDbLine
 10
-1.0
 20
0.0
 11
0.0
 21
0.0
  0
ENDBLK
  5
21F
100
AcDbEntity
  8
0
  6
BYBLOCK
 62
0
100
AcDbBlockEnd
  0
ENDSEC
  0
SECTION
  2
ENTITIES
  0
LINE
  5
220
100
AcDbEntity
  8
0
100
AcDbLine
 62
7
  6
CONTINUOUS
 10
46.091552795
 20
366.9963589693
 11
46.091552795
 21
389.9963589693
  0
LINE
  5
221
100
AcDbEntity
  8
0
100
AcDbLine
 62
7
  6
CONTINUOUS
 10
46.191552795
 20
332.6963589693
 11
46.191552795
 21
366.6963589693
  0
LINE
  5
222
100
AcDbEntity
  8
0
100
AcDbLine
 62
7
  6
CONTINUOUS
 10
46.991552795
 20
365.6963589693
 11
46.991552795
 21
366.6963589693
  0
LINE
  5
223
100
AcDbEntity
  8
0
100
AcDbLine
 62
7
  6
CONTINUOUS
 10
47.091552795
 20
365.9963589693
 11
47.091552795
 21
366.9963589693
  0
LINE
  5
224
100
AcDbEntity
  8
0
100
AcDbLine
 62
7
  6
CONTINUOUS
 10
48.091552795
 20
366.9963589693
 11
48.091552795
 21
365.9963589693
  0
LINE
  5
225
100
AcDbEntity
  8
0
100
AcDbLine
 62
7
  6
CONTINUOUS
 10
48.191552795
 20
365.6963589693
 11
48.191552795
 21
366.6963589693
  0
LINE
  5
226
100
AcDbEntity
  8
0
100
AcDbLine
 62
7
  6
CONTINUOUS
 10
48.591552795
 20
389.9963589693
 11
48.591552795
 21
390.0963589693
  0
LINE
  5
227
100
AcDbEntity
  8
0
100
AcDbLine
 62
7
  6
CONTINUOUS
 10
50.091552795
 20
347.1963589693
 11
50.091552795
 21
343.3963589693
  0
LINE
  5
228
100
AcDbEntity
  8
0
100
AcDbLine
 62
7
  6
CONTINUOUS
 10
50.091552795
 20
366.9963589693
 11
50.091552795
 21
389.9963589693
  0
LINE
  5
229
100
AcDbEntity
  8
0
100
AcDbLine
 62
7
  6
CONTINUOUS
 10
51.091552795
 20
367.0963589693
 11
51.091552795
 21
366.6963589693
  0
LINE
  5
22A
100
AcDbEntity
  8
0
100
AcDbLine
 62
7
  6
CONTINUOUS
 10
51.091552795
 20
332.6963589693
 11
51.091552795
 21
332.9963589693
  0
LINE
  5
22B
100
AcDbEntity
  8
0
100
AcDbLine
 62
7
  6
CONTINUOUS
 10
52.591552795
 20
347.1963589693
 11
52.591552795
 21
343.3963589693
  0
LINE
  5
22C
100
AcDbEntity
  8
0
100
AcDbLine
 62
7
  6
CONTINUOUS
 10
55.091552795
 20
347.1963589693
 11
55.091552795
 21
343.3963589693
  0
LINE
  5
22D
100
AcDbEntity
  8
0
100
AcDbLine
 62
7
  6
CONTINUOUS
 10
56.591552795
 20
332.6963589693
 11
56.591552795
 21
332.9963589693
  0
LINE
  5
22E
100
AcDbEntity
  8
0
100
AcDbLine
 62
7
  6
CONTINUOUS
 10
57.591552795
 20
347.1963589693
 11
57.591552795
 21
343.3963589693
  0
LINE
  5
22F
100
AcDbEntity
  8
0
100
AcDbLine
 62
7
  6
CONTINUOUS
 10
59.091552795
 20
367.0963589693
 11
59.091552795
 21
366.6963589693
  0
LINE
  5
230
100
AcDbEntity
  8
0
100
AcDbLine
 62
7
  6
CONTINUOUS
 10
60.091552795
 20
347.1963589693
 11
60.091552795
 21
343.3963589693
  0
LINE
  5
231
100
AcDbEntity
  8
0
100
AcDbLine
 62
7
  6
CONTINUOUS
 10
61.091552795
 20
332.6963589693
 11
61.091552795
 21
332.9963589693
  0
LINE
  5
232
100
AcDbEntity
  8
0
100
AcDbLine
 62
7
  6
CONTINUOUS
 10
62.591552795
 20
347.1963589693
 11
62.591552795
 21
343.3963589693
  0
LINE
  5
233
100
AcDbEntity
  8
0
100
AcDbLine
 62
7
  6
CONTINUOUS
 10
65.091552795
 20
347.1963589693
 11
65.091552795
 21
343.3963589693
  0
LINE
  5
234
100
AcDbEntity
  8
0
100
AcDbLine
 62
7
  6
CONTINUOUS
 10
66.591552795
 20
332.6963589693
 11
66.591552795
 21
332.9963589693
  0
LINE
  5
235
100
AcDbEntity
  8
0
100
AcDbLine
 62
7
  6
CONTINUOUS
 10
67.591552795
 20
347.1963589693
 11
67.591552795
 21
343.3963589693
  0
LINE
  5
236
100
AcDbEntity
  8
0
100
AcDbLine
 62
7
  6
CONTINUOUS
 10
69.091552795
 20
332.4963589693
 11
69.091552795
 21
336.4963589693
  0
LINE
  5
237
100
AcDbEntity
  8
0
100
AcDbLine
 62
7
  6
CONTINUOUS
 10
69.091552795
 20
366.6963589693
 11
69.091552795
 21
367.0963589693
  0
LINE
  5
238
100
AcDbEntity
  8
0
100
AcDbLine
 62
7
  6
CONTINUOUS
 10
69.291552795
 20
336.396358422
 11
69.291552795
 21
316.396358422
  0
LINE
  5
239
100
AcDbEntity
  8
0
100
AcDbLine
 62
7
  6
CONTINUOUS
 10
71.091552795
 20
336.396358422
 11
71.091552795
 21
316.396358422
  0
LINE
  5
23A
100
AcDbEntity
  8
0
100
AcDbLine
 62
7
  6
CONTINUOUS
 10
71.591552795
 20
316.5963589693
 11
71.591552795
 21
367.0963589693
  0
LINE
  5
23B
100
AcDbEntity
  8
0
100
AcDbLine
 62
7
  6
CONTINUOUS
 10
72.341552795
 20
362.1963589693
 11
72.341552795
 21
322.1963589693
  0
LINE
  5
23C
100
AcDbEntity
  8
0
100
AcDbLine
 62
7
  6
CONTINUOUS
 10
71.091552795
 20
336.396358422
 11
71.591552795
 21
335.9296917553
  0
LINE
  5
23D
100
AcDbEntity
  8
0
100
AcDbLine
 62
7
  6
CONTINUOUS
 10
82.986552795
 20
359.6963589693
 11
83.2477695032
 21
344.7312637822
  0
LINE
  5
23E
100
AcDbEntity
  8
0
100
AcDbLine
 62
7
  6
CONTINUOUS
 10
74.091552795
 20
362.1963589693
 11
74.091552795
 21
322.8963589693
  0
LINE
  5
23F
100
AcDbEntity
  8
0
100
AcDbLine
 62
7
  6
CONTINUOUS
 10
74.436552795
 20
340.4963589693
 11
74.436552795
 21
343.1963589693
  0
LINE
  5
240
100
AcDbEntity
  8
0
100
AcDbLine
 62
7
  6
CONTINUOUS
 10
74.591552795
 20
325.3963589693
 11
74.591552795
 21
322.8963589693
  0
LINE
  5
241
100
AcDbEntity
  8
0
100
AcDbLine
 62
7
  6
CONTINUOUS
 10
74.786552795
 20
359.6963589693
 11
74.786552795
 21
362.1963589693
  0
LINE
  5
242
100
AcDbEntity
  8
0
100
AcDbLine
 62
7
  6
CONTINUOUS
 10
75.7869488479
 20
328.9310577216
 11
75.7869488479
 21
343.1963589693
  0
LINE
  5
243
100
AcDbEntity
  8
0
100
AcDbLine
 62
7
  6
CONTINUOUS
 10
75.891552795
 20
362.1963589693
 11
75.891552795
 21
322.8963589693
  0
LINE
  5
244
100
AcDbEntity
  8
0
100
AcDbLine
 62
7
  6
CONTINUOUS
 10
76.341552795
 20
322.1963589693
 11
76.341552795
 21
362.1963589693
  0
LINE
  5
245
100
AcDbEntity
  8
0
100
AcDbLine
 62
7
  6
CONTINUOUS
 10
80.091552795
 20
362.1963589693
 11
80.091552795
 21
322.1963589693
  0
LINE
  5
246
100
AcDbEntity
  8
0
100
AcDbLine
 62
7
  6
CONTINUOUS
 10
82.091552795
 20
362.1963589693
 11
82.091552795
 21
322.8963589693
  0
LINE
  5
247
100
AcDbEntity
  8
0
100
AcDbLine
 62
7
  6
CONTINUOUS
 10
82.786552795
 20
359.6963589693
 11
82.786552795
 21
362.1963589693
  0
LINE
  5
248
100
AcDbEntity
  8
0
100
AcDbLine
 62
7
  6
CONTINUOUS
 10
83.136552795
 20
343.1963589693
 11
83.136552795
 21
340.4963589693
  0
LINE
  5
249
100
AcDbEntity
  8
0
100
AcDbLine
 62
7
  6
CONTINUOUS
 10
83.591552795
 20
322.8963589693
 11
83.591552795
 21
325.3963589693
  0
LINE
  5
24A
100
AcDbEntity
  8
0
100
AcDbLine
 62
7
  6
CONTINUOUS
 10
83.936552795
 20
339.6963589693
 11
83.936552795
 21
343.1963589693
  0
LINE
  5
24B
100
AcDbEntity
  8
0
100
AcDbLine
 62
7
  6
CONTINUOUS
 10
84.091552795
 20
322.1963589693
 11
84.091552795
 21
362.1963589693
  0
LINE
  5
24C
100
AcDbEntity
  8
0
100
AcDbLine
 62
7
  6
CONTINUOUS
 10
74.3253360869
 20
344.7312637822
 11
74.586552795
 21
359.6963589693
  0
LINE
  5
24D
100
AcDbEntity
  8
0
100
AcDbLine
 62
7
  6
CONTINUOUS
 10
71.591552795
 20
319.060411824
 11
71.091552795
 21
319.0603256334
  0
LINE
  5
24E
100
AcDbEntity
  8
0
100
AcDbLine
 62
7
  6
CONTINUOUS
 10
69.291552795
 20
316.396358422
 11
316.891552795
 21
316.396358422
  0
LINE
  5
24F
100
AcDbEntity
  8
0
100
AcDbLine
 62
7
  6
CONTINUOUS
 10
314.591552795
 20
316.5963589693
 11
71.591552795
 21
316.5963589693
  0
LINE
  5
250
100
AcDbEntity
  8
0
100
AcDbLine
 62
7
  6
CONTINUOUS
 10
315.091552795
 20
318.146358422
 11
314.591552795
 21
318.146358422
  0
LINE
  5
251
100
AcDbEntity
  8
0
100
AcDbLine
 62
7
  6
CONTINUOUS
 10
71.591552795
 20
318.146358422
 11
71.091552795
 21
318.146358422
  0
LINE
  5
252
100
AcDbEntity
  8
0
100
AcDbLine
 62
7
  6
CONTINUOUS
 10
314.591552795
 20
319.0603569598
 11
315.091552795
 21
319.0603569598
  0
LINE
  5
253
100
AcDbEntity
  8
0
100
AcDbLine
 62
7
  6
CONTINUOUS
 10
315.091552795
 20
320.396358422
 11
314.591552795
 21
320.396358422
  0
LINE
  5
254
100
AcDbEntity
  8
0
100
AcDbLine
 62
7
  6
CONTINUOUS
 10
71.591552795
 20
320.396358422
 11
71.091552795
 21
320.396358422
  0
LINE
  5
255
100
AcDbEntity
  8
0
100
AcDbLine
 62
7
  6
CONTINUOUS
 10
72.341552795
 20
322.1963589693
 11
76.341552795
 21
322.1963589693
  0
LINE
  5
256
100
AcDbEntity
  8
0
100
AcDbLine
 62
7
  6
CONTINUOUS
 10
80.091552795
 20
322.1963589693
 11
84.091552795
 21
322.1963589693
  0
LINE
  5
257
100
AcDbEntity
  8
0
100
AcDbLine
 62
7
  6
CONTINUOUS
 10
87.841552795
 20
322.1963589693
 11
91.841552795
 21
322.1963589693
  0
LINE
  5
258
100
AcDbEntity
  8
0
100
AcDbLine
 62
7
  6
CONTINUOUS
 10
95.591552795
 20
322.1963589693
 11
99.591552795
 21
322.1963589693
  0
LINE
  5
259
100
AcDbEntity
  8
0
100
AcDbLine
 62
7
  6
CONTINUOUS
 10
103.341552795
 20
322.1963589693
 11
107.341552795
 21
322.1963589693
  0
LINE
  5
25A
100
AcDbEntity
  8
0
100
AcDbLine
 62
7
  6
CONTINUOUS
 10
111.091552795
 20
322.1963589693
 11
115.091552795
 21
322.1963589693
  0
LINE
  5
25B
100
AcDbEntity
  8
0
100
AcDbLine
 62
7
  6
CONTINUOUS
 10
118.841552795
 20
322.1963589693
 11
122.841552795
 21
322.1963589693
  0
LINE
  5
25C
100
AcDbEntity
  8
0
100
AcDbLine
 62
7
  6
CONTINUOUS
 10
126.591552795
 20
322.1963589693
 11
130.591552795
 21
322.1963589693
  0
LINE
  5
25D
100
AcDbEntity
  8
0
100
AcDbLine
 62
7
  6
CONTINUOUS
 10
133.091552795
 20
322.1963589693
 11
137.091552795
 21
322.1963589693
  0
LINE
  5
25E
100
AcDbEntity
  8
0
100
AcDbLine
 62
7
  6
CONTINUOUS
 10
140.841552795
 20
322.1963589693
 11
144.841552795
 21
322.1963589693
  0
LINE
  5
25F
100
AcDbEntity
  8
0
100
AcDbLine
 62
7
  6
CONTINUOUS
 10
148.591552795
 20
322.1963589693
 11
152.591552795
 21
322.1963589693
  0
LINE
  5
260
100
AcDbEntity
  8
0
100
AcDbLine
 62
7
  6
CONTINUOUS
 10
156.341552795
 20
322.1963589693
 11
160.341552795
 21
322.1963589693
  0
LINE
  5
261
100
AcDbEntity
  8
0
100
AcDbLine
 62
7
  6
CONTINUOUS
 10
164.091552795
 20
322.1963589693
 11
168.091552795
 21
322.1963589693
  0
LINE
  5
262
100
AcDbEntity
  8
0
100
AcDbLine
 62
7
  6
CONTINUOUS
 10
171.841552795
 20
322.1963589693
 11
175.841552795
 21
322.1963589693
  0
LINE
  5
263
100
AcDbEntity
  8
0
100
AcDbLine
 62
7
  6
CONTINUOUS
 10
179.591552795
 20
322.1963589693
 11
183.591552795
 21
322.1963589693
  0
LINE
  5
264
100
AcDbEntity
  8
0
100
AcDbLine
 62
7
  6
CONTINUOUS
 10
187.341552795
 20
322.1963589693
 11
191.341552795
 21
322.1963589693
  0
LINE
  5
265
100
AcDbEntity
  8
0
100
AcDbLine
 62
7
  6
CONTINUOUS
 10
193.841552795
 20
322.1963589693
 11
197.841552795
 21
322.1963589693
  0
LINE
  5
266
100
AcDbEntity
  8
0
100
AcDbLine
 62
7
  6
CONTINUOUS
 10
201.591552795
 20
322.1963589693
 11
205.591552795
 21
322.1963589693
  0
LINE
  5
267
100
AcDbEntity
  8
0
100
AcDbLine
 62
7
  6
CONTINUOUS
 10
209.341552795
 20
322.1963589693
 11
213.341552795
 21
322.1963589693
  0
LINE
  5
268
100
AcDbEntity
  8
0
100
AcDbLine
 62
7
  6
CONTINUOUS
 10
217.091552795
 20
322.1963589693
 11
221.091552795
 21
322.1963589693
  0
LINE
  5
269
100
AcDbEntity
  8
0
100
AcDbLine
 62
7
  6
CONTINUOUS
 10
224.841552795
 20
322.1963589693
 11
228.841552795
 21
322.1963589693
  0
LINE
  5
26A
100
AcDbEntity
  8
0
100
AcDbLine
 62
7
  6
CONTINUOUS
 10
232.591552795
 20
322.1963589693
 11
236.591552795
 21
322.1963589693
  0
LINE
  5
26B
100
AcDbEntity
  8
0
100
AcDbLine
 62
7
  6
CONTINUOUS
 10
240.341552795
 20
322.1963589693
 11
244.341552795
 21
322.1963589693
  0
LINE
  5
26C
100
AcDbEntity
  8
0
100
AcDbLine
 62
7
  6
CONTINUOUS
 10
248.091552795
 20
322.1963589693
 11
252.091552795
 21
322.1963589693
  0
LINE
  5
26D
100
AcDbEntity
  8
0
100
AcDbLine
 62
7
  6
CONTINUOUS
 10
254.591552795
 20
322.1963589693
 11
258.591552795
 21
322.1963589693
  0
LINE
  5
26E
100
AcDbEntity
  8
0
100
AcDbLine
 62
7
  6
CONTINUOUS
 10
262.341552795
 20
322.1963589693
 11
266.341552795
 21
322.1963589693
  0
LINE
  5
26F
100
AcDbEntity
  8
0
100
AcDbLine
 62
7
  6
CONTINUOUS
 10
270.091552795
 20
322.1963589693
 11
274.091552795
 21
322.1963589693
  0
LINE
  5
270
100
AcDbEntity
  8
0
100
AcDbLine
 62
7
  6
CONTINUOUS
 10
277.841552795
 20
322.1963589693
 11
281.841552795
 21
322.1963589693
  0
LINE
  5
271
100
AcDbEntity
  8
0
100
AcDbLine
 62
7
  6
CONTINUOUS
 10
285.591552795
 20
322.1963589693
 11
289.591552795
 21
322.1963589693
  0
LINE
  5
272
100
AcDbEntity
  8
0
100
AcDbLine
 62
7
  6
CONTINUOUS
 10
293.341552795
 20
322.1963589693
 11
297.341552795
 21
322.1963589693
  0
LINE
  5
273
100
AcDbEntity
  8
0
100
AcDbLine
 62
7
  6
CONTINUOUS
 10
301.091552795
 20
322.1963589693
 11
305.091552795
 21
322.1963589693
  0
LINE
  5
274
100
AcDbEntity
  8
0
100
AcDbLine
 62
7
  6
CONTINUOUS
 10
308.841552795
 20
322.1963589693
 11
312.841552795
 21
322.1963589693
  0
LINE
  5
275
100
AcDbEntity
  8
0
100
AcDbLine
 62
7
  6
CONTINUOUS
 10
297.341552795
 20
322.8963589693
 11
294.891552795
 21
322.8963589693
  0
LINE
  5
276
100
AcDbEntity
  8
0
100
AcDbLine
 62
7
  6
CONTINUOUS
 10
281.841552795
 20
322.8963589693
 11
279.741552795
 21
322.8963589693
  0
LINE
  5
277
100
AcDbEntity
  8
0
100
AcDbLine
 62
7
  6
CONTINUOUS
 10
266.341552795
 20
322.8963589693
 11
264.341552795
 21
322.8963589693
  0
LINE
  5
278
100
AcDbEntity
  8
0
100
AcDbLine
 62
7
  6
CONTINUOUS
 10
258.141552795
 20
322.8963589693
 11
256.341552795
 21
322.8963589693
  0
LINE
  5
279
100
AcDbEntity
  8
0
100
AcDbLine
 62
7
  6
CONTINUOUS
 10
236.591552795
 20
322.8963589693
 11
234.141552795
 21
322.8963589693
  0
LINE
  5
27A
100
AcDbEntity
  8
0
100
AcDbLine
 62
7
  6
CONTINUOUS
 10
221.091552795
 20
322.8963589693
 11
218.991552795
 21
322.8963589693
  0
LINE
  5
27B
100
AcDbEntity
  8
0
100
AcDbLine
 62
7
  6
CONTINUOUS
 10
205.591552795
 20
322.8963589693
 11
203.591552795
 21
322.8963589693
  0
LINE
  5
27C
100
AcDbEntity
  8
0
100
AcDbLine
 62
7
  6
CONTINUOUS
 10
197.391552795
 20
322.8963589693
 11
195.591552795
 21
322.8963589693
  0
LINE
  5
27D
100
AcDbEntity
  8
0
100
AcDbLine
 62
7
  6
CONTINUOUS
 10
175.841552795
 20
322.8963589693
 11
173.391552795
 21
322.8963589693
  0
LINE
  5
27E
100
AcDbEntity
  8
0
100
AcDbLine
 62
7
  6
CONTINUOUS
 10
160.341552795
 20
322.8963589693
 11
158.241552795
 21
322.8963589693
  0
LINE
  5
27F
100
AcDbEntity
  8
0
100
AcDbLine
 62
7
  6
CONTINUOUS
 10
144.841552795
 20
322.8963589693
 11
142.841552795
 21
322.8963589693
  0
LINE
  5
280
100
AcDbEntity
  8
0
100
AcDbLine
 62
7
  6
CONTINUOUS
 10
136.641552795
 20
322.8963589693
 11
134.841552795
 21
322.8963589693
  0
LINE
  5
281
100
AcDbEntity
  8
0
100
AcDbLine
 62
7
  6
CONTINUOUS
 10
115.091552795
 20
322.8963589693
 11
112.641552795
 21
322.8963589693
  0
LINE
  5
282
100
AcDbEntity
  8
0
100
AcDbLine
 62
7
  6
CONTINUOUS
 10
99.591552795
 20
322.8963589693
 11
97.491552795
 21
322.8963589693
  0
LINE
  5
283
100
AcDbEntity
  8
0
100
AcDbLine
 62
7
  6
CONTINUOUS
 10
84.091552795
 20
322.8963589693
 11
82.091552795
 21
322.8963589693
  0
LINE
  5
284
100
AcDbEntity
  8
0
100
AcDbLine
 62
7
  6
CONTINUOUS
 10
75.891552795
 20
322.8963589693
 11
74.091552795
 21
322.8963589693
  0
LINE
  5
285
100
AcDbEntity
  8
0
100
AcDbLine
 62
7
  6
CONTINUOUS
 10
88.091552795
 20
322.8963589693
 11
91.291552795
 21
322.8963589693
  0
LINE
  5
286
100
AcDbEntity
  8
0
100
AcDbLine
 62
7
  6
CONTINUOUS
 10
103.341552795
 20
322.8963589693
 11
106.441552795
 21
322.8963589693
  0
LINE
  5
287
100
AcDbEntity
  8
0
100
AcDbLine
 62
7
  6
CONTINUOUS
 10
118.841552795
 20
322.8963589693
 11
121.841552795
 21
322.8963589693
  0
LINE
  5
288
100
AcDbEntity
  8
0
100
AcDbLine
 62
7
  6
CONTINUOUS
 10
128.041552795
 20
322.8963589693
 11
129.841552795
 21
322.8963589693
  0
LINE
  5
289
100
AcDbEntity
  8
0
100
AcDbLine
 62
7
  6
CONTINUOUS
 10
148.841552795
 20
322.8963589693
 11
152.041552795
 21
322.8963589693
  0
LINE
  5
28A
100
AcDbEntity
  8
0
100
AcDbLine
 62
7
  6
CONTINUOUS
 10
164.091552795
 20
322.8963589693
 11
167.191552795
 21
322.8963589693
  0
LINE
  5
28B
100
AcDbEntity
  8
0
100
AcDbLine
 62
7
  6
CONTINUOUS
 10
179.591552795
 20
322.8963589693
 11
182.591552795
 21
322.8963589693
  0
LINE
  5
28C
100
AcDbEntity
  8
0
100
AcDbLine
 62
7
  6
CONTINUOUS
 10
188.791552795
 20
322.8963589693
 11
190.591552795
 21
322.8963589693
  0
LINE
  5
28D
100
AcDbEntity
  8
0
100
AcDbLine
 62
7
  6
CONTINUOUS
 10
209.591552795
 20
322.8963589693
 11
212.791552795
 21
322.8963589693
  0
LINE
  5
28E
100
AcDbEntity
  8
0
100
AcDbLine
 62
7
  6
CONTINUOUS
 10
224.841552795
 20
322.8963589693
 11
227.941552795
 21
322.8963589693
  0
LINE
  5
28F
100
AcDbEntity
  8
0
100
AcDbLine
 62
7
  6
CONTINUOUS
 10
240.341552795
 20
322.8963589693
 11
243.341552795
 21
322.8963589693
  0
LINE
  5
290
100
AcDbEntity
  8
0
100
AcDbLine
 62
7
  6
CONTINUOUS
 10
249.541552795
 20
322.8963589693
 11
251.341552795
 21
322.8963589693
  0
LINE
  5
291
100
AcDbEntity
  8
0
100
AcDbLine
 62
7
  6
CONTINUOUS
 10
270.341552795
 20
322.8963589693
 11
273.541552795
 21
322.8963589693
  0
LINE
  5
292
100
AcDbEntity
  8
0
100
AcDbLine
 62
7
  6
CONTINUOUS
 10
285.591552795
 20
322.8963589693
 11
288.691552795
 21
322.8963589693
  0
LINE
  5
293
100
AcDbEntity
  8
0
100
AcDbLine
 62
7
  6
CONTINUOUS
 10
301.091552795
 20
322.8963589693
 11
304.091552795
 21
322.8963589693
  0
LINE
  5
294
100
AcDbEntity
  8
0
100
AcDbLine
 62
7
  6
CONTINUOUS
 10
310.291552795
 20
322.8963589693
 11
312.091552795
 21
322.8963589693
  0
LINE
  5
295
100
AcDbEntity
  8
0
100
AcDbLine
 62
7
  6
CONTINUOUS
 10
312.091552795
 20
325.3963589693
 11
310.291552795
 21
325.3963589693
  0
LINE
  5
296
100
AcDbEntity
  8
0
100
AcDbLine
 62
7
  6
CONTINUOUS
 10
304.091552795
 20
325.3963589693
 11
301.091552795
 21
325.3963589693
  0
LINE
  5
297
100
AcDbEntity
  8
0
100
AcDbLine
 62
7
  6
CONTINUOUS
 10
297.341552795
 20
325.3963589693
 11
294.891552795
 21
325.3963589693
  0
LINE
  5
298
100
AcDbEntity
  8
0
100
AcDbLine
 62
7
  6
CONTINUOUS
 10
288.691552795
 20
325.3963589693
 11
285.591552795
 21
325.3963589693
  0
LINE
  5
299
100
AcDbEntity
  8
0
100
AcDbLine
 62
7
  6
CONTINUOUS
 10
281.841552795
 20
325.3963589693
 11
279.741552795
 21
325.3963589693
  0
LINE
  5
29A
100
AcDbEntity
  8
0
100
AcDbLine
 62
7
  6
CONTINUOUS
 10
273.541552795
 20
325.3963589693
 11
270.341552795
 21
325.3963589693
  0
LINE
  5
29B
100
AcDbEntity
  8
0
100
AcDbLine
 62
7
  6
CONTINUOUS
 10
266.341552795
 20
325.3963589693
 11
264.341552795
 21
325.3963589693
  0
LINE
  5
29C
100
AcDbEntity
  8
0
100
AcDbLine
 62
7
  6
CONTINUOUS
 10
258.141552795
 20
325.3963589693
 11
256.341552795
 21
325.3963589693
  0
LINE
  5
29D
100
AcDbEntity
  8
0
100
AcDbLine
 62
7
  6
CONTINUOUS
 10
251.341552795
 20
325.3963589693
 11
249.541552795
 21
325.3963589693
  0
LINE
  5
29E
100
AcDbEntity
  8
0
100
AcDbLine
 62
7
  6
CONTINUOUS
 10
243.341552795
 20
325.3963589693
 11
240.341552795
 21
325.3963589693
  0
LINE
  5
29F
100
AcDbEntity
  8
0
100
AcDbLine
 62
7
  6
CONTINUOUS
 10
236.591552795
 20
325.3963589693
 11
234.141552795
 21
325.3963589693
  0
LINE
  5
2A0
100
AcDbEntity
  8
0
100
AcDbLine
 62
7
  6
CONTINUOUS
 10
227.941552795
 20
325.3963589693
 11
224.841552795
 21
325.3963589693
  0
LINE
  5
2A1
100
AcDbEntity
  8
0
100
AcDbLine
 62
7
  6
CONTINUOUS
 10
221.091552795
 20
325.3963589693
 11
218.991552795
 21
325.3963589693
  0
LINE
  5
2A2
100
AcDbEntity
  8
0
100
AcDbLine
 62
7
  6
CONTINUOUS
 10
212.791552795
 20
325.3963589693
 11
209.591552795
 21
325.3963589693
  0
LINE
  5
2A3
100
AcDbEntity
  8
0
100
AcDbLine
 62
7
  6
CONTINUOUS
 10
205.591552795
 20
325.3963589693
 11
203.591552795
 21
325.3963589693
  0
LINE
  5
2A4
100
AcDbEntity
  8
0
100
AcDbLine
 62
7
  6
CONTINUOUS
 10
197.391552795
 20
325.3963589693
 11
195.591552795
 21
325.3963589693
  0
LINE
  5
2A5
100
AcDbEntity
  8
0
100
AcDbLine
 62
7
  6
CONTINUOUS
 10
190.591552795
 20
325.3963589693
 11
188.791552795
 21
325.3963589693
  0
LINE
  5
2A6
100
AcDbEntity
  8
0
100
AcDbLine
 62
7
  6
CONTINUOUS
 10
182.591552795
 20
325.3963589693
 11
179.591552795
 21
325.3963589693
  0
LINE
  5
2A7
100
AcDbEntity
  8
0
100
AcDbLine
 62
7
  6
CONTINUOUS
 10
175.841552795
 20
325.3963589693
 11
173.391552795
 21
325.3963589693
  0
LINE
  5
2A8
100
AcDbEntity
  8
0
100
AcDbLine
 62
7
  6
CONTINUOUS
 10
167.191552795
 20
325.3963589693
 11
164.091552795
 21
325.3963589693
  0
LINE
  5
2A9
100
AcDbEntity
  8
0
100
AcDbLine
 62
7
  6
CONTINUOUS
 10
160.341552795
 20
325.3963589693
 11
158.241552795
 21
325.3963589693
  0
LINE
  5
2AA
100
AcDbEntity
  8
0
100
AcDbLine
 62
7
  6
CONTINUOUS
 10
152.041552795
 20
325.3963589693
 11
148.841552795
 21
325.3963589693
  0
LINE
  5
2AB
100
AcDbEntity
  8
0
100
AcDbLine
 62
7
  6
CONTINUOUS
 10
144.841552795
 20
325.3963589693
 11
142.841552795
 21
325.3963589693
  0
LINE
  5
2AC
100
AcDbEntity
  8
0
100
AcDbLine
 62
7
  6
CONTINUOUS
 10
136.641552795
 20
325.3963589693
 11
134.841552795
 21
325.3963589693
  0
LINE
  5
2AD
100
AcDbEntity
  8
0
100
AcDbLine
 62
7
  6
CONTINUOUS
 10
129.841552795
 20
325.3963589693
 11
128.041552795
 21
325.3963589693
  0
LINE
  5
2AE
100
AcDbEntity
  8
0
100
AcDbLine
 62
7
  6
CONTINUOUS
 10
121.841552795
 20
325.3963589693
 11
118.841552795
 21
325.3963589693
  0
LINE
  5
2AF
100
AcDbEntity
  8
0
100
AcDbLine
 62
7
  6
CONTINUOUS
 10
115.091552795
 20
325.3963589693
 11
112.641552795
 21
325.3963589693
  0
LINE
  5
2B0
100
AcDbEntity
  8
0
100
AcDbLine
 62
7
  6
CONTINUOUS
 10
106.441552795
 20
325.3963589693
 11
103.341552795
 21
325.3963589693
  0
LINE
  5
2B1
100
AcDbEntity
  8
0
100
AcDbLine
 62
7
  6
CONTINUOUS
 10
99.591552795
 20
325.3963589693
 11
97.491552795
 21
325.3963589693
  0
LINE
  5
2B2
100
AcDbEntity
  8
0
100
AcDbLine
 62
7
  6
CONTINUOUS
 10
91.291552795
 20
325.3963589693
 11
88.091552795
 21
325.3963589693
  0
LINE
  5
2B3
100
AcDbEntity
  8
0
100
AcDbLine
 62
7
  6
CONTINUOUS
 10
84.091552795
 20
325.3963589693
 11
82.091552795
 21
325.3963589693
  0
LINE
  5
2B4
100
AcDbEntity
  8
0
100
AcDbLine
 62
7
  6
CONTINUOUS
 10
75.891552795
 20
325.3963589693
 11
74.091552795
 21
325.3963589693
  0
LINE
  5
2B5
100
AcDbEntity
  8
0
100
AcDbLine
 62
7
  6
CONTINUOUS
 10
98.566552795
 20
359.6963589693
 11
98.8277695032
 21
344.7312637822
  0
LINE
  5
2B6
100
AcDbEntity
  8
0
100
AcDbLine
 62
7
  6
CONTINUOUS
 10
87.841552795
 20
362.1963589693
 11
87.841552795
 21
322.1963589693
  0
LINE
  5
2B7
100
AcDbEntity
  8
0
100
AcDbLine
 62
7
  6
CONTINUOUS
 10
88.091552795
 20
322.8963589693
 11
88.091552795
 21
362.1963589693
  0
LINE
  5
2B8
100
AcDbEntity
  8
0
100
AcDbLine
 62
7
  6
CONTINUOUS
 10
89.216552795
 20
339.6963589693
 11
89.216552795
 21
343.1963589693
  0
LINE
  5
2B9
100
AcDbEntity
  8
0
100
AcDbLine
 62
7
  6
CONTINUOUS
 10
90.016552795
 20
340.4963589693
 11
90.016552795
 21
343.1963589693
  0
LINE
  5
2BA
100
AcDbEntity
  8
0
100
AcDbLine
 62
7
  6
CONTINUOUS
 10
90.366552795
 20
359.6963589693
 11
90.366552795
 21
362.1963589693
  0
LINE
  5
2BB
100
AcDbEntity
  8
0
100
AcDbLine
 62
7
  6
CONTINUOUS
 10
91.291552795
 20
362.1960654902
 11
91.291552795
 21
322.8963589693
  0
LINE
  5
2BC
100
AcDbEntity
  8
0
100
AcDbLine
 62
7
  6
CONTINUOUS
 10
91.841552795
 20
322.1963589693
 11
91.841552795
 21
362.1963589693
  0
LINE
  5
2BD
100
AcDbEntity
  8
0
100
AcDbLine
 62
7
  6
CONTINUOUS
 10
95.591552795
 20
362.1963589693
 11
95.591552795
 21
322.1963589693
  0
LINE
  5
2BE
100
AcDbEntity
  8
0
100
AcDbLine
 62
7
  6
CONTINUOUS
 10
97.491552795
 20
362.1963589693
 11
97.491552795
 21
322.8963589693
  0
LINE
  5
2BF
100
AcDbEntity
  8
0
100
AcDbLine
 62
7
  6
CONTINUOUS
 10
98.366552795
 20
359.6963589693
 11
98.366552795
 21
362.1963589693
  0
LINE
  5
2C0
100
AcDbEntity
  8
0
100
AcDbLine
 62
7
  6
CONTINUOUS
 10
98.591552795
 20
325.3963589693
 11
98.591552795
 21
322.8963589693
  0
LINE
  5
2C1
100
AcDbEntity
  8
0
100
AcDbLine
 62
7
  6
CONTINUOUS
 10
98.716552795
 20
343.1963589693
 11
98.716552795
 21
340.4963589693
  0
LINE
  5
2C2
100
AcDbEntity
  8
0
100
AcDbLine
 62
7
  6
CONTINUOUS
 10
99.516552795
 20
339.6963589693
 11
99.516552795
 21
343.1963589693
  0
LINE
  5
2C3
100
AcDbEntity
  8
0
100
AcDbLine
 62
7
  6
CONTINUOUS
 10
99.591552795
 20
322.1963589693
 11
99.591552795
 21
362.1963589693
  0
LINE
  5
2C4
100
AcDbEntity
  8
0
100
AcDbLine
 62
7
  6
CONTINUOUS
 10
89.9053360869
 20
344.7312637822
 11
90.166552795
 21
359.6963589693
  0
LINE
  5
2C5
100
AcDbEntity
  8
0
100
AcDbLine
 62
7
  6
CONTINUOUS
 10
71.591552795
 20
334.0630250886
 11
71.091552795
 21
333.596358422
  0
LINE
  5
2C6
100
AcDbEntity
  8
0
100
AcDbLine
 62
7
  6
CONTINUOUS
 10
311.4577695032
 20
344.7312637822
 11
310.291552795
 21
344.7109073938
  0
LINE
  5
2C7
100
AcDbEntity
  8
0
100
AcDbLine
 62
7
  6
CONTINUOUS
 10
312.091552795
 20
328.3963589693
 11
310.291552795
 21
328.3963589693
  0
LINE
  5
2C8
100
AcDbEntity
  8
0
100
AcDbLine
 62
7
  6
CONTINUOUS
 10
304.091552795
 20
328.3963589693
 11
301.091552795
 21
328.3963589693
  0
LINE
  5
2C9
100
AcDbEntity
  8
0
100
AcDbLine
 62
7
  6
CONTINUOUS
 10
297.341552795
 20
328.3963589693
 11
294.891552795
 21
328.3963589693
  0
LINE
  5
2CA
100
AcDbEntity
  8
0
100
AcDbLine
 62
7
  6
CONTINUOUS
 10
288.691552795
 20
328.3963589693
 11
285.591552795
 21
328.3963589693
  0
LINE
  5
2CB
100
AcDbEntity
  8
0
100
AcDbLine
 62
7
  6
CONTINUOUS
 10
281.841552795
 20
328.3963589693
 11
279.741552795
 21
328.3963589693
  0
LINE
  5
2CC
100
AcDbEntity
  8
0
100
AcDbLine
 62
7
  6
CONTINUOUS
 10
273.541552795
 20
328.3963589693
 11
270.341552795
 21
328.3963589693
  0
LINE
  5
2CD
100
AcDbEntity
  8
0
100
AcDbLine
 62
7
  6
CONTINUOUS
 10
266.341552795
 20
328.3963589693
 11
264.341552795
 21
328.3963589693
  0
LINE
  5
2CE
100
AcDbEntity
  8
0
100
AcDbLine
 62
7
  6
CONTINUOUS
 10
258.141552795
 20
328.3963589693
 11
256.341552795
 21
328.3963589693
  0
LINE
  5
2CF
100
AcDbEntity
  8
0
100
AcDbLine
 62
7
  6
CONTINUOUS
 10
251.341552795
 20
328.3963589693
 11
249.541552795
 21
328.3963589693
  0
LINE
  5
2D0
100
AcDbEntity
  8
0
100
AcDbLine
 62
7
  6
CONTINUOUS
 10
243.341552795
 20
328.3963589693
 11
240.341552795
 21
328.3963589693
  0
LINE
  5
2D1
100
AcDbEntity
  8
0
100
AcDbLine
 62
7
  6
CONTINUOUS
 10
236.591552795
 20
328.3963589693
 11
234.141552795
 21
328.3963589693
  0
LINE
  5
2D2
100
AcDbEntity
  8
0
100
AcDbLine
 62
7
  6
CONTINUOUS
 10
227.941552795
 20
328.3963589693
 11
224.841552795
 21
328.3963589693
  0
LINE
  5
2D3
100
AcDbEntity
  8
0
100
AcDbLine
 62
7
  6
CONTINUOUS
 10
221.091552795
 20
328.3963589693
 11
218.991552795
 21
328.3963589693
  0
LINE
  5
2D4
100
AcDbEntity
  8
0
100
AcDbLine
 62
7
  6
CONTINUOUS
 10
212.791552795
 20
328.3963589693
 11
209.591552795
 21
328.3963589693
  0
LINE
  5
2D5
100
AcDbEntity
  8
0
100
AcDbLine
 62
7
  6
CONTINUOUS
 10
205.591552795
 20
328.3963589693
 11
203.591552795
 21
328.3963589693
  0
LINE
  5
2D6
100
AcDbEntity
  8
0
100
AcDbLine
 62
7
  6
CONTINUOUS
 10
197.391552795
 20
328.3963589693
 11
195.591552795
 21
328.3963589693
  0
LINE
  5
2D7
100
AcDbEntity
  8
0
100
AcDbLine
 62
7
  6
CONTINUOUS
 10
190.591552795
 20
328.3963589693
 11
188.791552795
 21
328.3963589693
  0
LINE
  5
2D8
100
AcDbEntity
  8
0
100
AcDbLine
 62
7
  6
CONTINUOUS
 10
182.591552795
 20
328.3963589693
 11
179.591552795
 21
328.3963589693
  0
LINE
  5
2D9
100
AcDbEntity
  8
0
100
AcDbLine
 62
7
  6
CONTINUOUS
 10
175.841552795
 20
328.3963589693
 11
173.391552795
 21
328.3963589693
  0
LINE
  5
2DA
100
AcDbEntity
  8
0
100
AcDbLine
 62
7
  6
CONTINUOUS
 10
167.191552795
 20
328.3963589693
 11
164.091552795
 21
328.3963589693
  0
LINE
  5
2DB
100
AcDbEntity
  8
0
100
AcDbLine
 62
7
  6
CONTINUOUS
 10
160.341552795
 20
328.3963589693
 11
158.241552795
 21
328.3963589693
  0
LINE
  5
2DC
100
AcDbEntity
  8
0
100
AcDbLine
 62
7
  6
CONTINUOUS
 10
152.041552795
 20
328.3963589693
 11
148.841552795
 21
328.3963589693
  0
LINE
  5
2DD
100
AcDbEntity
  8
0
100
AcDbLine
 62
7
  6
CONTINUOUS
 10
144.841552795
 20
328.3963589693
 11
142.841552795
 21
328.3963589693
  0
LINE
  5
2DE
100
AcDbEntity
  8
0
100
AcDbLine
 62
7
  6
CONTINUOUS
 10
136.641552795
 20
328.3963589693
 11
134.841552795
 21
328.3963589693
  0
LINE
  5
2DF
100
AcDbEntity
  8
0
100
AcDbLine
 62
7
  6
CONTINUOUS
 10
129.841552795
 20
328.3963589693
 11
128.041552795
 21
328.3963589693
  0
LINE
  5
2E0
100
AcDbEntity
  8
0
100
AcDbLine
 62
7
  6
CONTINUOUS
 10
121.841552795
 20
328.3963589693
 11
118.841552795
 21
328.3963589693
  0
LINE
  5
2E1
100
AcDbEntity
  8
0
100
AcDbLine
 62
7
  6
CONTINUOUS
 10
115.091552795
 20
328.3963589693
 11
112.641552795
 21
328.3963589693
  0
LINE
  5
2E2
100
AcDbEntity
  8
0
100
AcDbLine
 62
7
  6
CONTINUOUS
 10
106.441552795
 20
328.3963589693
 11
103.341552795
 21
328.3963589693
  0
LINE
  5
2E3
100
AcDbEntity
  8
0
100
AcDbLine
 62
7
  6
CONTINUOUS
 10
99.591552795
 20
328.3963589693
 11
97.491552795
 21
328.3963589693
  0
LINE
  5
2E4
100
AcDbEntity
  8
0
100
AcDbLine
 62
7
  6
CONTINUOUS
 10
91.291552795
 20
328.3963589693
 11
88.091552795
 21
328.3963589693
  0
LINE
  5
2E5
100
AcDbEntity
  8
0
100
AcDbLine
 62
7
  6
CONTINUOUS
 10
84.091552795
 20
328.3963589693
 11
82.091552795
 21
328.3963589693
  0
LINE
  5
2E6
100
AcDbEntity
  8
0
100
AcDbLine
 62
7
  6
CONTINUOUS
 10
75.891552795
 20
328.3963589693
 11
74.091552795
 21
328.3963589693
  0
LINE
  5
2E7
100
AcDbEntity
  8
0
100
AcDbLine
 62
7
  6
CONTINUOUS
 10
75.7869488479
 20
328.9310577216
 11
75.891552795
 21
328.9310577216
  0
LINE
  5
2E8
100
AcDbEntity
  8
0
100
AcDbLine
 62
7
  6
CONTINUOUS
 10
121.7469488479
 20
328.9310577216
 11
121.841552795
 21
328.9310577216
  0
LINE
  5
2E9
100
AcDbEntity
  8
0
100
AcDbLine
 62
7
  6
CONTINUOUS
 10
136.5369488479
 20
328.9310577216
 11
136.641552795
 21
328.9310577216
  0
LINE
  5
2EA
100
AcDbEntity
  8
0
100
AcDbLine
 62
7
  6
CONTINUOUS
 10
182.4969488479
 20
328.9310577216
 11
182.591552795
 21
328.9310577216
  0
LINE
  5
2EB
100
AcDbEntity
  8
0
100
AcDbLine
 62
7
  6
CONTINUOUS
 10
197.2869488479
 20
328.9310577216
 11
197.391552795
 21
328.9310577216
  0
LINE
  5
2EC
100
AcDbEntity
  8
0
100
AcDbLine
 62
7
  6
CONTINUOUS
 10
243.2469488479
 20
328.9310577216
 11
243.341552795
 21
328.9310577216
  0
LINE
  5
2ED
100
AcDbEntity
  8
0
100
AcDbLine
 62
7
  6
CONTINUOUS
 10
258.0369488479
 20
328.9310577216
 11
258.141552795
 21
328.9310577216
  0
LINE
  5
2EE
100
AcDbEntity
  8
0
100
AcDbLine
 62
7
  6
CONTINUOUS
 10
303.9969488479
 20
328.9310577216
 11
304.091552795
 21
328.9310577216
  0
LINE
  5
2EF
100
AcDbEntity
  8
0
100
AcDbLine
 62
7
  6
CONTINUOUS
 10
315.091552795
 20
332.396358422
 11
314.591552795
 21
332.396358422
  0
LINE
  5
2F0
100
AcDbEntity
  8
0
100
AcDbLine
 62
7
  6
CONTINUOUS
 10
71.591552795
 20
332.396358422
 11
71.091552795
 21
332.396358422
  0
LINE
  5
2F1
100
AcDbEntity
  8
0
100
AcDbLine
 62
7
  6
CONTINUOUS
 10
317.091552795
 20
332.4963589693
 11
316.891552795
 21
332.4963589693
  0
LINE
  5
2F2
100
AcDbEntity
  8
0
100
AcDbLine
 62
7
  6
CONTINUOUS
 10
315.091552795
 20
332.4963589693
 11
314.591552795
 21
332.4963589693
  0
LINE
  5
2F3
100
AcDbEntity
  8
0
100
AcDbLine
 62
7
  6
CONTINUOUS
 10
71.591552795
 20
332.4963589693
 11
71.091552795
 21
332.4963589693
  0
LINE
  5
2F4
100
AcDbEntity
  8
0
100
AcDbLine
 62
7
  6
CONTINUOUS
 10
69.291552795
 20
332.4963589693
 11
69.091552795
 21
332.4963589693
  0
LINE
  5
2F5
100
AcDbEntity
  8
0
100
AcDbLine
 62
7
  6
CONTINUOUS
 10
46.191552795
 20
332.6963589693
 11
69.091552795
 21
332.6963589693
  0
LINE
  5
2F6
100
AcDbEntity
  8
0
100
AcDbLine
 62
7
  6
CONTINUOUS
 10
69.091552795
 20
332.9963589693
 11
46.191552795
 21
332.9963589693
  0
LINE
  5
2F7
100
AcDbEntity
  8
0
100
AcDbLine
 62
7
  6
CONTINUOUS
 10
312.091552795
 20
333.1963589693
 11
310.291552795
 21
333.1963589693
  0
LINE
  5
2F8
100
AcDbEntity
  8
0
100
AcDbLine
 62
7
  6
CONTINUOUS
 10
303.9969488479
 20
333.1963589693
 11
301.091552795
 21
333.1963589693
  0
LINE
  5
2F9
100
AcDbEntity
  8
0
100
AcDbLine
 62
7
  6
CONTINUOUS
 10
297.341552795
 20
333.1963589693
 11
294.891552795
 21
333.1963589693
  0
LINE
  5
2FA
100
AcDbEntity
  8
0
100
AcDbLine
 62
7
  6
CONTINUOUS
 10
288.691552795
 20
333.1963589693
 11
285.591552795
 21
333.1963589693
  0
LINE
  5
2FB
100
AcDbEntity
  8
0
100
AcDbLine
 62
7
  6
CONTINUOUS
 10
281.841552795
 20
333.1963589693
 11
279.741552795
 21
333.1963589693
  0
LINE
  5
2FC
100
AcDbEntity
  8
0
100
AcDbLine
 62
7
  6
CONTINUOUS
 10
273.541552795
 20
333.1963589693
 11
270.341552795
 21
333.1963589693
  0
LINE
  5
2FD
100
AcDbEntity
  8
0
100
AcDbLine
 62
7
  6
CONTINUOUS
 10
266.341552795
 20
333.1963589693
 11
264.341552795
 21
333.1963589693
  0
LINE
  5
2FE
100
AcDbEntity
  8
0
100
AcDbLine
 62
7
  6
CONTINUOUS
 10
258.0369488479
 20
333.1963589693
 11
256.341552795
 21
333.1963589693
  0
LINE
  5
2FF
100
AcDbEntity
  8
0
100
AcDbLine
 62
7
  6
CONTINUOUS
 10
251.341552795
 20
333.1963589693
 11
249.541552795
 21
333.1963589693
  0
LINE
  5
300
100
AcDbEntity
  8
0
100
AcDbLine
 62
7
  6
CONTINUOUS
 10
243.2469488479
 20
333.1963589693
 11
240.341552795
 21
333.1963589693
  0
LINE
  5
301
100
AcDbEntity
  8
0
100
AcDbLine
 62
7
  6
CONTINUOUS
 10
236.591552795
 20
333.1963589693
 11
234.141552795
 21
333.1963589693
  0
LINE
  5
302
100
AcDbEntity
  8
0
100
AcDbLine
 62
7
  6
CONTINUOUS
 10
227.941552795
 20
333.1963589693
 11
224.841552795
 21
333.1963589693
  0
LINE
  5
303
100
AcDbEntity
  8
0
100
AcDbLine
 62
7
  6
CONTINUOUS
 10
221.091552795
 20
333.1963589693
 11
218.991552795
 21
333.1963589693
  0
LINE
  5
304
100
AcDbEntity
  8
0
100
AcDbLine
 62
7
  6
CONTINUOUS
 10
212.791552795
 20
333.1963589693
 11
209.591552795
 21
333.1963589693
  0
LINE
  5
305
100
AcDbEntity
  8
0
100
AcDbLine
 62
7
  6
CONTINUOUS
 10
205.591552795
 20
333.1963589693
 11
203.591552795
 21
333.1963589693
  0
LINE
  5
306
100
AcDbEntity
  8
0
100
AcDbLine
 62
7
  6
CONTINUOUS
 10
197.2869488479
 20
333.1963589693
 11
195.591552795
 21
333.1963589693
  0
LINE
  5
307
100
AcDbEntity
  8
0
100
AcDbLine
 62
7
  6
CONTINUOUS
 10
190.591552795
 20
333.1963589693
 11
188.791552795
 21
333.1963589693
  0
LINE
  5
308
100
AcDbEntity
  8
0
100
AcDbLine
 62
7
  6
CONTINUOUS
 10
182.4969488479
 20
333.1963589693
 11
179.591552795
 21
333.1963589693
  0
LINE
  5
309
100
AcDbEntity
  8
0
100
AcDbLine
 62
7
  6
CONTINUOUS
 10
175.841552795
 20
333.1963589693
 11
173.391552795
 21
333.1963589693
  0
LINE
  5
30A
100
AcDbEntity
  8
0
100
AcDbLine
 62
7
  6
CONTINUOUS
 10
167.191552795
 20
333.1963589693
 11
164.091552795
 21
333.1963589693
  0
LINE
  5
30B
100
AcDbEntity
  8
0
100
AcDbLine
 62
7
  6
CONTINUOUS
 10
160.341552795
 20
333.1963589693
 11
158.241552795
 21
333.1963589693
  0
LINE
  5
30C
100
AcDbEntity
  8
0
100
AcDbLine
 62
7
  6
CONTINUOUS
 10
152.041552795
 20
333.1963589693
 11
148.841552795
 21
333.1963589693
  0
LINE
  5
30D
100
AcDbEntity
  8
0
100
AcDbLine
 62
7
  6
CONTINUOUS
 10
144.841552795
 20
333.1963589693
 11
142.841552795
 21
333.1963589693
  0
LINE
  5
30E
100
AcDbEntity
  8
0
100
AcDbLine
 62
7
  6
CONTINUOUS
 10
136.5369488479
 20
333.1963589693
 11
134.841552795
 21
333.1963589693
  0
LINE
  5
30F
100
AcDbEntity
  8
0
100
AcDbLine
 62
7
  6
CONTINUOUS
 10
129.841552795
 20
333.1963589693
 11
128.041552795
 21
333.1963589693
  0
LINE
  5
310
100
AcDbEntity
  8
0
100
AcDbLine
 62
7
  6
CONTINUOUS
 10
121.7469488479
 20
333.1963589693
 11
118.841552795
 21
333.1963589693
  0
LINE
  5
311
100
AcDbEntity
  8
0
100
AcDbLine
 62
7
  6
CONTINUOUS
 10
115.091552795
 20
333.1963589693
 11
112.641552795
 21
333.1963589693
  0
LINE
  5
312
100
AcDbEntity
  8
0
100
AcDbLine
 62
7
  6
CONTINUOUS
 10
106.441552795
 20
333.1963589693
 11
103.341552795
 21
333.1963589693
  0
LINE
  5
313
100
AcDbEntity
  8
0
100
AcDbLine
 62
7
  6
CONTINUOUS
 10
99.591552795
 20
333.1963589693
 11
97.491552795
 21
333.1963589693
  0
LINE
  5
314
100
AcDbEntity
  8
0
100
AcDbLine
 62
7
  6
CONTINUOUS
 10
91.291552795
 20
333.1963589693
 11
88.091552795
 21
333.1963589693
  0
LINE
  5
315
100
AcDbEntity
  8
0
100
AcDbLine
 62
7
  6
CONTINUOUS
 10
84.091552795
 20
333.1963589693
 11
82.091552795
 21
333.1963589693
  0
LINE
  5
316
100
AcDbEntity
  8
0
100
AcDbLine
 62
7
  6
CONTINUOUS
 10
75.7869488479
 20
333.1963589693
 11
74.091552795
 21
333.1963589693
  0
LINE
  5
317
100
AcDbEntity
  8
0
100
AcDbLine
 62
7
  6
CONTINUOUS
 10
316.891552795
 20
336.396358422
 11
315.091552795
 21
336.396358422
  0
LINE
  5
318
100
AcDbEntity
  8
0
100
AcDbLine
 62
7
  6
CONTINUOUS
 10
71.091552795
 20
336.396358422
 11
69.291552795
 21
336.396358422
  0
LINE
  5
319
100
AcDbEntity
  8
0
100
AcDbLine
 62
7
  6
CONTINUOUS
 10
317.091552795
 20
336.4963589693
 11
314.591552795
 21
336.4963589693
  0
LINE
  5
31A
100
AcDbEntity
  8
0
100
AcDbLine
 62
7
  6
CONTINUOUS
 10
71.591552795
 20
336.4963589693
 11
69.091552795
 21
336.4963589693
  0
LINE
  5
31B
100
AcDbEntity
  8
0
100
AcDbLine
 62
7
  6
CONTINUOUS
 10
303.9969488479
 20
339.6963589693
 11
301.846552795
 21
339.6963589693
  0
LINE
  5
31C
100
AcDbEntity
  8
0
100
AcDbLine
 62
7
  6
CONTINUOUS
 10
288.691552795
 20
339.6963589693
 11
286.656552795
 21
339.6963589693
  0
LINE
  5
31D
100
AcDbEntity
  8
0
100
AcDbLine
 62
7
  6
CONTINUOUS
 10
273.541552795
 20
339.6963589693
 11
271.466552795
 21
339.6963589693
  0
LINE
  5
31E
100
AcDbEntity
  8
0
100
AcDbLine
 62
7
  6
CONTINUOUS
 10
258.0369488479
 20
339.6963589693
 11
256.341552795
 21
339.6963589693
  0
LINE
  5
31F
100
AcDbEntity
  8
0
100
AcDbLine
 62
7
  6
CONTINUOUS
 10
243.2469488479
 20
339.6963589693
 11
241.096552795
 21
339.6963589693
  0
LINE
  5
320
100
AcDbEntity
  8
0
100
AcDbLine
 62
7
  6
CONTINUOUS
 10
227.941552795
 20
339.6963589693
 11
225.906552795
 21
339.6963589693
  0
LINE
  5
321
100
AcDbEntity
  8
0
100
AcDbLine
 62
7
  6
CONTINUOUS
 10
212.791552795
 20
339.6963589693
 11
210.716552795
 21
339.6963589693
  0
LINE
  5
322
100
AcDbEntity
  8
0
100
AcDbLine
 62
7
  6
CONTINUOUS
 10
197.2869488479
 20
339.6963589693
 11
195.591552795
 21
339.6963589693
  0
LINE
  5
323
100
AcDbEntity
  8
0
100
AcDbLine
 62
7
  6
CONTINUOUS
 10
182.4969488479
 20
339.6963589693
 11
180.346552795
 21
339.6963589693
  0
LINE
  5
324
100
AcDbEntity
  8
0
100
AcDbLine
 62
7
  6
CONTINUOUS
 10
167.191552795
 20
339.6963589693
 11
165.156552795
 21
339.6963589693
  0
LINE
  5
325
100
AcDbEntity
  8
0
100
AcDbLine
 62
7
  6
CONTINUOUS
 10
152.041552795
 20
339.6963589693
 11
149.966552795
 21
339.6963589693
  0
LINE
  5
326
100
AcDbEntity
  8
0
100
AcDbLine
 62
7
  6
CONTINUOUS
 10
136.5369488479
 20
339.6963589693
 11
134.841552795
 21
339.6963589693
  0
LINE
  5
327
100
AcDbEntity
  8
0
100
AcDbLine
 62
7
  6
CONTINUOUS
 10
121.7469488479
 20
339.6963589693
 11
119.596552795
 21
339.6963589693
  0
LINE
  5
328
100
AcDbEntity
  8
0
100
AcDbLine
 62
7
  6
CONTINUOUS
 10
106.441552795
 20
339.6963589693
 11
104.406552795
 21
339.6963589693
  0
LINE
  5
329
100
AcDbEntity
  8
0
100
AcDbLine
 62
7
  6
CONTINUOUS
 10
91.291552795
 20
339.6963589693
 11
89.216552795
 21
339.6963589693
  0
LINE
  5
32A
100
AcDbEntity
  8
0
100
AcDbLine
 62
7
  6
CONTINUOUS
 10
75.7869488479
 20
339.6963589693
 11
74.091552795
 21
339.6963589693
  0
LINE
  5
32B
100
AcDbEntity
  8
0
100
AcDbLine
 62
7
  6
CONTINUOUS
 10
82.091552795
 20
339.6963589693
 11
83.936552795
 21
339.6963589693
  0
LINE
  5
32C
100
AcDbEntity
  8
0
100
AcDbLine
 62
7
  6
CONTINUOUS
 10
97.491552795
 20
339.6963589693
 11
99.516552795
 21
339.6963589693
  0
LINE
  5
32D
100
AcDbEntity
  8
0
100
AcDbLine
 62
7
  6
CONTINUOUS
 10
112.641552795
 20
339.6963589693
 11
114.706552795
 21
339.6963589693
  0
LINE
  5
32E
100
AcDbEntity
  8
0
100
AcDbLine
 62
7
  6
CONTINUOUS
 10
128.041552795
 20
339.6963589693
 11
129.841552795
 21
339.6963589693
  0
LINE
  5
32F
100
AcDbEntity
  8
0
100
AcDbLine
 62
7
  6
CONTINUOUS
 10
142.841552795
 20
339.6963589693
 11
144.686552795
 21
339.6963589693
  0
LINE
  5
330
100
AcDbEntity
  8
0
100
AcDbLine
 62
7
  6
CONTINUOUS
 10
158.241552795
 20
339.6963589693
 11
160.266552795
 21
339.6963589693
  0
LINE
  5
331
100
AcDbEntity
  8
0
100
AcDbLine
 62
7
  6
CONTINUOUS
 10
173.391552795
 20
339.6963589693
 11
175.456552795
 21
339.6963589693
  0
LINE
  5
332
100
AcDbEntity
  8
0
100
AcDbLine
 62
7
  6
CONTINUOUS
 10
188.791552795
 20
339.6963589693
 11
190.591552795
 21
339.6963589693
  0
LINE
  5
333
100
AcDbEntity
  8
0
100
AcDbLine
 62
7
  6
CONTINUOUS
 10
203.591552795
 20
339.6963589693
 11
205.436552795
 21
339.6963589693
  0
LINE
  5
334
100
AcDbEntity
  8
0
100
AcDbLine
 62
7
  6
CONTINUOUS
 10
218.991552795
 20
339.6963589693
 11
221.016552795
 21
339.6963589693
  0
LINE
  5
335
100
AcDbEntity
  8
0
100
AcDbLine
 62
7
  6
CONTINUOUS
 10
234.141552795
 20
339.6963589693
 11
236.206552795
 21
339.6963589693
  0
LINE
  5
336
100
AcDbEntity
  8
0
100
AcDbLine
 62
7
  6
CONTINUOUS
 10
249.541552795
 20
339.6963589693
 11
251.341552795
 21
339.6963589693
  0
LINE
  5
337
100
AcDbEntity
  8
0
100
AcDbLine
 62
7
  6
CONTINUOUS
 10
264.341552795
 20
339.6963589693
 11
266.186552795
 21
339.6963589693
  0
LINE
  5
338
100
AcDbEntity
  8
0
100
AcDbLine
 62
7
  6
CONTINUOUS
 10
279.741552795
 20
339.6963589693
 11
281.766552795
 21
339.6963589693
  0
LINE
  5
339
100
AcDbEntity
  8
0
100
AcDbLine
 62
7
  6
CONTINUOUS
 10
294.891552795
 20
339.6963589693
 11
296.956552795
 21
339.6963589693
  0
LINE
  5
33A
100
AcDbEntity
  8
0
100
AcDbLine
 62
7
  6
CONTINUOUS
 10
310.291552795
 20
339.6963589693
 11
312.091552795
 21
339.6963589693
  0
LINE
  5
33B
100
AcDbEntity
  8
0
100
AcDbLine
 62
7
  6
CONTINUOUS
 10
311.346552795
 20
340.4963589693
 11
310.291552795
 21
340.4963589693
  0
LINE
  5
33C
100
AcDbEntity
  8
0
100
AcDbLine
 62
7
  6
CONTINUOUS
 10
296.156552795
 20
340.4963589693
 11
294.891552795
 21
340.4963589693
  0
LINE
  5
33D
100
AcDbEntity
  8
0
100
AcDbLine
 62
7
  6
CONTINUOUS
 10
280.966552795
 20
340.4963589693
 11
279.741552795
 21
340.4963589693
  0
LINE
  5
33E
100
AcDbEntity
  8
0
100
AcDbLine
 62
7
  6
CONTINUOUS
 10
265.386552795
 20
340.4963589693
 11
264.341552795
 21
340.4963589693
  0
LINE
  5
33F
100
AcDbEntity
  8
0
100
AcDbLine
 62
7
  6
CONTINUOUS
 10
250.596552795
 20
340.4963589693
 11
249.541552795
 21
340.4963589693
  0
LINE
  5
340
100
AcDbEntity
  8
0
100
AcDbLine
 62
7
  6
CONTINUOUS
 10
235.406552795
 20
340.4963589693
 11
234.141552795
 21
340.4963589693
  0
LINE
  5
341
100
AcDbEntity
  8
0
100
AcDbLine
 62
7
  6
CONTINUOUS
 10
220.216552795
 20
340.4963589693
 11
218.991552795
 21
340.4963589693
  0
LINE
  5
342
100
AcDbEntity
  8
0
100
AcDbLine
 62
7
  6
CONTINUOUS
 10
204.636552795
 20
340.4963589693
 11
203.591552795
 21
340.4963589693
  0
LINE
  5
343
100
AcDbEntity
  8
0
100
AcDbLine
 62
7
  6
CONTINUOUS
 10
189.846552795
 20
340.4963589693
 11
188.791552795
 21
340.4963589693
  0
LINE
  5
344
100
AcDbEntity
  8
0
100
AcDbLine
 62
7
  6
CONTINUOUS
 10
174.656552795
 20
340.4963589693
 11
173.391552795
 21
340.4963589693
  0
LINE
  5
345
100
AcDbEntity
  8
0
100
AcDbLine
 62
7
  6
CONTINUOUS
 10
159.466552795
 20
340.4963589693
 11
158.241552795
 21
340.4963589693
  0
LINE
  5
346
100
AcDbEntity
  8
0
100
AcDbLine
 62
7
  6
CONTINUOUS
 10
143.886552795
 20
340.4963589693
 11
142.841552795
 21
340.4963589693
  0
LINE
  5
347
100
AcDbEntity
  8
0
100
AcDbLine
 62
7
  6
CONTINUOUS
 10
129.096552795
 20
340.4963589693
 11
128.041552795
 21
340.4963589693
  0
LINE
  5
348
100
AcDbEntity
  8
0
100
AcDbLine
 62
7
  6
CONTINUOUS
 10
113.906552795
 20
340.4963589693
 11
112.641552795
 21
340.4963589693
  0
LINE
  5
349
100
AcDbEntity
  8
0
100
AcDbLine
 62
7
  6
CONTINUOUS
 10
98.716552795
 20
340.4963589693
 11
97.491552795
 21
340.4963589693
  0
LINE
  5
34A
100
AcDbEntity
  8
0
100
AcDbLine
 62
7
  6
CONTINUOUS
 10
83.136552795
 20
340.4963589693
 11
82.091552795
 21
340.4963589693
  0
LINE
  5
34B
100
AcDbEntity
  8
0
100
AcDbLine
 62
7
  6
CONTINUOUS
 10
74.436552795
 20
340.4963589693
 11
75.7869488479
 21
340.4963589693
  0
LINE
  5
34C
100
AcDbEntity
  8
0
100
AcDbLine
 62
7
  6
CONTINUOUS
 10
90.016552795
 20
340.4963589693
 11
91.291552795
 21
340.4963589693
  0
LINE
  5
34D
100
AcDbEntity
  8
0
100
AcDbLine
 62
7
  6
CONTINUOUS
 10
105.206552795
 20
340.4963589693
 11
106.441552795
 21
340.4963589693
  0
LINE
  5
34E
100
AcDbEntity
  8
0
100
AcDbLine
 62
7
  6
CONTINUOUS
 10
120.396552795
 20
340.4963589693
 11
121.7469488479
 21
340.4963589693
  0
LINE
  5
34F
100
AcDbEntity
  8
0
100
AcDbLine
 62
7
  6
CONTINUOUS
 10
135.186552795
 20
340.4963589693
 11
136.5369488479
 21
340.4963589693
  0
LINE
  5
350
100
AcDbEntity
  8
0
100
AcDbLine
 62
7
  6
CONTINUOUS
 10
150.766552795
 20
340.4963589693
 11
152.041552795
 21
340.4963589693
  0
LINE
  5
351
100
AcDbEntity
  8
0
100
AcDbLine
 62
7
  6
CONTINUOUS
 10
165.956552795
 20
340.4963589693
 11
167.191552795
 21
340.4963589693
  0
LINE
  5
352
100
AcDbEntity
  8
0
100
AcDbLine
 62
7
  6
CONTINUOUS
 10
181.146552795
 20
340.4963589693
 11
182.4969488479
 21
340.4963589693
  0
LINE
  5
353
100
AcDbEntity
  8
0
100
AcDbLine
 62
7
  6
CONTINUOUS
 10
195.936552795
 20
340.4963589693
 11
197.2869488479
 21
340.4963589693
  0
LINE
  5
354
100
AcDbEntity
  8
0
100
AcDbLine
 62
7
  6
CONTINUOUS
 10
211.516552795
 20
340.4963589693
 11
212.791552795
 21
340.4963589693
  0
LINE
  5
355
100
AcDbEntity
  8
0
100
AcDbLine
 62
7
  6
CONTINUOUS
 10
226.706552795
 20
340.4963589693
 11
227.941552795
 21
340.4963589693
  0
LINE
  5
356
100
AcDbEntity
  8
0
100
AcDbLine
 62
7
  6
CONTINUOUS
 10
241.896552795
 20
340.4963589693
 11
243.2469488479
 21
340.4963589693
  0
LINE
  5
357
100
AcDbEntity
  8
0
100
AcDbLine
 62
7
  6
CONTINUOUS
 10
256.686552795
 20
340.4963589693
 11
258.0369488479
 21
340.4963589693
  0
LINE
  5
358
100
AcDbEntity
  8
0
100
AcDbLine
 62
7
  6
CONTINUOUS
 10
272.266552795
 20
340.4963589693
 11
273.541552795
 21
340.4963589693
  0
LINE
  5
359
100
AcDbEntity
  8
0
100
AcDbLine
 62
7
  6
CONTINUOUS
 10
287.456552795
 20
340.4963589693
 11
288.691552795
 21
340.4963589693
  0
LINE
  5
35A
100
AcDbEntity
  8
0
100
AcDbLine
 62
7
  6
CONTINUOUS
 10
302.646552795
 20
340.4963589693
 11
303.9969488479
 21
340.4963589693
  0
LINE
  5
35B
100
AcDbEntity
  8
0
100
AcDbLine
 62
7
  6
CONTINUOUS
 10
74.091552795
 20
340.6963589693
 11
74.436552795
 21
340.6963589693
  0
LINE
  5
35C
100
AcDbEntity
  8
0
100
AcDbLine
 62
7
  6
CONTINUOUS
 10
83.136552795
 20
340.6963589693
 11
83.936552795
 21
340.6963589693
  0
LINE
  5
35D
100
AcDbEntity
  8
0
100
AcDbLine
 62
7
  6
CONTINUOUS
 10
89.216552795
 20
340.6963589693
 11
90.016552795
 21
340.6963589693
  0
LINE
  5
35E
100
AcDbEntity
  8
0
100
AcDbLine
 62
7
  6
CONTINUOUS
 10
98.716552795
 20
340.6963589693
 11
99.516552795
 21
340.6963589693
  0
LINE
  5
35F
100
AcDbEntity
  8
0
100
AcDbLine
 62
7
  6
CONTINUOUS
 10
104.406552795
 20
340.6963589693
 11
105.206552795
 21
340.6963589693
  0
LINE
  5
360
100
AcDbEntity
  8
0
100
AcDbLine
 62
7
  6
CONTINUOUS
 10
113.906552795
 20
340.6963589693
 11
114.706552795
 21
340.6963589693
  0
LINE
  5
361
100
AcDbEntity
  8
0
100
AcDbLine
 62
7
  6
CONTINUOUS
 10
119.596552795
 20
340.6963589693
 11
120.396552795
 21
340.6963589693
  0
LINE
  5
362
100
AcDbEntity
  8
0
100
AcDbLine
 62
7
  6
CONTINUOUS
 10
129.096552795
 20
340.6963589693
 11
129.841552795
 21
340.6963589693
  0
LINE
  5
363
100
AcDbEntity
  8
0
100
AcDbLine
 62
7
  6
CONTINUOUS
 10
134.841552795
 20
340.6963589693
 11
135.186552795
 21
340.6963589693
  0
LINE
  5
364
100
AcDbEntity
  8
0
100
AcDbLine
 62
7
  6
CONTINUOUS
 10
143.886552795
 20
340.6963589693
 11
144.686552795
 21
340.6963589693
  0
LINE
  5
365
100
AcDbEntity
  8
0
100
AcDbLine
 62
7
  6
CONTINUOUS
 10
149.966552795
 20
340.6963589693
 11
150.766552795
 21
340.6963589693
  0
LINE
  5
366
100
AcDbEntity
  8
0
100
AcDbLine
 62
7
  6
CONTINUOUS
 10
159.466552795
 20
340.6963589693
 11
160.266552795
 21
340.6963589693
  0
LINE
  5
367
100
AcDbEntity
  8
0
100
AcDbLine
 62
7
  6
CONTINUOUS
 10
165.156552795
 20
340.6963589693
 11
165.956552795
 21
340.6963589693
  0
LINE
  5
368
100
AcDbEntity
  8
0
100
AcDbLine
 62
7
  6
CONTINUOUS
 10
174.656552795
 20
340.6963589693
 11
175.456552795
 21
340.6963589693
  0
LINE
  5
369
100
AcDbEntity
  8
0
100
AcDbLine
 62
7
  6
CONTINUOUS
 10
180.346552795
 20
340.6963589693
 11
181.146552795
 21
340.6963589693
  0
LINE
  5
36A
100
AcDbEntity
  8
0
100
AcDbLine
 62
7
  6
CONTINUOUS
 10
189.846552795
 20
340.6963589693
 11
190.591552795
 21
340.6963589693
  0
LINE
  5
36B
100
AcDbEntity
  8
0
100
AcDbLine
 62
7
  6
CONTINUOUS
 10
195.591552795
 20
340.6963589693
 11
195.936552795
 21
340.6963589693
  0
LINE
  5
36C
100
AcDbEntity
  8
0
100
AcDbLine
 62
7
  6
CONTINUOUS
 10
204.636552795
 20
340.6963589693
 11
205.436552795
 21
340.6963589693
  0
LINE
  5
36D
100
AcDbEntity
  8
0
100
AcDbLine
 62
7
  6
CONTINUOUS
 10
210.716552795
 20
340.6963589693
 11
211.516552795
 21
340.6963589693
  0
LINE
  5
36E
100
AcDbEntity
  8
0
100
AcDbLine
 62
7
  6
CONTINUOUS
 10
220.216552795
 20
340.6963589693
 11
221.016552795
 21
340.6963589693
  0
LINE
  5
36F
100
AcDbEntity
  8
0
100
AcDbLine
 62
7
  6
CONTINUOUS
 10
225.906552795
 20
340.6963589693
 11
226.706552795
 21
340.6963589693
  0
LINE
  5
370
100
AcDbEntity
  8
0
100
AcDbLine
 62
7
  6
CONTINUOUS
 10
235.406552795
 20
340.6963589693
 11
236.206552795
 21
340.6963589693
  0
LINE
  5
371
100
AcDbEntity
  8
0
100
AcDbLine
 62
7
  6
CONTINUOUS
 10
241.096552795
 20
340.6963589693
 11
241.896552795
 21
340.6963589693
  0
LINE
  5
372
100
AcDbEntity
  8
0
100
AcDbLine
 62
7
  6
CONTINUOUS
 10
250.596552795
 20
340.6963589693
 11
251.341552795
 21
340.6963589693
  0
LINE
  5
373
100
AcDbEntity
  8
0
100
AcDbLine
 62
7
  6
CONTINUOUS
 10
256.341552795
 20
340.6963589693
 11
256.686552795
 21
340.6963589693
  0
LINE
  5
374
100
AcDbEntity
  8
0
100
AcDbLine
 62
7
  6
CONTINUOUS
 10
265.386552795
 20
340.6963589693
 11
266.186552795
 21
340.6963589693
  0
LINE
  5
375
100
AcDbEntity
  8
0
100
AcDbLine
 62
7
  6
CONTINUOUS
 10
271.466552795
 20
340.6963589693
 11
272.266552795
 21
340.6963589693
  0
LINE
  5
376
100
AcDbEntity
  8
0
100
AcDbLine
 62
7
  6
CONTINUOUS
 10
280.966552795
 20
340.6963589693
 11
281.766552795
 21
340.6963589693
  0
LINE
  5
377
100
AcDbEntity
  8
0
100
AcDbLine
 62
7
  6
CONTINUOUS
 10
286.656552795
 20
340.6963589693
 11
287.456552795
 21
340.6963589693
  0
LINE
  5
378
100
AcDbEntity
  8
0
100
AcDbLine
 62
7
  6
CONTINUOUS
 10
296.156552795
 20
340.6963589693
 11
296.956552795
 21
340.6963589693
  0
LINE
  5
379
100
AcDbEntity
  8
0
100
AcDbLine
 62
7
  6
CONTINUOUS
 10
301.846552795
 20
340.6963589693
 11
302.646552795
 21
340.6963589693
  0
LINE
  5
37A
100
AcDbEntity
  8
0
100
AcDbLine
 62
7
  6
CONTINUOUS
 10
311.346552795
 20
340.6963589693
 11
312.091552795
 21
340.6963589693
  0
LINE
  5
37B
100
AcDbEntity
  8
0
100
AcDbLine
 62
7
  6
CONTINUOUS
 10
113.756552795
 20
359.6963589693
 11
114.0177695032
 21
344.7312637822
  0
LINE
  5
37C
100
AcDbEntity
  8
0
100
AcDbLine
 62
7
  6
CONTINUOUS
 10
103.341552795
 20
362.1963589693
 11
103.341552795
 21
322.1963589693
  0
LINE
  5
37D
100
AcDbEntity
  8
0
100
AcDbLine
 62
7
  6
CONTINUOUS
 10
104.406552795
 20
339.6963589693
 11
104.406552795
 21
343.1963589693
  0
LINE
  5
37E
100
AcDbEntity
  8
0
100
AcDbLine
 62
7
  6
CONTINUOUS
 10
105.206552795
 20
340.4963589693
 11
105.206552795
 21
343.1963589693
  0
LINE
  5
37F
100
AcDbEntity
  8
0
100
AcDbLine
 62
7
  6
CONTINUOUS
 10
105.556552795
 20
359.6963589693
 11
105.556552795
 21
362.1963589693
  0
LINE
  5
380
100
AcDbEntity
  8
0
100
AcDbLine
 62
7
  6
CONTINUOUS
 10
106.441552795
 20
362.1963589693
 11
106.441552795
 21
322.8963589693
  0
LINE
  5
381
100
AcDbEntity
  8
0
100
AcDbLine
 62
7
  6
CONTINUOUS
 10
107.341552795
 20
322.1963589693
 11
107.341552795
 21
362.1963589693
  0
LINE
  5
382
100
AcDbEntity
  8
0
100
AcDbLine
 62
7
  6
CONTINUOUS
 10
111.091552795
 20
362.1963589693
 11
111.091552795
 21
322.1963589693
  0
LINE
  5
383
100
AcDbEntity
  8
0
100
AcDbLine
 62
7
  6
CONTINUOUS
 10
112.641552795
 20
362.1963589693
 11
112.641552795
 21
322.8963589693
  0
LINE
  5
384
100
AcDbEntity
  8
0
100
AcDbLine
 62
7
  6
CONTINUOUS
 10
113.556552795
 20
359.6963589693
 11
113.556552795
 21
362.1963589693
  0
LINE
  5
385
100
AcDbEntity
  8
0
100
AcDbLine
 62
7
  6
CONTINUOUS
 10
113.906552795
 20
343.1963589693
 11
113.906552795
 21
340.4963589693
  0
LINE
  5
386
100
AcDbEntity
  8
0
100
AcDbLine
 62
7
  6
CONTINUOUS
 10
114.706552795
 20
339.6963589693
 11
114.706552795
 21
343.1963589693
  0
LINE
  5
387
100
AcDbEntity
  8
0
100
AcDbLine
 62
7
  6
CONTINUOUS
 10
105.0953360869
 20
344.7312637822
 11
105.356552795
 21
359.6963589693
  0
LINE
  5
388
100
AcDbEntity
  8
0
100
AcDbLine
 62
7
  6
CONTINUOUS
 10
296.2677695032
 20
344.7312637822
 11
294.891552795
 21
344.7072418302
  0
LINE
  5
389
100
AcDbEntity
  8
0
100
AcDbLine
 62
7
  6
CONTINUOUS
 10
281.0777695032
 20
344.7312637822
 11
279.741552795
 21
344.7079400328
  0
LINE
  5
38A
100
AcDbEntity
  8
0
100
AcDbLine
 62
7
  6
CONTINUOUS
 10
265.4977695032
 20
344.7312637822
 11
264.341552795
 21
344.7110819445
  0
LINE
  5
38B
100
AcDbEntity
  8
0
100
AcDbLine
 62
7
  6
CONTINUOUS
 10
250.7077695032
 20
344.7312637822
 11
249.541552795
 21
344.7109073938
  0
LINE
  5
38C
100
AcDbEntity
  8
0
100
AcDbLine
 62
7
  6
CONTINUOUS
 10
235.5177695032
 20
344.7312637822
 11
234.141552795
 21
344.7072418302
  0
LINE
  5
38D
100
AcDbEntity
  8
0
100
AcDbLine
 62
7
  6
CONTINUOUS
 10
220.3277695032
 20
344.7312637822
 11
218.991552795
 21
344.7079400328
  0
LINE
  5
38E
100
AcDbEntity
  8
0
100
AcDbLine
 62
7
  6
CONTINUOUS
 10
204.7477695032
 20
344.7312637822
 11
203.591552795
 21
344.7110819445
  0
LINE
  5
38F
100
AcDbEntity
  8
0
100
AcDbLine
 62
7
  6
CONTINUOUS
 10
189.9577695032
 20
344.7312637822
 11
188.791552795
 21
344.7109073938
  0
LINE
  5
390
100
AcDbEntity
  8
0
100
AcDbLine
 62
7
  6
CONTINUOUS
 10
174.7677695032
 20
344.7312637822
 11
173.391552795
 21
344.7072418302
  0
LINE
  5
391
100
AcDbEntity
  8
0
100
AcDbLine
 62
7
  6
CONTINUOUS
 10
159.5777695032
 20
344.7312637822
 11
158.241552795
 21
344.7079400328
  0
LINE
  5
392
100
AcDbEntity
  8
0
100
AcDbLine
 62
7
  6
CONTINUOUS
 10
143.9977695032
 20
344.7312637822
 11
142.841552795
 21
344.7110819445
  0
LINE
  5
393
100
AcDbEntity
  8
0
100
AcDbLine
 62
7
  6
CONTINUOUS
 10
129.2077695032
 20
344.7312637822
 11
128.041552795
 21
344.7109073938
  0
LINE
  5
394
100
AcDbEntity
  8
0
100
AcDbLine
 62
7
  6
CONTINUOUS
 10
114.0177695032
 20
344.7312637822
 11
112.641552795
 21
344.7072418302
  0
LINE
  5
395
100
AcDbEntity
  8
0
100
AcDbLine
 62
7
  6
CONTINUOUS
 10
98.8277695032
 20
344.7312637822
 11
97.491552795
 21
344.7079400328
  0
LINE
  5
396
100
AcDbEntity
  8
0
100
AcDbLine
 62
7
  6
CONTINUOUS
 10
83.2477695032
 20
344.7312637822
 11
82.091552795
 21
344.7110819445
  0
LINE
  5
397
100
AcDbEntity
  8
0
100
AcDbLine
 62
7
  6
CONTINUOUS
 10
304.091552795
 20
341.6963589693
 11
303.9969488479
 21
341.6963589693
  0
LINE
  5
398
100
AcDbEntity
  8
0
100
AcDbLine
 62
7
  6
CONTINUOUS
 10
258.141552795
 20
341.6963589693
 11
258.0369488479
 21
341.6963589693
  0
LINE
  5
399
100
AcDbEntity
  8
0
100
AcDbLine
 62
7
  6
CONTINUOUS
 10
243.341552795
 20
341.6963589693
 11
243.2469488479
 21
341.6963589693
  0
LINE
  5
39A
100
AcDbEntity
  8
0
100
AcDbLine
 62
7
  6
CONTINUOUS
 10
197.391552795
 20
341.6963589693
 11
197.2869488479
 21
341.6963589693
  0
LINE
  5
39B
100
AcDbEntity
  8
0
100
AcDbLine
 62
7
  6
CONTINUOUS
 10
182.591552795
 20
341.6963589693
 11
182.4969488479
 21
341.6963589693
  0
LINE
  5
39C
100
AcDbEntity
  8
0
100
AcDbLine
 62
7
  6
CONTINUOUS
 10
136.641552795
 20
341.6963589693
 11
136.5369488479
 21
341.6963589693
  0
LINE
  5
39D
100
AcDbEntity
  8
0
100
AcDbLine
 62
7
  6
CONTINUOUS
 10
121.841552795
 20
341.6963589693
 11
121.7469488479
 21
341.6963589693
  0
LINE
  5
39E
100
AcDbEntity
  8
0
100
AcDbLine
 62
7
  6
CONTINUOUS
 10
75.891552795
 20
341.6963589693
 11
75.7869488479
 21
341.6963589693
  0
LINE
  5
39F
100
AcDbEntity
  8
0
100
AcDbLine
 62
7
  6
CONTINUOUS
 10
304.091552795
 20
343.1963589693
 11
303.9969488479
 21
343.1963589693
  0
LINE
  5
3A0
100
AcDbEntity
  8
0
100
AcDbLine
 62
7
  6
CONTINUOUS
 10
258.141552795
 20
343.1963589693
 11
258.0369488479
 21
343.1963589693
  0
LINE
  5
3A1
100
AcDbEntity
  8
0
100
AcDbLine
 62
7
  6
CONTINUOUS
 10
243.341552795
 20
343.1963589693
 11
243.2469488479
 21
343.1963589693
  0
LINE
  5
3A2
100
AcDbEntity
  8
0
100
AcDbLine
 62
7
  6
CONTINUOUS
 10
197.391552795
 20
343.1963589693
 11
197.2869488479
 21
343.1963589693
  0
LINE
  5
3A3
100
AcDbEntity
  8
0
100
AcDbLine
 62
7
  6
CONTINUOUS
 10
182.591552795
 20
343.1963589693
 11
182.4969488479
 21
343.1963589693
  0
LINE
  5
3A4
100
AcDbEntity
  8
0
100
AcDbLine
 62
7
  6
CONTINUOUS
 10
136.641552795
 20
343.1963589693
 11
136.5369488479
 21
343.1963589693
  0
LINE
  5
3A5
100
AcDbEntity
  8
0
100
AcDbLine
 62
7
  6
CONTINUOUS
 10
121.841552795
 20
343.1963589693
 11
121.7469488479
 21
343.1963589693
  0
LINE
  5
3A6
100
AcDbEntity
  8
0
100
AcDbLine
 62
7
  6
CONTINUOUS
 10
75.891552795
 20
343.1963589693
 11
75.7869488479
 21
343.1963589693
  0
LINE
  5
3A7
100
AcDbEntity
  8
0
100
AcDbLine
 62
7
  6
CONTINUOUS
 10
74.091552795
 20
343.1963589693
 11
74.436552795
 21
343.1963589693
  0
LINE
  5
3A8
100
AcDbEntity
  8
0
100
AcDbLine
 62
7
  6
CONTINUOUS
 10
83.136552795
 20
343.1963589693
 11
83.936552795
 21
343.1963589693
  0
LINE
  5
3A9
100
AcDbEntity
  8
0
100
AcDbLine
 62
7
  6
CONTINUOUS
 10
89.216552795
 20
343.1963589693
 11
90.016552795
 21
343.1963589693
  0
LINE
  5
3AA
100
AcDbEntity
  8
0
100
AcDbLine
 62
7
  6
CONTINUOUS
 10
98.716552795
 20
343.1963589693
 11
99.516552795
 21
343.1963589693
  0
LINE
  5
3AB
100
AcDbEntity
  8
0
100
AcDbLine
 62
7
  6
CONTINUOUS
 10
104.406552795
 20
343.1963589693
 11
105.206552795
 21
343.1963589693
  0
LINE
  5
3AC
100
AcDbEntity
  8
0
100
AcDbLine
 62
7
  6
CONTINUOUS
 10
113.906552795
 20
343.1963589693
 11
114.706552795
 21
343.1963589693
  0
LINE
  5
3AD
100
AcDbEntity
  8
0
100
AcDbLine
 62
7
  6
CONTINUOUS
 10
119.596552795
 20
343.1963589693
 11
120.396552795
 21
343.1963589693
  0
LINE
  5
3AE
100
AcDbEntity
  8
0
100
AcDbLine
 62
7
  6
CONTINUOUS
 10
129.096552795
 20
343.1963589693
 11
129.841552795
 21
343.1963589693
  0
LINE
  5
3AF
100
AcDbEntity
  8
0
100
AcDbLine
 62
7
  6
CONTINUOUS
 10
134.841552795
 20
343.1963589693
 11
135.186552795
 21
343.1963589693
  0
LINE
  5
3B0
100
AcDbEntity
  8
0
100
AcDbLine
 62
7
  6
CONTINUOUS
 10
143.886552795
 20
343.1963589693
 11
144.686552795
 21
343.1963589693
  0
LINE
  5
3B1
100
AcDbEntity
  8
0
100
AcDbLine
 62
7
  6
CONTINUOUS
 10
149.966552795
 20
343.1963589693
 11
150.766552795
 21
343.1963589693
  0
LINE
  5
3B2
100
AcDbEntity
  8
0
100
AcDbLine
 62
7
  6
CONTINUOUS
 10
159.466552795
 20
343.1963589693
 11
160.266552795
 21
343.1963589693
  0
LINE
  5
3B3
100
AcDbEntity
  8
0
100
AcDbLine
 62
7
  6
CONTINUOUS
 10
165.156552795
 20
343.1963589693
 11
165.956552795
 21
343.1963589693
  0
LINE
  5
3B4
100
AcDbEntity
  8
0
100
AcDbLine
 62
7
  6
CONTINUOUS
 10
174.656552795
 20
343.1963589693
 11
175.456552795
 21
343.1963589693
  0
LINE
  5
3B5
100
AcDbEntity
  8
0
100
AcDbLine
 62
7
  6
CONTINUOUS
 10
180.346552795
 20
343.1963589693
 11
181.146552795
 21
343.1963589693
  0
LINE
  5
3B6
100
AcDbEntity
  8
0
100
AcDbLine
 62
7
  6
CONTINUOUS
 10
189.846552795
 20
343.1963589693
 11
190.591552795
 21
343.1963589693
  0
LINE
  5
3B7
100
AcDbEntity
  8
0
100
AcDbLine
 62
7
  6
CONTINUOUS
 10
195.591552795
 20
343.1963589693
 11
195.936552795
 21
343.1963589693
  0
LINE
  5
3B8
100
AcDbEntity
  8
0
100
AcDbLine
 62
7
  6
CONTINUOUS
 10
204.636552795
 20
343.1963589693
 11
205.436552795
 21
343.1963589693
  0
LINE
  5
3B9
100
AcDbEntity
  8
0
100
AcDbLine
 62
7
  6
CONTINUOUS
 10
210.716552795
 20
343.1963589693
 11
211.516552795
 21
343.1963589693
  0
LINE
  5
3BA
100
AcDbEntity
  8
0
100
AcDbLine
 62
7
  6
CONTINUOUS
 10
220.216552795
 20
343.1963589693
 11
221.016552795
 21
343.1963589693
  0
LINE
  5
3BB
100
AcDbEntity
  8
0
100
AcDbLine
 62
7
  6
CONTINUOUS
 10
225.906552795
 20
343.1963589693
 11
226.706552795
 21
343.1963589693
  0
LINE
  5
3BC
100
AcDbEntity
  8
0
100
AcDbLine
 62
7
  6
CONTINUOUS
 10
235.406552795
 20
343.1963589693
 11
236.206552795
 21
343.1963589693
  0
LINE
  5
3BD
100
AcDbEntity
  8
0
100
AcDbLine
 62
7
  6
CONTINUOUS
 10
241.096552795
 20
343.1963589693
 11
241.896552795
 21
343.1963589693
  0
LINE
  5
3BE
100
AcDbEntity
  8
0
100
AcDbLine
 62
7
  6
CONTINUOUS
 10
250.596552795
 20
343.1963589693
 11
251.341552795
 21
343.1963589693
  0
LINE
  5
3BF
100
AcDbEntity
  8
0
100
AcDbLine
 62
7
  6
CONTINUOUS
 10
256.341552795
 20
343.1963589693
 11
256.686552795
 21
343.1963589693
  0
LINE
  5
3C0
100
AcDbEntity
  8
0
100
AcDbLine
 62
7
  6
CONTINUOUS
 10
265.386552795
 20
343.1963589693
 11
266.186552795
 21
343.1963589693
  0
LINE
  5
3C1
100
AcDbEntity
  8
0
100
AcDbLine
 62
7
  6
CONTINUOUS
 10
271.466552795
 20
343.1963589693
 11
272.266552795
 21
343.1963589693
  0
LINE
  5
3C2
100
AcDbEntity
  8
0
100
AcDbLine
 62
7
  6
CONTINUOUS
 10
280.966552795
 20
343.1963589693
 11
281.766552795
 21
343.1963589693
  0
LINE
  5
3C3
100
AcDbEntity
  8
0
100
AcDbLine
 62
7
  6
CONTINUOUS
 10
286.656552795
 20
343.1963589693
 11
287.456552795
 21
343.1963589693
  0
LINE
  5
3C4
100
AcDbEntity
  8
0
100
AcDbLine
 62
7
  6
CONTINUOUS
 10
296.156552795
 20
343.1963589693
 11
296.956552795
 21
343.1963589693
  0
LINE
  5
3C5
100
AcDbEntity
  8
0
100
AcDbLine
 62
7
  6
CONTINUOUS
 10
301.846552795
 20
343.1963589693
 11
302.646552795
 21
343.1963589693
  0
LINE
  5
3C6
100
AcDbEntity
  8
0
100
AcDbLine
 62
7
  6
CONTINUOUS
 10
311.346552795
 20
343.1963589693
 11
312.091552795
 21
343.1963589693
  0
LINE
  5
3C7
100
AcDbEntity
  8
0
100
AcDbLine
 62
7
  6
CONTINUOUS
 10
67.591552795
 20
343.3963589693
 11
65.091552795
 21
343.3963589693
  0
LINE
  5
3C8
100
AcDbEntity
  8
0
100
AcDbLine
 62
7
  6
CONTINUOUS
 10
62.591552795
 20
343.3963589693
 11
60.091552795
 21
343.3963589693
  0
LINE
  5
3C9
100
AcDbEntity
  8
0
100
AcDbLine
 62
7
  6
CONTINUOUS
 10
57.591552795
 20
343.3963589693
 11
55.091552795
 21
343.3963589693
  0
LINE
  5
3CA
100
AcDbEntity
  8
0
100
AcDbLine
 62
7
  6
CONTINUOUS
 10
52.591552795
 20
343.3963589693
 11
50.091552795
 21
343.3963589693
  0
LINE
  5
3CB
100
AcDbEntity
  8
0
100
AcDbLine
 62
7
  6
CONTINUOUS
 10
50.091552795
 20
345.6963589693
 11
52.591552795
 21
345.6963589693
  0
LINE
  5
3CC
100
AcDbEntity
  8
0
100
AcDbLine
 62
7
  6
CONTINUOUS
 10
55.091552795
 20
345.6963589693
 11
57.591552795
 21
345.6963589693
  0
LINE
  5
3CD
100
AcDbEntity
  8
0
100
AcDbLine
 62
7
  6
CONTINUOUS
 10
60.091552795
 20
345.6963589693
 11
62.591552795
 21
345.6963589693
  0
LINE
  5
3CE
100
AcDbEntity
  8
0
100
AcDbLine
 62
7
  6
CONTINUOUS
 10
65.091552795
 20
345.6963589693
 11
67.591552795
 21
345.6963589693
  0
LINE
  5
3CF
100
AcDbEntity
  8
0
100
AcDbLine
 62
7
  6
CONTINUOUS
 10
50.091552795
 20
347.1963589693
 11
52.591552795
 21
347.1963589693
  0
LINE
  5
3D0
100
AcDbEntity
  8
0
100
AcDbLine
 62
7
  6
CONTINUOUS
 10
55.091552795
 20
347.1963589693
 11
57.591552795
 21
347.1963589693
  0
LINE
  5
3D1
100
AcDbEntity
  8
0
100
AcDbLine
 62
7
  6
CONTINUOUS
 10
60.091552795
 20
347.1963589693
 11
62.591552795
 21
347.1963589693
  0
LINE
  5
3D2
100
AcDbEntity
  8
0
100
AcDbLine
 62
7
  6
CONTINUOUS
 10
65.091552795
 20
347.1963589693
 11
67.591552795
 21
347.1963589693
  0
LINE
  5
3D3
100
AcDbEntity
  8
0
100
AcDbLine
 62
7
  6
CONTINUOUS
 10
75.891552795
 20
344.7039253679
 11
74.3253360869
 21
344.7312637822
  0
LINE
  5
3D4
100
AcDbEntity
  8
0
100
AcDbLine
 62
7
  6
CONTINUOUS
 10
91.291552795
 20
344.7070672795
 11
89.9053360869
 21
344.7312637822
  0
LINE
  5
3D5
100
AcDbEntity
  8
0
100
AcDbLine
 62
7
  6
CONTINUOUS
 10
106.441552795
 20
344.7077654821
 11
105.0953360869
 21
344.7312637822
  0
LINE
  5
3D6
100
AcDbEntity
  8
0
100
AcDbLine
 62
7
  6
CONTINUOUS
 10
121.841552795
 20
344.7040999185
 11
120.2853360869
 21
344.7312637822
  0
LINE
  5
3D7
100
AcDbEntity
  8
0
100
AcDbLine
 62
7
  6
CONTINUOUS
 10
136.641552795
 20
344.7039253679
 11
135.0753360869
 21
344.7312637822
  0
LINE
  5
3D8
100
AcDbEntity
  8
0
100
AcDbLine
 62
7
  6
CONTINUOUS
 10
152.041552795
 20
344.7070672795
 11
150.6553360869
 21
344.7312637822
  0
LINE
  5
3D9
100
AcDbEntity
  8
0
100
AcDbLine
 62
7
  6
CONTINUOUS
 10
167.191552795
 20
344.7077654821
 11
165.8453360869
 21
344.7312637822
  0
LINE
  5
3DA
100
AcDbEntity
  8
0
100
AcDbLine
 62
7
  6
CONTINUOUS
 10
182.591552795
 20
344.7040999185
 11
181.0353360869
 21
344.7312637822
  0
LINE
  5
3DB
100
AcDbEntity
  8
0
100
AcDbLine
 62
7
  6
CONTINUOUS
 10
197.391552795
 20
344.7039253679
 11
195.8253360869
 21
344.7312637822
  0
LINE
  5
3DC
100
AcDbEntity
  8
0
100
AcDbLine
 62
7
  6
CONTINUOUS
 10
212.791552795
 20
344.7070672795
 11
211.4053360869
 21
344.7312637822
  0
LINE
  5
3DD
100
AcDbEntity
  8
0
100
AcDbLine
 62
7
  6
CONTINUOUS
 10
227.941552795
 20
344.7077654821
 11
226.5953360869
 21
344.7312637822
  0
LINE
  5
3DE
100
AcDbEntity
  8
0
100
AcDbLine
 62
7
  6
CONTINUOUS
 10
243.341552795
 20
344.7040999185
 11
241.7853360869
 21
344.7312637822
  0
LINE
  5
3DF
100
AcDbEntity
  8
0
100
AcDbLine
 62
7
  6
CONTINUOUS
 10
258.141552795
 20
344.7039253679
 11
256.5753360869
 21
344.7312637822
  0
LINE
  5
3E0
100
AcDbEntity
  8
0
100
AcDbLine
 62
7
  6
CONTINUOUS
 10
273.541552795
 20
344.7070672795
 11
272.1553360869
 21
344.7312637822
  0
LINE
  5
3E1
100
AcDbEntity
  8
0
100
AcDbLine
 62
7
  6
CONTINUOUS
 10
288.691552795
 20
344.7077654821
 11
287.3453360869
 21
344.7312637822
  0
LINE
  5
3E2
100
AcDbEntity
  8
0
100
AcDbLine
 62
7
  6
CONTINUOUS
 10
304.091552795
 20
344.7040999185
 11
302.5353360869
 21
344.7312637822
  0
LINE
  5
3E3
100
AcDbEntity
  8
0
100
AcDbLine
 62
7
  6
CONTINUOUS
 10
115.091552795
 20
322.1963589693
 11
115.091552795
 21
362.1963589693
  0
LINE
  5
3E4
100
AcDbEntity
  8
0
100
AcDbLine
 62
7
  6
CONTINUOUS
 10
118.841552795
 20
362.1963589693
 11
118.841552795
 21
322.1963589693
  0
LINE
  5
3E5
100
AcDbEntity
  8
0
100
AcDbLine
 62
7
  6
CONTINUOUS
 10
119.591552795
 20
322.8963589693
 11
119.591552795
 21
325.3963589693
  0
LINE
  5
3E6
100
AcDbEntity
  8
0
100
AcDbLine
 62
7
  6
CONTINUOUS
 10
119.596552795
 20
339.6963589693
 11
119.596552795
 21
343.1963589693
  0
LINE
  5
3E7
100
AcDbEntity
  8
0
100
AcDbLine
 62
7
  6
CONTINUOUS
 10
120.396552795
 20
340.4963589693
 11
120.396552795
 21
343.1963589693
  0
LINE
  5
3E8
100
AcDbEntity
  8
0
100
AcDbLine
 62
7
  6
CONTINUOUS
 10
120.746552795
 20
359.6963589693
 11
120.746552795
 21
362.1963589693
  0
LINE
  5
3E9
100
AcDbEntity
  8
0
100
AcDbLine
 62
7
  6
CONTINUOUS
 10
121.7469488479
 20
328.9310577216
 11
121.7469488479
 21
343.1963589693
  0
LINE
  5
3EA
100
AcDbEntity
  8
0
100
AcDbLine
 62
7
  6
CONTINUOUS
 10
121.841552795
 20
362.1963589693
 11
121.841552795
 21
322.8963589693
  0
LINE
  5
3EB
100
AcDbEntity
  8
0
100
AcDbLine
 62
7
  6
CONTINUOUS
 10
122.841552795
 20
322.1963589693
 11
122.841552795
 21
362.1963589693
  0
LINE
  5
3EC
100
AcDbEntity
  8
0
100
AcDbLine
 62
7
  6
CONTINUOUS
 10
126.591552795
 20
362.1963589693
 11
126.591552795
 21
322.1963589693
  0
LINE
  5
3ED
100
AcDbEntity
  8
0
100
AcDbLine
 62
7
  6
CONTINUOUS
 10
128.041552795
 20
362.1963589693
 11
128.041552795
 21
322.8963589693
  0
LINE
  5
3EE
100
AcDbEntity
  8
0
100
AcDbLine
 62
7
  6
CONTINUOUS
 10
120.2853360869
 20
344.7312637822
 11
120.546552795
 21
359.6963589693
  0
LINE
  5
3EF
100
AcDbEntity
  8
0
100
AcDbLine
 62
7
  6
CONTINUOUS
 10
74.091552795
 20
355.6963589693
 11
74.5167325353
 21
355.6963589693
  0
LINE
  5
3F0
100
AcDbEntity
  8
0
100
AcDbLine
 62
7
  6
CONTINUOUS
 10
83.0563730547
 20
355.6963589693
 11
84.091552795
 21
355.6963589693
  0
LINE
  5
3F1
100
AcDbEntity
  8
0
100
AcDbLine
 62
7
  6
CONTINUOUS
 10
88.091552795
 20
355.6963589693
 11
90.0967325353
 21
355.6963589693
  0
LINE
  5
3F2
100
AcDbEntity
  8
0
100
AcDbLine
 62
7
  6
CONTINUOUS
 10
98.6363730547
 20
355.6963589693
 11
99.591552795
 21
355.6963589693
  0
LINE
  5
3F3
100
AcDbEntity
  8
0
100
AcDbLine
 62
7
  6
CONTINUOUS
 10
103.341552795
 20
355.6963589693
 11
105.2867325353
 21
355.6963589693
  0
LINE
  5
3F4
100
AcDbEntity
  8
0
100
AcDbLine
 62
7
  6
CONTINUOUS
 10
113.8263730547
 20
355.6963589693
 11
115.091552795
 21
355.6963589693
  0
LINE
  5
3F5
100
AcDbEntity
  8
0
100
AcDbLine
 62
7
  6
CONTINUOUS
 10
118.841552795
 20
355.6963589693
 11
120.4767325353
 21
355.6963589693
  0
LINE
  5
3F6
100
AcDbEntity
  8
0
100
AcDbLine
 62
7
  6
CONTINUOUS
 10
129.0163730547
 20
355.6963589693
 11
129.841552795
 21
355.6963589693
  0
LINE
  5
3F7
100
AcDbEntity
  8
0
100
AcDbLine
 62
7
  6
CONTINUOUS
 10
134.841552795
 20
355.6963589693
 11
135.2667325353
 21
355.6963589693
  0
LINE
  5
3F8
100
AcDbEntity
  8
0
100
AcDbLine
 62
7
  6
CONTINUOUS
 10
143.8063730547
 20
355.6963589693
 11
144.841552795
 21
355.6963589693
  0
LINE
  5
3F9
100
AcDbEntity
  8
0
100
AcDbLine
 62
7
  6
CONTINUOUS
 10
148.841552795
 20
355.6963589693
 11
150.8467325353
 21
355.6963589693
  0
LINE
  5
3FA
100
AcDbEntity
  8
0
100
AcDbLine
 62
7
  6
CONTINUOUS
 10
159.3863730547
 20
355.6963589693
 11
160.341552795
 21
355.6963589693
  0
LINE
  5
3FB
100
AcDbEntity
  8
0
100
AcDbLine
 62
7
  6
CONTINUOUS
 10
164.091552795
 20
355.6963589693
 11
166.0367325353
 21
355.6963589693
  0
LINE
  5
3FC
100
AcDbEntity
  8
0
100
AcDbLine
 62
7
  6
CONTINUOUS
 10
174.5763730547
 20
355.6963589693
 11
175.841552795
 21
355.6963589693
  0
LINE
  5
3FD
100
AcDbEntity
  8
0
100
AcDbLine
 62
7
  6
CONTINUOUS
 10
179.591552795
 20
355.6963589693
 11
181.2267325353
 21
355.6963589693
  0
LINE
  5
3FE
100
AcDbEntity
  8
0
100
AcDbLine
 62
7
  6
CONTINUOUS
 10
189.7663730547
 20
355.6963589693
 11
190.591552795
 21
355.6963589693
  0
LINE
  5
3FF
100
AcDbEntity
  8
0
100
AcDbLine
 62
7
  6
CONTINUOUS
 10
195.591552795
 20
355.6963589693
 11
196.0167325353
 21
355.6963589693
  0
LINE
  5
400
100
AcDbEntity
  8
0
100
AcDbLine
 62
7
  6
CONTINUOUS
 10
204.5563730547
 20
355.6963589693
 11
205.591552795
 21
355.6963589693
  0
LINE
  5
401
100
AcDbEntity
  8
0
100
AcDbLine
 62
7
  6
CONTINUOUS
 10
209.591552795
 20
355.6963589693
 11
211.5967325353
 21
355.6963589693
  0
LINE
  5
402
100
AcDbEntity
  8
0
100
AcDbLine
 62
7
  6
CONTINUOUS
 10
220.1363730547
 20
355.6963589693
 11
221.091552795
 21
355.6963589693
  0
LINE
  5
403
100
AcDbEntity
  8
0
100
AcDbLine
 62
7
  6
CONTINUOUS
 10
224.841552795
 20
355.6963589693
 11
226.7867325353
 21
355.6963589693
  0
LINE
  5
404
100
AcDbEntity
  8
0
100
AcDbLine
 62
7
  6
CONTINUOUS
 10
235.3263730547
 20
355.6963589693
 11
236.591552795
 21
355.6963589693
  0
LINE
  5
405
100
AcDbEntity
  8
0
100
AcDbLine
 62
7
  6
CONTINUOUS
 10
240.341552795
 20
355.6963589693
 11
241.9767325353
 21
355.6963589693
  0
LINE
  5
406
100
AcDbEntity
  8
0
100
AcDbLine
 62
7
  6
CONTINUOUS
 10
250.5163730547
 20
355.6963589693
 11
251.341552795
 21
355.6963589693
  0
LINE
  5
407
100
AcDbEntity
  8
0
100
AcDbLine
 62
7
  6
CONTINUOUS
 10
256.341552795
 20
355.6963589693
 11
256.7667325353
 21
355.6963589693
  0
LINE
  5
408
100
AcDbEntity
  8
0
100
AcDbLine
 62
7
  6
CONTINUOUS
 10
265.3063730547
 20
355.6963589693
 11
266.341552795
 21
355.6963589693
  0
LINE
  5
409
100
AcDbEntity
  8
0
100
AcDbLine
 62
7
  6
CONTINUOUS
 10
270.341552795
 20
355.6963589693
 11
272.3467325353
 21
355.6963589693
  0
LINE
  5
40A
100
AcDbEntity
  8
0
100
AcDbLine
 62
7
  6
CONTINUOUS
 10
280.8863730547
 20
355.6963589693
 11
281.841552795
 21
355.6963589693
  0
LINE
  5
40B
100
AcDbEntity
  8
0
100
AcDbLine
 62
7
  6
CONTINUOUS
 10
285.591552795
 20
355.6963589693
 11
287.5367325353
 21
355.6963589693
  0
LINE
  5
40C
100
AcDbEntity
  8
0
100
AcDbLine
 62
7
  6
CONTINUOUS
 10
296.0763730547
 20
355.6963589693
 11
297.341552795
 21
355.6963589693
  0
LINE
  5
40D
100
AcDbEntity
  8
0
100
AcDbLine
 62
7
  6
CONTINUOUS
 10
301.091552795
 20
355.6963589693
 11
302.7267325353
 21
355.6963589693
  0
LINE
  5
40E
100
AcDbEntity
  8
0
100
AcDbLine
 62
7
  6
CONTINUOUS
 10
311.2663730547
 20
355.6963589693
 11
312.091552795
 21
355.6963589693
  0
LINE
  5
40F
100
AcDbEntity
  8
0
100
AcDbLine
 62
7
  6
CONTINUOUS
 10
74.091552795
 20
359.6963589693
 11
75.891552795
 21
359.6963589693
  0
LINE
  5
410
100
AcDbEntity
  8
0
100
AcDbLine
 62
7
  6
CONTINUOUS
 10
82.091552795
 20
359.6963589693
 11
84.091552795
 21
359.6963589693
  0
LINE
  5
411
100
AcDbEntity
  8
0
100
AcDbLine
 62
7
  6
CONTINUOUS
 10
88.091552795
 20
359.6963589693
 11
91.291552795
 21
359.6963589693
  0
LINE
  5
412
100
AcDbEntity
  8
0
100
AcDbLine
 62
7
  6
CONTINUOUS
 10
97.491552795
 20
359.6963589693
 11
99.591552795
 21
359.6963589693
  0
LINE
  5
413
100
AcDbEntity
  8
0
100
AcDbLine
 62
7
  6
CONTINUOUS
 10
103.341552795
 20
359.6963589693
 11
106.441552795
 21
359.6963589693
  0
LINE
  5
414
100
AcDbEntity
  8
0
100
AcDbLine
 62
7
  6
CONTINUOUS
 10
112.641552795
 20
359.6963589693
 11
115.091552795
 21
359.6963589693
  0
LINE
  5
415
100
AcDbEntity
  8
0
100
AcDbLine
 62
7
  6
CONTINUOUS
 10
118.841552795
 20
359.6963589693
 11
121.841552795
 21
359.6963589693
  0
LINE
  5
416
100
AcDbEntity
  8
0
100
AcDbLine
 62
7
  6
CONTINUOUS
 10
128.041552795
 20
359.6963589693
 11
129.841552795
 21
359.6963589693
  0
LINE
  5
417
100
AcDbEntity
  8
0
100
AcDbLine
 62
7
  6
CONTINUOUS
 10
134.841552795
 20
359.6963589693
 11
136.641552795
 21
359.6963589693
  0
LINE
  5
418
100
AcDbEntity
  8
0
100
AcDbLine
 62
7
  6
CONTINUOUS
 10
142.841552795
 20
359.6963589693
 11
144.841552795
 21
359.6963589693
  0
LINE
  5
419
100
AcDbEntity
  8
0
100
AcDbLine
 62
7
  6
CONTINUOUS
 10
148.841552795
 20
359.6963589693
 11
152.041552795
 21
359.6963589693
  0
LINE
  5
41A
100
AcDbEntity
  8
0
100
AcDbLine
 62
7
  6
CONTINUOUS
 10
158.241552795
 20
359.6963589693
 11
160.341552795
 21
359.6963589693
  0
LINE
  5
41B
100
AcDbEntity
  8
0
100
AcDbLine
 62
7
  6
CONTINUOUS
 10
164.091552795
 20
359.6963589693
 11
167.191552795
 21
359.6963589693
  0
LINE
  5
41C
100
AcDbEntity
  8
0
100
AcDbLine
 62
7
  6
CONTINUOUS
 10
173.391552795
 20
359.6963589693
 11
175.841552795
 21
359.6963589693
  0
LINE
  5
41D
100
AcDbEntity
  8
0
100
AcDbLine
 62
7
  6
CONTINUOUS
 10
179.591552795
 20
359.6963589693
 11
182.591552795
 21
359.6963589693
  0
LINE
  5
41E
100
AcDbEntity
  8
0
100
AcDbLine
 62
7
  6
CONTINUOUS
 10
188.791552795
 20
359.6963589693
 11
190.591552795
 21
359.6963589693
  0
LINE
  5
41F
100
AcDbEntity
  8
0
100
AcDbLine
 62
7
  6
CONTINUOUS
 10
195.591552795
 20
359.6963589693
 11
197.391552795
 21
359.6963589693
  0
LINE
  5
420
100
AcDbEntity
  8
0
100
AcDbLine
 62
7
  6
CONTINUOUS
 10
203.591552795
 20
359.6963589693
 11
205.591552795
 21
359.6963589693
  0
LINE
  5
421
100
AcDbEntity
  8
0
100
AcDbLine
 62
7
  6
CONTINUOUS
 10
209.591552795
 20
359.6963589693
 11
212.791552795
 21
359.6963589693
  0
LINE
  5
422
100
AcDbEntity
  8
0
100
AcDbLine
 62
7
  6
CONTINUOUS
 10
218.991552795
 20
359.6963589693
 11
221.091552795
 21
359.6963589693
  0
LINE
  5
423
100
AcDbEntity
  8
0
100
AcDbLine
 62
7
  6
CONTINUOUS
 10
224.841552795
 20
359.6963589693
 11
227.941552795
 21
359.6963589693
  0
LINE
  5
424
100
AcDbEntity
  8
0
100
AcDbLine
 62
7
  6
CONTINUOUS
 10
234.141552795
 20
359.6963589693
 11
236.591552795
 21
359.6963589693
  0
LINE
  5
425
100
AcDbEntity
  8
0
100
AcDbLine
 62
7
  6
CONTINUOUS
 10
240.341552795
 20
359.6963589693
 11
243.341552795
 21
359.6963589693
  0
LINE
  5
426
100
AcDbEntity
  8
0
100
AcDbLine
 62
7
  6
CONTINUOUS
 10
249.541552795
 20
359.6963589693
 11
251.341552795
 21
359.6963589693
  0
LINE
  5
427
100
AcDbEntity
  8
0
100
AcDbLine
 62
7
  6
CONTINUOUS
 10
256.341552795
 20
359.6963589693
 11
258.141552795
 21
359.6963589693
  0
LINE
  5
428
100
AcDbEntity
  8
0
100
AcDbLine
 62
7
  6
CONTINUOUS
 10
264.341552795
 20
359.6963589693
 11
266.341552795
 21
359.6963589693
  0
LINE
  5
429
100
AcDbEntity
  8
0
100
AcDbLine
 62
7
  6
CONTINUOUS
 10
270.341552795
 20
359.6963589693
 11
273.541552795
 21
359.6963589693
  0
LINE
  5
42A
100
AcDbEntity
  8
0
100
AcDbLine
 62
7
  6
CONTINUOUS
 10
279.741552795
 20
359.6963589693
 11
281.841552795
 21
359.6963589693
  0
LINE
  5
42B
100
AcDbEntity
  8
0
100
AcDbLine
 62
7
  6
CONTINUOUS
 10
285.591552795
 20
359.6963589693
 11
288.691552795
 21
359.6963589693
  0
LINE
  5
42C
100
AcDbEntity
  8
0
100
AcDbLine
 62
7
  6
CONTINUOUS
 10
294.891552795
 20
359.6963589693
 11
297.341552795
 21
359.6963589693
  0
LINE
  5
42D
100
AcDbEntity
  8
0
100
AcDbLine
 62
7
  6
CONTINUOUS
 10
301.091552795
 20
359.6963589693
 11
304.091552795
 21
359.6963589693
  0
LINE
  5
42E
100
AcDbEntity
  8
0
100
AcDbLine
 62
7
  6
CONTINUOUS
 10
310.291552795
 20
359.6963589693
 11
312.091552795
 21
359.6963589693
  0
LINE
  5
42F
100
AcDbEntity
  8
0
100
AcDbLine
 62
7
  6
CONTINUOUS
 10
312.841552795
 20
362.1963589693
 11
308.841552795
 21
362.1963589693
  0
LINE
  5
430
100
AcDbEntity
  8
0
100
AcDbLine
 62
7
  6
CONTINUOUS
 10
305.091552795
 20
362.1963589693
 11
301.091552795
 21
362.1963589693
  0
LINE
  5
431
100
AcDbEntity
  8
0
100
AcDbLine
 62
7
  6
CONTINUOUS
 10
297.341552795
 20
362.1963589693
 11
293.341552795
 21
362.1963589693
  0
LINE
  5
432
100
AcDbEntity
  8
0
100
AcDbLine
 62
7
  6
CONTINUOUS
 10
289.591552795
 20
362.1963589693
 11
285.591552795
 21
362.1963589693
  0
LINE
  5
433
100
AcDbEntity
  8
0
100
AcDbLine
 62
7
  6
CONTINUOUS
 10
281.841552795
 20
362.1963589693
 11
277.841552795
 21
362.1963589693
  0
LINE
  5
434
100
AcDbEntity
  8
0
100
AcDbLine
 62
7
  6
CONTINUOUS
 10
274.091552795
 20
362.1963589693
 11
270.091552795
 21
362.1963589693
  0
LINE
  5
435
100
AcDbEntity
  8
0
100
AcDbLine
 62
7
  6
CONTINUOUS
 10
266.341552795
 20
362.1963589693
 11
262.341552795
 21
362.1963589693
  0
LINE
  5
436
100
AcDbEntity
  8
0
100
AcDbLine
 62
7
  6
CONTINUOUS
 10
258.591552795
 20
362.1963589693
 11
254.591552795
 21
362.1963589693
  0
LINE
  5
437
100
AcDbEntity
  8
0
100
AcDbLine
 62
7
  6
CONTINUOUS
 10
252.091552795
 20
362.1963589693
 11
248.091552795
 21
362.1963589693
  0
LINE
  5
438
100
AcDbEntity
  8
0
100
AcDbLine
 62
7
  6
CONTINUOUS
 10
244.341552795
 20
362.1963589693
 11
240.341552795
 21
362.1963589693
  0
LINE
  5
439
100
AcDbEntity
  8
0
100
AcDbLine
 62
7
  6
CONTINUOUS
 10
236.591552795
 20
362.1963589693
 11
232.591552795
 21
362.1963589693
  0
LINE
  5
43A
100
AcDbEntity
  8
0
100
AcDbLine
 62
7
  6
CONTINUOUS
 10
228.841552795
 20
362.1963589693
 11
224.841552795
 21
362.1963589693
  0
LINE
  5
43B
100
AcDbEntity
  8
0
100
AcDbLine
 62
7
  6
CONTINUOUS
 10
221.091552795
 20
362.1963589693
 11
217.091552795
 21
362.1963589693
  0
LINE
  5
43C
100
AcDbEntity
  8
0
100
AcDbLine
 62
7
  6
CONTINUOUS
 10
213.341552795
 20
362.1963589693
 11
209.341552795
 21
362.1963589693
  0
LINE
  5
43D
100
AcDbEntity
  8
0
100
AcDbLine
 62
7
  6
CONTINUOUS
 10
205.591552795
 20
362.1963589693
 11
201.591552795
 21
362.1963589693
  0
LINE
  5
43E
100
AcDbEntity
  8
0
100
AcDbLine
 62
7
  6
CONTINUOUS
 10
197.841552795
 20
362.1963589693
 11
193.841552795
 21
362.1963589693
  0
LINE
  5
43F
100
AcDbEntity
  8
0
100
AcDbLine
 62
7
  6
CONTINUOUS
 10
191.341552795
 20
362.1963589693
 11
187.341552795
 21
362.1963589693
  0
LINE
  5
440
100
AcDbEntity
  8
0
100
AcDbLine
 62
7
  6
CONTINUOUS
 10
183.591552795
 20
362.1963589693
 11
179.591552795
 21
362.1963589693
  0
LINE
  5
441
100
AcDbEntity
  8
0
100
AcDbLine
 62
7
  6
CONTINUOUS
 10
175.841552795
 20
362.1963589693
 11
171.841552795
 21
362.1963589693
  0
LINE
  5
442
100
AcDbEntity
  8
0
100
AcDbLine
 62
7
  6
CONTINUOUS
 10
168.091552795
 20
362.1963589693
 11
164.091552795
 21
362.1963589693
  0
LINE
  5
443
100
AcDbEntity
  8
0
100
AcDbLine
 62
7
  6
CONTINUOUS
 10
160.341552795
 20
362.1963589693
 11
156.341552795
 21
362.1963589693
  0
LINE
  5
444
100
AcDbEntity
  8
0
100
AcDbLine
 62
7
  6
CONTINUOUS
 10
152.591552795
 20
362.1963589693
 11
148.591552795
 21
362.1963589693
  0
LINE
  5
445
100
AcDbEntity
  8
0
100
AcDbLine
 62
7
  6
CONTINUOUS
 10
144.841552795
 20
362.1963589693
 11
140.841552795
 21
362.1963589693
  0
LINE
  5
446
100
AcDbEntity
  8
0
100
AcDbLine
 62
7
  6
CONTINUOUS
 10
137.091552795
 20
362.1963589693
 11
133.091552795
 21
362.1963589693
  0
LINE
  5
447
100
AcDbEntity
  8
0
100
AcDbLine
 62
7
  6
CONTINUOUS
 10
130.591552795
 20
362.1963589693
 11
126.591552795
 21
362.1963589693
  0
LINE
  5
448
100
AcDbEntity
  8
0
100
AcDbLine
 62
7
  6
CONTINUOUS
 10
122.841552795
 20
362.1963589693
 11
118.841552795
 21
362.1963589693
  0
LINE
  5
449
100
AcDbEntity
  8
0
100
AcDbLine
 62
7
  6
CONTINUOUS
 10
115.091552795
 20
362.1963589693
 11
111.091552795
 21
362.1963589693
  0
LINE
  5
44A
100
AcDbEntity
  8
0
100
AcDbLine
 62
7
  6
CONTINUOUS
 10
107.341552795
 20
362.1963589693
 11
103.341552795
 21
362.1963589693
  0
LINE
  5
44B
100
AcDbEntity
  8
0
100
AcDbLine
 62
7
  6
CONTINUOUS
 10
99.591552795
 20
362.1963589693
 11
95.591552795
 21
362.1963589693
  0
LINE
  5
44C
100
AcDbEntity
  8
0
100
AcDbLine
 62
7
  6
CONTINUOUS
 10
91.841552795
 20
362.1963589693
 11
87.841552795
 21
362.1963589693
  0
LINE
  5
44D
100
AcDbEntity
  8
0
100
AcDbLine
 62
7
  6
CONTINUOUS
 10
84.091552795
 20
362.1963589693
 11
80.091552795
 21
362.1963589693
  0
LINE
  5
44E
100
AcDbEntity
  8
0
100
AcDbLine
 62
7
  6
CONTINUOUS
 10
76.341552795
 20
362.1963589693
 11
72.341552795
 21
362.1963589693
  0
LINE
  5
44F
100
AcDbEntity
  8
0
100
AcDbLine
 62
7
  6
CONTINUOUS
 10
314.591552795
 20
365.6963589693
 11
46.191552795
 21
365.6963589693
  0
LINE
  5
450
100
AcDbEntity
  8
0
100
AcDbLine
 62
7
  6
CONTINUOUS
 10
48.091552795
 20
365.9963589693
 11
47.091552795
 21
365.9963589693
  0
LINE
  5
451
100
AcDbEntity
  8
0
100
AcDbLine
 62
7
  6
CONTINUOUS
 10
313.091552795
 20
366.4963589693
 11
317.091552795
 21
366.4963589693
  0
LINE
  5
452
100
AcDbEntity
  8
0
100
AcDbLine
 62
7
  6
CONTINUOUS
 10
46.191552795
 20
366.6963589693
 11
46.991552795
 21
366.6963589693
  0
LINE
  5
453
100
AcDbEntity
  8
0
100
AcDbLine
 62
7
  6
CONTINUOUS
 10
48.191552795
 20
366.6963589693
 11
313.091552795
 21
366.6963589693
  0
LINE
  5
454
100
AcDbEntity
  8
0
100
AcDbLine
 62
7
  6
CONTINUOUS
 10
46.091552795
 20
366.9963589693
 11
50.091552795
 21
366.9963589693
  0
LINE
  5
455
100
AcDbEntity
  8
0
100
AcDbLine
 62
7
  6
CONTINUOUS
 10
50.091552795
 20
367.0963589693
 11
313.091552795
 21
367.0963589693
  0
LINE
  5
456
100
AcDbEntity
  8
0
100
AcDbLine
 62
7
  6
CONTINUOUS
 10
128.946552795
 20
359.6963589693
 11
129.2077695032
 21
344.7312637822
  0
LINE
  5
457
100
AcDbEntity
  8
0
100
AcDbLine
 62
7
  6
CONTINUOUS
 10
128.746552795
 20
359.6963589693
 11
128.746552795
 21
362.1963589693
  0
LINE
  5
458
100
AcDbEntity
  8
0
100
AcDbLine
 62
7
  6
CONTINUOUS
 10
129.096552795
 20
343.1963589693
 11
129.096552795
 21
340.4963589693
  0
LINE
  5
459
100
AcDbEntity
  8
0
100
AcDbLine
 62
7
  6
CONTINUOUS
 10
129.841552795
 20
362.1963589693
 11
129.841552795
 21
322.8963589693
  0
LINE
  5
45A
100
AcDbEntity
  8
0
100
AcDbLine
 62
7
  6
CONTINUOUS
 10
130.591552795
 20
322.1963589693
 11
130.591552795
 21
362.1963589693
  0
LINE
  5
45B
100
AcDbEntity
  8
0
100
AcDbLine
 62
7
  6
CONTINUOUS
 10
132.341552795
 20
316.5963589693
 11
132.341552795
 21
367.0963589693
  0
LINE
  5
45C
100
AcDbEntity
  8
0
100
AcDbLine
 62
7
  6
CONTINUOUS
 10
133.091552795
 20
362.1963589693
 11
133.091552795
 21
322.1963589693
  0
LINE
  5
45D
100
AcDbEntity
  8
0
100
AcDbLine
 62
7
  6
CONTINUOUS
 10
134.841552795
 20
362.1963589693
 11
134.841552795
 21
322.8963589693
  0
LINE
  5
45E
100
AcDbEntity
  8
0
100
AcDbLine
 62
7
  6
CONTINUOUS
 10
135.186552795
 20
340.4963589693
 11
135.186552795
 21
343.1963589693
  0
LINE
  5
45F
100
AcDbEntity
  8
0
100
AcDbLine
 62
7
  6
CONTINUOUS
 10
135.536552795
 20
359.6963589693
 11
135.536552795
 21
362.1963589693
  0
LINE
  5
460
100
AcDbEntity
  8
0
100
AcDbLine
 62
7
  6
CONTINUOUS
 10
136.5369488479
 20
328.9310577216
 11
136.5369488479
 21
343.1963589693
  0
LINE
  5
461
100
AcDbEntity
  8
0
100
AcDbLine
 62
7
  6
CONTINUOUS
 10
136.641552795
 20
362.1963589693
 11
136.641552795
 21
322.8963589693
  0
LINE
  5
462
100
AcDbEntity
  8
0
100
AcDbLine
 62
7
  6
CONTINUOUS
 10
137.091552795
 20
322.1963589693
 11
137.091552795
 21
362.1963589693
  0
LINE
  5
463
100
AcDbEntity
  8
0
100
AcDbLine
 62
7
  6
CONTINUOUS
 10
140.841552795
 20
362.1963589693
 11
140.841552795
 21
322.1963589693
  0
LINE
  5
464
100
AcDbEntity
  8
0
100
AcDbLine
 62
7
  6
CONTINUOUS
 10
135.0753360869
 20
344.7312637822
 11
135.336552795
 21
359.6963589693
  0
LINE
  5
465
100
AcDbEntity
  8
0
100
AcDbLine
 62
7
  6
CONTINUOUS
 10
143.736552795
 20
359.6963589693
 11
143.9977695032
 21
344.7312637822
  0
LINE
  5
466
100
AcDbEntity
  8
0
100
AcDbLine
 62
7
  6
CONTINUOUS
 10
142.841552795
 20
362.1963589693
 11
142.841552795
 21
322.8963589693
  0
LINE
  5
467
100
AcDbEntity
  8
0
100
AcDbLine
 62
7
  6
CONTINUOUS
 10
143.536552795
 20
359.6963589693
 11
143.536552795
 21
362.1963589693
  0
LINE
  5
468
100
AcDbEntity
  8
0
100
AcDbLine
 62
7
  6
CONTINUOUS
 10
143.591552795
 20
322.8963589693
 11
143.591552795
 21
325.3963589693
  0
LINE
  5
469
100
AcDbEntity
  8
0
100
AcDbLine
 62
7
  6
CONTINUOUS
 10
143.886552795
 20
343.1963589693
 11
143.886552795
 21
340.4963589693
  0
LINE
  5
46A
100
AcDbEntity
  8
0
100
AcDbLine
 62
7
  6
CONTINUOUS
 10
144.686552795
 20
339.6963589693
 11
144.686552795
 21
343.1963589693
  0
LINE
  5
46B
100
AcDbEntity
  8
0
100
AcDbLine
 62
7
  6
CONTINUOUS
 10
144.841552795
 20
322.1963589693
 11
144.841552795
 21
362.1963589693
  0
LINE
  5
46C
100
AcDbEntity
  8
0
100
AcDbLine
 62
7
  6
CONTINUOUS
 10
148.591552795
 20
362.1963589693
 11
148.591552795
 21
322.1963589693
  0
LINE
  5
46D
100
AcDbEntity
  8
0
100
AcDbLine
 62
7
  6
CONTINUOUS
 10
148.841552795
 20
322.8963589693
 11
148.841552795
 21
362.1963589693
  0
LINE
  5
46E
100
AcDbEntity
  8
0
100
AcDbLine
 62
7
  6
CONTINUOUS
 10
149.966552795
 20
339.6963589693
 11
149.966552795
 21
343.1963589693
  0
LINE
  5
46F
100
AcDbEntity
  8
0
100
AcDbLine
 62
7
  6
CONTINUOUS
 10
150.766552795
 20
340.4963589693
 11
150.766552795
 21
343.1963589693
  0
LINE
  5
470
100
AcDbEntity
  8
0
100
AcDbLine
 62
7
  6
CONTINUOUS
 10
151.116552795
 20
359.6963589693
 11
151.116552795
 21
362.1963589693
  0
LINE
  5
471
100
AcDbEntity
  8
0
100
AcDbLine
 62
7
  6
CONTINUOUS
 10
152.041552795
 20
362.1960654902
 11
152.041552795
 21
322.8963589693
  0
LINE
  5
472
100
AcDbEntity
  8
0
100
AcDbLine
 62
7
  6
CONTINUOUS
 10
152.591552795
 20
322.1963589693
 11
152.591552795
 21
362.1963589693
  0
LINE
  5
473
100
AcDbEntity
  8
0
100
AcDbLine
 62
7
  6
CONTINUOUS
 10
156.341552795
 20
362.1963589693
 11
156.341552795
 21
322.1963589693
  0
LINE
  5
474
100
AcDbEntity
  8
0
100
AcDbLine
 62
7
  6
CONTINUOUS
 10
150.6553360869
 20
344.7312637822
 11
150.916552795
 21
359.6963589693
  0
LINE
  5
475
100
AcDbEntity
  8
0
100
AcDbLine
 62
7
  6
CONTINUOUS
 10
317.091552795
 20
389.9963589693
 11
313.091552795
 21
389.9963589693
  0
LINE
  5
476
100
AcDbEntity
  8
0
100
AcDbLine
 62
7
  6
CONTINUOUS
 10
50.091552795
 20
389.9963589693
 11
46.091552795
 21
389.9963589693
  0
LINE
  5
477
100
AcDbEntity
  8
0
100
AcDbLine
 62
7
  6
CONTINUOUS
 10
48.591552795
 20
390.0963589693
 11
314.591552795
 21
390.0963589693
  0
LINE
  5
478
100
AcDbEntity
  8
0
100
AcDbLine
 62
7
  6
CONTINUOUS
 10
159.316552795
 20
359.6963589693
 11
159.5777695032
 21
344.7312637822
  0
LINE
  5
479
100
AcDbEntity
  8
0
100
AcDbLine
 62
7
  6
CONTINUOUS
 10
158.241552795
 20
362.1963589693
 11
158.241552795
 21
322.8963589693
  0
LINE
  5
47A
100
AcDbEntity
  8
0
100
AcDbLine
 62
7
  6
CONTINUOUS
 10
158.591552795
 20
325.3963589693
 11
158.591552795
 21
322.8963589693
  0
LINE
  5
47B
100
AcDbEntity
  8
0
100
AcDbLine
 62
7
  6
CONTINUOUS
 10
159.116552795
 20
359.6963589693
 11
159.116552795
 21
362.1963589693
  0
LINE
  5
47C
100
AcDbEntity
  8
0
100
AcDbLine
 62
7
  6
CONTINUOUS
 10
159.466552795
 20
343.1963589693
 11
159.466552795
 21
340.4963589693
  0
LINE
  5
47D
100
AcDbEntity
  8
0
100
AcDbLine
 62
7
  6
CONTINUOUS
 10
160.266552795
 20
339.6963589693
 11
160.266552795
 21
343.1963589693
  0
LINE
  5
47E
100
AcDbEntity
  8
0
100
AcDbLine
 62
7
  6
CONTINUOUS
 10
160.341552795
 20
322.1963589693
 11
160.341552795
 21
362.1963589693
  0
LINE
  5
47F
100
AcDbEntity
  8
0
100
AcDbLine
 62
7
  6
CONTINUOUS
 10
164.091552795
 20
362.1963589693
 11
164.091552795
 21
322.1963589693
  0
LINE
  5
480
100
AcDbEntity
  8
0
100
AcDbLine
 62
7
  6
CONTINUOUS
 10
165.156552795
 20
339.6963589693
 11
165.156552795
 21
343.1963589693
  0
LINE
  5
481
100
AcDbEntity
  8
0
100
AcDbLine
 62
7
  6
CONTINUOUS
 10
165.956552795
 20
340.4963589693
 11
165.956552795
 21
343.1963589693
  0
LINE
  5
482
100
AcDbEntity
  8
0
100
AcDbLine
 62
7
  6
CONTINUOUS
 10
166.306552795
 20
359.6963589693
 11
166.306552795
 21
362.1963589693
  0
LINE
  5
483
100
AcDbEntity
  8
0
100
AcDbLine
 62
7
  6
CONTINUOUS
 10
167.191552795
 20
362.1963589693
 11
167.191552795
 21
322.8963589693
  0
LINE
  5
484
100
AcDbEntity
  8
0
100
AcDbLine
 62
7
  6
CONTINUOUS
 10
168.091552795
 20
322.1963589693
 11
168.091552795
 21
362.1963589693
  0
LINE
  5
485
100
AcDbEntity
  8
0
100
AcDbLine
 62
7
  6
CONTINUOUS
 10
165.8453360869
 20
344.7312637822
 11
166.106552795
 21
359.6963589693
  0
LINE
  5
486
100
AcDbEntity
  8
0
100
AcDbLine
 62
7
  6
CONTINUOUS
 10
174.506552795
 20
359.6963589693
 11
174.7677695032
 21
344.7312637822
  0
LINE
  5
487
100
AcDbEntity
  8
0
100
AcDbLine
 62
7
  6
CONTINUOUS
 10
171.841552795
 20
362.1963589693
 11
171.841552795
 21
322.1963589693
  0
LINE
  5
488
100
AcDbEntity
  8
0
100
AcDbLine
 62
7
  6
CONTINUOUS
 10
173.391552795
 20
362.1963589693
 11
173.391552795
 21
322.8963589693
  0
LINE
  5
489
100
AcDbEntity
  8
0
100
AcDbLine
 62
7
  6
CONTINUOUS
 10
174.306552795
 20
359.6963589693
 11
174.306552795
 21
362.1963589693
  0
LINE
  5
48A
100
AcDbEntity
  8
0
100
AcDbLine
 62
7
  6
CONTINUOUS
 10
174.656552795
 20
343.1963589693
 11
174.656552795
 21
340.4963589693
  0
LINE
  5
48B
100
AcDbEntity
  8
0
100
AcDbLine
 62
7
  6
CONTINUOUS
 10
175.456552795
 20
339.6963589693
 11
175.456552795
 21
343.1963589693
  0
LINE
  5
48C
100
AcDbEntity
  8
0
100
AcDbLine
 62
7
  6
CONTINUOUS
 10
175.841552795
 20
322.1963589693
 11
175.841552795
 21
362.1963589693
  0
LINE
  5
48D
100
AcDbEntity
  8
0
100
AcDbLine
 62
7
  6
CONTINUOUS
 10
179.591552795
 20
362.1963589693
 11
179.591552795
 21
322.1963589693
  0
LINE
  5
48E
100
AcDbEntity
  8
0
100
AcDbLine
 62
7
  6
CONTINUOUS
 10
180.346552795
 20
339.6963589693
 11
180.346552795
 21
343.1963589693
  0
LINE
  5
48F
100
AcDbEntity
  8
0
100
AcDbLine
 62
7
  6
CONTINUOUS
 10
181.146552795
 20
340.4963589693
 11
181.146552795
 21
343.1963589693
  0
LINE
  5
490
100
AcDbEntity
  8
0
100
AcDbLine
 62
7
  6
CONTINUOUS
 10
181.496552795
 20
359.6963589693
 11
181.496552795
 21
362.1963589693
  0
LINE
  5
491
100
AcDbEntity
  8
0
100
AcDbLine
 62
7
  6
CONTINUOUS
 10
182.4969488479
 20
328.9310577216
 11
182.4969488479
 21
343.1963589693
  0
LINE
  5
492
100
AcDbEntity
  8
0
100
AcDbLine
 62
7
  6
CONTINUOUS
 10
182.591552795
 20
362.1963589693
 11
182.591552795
 21
322.8963589693
  0
LINE
  5
493
100
AcDbEntity
  8
0
100
AcDbLine
 62
7
  6
CONTINUOUS
 10
183.591552795
 20
322.1963589693
 11
183.591552795
 21
362.1963589693
  0
LINE
  5
494
100
AcDbEntity
  8
0
100
AcDbLine
 62
7
  6
CONTINUOUS
 10
181.0353360869
 20
344.7312637822
 11
181.296552795
 21
359.6963589693
  0
LINE
  5
495
100
AcDbEntity
  8
0
100
AcDbLine
 62
7
  6
CONTINUOUS
 10
189.696552795
 20
359.6963589693
 11
189.9577695032
 21
344.7312637822
  0
LINE
  5
496
100
AcDbEntity
  8
0
100
AcDbLine
 62
7
  6
CONTINUOUS
 10
187.341552795
 20
362.1963589693
 11
187.341552795
 21
322.1963589693
  0
LINE
  5
497
100
AcDbEntity
  8
0
100
AcDbLine
 62
7
  6
CONTINUOUS
 10
188.791552795
 20
362.1963589693
 11
188.791552795
 21
322.8963589693
  0
LINE
  5
498
100
AcDbEntity
  8
0
100
AcDbLine
 62
7
  6
CONTINUOUS
 10
189.496552795
 20
359.6963589693
 11
189.496552795
 21
362.1963589693
  0
LINE
  5
499
100
AcDbEntity
  8
0
100
AcDbLine
 62
7
  6
CONTINUOUS
 10
189.846552795
 20
343.1963589693
 11
189.846552795
 21
340.4963589693
  0
LINE
  5
49A
100
AcDbEntity
  8
0
100
AcDbLine
 62
7
  6
CONTINUOUS
 10
190.591552795
 20
362.1963589693
 11
190.591552795
 21
322.8963589693
  0
LINE
  5
49B
100
AcDbEntity
  8
0
100
AcDbLine
 62
7
  6
CONTINUOUS
 10
191.341552795
 20
322.1963589693
 11
191.341552795
 21
362.1963589693
  0
LINE
  5
49C
100
AcDbEntity
  8
0
100
AcDbLine
 62
7
  6
CONTINUOUS
 10
193.091552795
 20
316.5963589693
 11
193.091552795
 21
367.0963589693
  0
LINE
  5
49D
100
AcDbEntity
  8
0
100
AcDbLine
 62
7
  6
CONTINUOUS
 10
193.841552795
 20
362.1963589693
 11
193.841552795
 21
322.1963589693
  0
LINE
  5
49E
100
AcDbEntity
  8
0
100
AcDbLine
 62
7
  6
CONTINUOUS
 10
195.591552795
 20
362.1963589693
 11
195.591552795
 21
322.8963589693
  0
LINE
  5
49F
100
AcDbEntity
  8
0
100
AcDbLine
 62
7
  6
CONTINUOUS
 10
195.936552795
 20
340.4963589693
 11
195.936552795
 21
343.1963589693
  0
LINE
  5
4A0
100
AcDbEntity
  8
0
100
AcDbLine
 62
7
  6
CONTINUOUS
 10
196.286552795
 20
359.6963589693
 11
196.286552795
 21
362.1963589693
  0
LINE
  5
4A1
100
AcDbEntity
  8
0
100
AcDbLine
 62
7
  6
CONTINUOUS
 10
197.2869488479
 20
328.9310577216
 11
197.2869488479
 21
343.1963589693
  0
LINE
  5
4A2
100
AcDbEntity
  8
0
100
AcDbLine
 62
7
  6
CONTINUOUS
 10
197.391552795
 20
362.1963589693
 11
197.391552795
 21
322.8963589693
  0
LINE
  5
4A3
100
AcDbEntity
  8
0
100
AcDbLine
 62
7
  6
CONTINUOUS
 10
197.841552795
 20
322.1963589693
 11
197.841552795
 21
362.1963589693
  0
LINE
  5
4A4
100
AcDbEntity
  8
0
100
AcDbLine
 62
7
  6
CONTINUOUS
 10
195.8253360869
 20
344.7312637822
 11
196.086552795
 21
359.6963589693
  0
LINE
  5
4A5
100
AcDbEntity
  8
0
100
AcDbLine
 62
7
  6
CONTINUOUS
 10
204.486552795
 20
359.6963589693
 11
204.7477695032
 21
344.7312637822
  0
LINE
  5
4A6
100
AcDbEntity
  8
0
100
AcDbLine
 62
7
  6
CONTINUOUS
 10
201.591552795
 20
362.1963589693
 11
201.591552795
 21
322.1963589693
  0
LINE
  5
4A7
100
AcDbEntity
  8
0
100
AcDbLine
 62
7
  6
CONTINUOUS
 10
203.591552795
 20
362.1963589693
 11
203.591552795
 21
322.8963589693
  0
LINE
  5
4A8
100
AcDbEntity
  8
0
100
AcDbLine
 62
7
  6
CONTINUOUS
 10
204.286552795
 20
359.6963589693
 11
204.286552795
 21
362.1963589693
  0
LINE
  5
4A9
100
AcDbEntity
  8
0
100
AcDbLine
 62
7
  6
CONTINUOUS
 10
204.636552795
 20
343.1963589693
 11
204.636552795
 21
340.4963589693
  0
LINE
  5
4AA
100
AcDbEntity
  8
0
100
AcDbLine
 62
7
  6
CONTINUOUS
 10
205.436552795
 20
339.6963589693
 11
205.436552795
 21
343.1963589693
  0
LINE
  5
4AB
100
AcDbEntity
  8
0
100
AcDbLine
 62
7
  6
CONTINUOUS
 10
205.591552795
 20
322.1963589693
 11
205.591552795
 21
362.1963589693
  0
LINE
  5
4AC
100
AcDbEntity
  8
0
100
AcDbLine
 62
7
  6
CONTINUOUS
 10
209.341552795
 20
362.1963589693
 11
209.341552795
 21
322.1963589693
  0
LINE
  5
4AD
100
AcDbEntity
  8
0
100
AcDbLine
 62
7
  6
CONTINUOUS
 10
209.591552795
 20
322.8963589693
 11
209.591552795
 21
362.1963589693
  0
LINE
  5
4AE
100
AcDbEntity
  8
0
100
AcDbLine
 62
7
  6
CONTINUOUS
 10
210.716552795
 20
339.6963589693
 11
210.716552795
 21
343.1963589693
  0
LINE
  5
4AF
100
AcDbEntity
  8
0
100
AcDbLine
 62
7
  6
CONTINUOUS
 10
211.516552795
 20
340.4963589693
 11
211.516552795
 21
343.1963589693
  0
LINE
  5
4B0
100
AcDbEntity
  8
0
100
AcDbLine
 62
7
  6
CONTINUOUS
 10
211.4053360869
 20
344.7312637822
 11
211.666552795
 21
359.6963589693
  0
LINE
  5
4B1
100
AcDbEntity
  8
0
100
AcDbLine
 62
7
  6
CONTINUOUS
 10
220.066552795
 20
359.6963589693
 11
220.3277695032
 21
344.7312637822
  0
LINE
  5
4B2
100
AcDbEntity
  8
0
100
AcDbLine
 62
7
  6
CONTINUOUS
 10
211.866552795
 20
359.6963589693
 11
211.866552795
 21
362.1963589693
  0
LINE
  5
4B3
100
AcDbEntity
  8
0
100
AcDbLine
 62
7
  6
CONTINUOUS
 10
212.791552795
 20
362.1960654902
 11
212.791552795
 21
322.8963589693
  0
LINE
  5
4B4
100
AcDbEntity
  8
0
100
AcDbLine
 62
7
  6
CONTINUOUS
 10
213.341552795
 20
322.1963589693
 11
213.341552795
 21
362.1963589693
  0
LINE
  5
4B5
100
AcDbEntity
  8
0
100
AcDbLine
 62
7
  6
CONTINUOUS
 10
217.091552795
 20
362.1963589693
 11
217.091552795
 21
322.1963589693
  0
LINE
  5
4B6
100
AcDbEntity
  8
0
100
AcDbLine
 62
7
  6
CONTINUOUS
 10
218.991552795
 20
362.1963589693
 11
218.991552795
 21
322.8963589693
  0
LINE
  5
4B7
100
AcDbEntity
  8
0
100
AcDbLine
 62
7
  6
CONTINUOUS
 10
219.866552795
 20
359.6963589693
 11
219.866552795
 21
362.1963589693
  0
LINE
  5
4B8
100
AcDbEntity
  8
0
100
AcDbLine
 62
7
  6
CONTINUOUS
 10
220.216552795
 20
343.1963589693
 11
220.216552795
 21
340.4963589693
  0
LINE
  5
4B9
100
AcDbEntity
  8
0
100
AcDbLine
 62
7
  6
CONTINUOUS
 10
221.016552795
 20
339.6963589693
 11
221.016552795
 21
343.1963589693
  0
LINE
  5
4BA
100
AcDbEntity
  8
0
100
AcDbLine
 62
7
  6
CONTINUOUS
 10
221.091552795
 20
322.1963589693
 11
221.091552795
 21
362.1963589693
  0
LINE
  5
4BB
100
AcDbEntity
  8
0
100
AcDbLine
 62
7
  6
CONTINUOUS
 10
224.841552795
 20
362.1963589693
 11
224.841552795
 21
322.1963589693
  0
LINE
  5
4BC
100
AcDbEntity
  8
0
100
AcDbLine
 62
7
  6
CONTINUOUS
 10
235.256552795
 20
359.6963589693
 11
235.5177695032
 21
344.7312637822
  0
LINE
  5
4BD
100
AcDbEntity
  8
0
100
AcDbLine
 62
7
  6
CONTINUOUS
 10
225.906552795
 20
339.6963589693
 11
225.906552795
 21
343.1963589693
  0
LINE
  5
4BE
100
AcDbEntity
  8
0
100
AcDbLine
 62
7
  6
CONTINUOUS
 10
226.706552795
 20
340.4963589693
 11
226.706552795
 21
343.1963589693
  0
LINE
  5
4BF
100
AcDbEntity
  8
0
100
AcDbLine
 62
7
  6
CONTINUOUS
 10
227.056552795
 20
359.6963589693
 11
227.056552795
 21
362.1963589693
  0
LINE
  5
4C0
100
AcDbEntity
  8
0
100
AcDbLine
 62
7
  6
CONTINUOUS
 10
227.591552795
 20
322.8963589693
 11
227.591552795
 21
325.3963589693
  0
LINE
  5
4C1
100
AcDbEntity
  8
0
100
AcDbLine
 62
7
  6
CONTINUOUS
 10
227.941552795
 20
362.1963589693
 11
227.941552795
 21
322.8963589693
  0
LINE
  5
4C2
100
AcDbEntity
  8
0
100
AcDbLine
 62
7
  6
CONTINUOUS
 10
228.841552795
 20
322.1963589693
 11
228.841552795
 21
362.1963589693
  0
LINE
  5
4C3
100
AcDbEntity
  8
0
100
AcDbLine
 62
7
  6
CONTINUOUS
 10
232.591552795
 20
362.1963589693
 11
232.591552795
 21
322.1963589693
  0
LINE
  5
4C4
100
AcDbEntity
  8
0
100
AcDbLine
 62
7
  6
CONTINUOUS
 10
234.141552795
 20
362.1963589693
 11
234.141552795
 21
322.8963589693
  0
LINE
  5
4C5
100
AcDbEntity
  8
0
100
AcDbLine
 62
7
  6
CONTINUOUS
 10
235.056552795
 20
359.6963589693
 11
235.056552795
 21
362.1963589693
  0
LINE
  5
4C6
100
AcDbEntity
  8
0
100
AcDbLine
 62
7
  6
CONTINUOUS
 10
235.406552795
 20
343.1963589693
 11
235.406552795
 21
340.4963589693
  0
LINE
  5
4C7
100
AcDbEntity
  8
0
100
AcDbLine
 62
7
  6
CONTINUOUS
 10
236.206552795
 20
339.6963589693
 11
236.206552795
 21
343.1963589693
  0
LINE
  5
4C8
100
AcDbEntity
  8
0
100
AcDbLine
 62
7
  6
CONTINUOUS
 10
236.591552795
 20
322.1963589693
 11
236.591552795
 21
362.1963589693
  0
LINE
  5
4C9
100
AcDbEntity
  8
0
100
AcDbLine
 62
7
  6
CONTINUOUS
 10
226.5953360869
 20
344.7312637822
 11
226.856552795
 21
359.6963589693
  0
LINE
  5
4CA
100
AcDbEntity
  8
0
100
AcDbLine
 62
7
  6
CONTINUOUS
 10
315.091552795
 20
333.596358422
 11
314.591552795
 21
334.0630250887
  0
LINE
  5
4CB
100
AcDbEntity
  8
0
100
AcDbLine
 62
7
  6
CONTINUOUS
 10
250.446552795
 20
359.6963589693
 11
250.7077695032
 21
344.7312637822
  0
LINE
  5
4CC
100
AcDbEntity
  8
0
100
AcDbLine
 62
7
  6
CONTINUOUS
 10
240.341552795
 20
362.1963589693
 11
240.341552795
 21
322.1963589693
  0
LINE
  5
4CD
100
AcDbEntity
  8
0
100
AcDbLine
 62
7
  6
CONTINUOUS
 10
241.096552795
 20
339.6963589693
 11
241.096552795
 21
343.1963589693
  0
LINE
  5
4CE
100
AcDbEntity
  8
0
100
AcDbLine
 62
7
  6
CONTINUOUS
 10
241.896552795
 20
340.4963589693
 11
241.896552795
 21
343.1963589693
  0
LINE
  5
4CF
100
AcDbEntity
  8
0
100
AcDbLine
 62
7
  6
CONTINUOUS
 10
242.246552795
 20
359.6963589693
 11
242.246552795
 21
362.1963589693
  0
LINE
  5
4D0
100
AcDbEntity
  8
0
100
AcDbLine
 62
7
  6
CONTINUOUS
 10
242.591552795
 20
325.3963589693
 11
242.591552795
 21
322.8963589693
  0
LINE
  5
4D1
100
AcDbEntity
  8
0
100
AcDbLine
 62
7
  6
CONTINUOUS
 10
243.2469488479
 20
328.9310577216
 11
243.2469488479
 21
343.1963589693
  0
LINE
  5
4D2
100
AcDbEntity
  8
0
100
AcDbLine
 62
7
  6
CONTINUOUS
 10
243.341552795
 20
362.1963589693
 11
243.341552795
 21
322.8963589693
  0
LINE
  5
4D3
100
AcDbEntity
  8
0
100
AcDbLine
 62
7
  6
CONTINUOUS
 10
244.341552795
 20
322.1963589693
 11
244.341552795
 21
362.1963589693
  0
LINE
  5
4D4
100
AcDbEntity
  8
0
100
AcDbLine
 62
7
  6
CONTINUOUS
 10
248.091552795
 20
362.1963589693
 11
248.091552795
 21
322.1963589693
  0
LINE
  5
4D5
100
AcDbEntity
  8
0
100
AcDbLine
 62
7
  6
CONTINUOUS
 10
249.541552795
 20
362.1963589693
 11
249.541552795
 21
322.8963589693
  0
LINE
  5
4D6
100
AcDbEntity
  8
0
100
AcDbLine
 62
7
  6
CONTINUOUS
 10
250.246552795
 20
359.6963589693
 11
250.246552795
 21
362.1963589693
  0
LINE
  5
4D7
100
AcDbEntity
  8
0
100
AcDbLine
 62
7
  6
CONTINUOUS
 10
250.596552795
 20
343.1963589693
 11
250.596552795
 21
340.4963589693
  0
LINE
  5
4D8
100
AcDbEntity
  8
0
100
AcDbLine
 62
7
  6
CONTINUOUS
 10
251.341552795
 20
362.1963589693
 11
251.341552795
 21
322.8963589693
  0
LINE
  5
4D9
100
AcDbEntity
  8
0
100
AcDbLine
 62
7
  6
CONTINUOUS
 10
252.091552795
 20
322.1963589693
 11
252.091552795
 21
362.1963589693
  0
LINE
  5
4DA
100
AcDbEntity
  8
0
100
AcDbLine
 62
7
  6
CONTINUOUS
 10
241.7853360869
 20
344.7312637822
 11
242.046552795
 21
359.6963589693
  0
LINE
  5
4DB
100
AcDbEntity
  8
0
100
AcDbLine
 62
7
  6
CONTINUOUS
 10
265.236552795
 20
359.6963589693
 11
265.4977695032
 21
344.7312637822
  0
LINE
  5
4DC
100
AcDbEntity
  8
0
100
AcDbLine
 62
7
  6
CONTINUOUS
 10
253.841552795
 20
316.5963589693
 11
253.841552795
 21
367.0963589693
  0
LINE
  5
4DD
100
AcDbEntity
  8
0
100
AcDbLine
 62
7
  6
CONTINUOUS
 10
254.591552795
 20
362.1963589693
 11
254.591552795
 21
322.1963589693
  0
LINE
  5
4DE
100
AcDbEntity
  8
0
100
AcDbLine
 62
7
  6
CONTINUOUS
 10
256.341552795
 20
362.1963589693
 11
256.341552795
 21
322.8963589693
  0
LINE
  5
4DF
100
AcDbEntity
  8
0
100
AcDbLine
 62
7
  6
CONTINUOUS
 10
256.686552795
 20
340.4963589693
 11
256.686552795
 21
343.1963589693
  0
LINE
  5
4E0
100
AcDbEntity
  8
0
100
AcDbLine
 62
7
  6
CONTINUOUS
 10
257.036552795
 20
359.6963589693
 11
257.036552795
 21
362.1963589693
  0
LINE
  5
4E1
100
AcDbEntity
  8
0
100
AcDbLine
 62
7
  6
CONTINUOUS
 10
258.0369488479
 20
328.9310577216
 11
258.0369488479
 21
343.1963589693
  0
LINE
  5
4E2
100
AcDbEntity
  8
0
100
AcDbLine
 62
7
  6
CONTINUOUS
 10
258.141552795
 20
362.1963589693
 11
258.141552795
 21
322.8963589693
  0
LINE
  5
4E3
100
AcDbEntity
  8
0
100
AcDbLine
 62
7
  6
CONTINUOUS
 10
258.591552795
 20
322.1963589693
 11
258.591552795
 21
362.1963589693
  0
LINE
  5
4E4
100
AcDbEntity
  8
0
100
AcDbLine
 62
7
  6
CONTINUOUS
 10
262.341552795
 20
362.1963589693
 11
262.341552795
 21
322.1963589693
  0
LINE
  5
4E5
100
AcDbEntity
  8
0
100
AcDbLine
 62
7
  6
CONTINUOUS
 10
264.341552795
 20
362.1963589693
 11
264.341552795
 21
322.8963589693
  0
LINE
  5
4E6
100
AcDbEntity
  8
0
100
AcDbLine
 62
7
  6
CONTINUOUS
 10
265.036552795
 20
359.6963589693
 11
265.036552795
 21
362.1963589693
  0
LINE
  5
4E7
100
AcDbEntity
  8
0
100
AcDbLine
 62
7
  6
CONTINUOUS
 10
265.386552795
 20
343.1963589693
 11
265.386552795
 21
340.4963589693
  0
LINE
  5
4E8
100
AcDbEntity
  8
0
100
AcDbLine
 62
7
  6
CONTINUOUS
 10
266.186552795
 20
339.6963589693
 11
266.186552795
 21
343.1963589693
  0
LINE
  5
4E9
100
AcDbEntity
  8
0
100
AcDbLine
 62
7
  6
CONTINUOUS
 10
266.341552795
 20
322.1963589693
 11
266.341552795
 21
362.1963589693
  0
LINE
  5
4EA
100
AcDbEntity
  8
0
100
AcDbLine
 62
7
  6
CONTINUOUS
 10
256.5753360869
 20
344.7312637822
 11
256.836552795
 21
359.6963589693
  0
LINE
  5
4EB
100
AcDbEntity
  8
0
100
AcDbLine
 62
7
  6
CONTINUOUS
 10
314.591552795
 20
335.9296917553
 11
315.091552795
 21
336.396358422
  0
LINE
  5
4EC
100
AcDbEntity
  8
0
100
AcDbLine
 62
7
  6
CONTINUOUS
 10
270.091552795
 20
362.1963589693
 11
270.091552795
 21
322.1963589693
  0
LINE
  5
4ED
100
AcDbEntity
  8
0
100
AcDbLine
 62
7
  6
CONTINUOUS
 10
270.341552795
 20
322.8963589693
 11
270.341552795
 21
362.1963589693
  0
LINE
  5
4EE
100
AcDbEntity
  8
0
100
AcDbLine
 62
7
  6
CONTINUOUS
 10
271.466552795
 20
339.6963589693
 11
271.466552795
 21
343.1963589693
  0
LINE
  5
4EF
100
AcDbEntity
  8
0
100
AcDbLine
 62
7
  6
CONTINUOUS
 10
272.266552795
 20
340.4963589693
 11
272.266552795
 21
343.1963589693
  0
LINE
  5
4F0
100
AcDbEntity
  8
0
100
AcDbLine
 62
7
  6
CONTINUOUS
 10
272.616552795
 20
359.6963589693
 11
272.616552795
 21
362.1963589693
  0
LINE
  5
4F1
100
AcDbEntity
  8
0
100
AcDbLine
 62
7
  6
CONTINUOUS
 10
273.541552795
 20
362.1960654902
 11
273.541552795
 21
322.8963589693
  0
LINE
  5
4F2
100
AcDbEntity
  8
0
100
AcDbLine
 62
7
  6
CONTINUOUS
 10
274.091552795
 20
322.1963589693
 11
274.091552795
 21
362.1963589693
  0
LINE
  5
4F3
100
AcDbEntity
  8
0
100
AcDbLine
 62
7
  6
CONTINUOUS
 10
277.841552795
 20
362.1963589693
 11
277.841552795
 21
322.1963589693
  0
LINE
  5
4F4
100
AcDbEntity
  8
0
100
AcDbLine
 62
7
  6
CONTINUOUS
 10
279.741552795
 20
362.1963589693
 11
279.741552795
 21
322.8963589693
  0
LINE
  5
4F5
100
AcDbEntity
  8
0
100
AcDbLine
 62
7
  6
CONTINUOUS
 10
280.616552795
 20
359.6963589693
 11
280.616552795
 21
362.1963589693
  0
LINE
  5
4F6
100
AcDbEntity
  8
0
100
AcDbLine
 62
7
  6
CONTINUOUS
 10
272.1553360869
 20
344.7312637822
 11
272.416552795
 21
359.6963589693
  0
LINE
  5
4F7
100
AcDbEntity
  8
0
100
AcDbLine
 62
7
  6
CONTINUOUS
 10
280.816552795
 20
359.6963589693
 11
281.0777695032
 21
344.7312637822
  0
LINE
  5
4F8
100
AcDbEntity
  8
0
100
AcDbLine
 62
7
  6
CONTINUOUS
 10
280.966552795
 20
343.1963589693
 11
280.966552795
 21
340.4963589693
  0
LINE
  5
4F9
100
AcDbEntity
  8
0
100
AcDbLine
 62
7
  6
CONTINUOUS
 10
281.766552795
 20
339.6963589693
 11
281.766552795
 21
343.1963589693
  0
LINE
  5
4FA
100
AcDbEntity
  8
0
100
AcDbLine
 62
7
  6
CONTINUOUS
 10
281.841552795
 20
322.1963589693
 11
281.841552795
 21
362.1963589693
  0
LINE
  5
4FB
100
AcDbEntity
  8
0
100
AcDbLine
 62
7
  6
CONTINUOUS
 10
285.591552795
 20
362.1963589693
 11
285.591552795
 21
322.1963589693
  0
LINE
  5
4FC
100
AcDbEntity
  8
0
100
AcDbLine
 62
7
  6
CONTINUOUS
 10
286.656552795
 20
339.6963589693
 11
286.656552795
 21
343.1963589693
  0
LINE
  5
4FD
100
AcDbEntity
  8
0
100
AcDbLine
 62
7
  6
CONTINUOUS
 10
287.456552795
 20
340.4963589693
 11
287.456552795
 21
343.1963589693
  0
LINE
  5
4FE
100
AcDbEntity
  8
0
100
AcDbLine
 62
7
  6
CONTINUOUS
 10
287.591552795
 20
322.8963589693
 11
287.591552795
 21
325.3963589693
  0
LINE
  5
4FF
100
AcDbEntity
  8
0
100
AcDbLine
 62
7
  6
CONTINUOUS
 10
287.806552795
 20
359.6963589693
 11
287.806552795
 21
362.1963589693
  0
LINE
  5
500
100
AcDbEntity
  8
0
100
AcDbLine
 62
7
  6
CONTINUOUS
 10
288.691552795
 20
362.1963589693
 11
288.691552795
 21
322.8963589693
  0
LINE
  5
501
100
AcDbEntity
  8
0
100
AcDbLine
 62
7
  6
CONTINUOUS
 10
289.591552795
 20
322.1963589693
 11
289.591552795
 21
362.1963589693
  0
LINE
  5
502
100
AcDbEntity
  8
0
100
AcDbLine
 62
7
  6
CONTINUOUS
 10
293.341552795
 20
362.1963589693
 11
293.341552795
 21
322.1963589693
  0
LINE
  5
503
100
AcDbEntity
  8
0
100
AcDbLine
 62
7
  6
CONTINUOUS
 10
287.3453360869
 20
344.7312637822
 11
287.606552795
 21
359.6963589693
  0
LINE
  5
504
100
AcDbEntity
  8
0
100
AcDbLine
 62
7
  6
CONTINUOUS
 10
296.006552795
 20
359.6963589693
 11
296.2677695032
 21
344.7312637822
  0
LINE
  5
505
100
AcDbEntity
  8
0
100
AcDbLine
 62
7
  6
CONTINUOUS
 10
311.196552795
 20
359.6963589693
 11
311.4577695032
 21
344.7312637822
  0
LINE
  5
506
100
AcDbEntity
  8
0
100
AcDbLine
 62
7
  6
CONTINUOUS
 10
294.891552795
 20
362.1963589693
 11
294.891552795
 21
322.8963589693
  0
LINE
  5
507
100
AcDbEntity
  8
0
100
AcDbLine
 62
7
  6
CONTINUOUS
 10
295.806552795
 20
359.6963589693
 11
295.806552795
 21
362.1963589693
  0
LINE
  5
508
100
AcDbEntity
  8
0
100
AcDbLine
 62
7
  6
CONTINUOUS
 10
296.156552795
 20
343.1963589693
 11
296.156552795
 21
340.4963589693
  0
LINE
  5
509
100
AcDbEntity
  8
0
100
AcDbLine
 62
7
  6
CONTINUOUS
 10
296.956552795
 20
339.6963589693
 11
296.956552795
 21
343.1963589693
  0
LINE
  5
50A
100
AcDbEntity
  8
0
100
AcDbLine
 62
7
  6
CONTINUOUS
 10
297.341552795
 20
322.1963589693
 11
297.341552795
 21
362.1963589693
  0
LINE
  5
50B
100
AcDbEntity
  8
0
100
AcDbLine
 62
7
  6
CONTINUOUS
 10
301.091552795
 20
362.1963589693
 11
301.091552795
 21
322.1963589693
  0
LINE
  5
50C
100
AcDbEntity
  8
0
100
AcDbLine
 62
7
  6
CONTINUOUS
 10
301.846552795
 20
339.6963589693
 11
301.846552795
 21
343.1963589693
  0
LINE
  5
50D
100
AcDbEntity
  8
0
100
AcDbLine
 62
7
  6
CONTINUOUS
 10
302.591552795
 20
325.3963589693
 11
302.591552795
 21
322.8963589693
  0
LINE
  5
50E
100
AcDbEntity
  8
0
100
AcDbLine
 62
7
  6
CONTINUOUS
 10
302.646552795
 20
340.4963589693
 11
302.646552795
 21
343.1963589693
  0
LINE
  5
50F
100
AcDbEntity
  8
0
100
AcDbLine
 62
7
  6
CONTINUOUS
 10
302.996552795
 20
359.6963589693
 11
302.996552795
 21
362.1963589693
  0
LINE
  5
510
100
AcDbEntity
  8
0
100
AcDbLine
 62
7
  6
CONTINUOUS
 10
303.9969488479
 20
328.9310577216
 11
303.9969488479
 21
343.1963589693
  0
LINE
  5
511
100
AcDbEntity
  8
0
100
AcDbLine
 62
7
  6
CONTINUOUS
 10
304.091552795
 20
362.1963589693
 11
304.091552795
 21
322.8963589693
  0
LINE
  5
512
100
AcDbEntity
  8
0
100
AcDbLine
 62
7
  6
CONTINUOUS
 10
305.091552795
 20
322.1963589693
 11
305.091552795
 21
362.1963589693
  0
LINE
  5
513
100
AcDbEntity
  8
0
100
AcDbLine
 62
7
  6
CONTINUOUS
 10
308.841552795
 20
362.1963589693
 11
308.841552795
 21
322.1963589693
  0
LINE
  5
514
100
AcDbEntity
  8
0
100
AcDbLine
 62
7
  6
CONTINUOUS
 10
310.291552795
 20
362.1963589693
 11
310.291552795
 21
322.8963589693
  0
LINE
  5
515
100
AcDbEntity
  8
0
100
AcDbLine
 62
7
  6
CONTINUOUS
 10
310.996552795
 20
359.6963589693
 11
310.996552795
 21
362.1963589693
  0
LINE
  5
516
100
AcDbEntity
  8
0
100
AcDbLine
 62
7
  6
CONTINUOUS
 10
311.346552795
 20
343.1963589693
 11
311.346552795
 21
340.4963589693
  0
LINE
  5
517
100
AcDbEntity
  8
0
100
AcDbLine
 62
7
  6
CONTINUOUS
 10
311.591552795
 20
322.8963589693
 11
311.591552795
 21
325.3963589693
  0
LINE
  5
518
100
AcDbEntity
  8
0
100
AcDbLine
 62
7
  6
CONTINUOUS
 10
312.091552795
 20
362.1963589693
 11
312.091552795
 21
322.8963589693
  0
LINE
  5
519
100
AcDbEntity
  8
0
100
AcDbLine
 62
7
  6
CONTINUOUS
 10
312.841552795
 20
322.1963589693
 11
312.841552795
 21
362.1963589693
  0
LINE
  5
51A
100
AcDbEntity
  8
0
100
AcDbLine
 62
7
  6
CONTINUOUS
 10
313.091552795
 20
366.4963589693
 11
313.091552795
 21
389.9963589693
  0
LINE
  5
51B
100
AcDbEntity
  8
0
100
AcDbLine
 62
7
  6
CONTINUOUS
 10
314.591552795
 20
316.5963589693
 11
314.591552795
 21
366.4963589693
  0
LINE
  5
51C
100
AcDbEntity
  8
0
100
AcDbLine
 62
7
  6
CONTINUOUS
 10
314.591552795
 20
389.9963589693
 11
314.591552795
 21
390.0963589693
  0
LINE
  5
51D
100
AcDbEntity
  8
0
100
AcDbLine
 62
7
  6
CONTINUOUS
 10
315.091552795
 20
336.396358422
 11
315.091552795
 21
316.396358422
  0
LINE
  5
51E
100
AcDbEntity
  8
0
100
AcDbLine
 62
7
  6
CONTINUOUS
 10
316.891552795
 20
316.396358422
 11
316.891552795
 21
336.396358422
  0
LINE
  5
51F
100
AcDbEntity
  8
0
100
AcDbLine
 62
7
  6
CONTINUOUS
 10
317.091552795
 20
332.4963589693
 11
317.091552795
 21
389.9963589693
  0
LINE
  5
520
100
AcDbEntity
  8
0
100
AcDbLine
 62
7
  6
CONTINUOUS
 10
302.5353360869
 20
344.7312637822
 11
302.796552795
 21
359.6963589693
  0
ENDSEC
  0
SECTION
  2
OBJECTS
  0
DICTIONARY
  5
C
100
AcDbDictionary
280
0
281
1
  3
ACAD_GROUP
350
D
  3
ACAD_MLINESTYLE
350
17
  3
ACAD_LAYOUT
350
1A
  3
ACAD_PLOTSETTINGS
350
19
  3
ACAD_PLOTSTYLENAME
350
E
  0
DICTIONARY
  5
D
102
{ACAD_REACTORS
330
C
102
}
100
AcDbDictionary
280
0
281
1
  0
ACDBDICTIONARYWDFLT
  5
E
102
{ACAD_REACTORS
330
C
102
}
100
AcDbDictionary
281
1
  3
Normal
350
F
100
AcDbDictionaryWithDefault
340
F
  0
DICTIONARY
  5
17
102
{ACAD_REACTORS
330
C
102
}
100
AcDbDictionary
280
0
281
1
  3
Standard
350
18
  0
DICTIONARY
  5
19
102
{ACAD_REACTORS
330
C
102
}
100
AcDbDictionary
281
1
  0
DICTIONARY
  5
1A
102
{ACAD_REACTORS
330
C
102
}
100
AcDbDictionary
281
1
  3
Model
350
521
  3
Layout1
350
522
  0
ACDBPLACEHOLDER
  5
F
102
{ACAD_REACTORS
330
E
102
}
  0
MLINESTYLE
  5
18
102
{ACAD_REACTORS
330
17
102
}
100
AcDbMlineStyle
  2
STANDARD
 70
0
  3

 62
256
 51
90.0
 52
90.0
 71
2
 49
0.5
 62
256
  6
BYLAYER
 49
-0.5
 62
256
  6
BYLAYER
  0
LAYOUT
  5
521
102
{ACAD_REACTORS
330
1A
102
}
100
AcDbPlotSettings
  1

  2
none_device
  4
ANSI_C_(22.00_x_17.00_Inches)
  6

 40
0.0
 41
0.0
 42
0.0
 43
0.0
 44
558.8
 45
431.8
 46
0.0
 47
0.0
 48
0.0
 49
0.0
140
0.0
141
0.0
142
1.0
143
1.0
 70
1024
 72
1
 73
0
 74
0
  7

 75
0
147
1.0
148
0.0
149
0.0
100
AcDbLayout
  1
Model
 70
0
 71
0
 10
0.0
 20
0.0
 11
558.8
 21
431.8
 12
0.0
 22
0.0
 32
0.0
 14
0.0
 24
0.0
 34
0.0
 15
0.0
 25
0.0
 35
0.0
146
0.0
 13
0.0
 23
0.0
 33
0.0
 16
1.0
 26
0.0
 36
0.0
 17
0.0
 27
1.0
 37
0.0
 76
0
330
216
345
0
346
0
  0
LAYOUT
  5
522
102
{ACAD_REACTORS
330
1A
102
}
100
AcDbPlotSettings
  1

  2
none_device
  4
ANSI_C_(22.00_x_17.00_Inches)
  6

 40
0.0
 41
0.0
 42
0.0
 43
0.0
 44
558.8
 45
431.8
 46
0.0
 47
0.0
 48
0.0
 49
0.0
140
0.0
141
0.0
142
1.0
143
1.0
 70
0
 72
1
 73
0
 74
0
  7

 75
0
147
1.0
148
0.0
149
0.0
100
AcDbLayout
  1
Layout1
 70
0
 71
1
 10
0.0
 20
0.0
 11
558.8
 21
431.8
 12
0.0
 22
0.0
 32
0.0
 14
0.0
 24
0.0
 34
0.0
 15
0.0
 25
0.0
 35
0.0
146
0.0
 13
0.0
 23
0.0
 33
0.0
 16
1.0
 26
0.0
 36
0.0
 17
0.0
 27
1.0
 37
0.0
 76
0
330
217
345
0
346
0
  0
ENDSEC
  0
EOF
