  0
SECTION
  2
HEADER
  9
$ACADVER
  1
AC1014
  9
$ACADMAINTVER
 70
     0
  9
$DWGCODEPAGE
  3
ANSI_1252
  9
$INSBASE
 10
93.894301
 20
236.06014
 30
0.0
  9
$EXTMIN
 10
20.150219
 20
30.505567
 30
0.0
  9
$EXTMAX
 10
102.679416
 20
89.913773
 30
0.0
  9
$LIMMIN
 10
0.0
 20
0.0
  9
$LIMMAX
 10
210.0
 20
297.0
  9
$ORTHOMODE
 70
     0
  9
$REGENMODE
 70
     1
  9
$FILLMODE
 70
     1
  9
$QTEXTMODE
 70
     0
  9
$MIRRTEXT
 70
     0
  9
$DRAGMODE
 70
     1
  9
$LTSCALE
 40
7.0
  9
$OSMODE
 70
  2559
  9
$ATTMODE
 70
     1
  9
$TEXTSIZE
 40
2.5
  9
$TRACEWID
 40
0.05
  9
$TEXTSTYLE
  7
STANDARD
  9
$CLAYER
  8
COTATION1
  9
$CELTYPE
  6
BYLAYER
  9
$CECOLOR
 62
   256
  9
$CELTSCALE
 40
1.0
  9
$DELOBJ
 70
     1
  9
$DISPSILH
 70
     0
  9
$DIMSCALE
 40
1.0
  9
$DIMASZ
 40
3.0
  9
$DIMEXO
 40
0.0625
  9
$DIMDLI
 40
0.38
  9
$DIMRND
 40
0.01
  9
$DIMDLE
 40
0.0
  9
$DIMEXE
 40
0.18
  9
$DIMTP
 40
0.0
  9
$DIMTM
 40
0.0
  9
$DIMTXT
 40
2.5
  9
$DIMCEN
 40
0.09
  9
$DIMTSZ
 40
0.0
  9
$DIMTOL
 70
     0
  9
$DIMLIM
 70
     0
  9
$DIMTIH
 70
     0
  9
$DIMTOH
 70
     0
  9
$DIMSE1
 70
     0
  9
$DIMSE2
 70
     0
  9
$DIMTAD
 70
     1
  9
$DIMZIN
 70
    12
  9
$DIMBLK
  1

  9
$DIMASO
 70
     1
  9
$DIMSHO
 70
     1
  9
$DIMPOST
  1

  9
$DIMAPOST
  1

  9
$DIMALT
 70
     0
  9
$DIMALTD
 70
     2
  9
$DIMALTF
 40
25.4
  9
$DIMLFAC
 40
1.0
  9
$DIMTOFL
 70
     1
  9
$DIMTVP
 40
0.0
  9
$DIMTIX
 70
     0
  9
$DIMSOXD
 70
     0
  9
$DIMSAH
 70
     0
  9
$DIMBLK1
  1

  9
$DIMBLK2
  1

  9
$DIMSTYLE
  2
SC_STAND
  9
$DIMCLRD
 70
     0
  9
$DIMCLRE
 70
     0
  9
$DIMCLRT
 70
     0
  9
$DIMTFAC
 40
1.0
  9
$DIMGAP
 40
1.0
  9
$DIMJUST
 70
     0
  9
$DIMSD1
 70
     0
  9
$DIMSD2
 70
     0
  9
$DIMTOLJ
 70
     1
  9
$DIMTZIN
 70
    12
  9
$DIMALTZ
 70
    12
  9
$DIMALTTZ
 70
    12
  9
$DIMFIT
 70
     5
  9
$DIMUPT
 70
     0
  9
$DIMUNIT
 70
     2
  9
$DIMDEC
 70
     3
  9
$DIMTDEC
 70
     3
  9
$DIMALTU
 70
     2
  9
$DIMALTTD
 70
     2
  9
$DIMTXSTY
  7
STANDARD
  9
$DIMAUNIT
 70
     0
  9
$LUNITS
 70
     2
  9
$LUPREC
 70
     3
  9
$SKETCHINC
 40
0.1
  9
$FILLETRAD
 40
0.0625
  9
$AUNITS
 70
     0
  9
$AUPREC
 70
     0
  9
$MENU
  1
ACAD
  9
$ELEVATION
 40
0.0
  9
$PELEVATION
 40
0.0
  9
$THICKNESS
 40
0.0
  9
$LIMCHECK
 70
     0
  9
$BLIPMODE
 70
     1
  9
$CHAMFERA
 40
0.0
  9
$CHAMFERB
 40
0.0
  9
$CHAMFERC
 40
0.0
  9
$CHAMFERD
 40
0.0
  9
$SKPOLY
 70
     0
  9
$TDCREATE
 40
2450953.590960648
  9
$TDUPDATE
 40
2452850.646948414
  9
$TDINDWG
 40
0.0220305903
  9
$TDUSRTIMER
 40
0.0220305903
  9
$USRTIMER
 70
     1
  9
$ANGBASE
 50
0.0
  9
$ANGDIR
 70
     0
  9
$PDMODE
 70
     0
  9
$PDSIZE
 40
0.0
  9
$PLINEWID
 40
0.0
  9
$COORDS
 70
     0
  9
$SPLFRAME
 70
     0
  9
$SPLINETYPE
 70
     6
  9
$SPLINESEGS
 70
     8
  9
$ATTDIA
 70
     0
  9
$ATTREQ
 70
     1
  9
$HANDLING
 70
     1
  9
$HANDSEED
  5
1166
  9
$SURFTAB1
 70
     6
  9
$SURFTAB2
 70
     6
  9
$SURFTYPE
 70
     6
  9
$SURFU
 70
     6
  9
$SURFV
 70
     6
  9
$UCSNAME
  2

  9
$UCSORG
 10
0.0
 20
0.0
 30
0.0
  9
$UCSXDIR
 10
1.0
 20
0.0
 30
0.0
  9
$UCSYDIR
 10
0.0
 20
1.0
 30
0.0
  9
$PUCSNAME
  2

  9
$PUCSORG
 10
0.0
 20
0.0
 30
0.0
  9
$PUCSXDIR
 10
1.0
 20
0.0
 30
0.0
  9
$PUCSYDIR
 10
0.0
 20
1.0
 30
0.0
  9
$USERI1
 70
     0
  9
$USERI2
 70
     0
  9
$USERI3
 70
     0
  9
$USERI4
 70
     0
  9
$USERI5
 70
     0
  9
$USERR1
 40
0.0
  9
$USERR2
 40
0.0
  9
$USERR3
 40
0.0
  9
$USERR4
 40
0.0
  9
$USERR5
 40
0.0
  9
$WORLDVIEW
 70
     1
  9
$SHADEDGE
 70
     3
  9
$SHADEDIF
 70
    70
  9
$TILEMODE
 70
     1
  9
$MAXACTVP
 70
    32
  9
$PINSBASE
 10
0.0
 20
0.0
 30
0.0
  9
$PLIMCHECK
 70
     0
  9
$PEXTMIN
 10
-3.174999
 20
-3.175
 30
0.0
  9
$PEXTMAX
 10
203.812116
 20
370.276807
 30
0.0
  9
$PLIMMIN
 10
-3.175
 20
-3.175
  9
$PLIMMAX
 10
203.812115
 20
370.276807
  9
$UNITMODE
 70
     0
  9
$VISRETAIN
 70
     0
  9
$PLINEGEN
 70
     0
  9
$PSLTSCALE
 70
     1
  9
$TREEDEPTH
 70
  3020
  9
$PICKSTYLE
 70
     0
  9
$CMLSTYLE
  2
STANDARD
  9
$CMLJUST
 70
     0
  9
$CMLSCALE
 40
1.0
  9
$PROXYGRAPHICS
 70
     1
  9
$MEASUREMENT
 70
     0
  0
ENDSEC
  0
SECTION
  2
CLASSES
  0
CLASS
  1
DICTIONARYVAR
  2
AcDbDictionaryVar
  3
"AutoCAD"
 90
        0
280
     0
281
     0
  0
ENDSEC
  0
SECTION
  2
TABLES
  0
TABLE
  2
VPORT
  5
F4
100
AcDbSymbolTable
 70
     2
  0
VPORT
  5
1165
100
AcDbSymbolTableRecord
100
AcDbViewportTableRecord
  2
*ACTIVE
 70
     0
 10
0.0
 20
0.0
 11
1.0
 21
1.0
 12
61.420899
 22
60.208031
 13
0.0
 23
0.0
 14
1.0
 24
1.0
 15
10.0
 25
10.0
 16
0.0
 26
0.0
 36
1.0
 17
0.0
 27
0.0
 37
0.0
 40
59.900292
 41
1.592689
 42
50.0
 43
0.0
 44
0.0
 50
0.0
 51
0.0
 71
     0
 72
   100
 73
     1
 74
     1
 75
     0
 76
     1
 77
     0
 78
     0
  0
ENDTAB
  0
TABLE
  2
LTYPE
  5
F1
100
AcDbSymbolTable
 70
     5
  0
LTYPE
  5
FD
100
AcDbSymbolTableRecord
100
AcDbLinetypeTableRecord
  2
BYBLOCK
 70
     0
  3

 72
    65
 73
     0
 40
0.0
  0
LTYPE
  5
FE
100
AcDbSymbolTableRecord
100
AcDbLinetypeTableRecord
  2
BYLAYER
 70
     0
  3

 72
    65
 73
     0
 40
0.0
  0
LTYPE
  5
FF
100
AcDbSymbolTableRecord
100
AcDbLinetypeTableRecord
  2
CONTINUOUS
 70
     0
  3
Solid line
 72
    65
 73
     0
 40
0.0
  0
LTYPE
  5
120
100
AcDbSymbolTableRecord
100
AcDbLinetypeTableRecord
  2
CACHE2
 70
     0
  3
_ _ _ _ _ _ _ _ _ _ _ _ _ _ _ _ _ _ _ _ _ _ _ _
 72
    65
 73
     2
 40
0.1875
 49
0.125
 74
     0
 49
-0.0625
 74
     0
  0
ENDTAB
  0
TABLE
  2
LAYER
  5
EE
100
AcDbSymbolTable
 70
     7
  0
LAYER
  5
FA
100
AcDbSymbolTableRecord
100
AcDbLayerTableRecord
  2
0
 70
     0
 62
     7
  6
CONTINUOUS
  0
LAYER
  5
12C
100
AcDbSymbolTableRecord
100
AcDbLayerTableRecord
  2
ALPHA
 70
     0
 62
   255
  6
CONTINUOUS
  0
LAYER
  5
12F
100
AcDbSymbolTableRecord
100
AcDbLayerTableRecord
  2
COTATION1
 70
     0
 62
     2
  6
CONTINUOUS
  0
LAYER
  5
132
100
AcDbSymbolTableRecord
100
AcDbLayerTableRecord
  2
TEXTE
 70
     0
 62
   131
  6
CONTINUOUS
  0
LAYER
  5
13B
100
AcDbSymbolTableRecord
100
AcDbLayerTableRecord
  2
ASHADE
 70
     0
 62
     7
  6
CONTINUOUS
  0
LAYER
  5
13C
100
AcDbSymbolTableRecord
100
AcDbLayerTableRecord
  2
POINTILLE_COURT
 70
     0
 62
    40
  6
CACHE2
  0
ENDTAB
  0
TABLE
  2
STYLE
  5
EF
100
AcDbSymbolTable
 70
     2
  0
STYLE
  5
FB
100
AcDbSymbolTableRecord
100
AcDbTextStyleTableRecord
  2
STANDARD
 70
     0
 40
0.0
 41
1.0
 50
0.0
 71
     0
 42
2.5
  3
txt
  4

  0
STYLE
  5
DAD
100
AcDbSymbolTableRecord
100
AcDbTextStyleTableRecord
  2
STD
 70
     0
 40
0.0
 41
1.0
 50
0.0
 71
     0
 42
0.0
  3
txt
  4

  0
ENDTAB
  0
TABLE
  2
VIEW
  5
F2
100
AcDbSymbolTable
 70
     0
  0
ENDTAB
  0
TABLE
  2
UCS
  5
F3
100
AcDbSymbolTable
 70
     0
  0
ENDTAB
  0
TABLE
  2
APPID
  5
F5
100
AcDbSymbolTable
 70
     3
  0
APPID
  5
FC
100
AcDbSymbolTableRecord
100
AcDbRegAppTableRecord
  2
ACAD
 70
     0
  0
APPID
  5
127
100
AcDbSymbolTableRecord
100
AcDbRegAppTableRecord
  2
AVE_RENDER
 70
     0
  0
APPID
  5
128
100
AcDbSymbolTableRecord
100
AcDbRegAppTableRecord
  2
AVE_MATERIAL
 70
     0
  0
ENDTAB
  0
TABLE
  2
DIMSTYLE
  5
F6
100
AcDbSymbolTable
 70
     2
  0
DIMSTYLE
105
129
100
AcDbSymbolTableRecord
100
AcDbDimStyleTableRecord
  2
STANDARD
 70
     0
  3

  4

  5

  6

  7

 40
1.0
 41
0.18
 42
0.0625
 43
0.38
 44
0.18
 45
0.0
 46
0.0
 47
0.0
 48
0.0
140
0.18
141
0.09
142
0.0
143
25.4
144
1.0
145
0.0
146
1.0
147
0.09
 71
     0
 72
     0
 73
     1
 74
     1
 75
     0
 76
     0
 77
     0
 78
     0
170
     0
171
     2
172
     0
173
     0
174
     0
175
     0
176
     0
177
     0
178
     0
270
     2
271
     3
272
     3
273
     2
274
     2
340
FB
275
     0
280
     0
281
     0
282
     0
283
     1
284
    12
285
    12
286
    12
287
     5
288
     0
  0
DIMSTYLE
105
12A
100
AcDbSymbolTableRecord
100
AcDbDimStyleTableRecord
  2
SC_STAND
 70
     0
  3

  4

  5

  6

  7

 40
1.0
 41
3.0
 42
0.0625
 43
0.38
 44
0.18
 45
0.01
 46
0.0
 47
0.0
 48
0.0
140
2.5
141
0.09
142
0.0
143
25.4
144
1.0
145
0.0
146
1.0
147
1.0
 71
     0
 72
     0
 73
     0
 74
     0
 75
     0
 76
     0
 77
     1
 78
    12
170
     0
171
     2
172
     1
173
     0
174
     0
175
     0
176
     0
177
     0
178
     0
270
     2
271
     3
272
     3
273
     2
274
     2
340
FB
275
     0
280
     0
281
     0
282
     0
283
     1
284
    12
285
    12
286
    12
287
     5
288
     0
  0
ENDTAB
  0
TABLE
  2
BLOCK_RECORD
  5
ED
100
AcDbSymbolTable
 70
     4
  0
BLOCK_RECORD
  5
103
100
AcDbSymbolTableRecord
100
AcDbBlockTableRecord
  2
*MODEL_SPACE
  0
BLOCK_RECORD
  5
100
100
AcDbSymbolTableRecord
100
AcDbBlockTableRecord
  2
*PAPER_SPACE
  0
BLOCK_RECORD
  5
108
100
AcDbSymbolTableRecord
100
AcDbBlockTableRecord
  2
AVE_RENDER
  0
BLOCK_RECORD
  5
109
100
AcDbSymbolTableRecord
100
AcDbBlockTableRecord
  2
AVE_GLOBAL
  0
BLOCK_RECORD
  5
10A
100
AcDbSymbolTableRecord
100
AcDbBlockTableRecord
  2
SCH_IS
  0
ENDTAB
  0
ENDSEC
  0
SECTION
  2
BLOCKS
  0
BLOCK
  5
141
100
AcDbEntity
  8
0
100
AcDbBlockBegin
  2
*MODEL_SPACE
 70
     0
 10
0.0
 20
0.0
 30
0.0
  3
*MODEL_SPACE
  1

  0
ENDBLK
  5
142
100
AcDbEntity
  8
0
100
AcDbBlockEnd
  0
BLOCK
  5
13F
100
AcDbEntity
 67
     1
  8
0
100
AcDbBlockBegin
  2
*PAPER_SPACE
 70
     0
 10
0.0
 20
0.0
 30
0.0
  3
*PAPER_SPACE
  1

  0
ENDBLK
  5
140
100
AcDbEntity
 67
     1
  8
0
100
AcDbBlockEnd
  0
BLOCK
  5
8D
100
AcDbEntity
  8
0
100
AcDbBlockBegin
  2
AVE_RENDER
 70
     0
 10
0.0
 20
0.0
 30
0.0
  3
AVE_RENDER
  1
AVE_RENDER
  0
ENDBLK
  5
8E
100
AcDbEntity
  8
0
100
AcDbBlockEnd
  0
BLOCK
  5
90
100
AcDbEntity
  8
0
100
AcDbBlockBegin
  2
AVE_GLOBAL
 70
     0
 10
0.0
 20
0.0
 30
0.0
  3
AVE_GLOBAL
  1
AVE_GLOBAL
  0
ENDBLK
  5
91
100
AcDbEntity
  8
0
100
AcDbBlockEnd
  0
BLOCK
  5
C9
100
AcDbEntity
  8
0
100
AcDbBlockBegin
  2
SCH_IS
 70
     0
 10
0.0
 20
0.0
 30
0.0
  3
SCH_IS
  1

  0
INSERT
  5
C0
100
AcDbEntity
  8
ASHADE
 62
     1
100
AcDbBlockReference
  2
AVE_RENDER
 10
0.0
 20
0.0
 30
0.0
1001
AVE_RENDER
1002
{
1070
     6
1000
Pref
1070
    50
1070
    20
1070
     1
1070
     0
1000

1070
    10
1070
     1
1070
    30
1040
25.4
1070
     1
1040
0.3
1040
0.7
1040
0.0
1040
10.0
1010
-1.0
1020
-1.0
1030
-1.0
1040
0.3
1070
    49
1070
     0
1070
     0
1010
1.0
1020
1.0
1030
1.0
1040
45.0
1070
     1
1070
     0
1000
WCS
1040
0.0
1002
}
  0
INSERT
  5
C1
100
AcDbEntity
  8
ASHADE
 62
     3
100
AcDbBlockReference
  2
AVE_RENDER
 10
0.0
 20
0.0
 30
0.0
1001
AVE_RENDER
1002
{
1070
     0
1000
Full Opt
1070
     0
1070
     1
1070
     1
1070
     1
1070
     0
1070
     0
1070
     0
1070
     1
1070
     1
1040
0.0001
1040
0.0001
1002
}
  0
INSERT
  5
C2
100
AcDbEntity
  8
ASHADE
 62
     4
100
AcDbBlockReference
  2
AVE_RENDER
 10
0.0
 20
0.0
 30
0.0
1001
AVE_RENDER
1002
{
1070
     0
1000
Quick Opt
1070
     0
1070
     1
1070
     1
1070
     1
1070
     0
1070
     0
1070
     1
1002
}
  0
INSERT
  5
C3
100
AcDbEntity
  8
ASHADE
 62
     5
100
AcDbBlockReference
  2
AVE_RENDER
 10
0.0
 20
0.0
 30
0.0
1001
AVE_RENDER
1002
{
1070
     1
1000
Scanl Opt
1070
     2
1070
     0
1070
     2
1040
2.0
1040
4.0
1070
     0
1070
     1
1070
     0
1040
0.03
1002
}
  0
INSERT
  5
C4
100
AcDbEntity
  8
ASHADE
 62
     6
100
AcDbBlockReference
  2
AVE_RENDER
 10
0.0
 20
0.0
 30
0.0
1001
AVE_RENDER
1002
{
1070
     2
1000
Raytr Opt
1070
     2
1070
     0
1070
     2
1040
2.0
1040
4.0
1070
     0
1070
     1
1070
     1
1040
0.03
1070
     3
1040
0.03
1002
}
  0
INSERT
  5
C5
100
AcDbEntity
  8
ASHADE
 62
     7
100
AcDbBlockReference
  2
AVE_RENDER
 10
0.0
 20
0.0
 30
0.0
1001
AVE_RENDER
1002
{
1070
     0
1000
RFile Opt
1070
     5
1070
   640
1070
   480
1070
 10000
1070
     3
1070
    32
1070
    24
1070
     0
1070
     0
1070
     0
1070
     1
1070
     0
1070
     0
1070
     0
1002
}
  0
INSERT
  5
C6
100
AcDbEntity
  8
ASHADE
 62
     8
100
AcDbBlockReference
  2
AVE_RENDER
 10
0.0
 20
0.0
 30
0.0
1001
AVE_RENDER
1002
{
1070
     0
1000
Fog Opt
1070
     0
1070
     0
1040
0.0
1040
1.0
1040
0.0
1040
1.0
1010
0.5
1020
0.5
1030
0.5
1002
}
  0
INSERT
  5
C7
100
AcDbEntity
  8
ASHADE
 62
     9
100
AcDbBlockReference
  2
AVE_RENDER
 10
0.0
 20
0.0
 30
0.0
1001
AVE_RENDER
1002
{
1070
     0
1000
BG Opt
1070
     0
1070
     1
1010
0.0
1020
0.0
1030
0.0
1010
1.0
1020
0.0
1030
0.0
1010
0.0
1020
1.0
1030
0.0
1010
0.0
1020
0.0
1030
1.0
1040
0.5
1040
0.33
1040
0.0
1000

1070
     1
1000

1070
     1
1070
     1
1040
1.0
1040
1.0
1040
0.0
1040
0.0
1070
     0
1002
}
  0
INSERT
  5
C8
100
AcDbEntity
  8
ASHADE
 62
     1
100
AcDbBlockReference
  2
AVE_GLOBAL
 10
0.0
 20
0.0
 30
0.0
1001
AVE_MATERIAL
1002
{
1000
*GLOBAL*
1000
1
1000
Finition globale.
1002
{
1002
}
1002
{
1070
    63
1002
{
1002
{
1010
-1.0
1020
-1.0
1030
-1.0
1002
}
1040
0.1
1000

1040
0.0
1002
{
1002
}
1040
0.0
1002
{
1002
}
1040
0.0
1002
}
1002
{
1002
{
1010
-1.0
1020
-1.0
1030
-1.0
1002
}
1040
0.7
1000

1040
0.0
1002
{
1002
}
1040
0.0
1002
{
1002
}
1040
0.0
1002
}
1002
{
1002
{
1010
-1.0
1020
-1.0
1030
-1.0
1002
}
1040
0.2
1000

1040
0.0
1002
{
1002
}
1040
0.0
1002
{
1002
}
1040
0.0
1002
}
1002
{
1070
     0
1002
{
1070
     1
1002
{
1040
1.0
1040
1.0
1000

1040
0.0
1002
{
1002
}
1040
0.0
1002
{
1002
}
1040
0.0
1002
}
1002
}
1040
1.0
1040
0.0
1040
0.0
1002
}
1002
{
1040
1.0
1040
1.0
1000

1040
0.0
1002
{
1002
}
1040
0.0
1002
{
1002
}
1040
0.0
1002
}
1002
{
1040
0.5
1040
1.0
1000

1040
0.0
1002
{
1002
}
1040
0.0
1002
{
1002
}
1040
0.0
1002
}
1002
{
1070
     0
1040
0.0
1002
{
1002
}
1040
1.0
1002
{
1002
}
1040
0.0
1002
}
1002
{
1040
0.0
1002
{
1002
{
1010
0.0
1020
0.0
1030
0.0
1002
}
1040
1.0
1000

1040
0.0
1002
{
1002
}
1040
0.0
1002
{
1002
}
1040
0.0
1002
}
1002
}
1002
{
1002
{
1070
     1
1002
{
1040
0.0
1040
1.0
1000

1040
0.0
1002
{
1002
}
1040
0.0
1002
{
1002
}
1040
0.0
1002
}
1002
}
1040
0.0
1002
{
1002
}
1010
1.0
1020
0.0
1030
0.0
1010
0.0
1020
1.0
1030
0.0
1010
0.0
1020
0.0
1030
1.0
1070
     0
1002
}
1002
{
1002
{
1040
1.0
1040
1.0
1002
{
1070
     1
1002
{
1040
1.0
1040
1.0
1000

1040
0.0
1002
{
1002
}
1040
0.0
1002
{
1002
}
1040
0.0
1002
}
1002
}
1002
}
1070
     0
1040
0.0
1002
{
1002
}
1002
}
1002
{
1002
}
1002
}
1002
{
1071
        3
1070
     3
1070
     0
1002
{
1070
     2
1070
     0
1070
     0
1040
0.0
1002
}
1070
     0
1070
     2
1002
{
1002
}
1002
}
1002
{
1040
8030.0
1040
190.300003
1040
0.305
1040
228.0
1040
545.0
1040
14.0
1040
17.4
1040
0.456
1002
}
1002
}
  0
ENDBLK
  5
CA
100
AcDbEntity
  8
0
100
AcDbBlockEnd
  0
ENDSEC
  0
SECTION
  2
ENTITIES
  0
INSERT
  5
CC
100
AcDbEntity
  8
0
100
AcDbBlockReference
  2
SCH_IS
 10
-68.718396
 20
-140.042541
 30
0.0
  0
INSERT
  5
EC
100
AcDbEntity
  8
COTATION1
100
AcDbBlockReference
  2
SCH_IS
 10
0.0
 20
0.0
 30
0.0
  0
MTEXT
  5
F89
100
AcDbEntity
  8
TEXTE
 62
     7
100
AcDbMText
 10
60.386867
 20
85.874805
 30
0.0
 40
1.312417
 41
0.0
 71
     1
 72
     2
  1
\fTxt|b0|i0;13
  7
STD
  0
MTEXT
  5
F8A
100
AcDbEntity
  8
TEXTE
 62
     7
100
AcDbMText
 10
60.386867
 20
74.684102
 30
0.0
 40
1.312417
 41
0.0
 71
     1
 72
     2
  1
\fTxt|b0|i0;13
  7
STD
  0
POLYLINE
  5
F8B
100
AcDbEntity
  8
POINTILLE_COURT
 62
     7
100
AcDb2dPolyline
 66
     1
 10
0.0
 20
0.0
 30
0.0
 70
     1
  0
VERTEX
  5
F8C
100
AcDbEntity
  8
POINTILLE_COURT
 62
     7
100
AcDbVertex
100
AcDb2dVertex
 10
47.457424
 20
69.973959
 30
0.0
  0
VERTEX
  5
F8D
100
AcDbEntity
  8
POINTILLE_COURT
 62
     7
100
AcDbVertex
100
AcDb2dVertex
 10
72.221632
 20
69.973959
 30
0.0
  0
VERTEX
  5
F8E
100
AcDbEntity
  8
POINTILLE_COURT
 62
     7
100
AcDbVertex
100
AcDb2dVertex
 10
72.221632
 20
75.277856
 30
0.0
  0
VERTEX
  5
F8F
100
AcDbEntity
  8
POINTILLE_COURT
 62
     7
100
AcDbVertex
100
AcDb2dVertex
 10
47.457424
 20
75.277856
 30
0.0
  0
SEQEND
  5
F90
100
AcDbEntity
  8
POINTILLE_COURT
 62
     7
  0
POLYLINE
  5
F91
100
AcDbEntity
  8
POINTILLE_COURT
 62
     7
100
AcDb2dPolyline
 66
     1
 10
0.0
 20
0.0
 30
0.0
 70
     1
  0
VERTEX
  5
F92
100
AcDbEntity
  8
POINTILLE_COURT
 62
     7
100
AcDbVertex
100
AcDb2dVertex
 10
72.221459
 20
81.164663
 30
0.0
  0
VERTEX
  5
F93
100
AcDbEntity
  8
POINTILLE_COURT
 62
     7
100
AcDbVertex
100
AcDb2dVertex
 10
21.144818
 20
81.164663
 30
0.0
  0
VERTEX
  5
F94
100
AcDbEntity
  8
POINTILLE_COURT
 62
     7
100
AcDbVertex
100
AcDb2dVertex
 10
21.144818
 20
86.468559
 30
0.0
  0
VERTEX
  5
F95
100
AcDbEntity
  8
POINTILLE_COURT
 62
     7
100
AcDbVertex
100
AcDb2dVertex
 10
72.221459
 20
86.468559
 30
0.0
  0
SEQEND
  5
F96
100
AcDbEntity
  8
POINTILLE_COURT
 62
     7
  0
LINE
  5
F97
100
AcDbEntity
  8
ALPHA
 62
     7
100
AcDbLine
 10
22.884936
 20
60.93799
 30
0.0
 11
77.513126
 21
60.93799
 31
0.0
  0
POLYLINE
  5
F98
100
AcDbEntity
  8
ALPHA
 62
     7
100
AcDb2dPolyline
 66
     1
 10
0.0
 20
0.0
 30
0.0
 70
     1
  0
VERTEX
  5
F99
100
AcDbEntity
  8
ALPHA
 62
     7
100
AcDbVertex
100
AcDb2dVertex
 10
61.84621
 20
60.538015
 30
0.0
  0
VERTEX
  5
F9A
100
AcDbEntity
  8
ALPHA
 62
     7
100
AcDbVertex
100
AcDb2dVertex
 10
61.046259
 20
60.538015
 30
0.0
  0
VERTEX
  5
F9B
100
AcDbEntity
  8
ALPHA
 62
     7
100
AcDbVertex
100
AcDb2dVertex
 10
61.046259
 20
61.337966
 30
0.0
  0
VERTEX
  5
F9C
100
AcDbEntity
  8
ALPHA
 62
     7
100
AcDbVertex
100
AcDb2dVertex
 10
61.84621
 20
61.337966
 30
0.0
  0
SEQEND
  5
F9D
100
AcDbEntity
  8
ALPHA
 62
     7
  0
POLYLINE
  5
F9E
100
AcDbEntity
  8
ALPHA
 62
     7
100
AcDb2dPolyline
 66
     1
 10
0.0
 20
0.0
 30
0.0
 70
     1
  0
VERTEX
  5
F9F
100
AcDbEntity
  8
ALPHA
 62
     7
100
AcDbVertex
100
AcDb2dVertex
 10
80.319501
 20
57.794341
 30
0.0
  0
VERTEX
  5
FA0
100
AcDbEntity
  8
ALPHA
 62
     7
100
AcDbVertex
100
AcDb2dVertex
 10
20.150219
 20
57.794341
 30
0.0
  0
VERTEX
  5
FA1
100
AcDbEntity
  8
ALPHA
 62
     7
100
AcDbVertex
100
AcDb2dVertex
 10
20.150219
 20
65.087263
 30
0.0
  0
VERTEX
  5
FA2
100
AcDbEntity
  8
ALPHA
 62
     7
100
AcDbVertex
100
AcDb2dVertex
 10
80.319501
 20
65.087263
 30
0.0
  0
SEQEND
  5
FA3
100
AcDbEntity
  8
ALPHA
 62
     7
  0
POLYLINE
  5
FA4
100
AcDbEntity
  8
ALPHA
 62
     7
100
AcDb2dPolyline
 66
     1
 10
0.0
 20
0.0
 30
0.0
 70
     1
  0
VERTEX
  5
FA5
100
AcDbEntity
  8
ALPHA
 62
     7
100
AcDbVertex
100
AcDb2dVertex
 10
80.319501
 20
80.175748
 30
0.0
  0
VERTEX
  5
FA6
100
AcDbEntity
  8
ALPHA
 62
     7
100
AcDbVertex
100
AcDb2dVertex
 10
20.150219
 20
80.175748
 30
0.0
  0
VERTEX
  5
FA7
100
AcDbEntity
  8
ALPHA
 62
     7
100
AcDbVertex
100
AcDb2dVertex
 10
20.150219
 20
87.468671
 30
0.0
  0
VERTEX
  5
FA8
100
AcDbEntity
  8
ALPHA
 62
     7
100
AcDbVertex
100
AcDb2dVertex
 10
80.319501
 20
87.468671
 30
0.0
  0
SEQEND
  5
FA9
100
AcDbEntity
  8
ALPHA
 62
     7
  0
POLYLINE
  5
FAA
100
AcDbEntity
  8
ALPHA
 62
     7
100
AcDb2dPolyline
 66
     1
 10
0.0
 20
0.0
 30
0.0
 70
     1
  0
VERTEX
  5
FAB
100
AcDbEntity
  8
ALPHA
 62
     7
100
AcDbVertex
100
AcDb2dVertex
 10
61.84621
 20
82.919422
 30
0.0
  0
VERTEX
  5
FAC
100
AcDbEntity
  8
ALPHA
 62
     7
100
AcDbVertex
100
AcDb2dVertex
 10
61.046259
 20
82.919422
 30
0.0
  0
VERTEX
  5
FAD
100
AcDbEntity
  8
ALPHA
 62
     7
100
AcDbVertex
100
AcDb2dVertex
 10
61.046259
 20
83.719373
 30
0.0
  0
VERTEX
  5
FAE
100
AcDbEntity
  8
ALPHA
 62
     7
100
AcDbVertex
100
AcDb2dVertex
 10
61.84621
 20
83.719373
 30
0.0
  0
SEQEND
  5
FAF
100
AcDbEntity
  8
ALPHA
 62
     7
  0
POLYLINE
  5
FB0
100
AcDbEntity
  8
ALPHA
 62
     7
100
AcDb2dPolyline
 66
     1
 10
0.0
 20
0.0
 30
0.0
 70
     1
  0
VERTEX
  5
FB1
100
AcDbEntity
  8
ALPHA
 62
     7
100
AcDbVertex
100
AcDb2dVertex
 10
80.319501
 20
68.985044
 30
0.0
  0
VERTEX
  5
FB2
100
AcDbEntity
  8
ALPHA
 62
     7
100
AcDbVertex
100
AcDb2dVertex
 10
20.150219
 20
68.985044
 30
0.0
  0
VERTEX
  5
FB3
100
AcDbEntity
  8
ALPHA
 62
     7
100
AcDbVertex
100
AcDb2dVertex
 10
20.150219
 20
76.277967
 30
0.0
  0
VERTEX
  5
FB4
100
AcDbEntity
  8
ALPHA
 62
     7
100
AcDbVertex
100
AcDb2dVertex
 10
80.319501
 20
76.277967
 30
0.0
  0
SEQEND
  5
FB5
100
AcDbEntity
  8
ALPHA
 62
     7
  0
POLYLINE
  5
FB6
100
AcDbEntity
  8
ALPHA
 62
     7
100
AcDb2dPolyline
 66
     1
 10
0.0
 20
0.0
 30
0.0
 70
     1
  0
VERTEX
  5
FB7
100
AcDbEntity
  8
ALPHA
 62
     7
100
AcDbVertex
100
AcDb2dVertex
 10
61.84621
 20
71.728718
 30
0.0
  0
VERTEX
  5
FB8
100
AcDbEntity
  8
ALPHA
 62
     7
100
AcDbVertex
100
AcDb2dVertex
 10
61.046259
 20
71.728718
 30
0.0
  0
VERTEX
  5
FB9
100
AcDbEntity
  8
ALPHA
 62
     7
100
AcDbVertex
100
AcDb2dVertex
 10
61.046259
 20
72.52867
 30
0.0
  0
VERTEX
  5
FBA
100
AcDbEntity
  8
ALPHA
 62
     7
100
AcDbVertex
100
AcDb2dVertex
 10
61.84621
 20
72.52867
 30
0.0
  0
SEQEND
  5
FBB
100
AcDbEntity
  8
ALPHA
 62
     7
  0
MTEXT
  5
FBC
100
AcDbEntity
  8
TEXTE
 62
     7
100
AcDbMText
 10
35.103312
 20
85.874805
 30
0.0
 40
1.312417
 41
0.0
 71
     1
 72
     2
  1
\fTxt|b0|i0;5
  7
STD
  0
MTEXT
  5
FBD
100
AcDbEntity
  8
TEXTE
 62
     7
100
AcDbMText
 10
35.103312
 20
74.684102
 30
0.0
 40
1.312417
 41
0.0
 71
     1
 72
     2
  1
\fTxt|b0|i0;5
  7
STD
  0
POLYLINE
  5
FBE
100
AcDbEntity
  8
POINTILLE_COURT
 62
     7
100
AcDb2dPolyline
 66
     1
 10
0.0
 20
0.0
 30
0.0
 70
     1
  0
VERTEX
  5
FBF
100
AcDbEntity
  8
POINTILLE_COURT
 62
     7
100
AcDbVertex
100
AcDb2dVertex
 10
46.514157
 20
69.973959
 30
0.0
  0
VERTEX
  5
FC0
100
AcDbEntity
  8
POINTILLE_COURT
 62
     7
100
AcDbVertex
100
AcDb2dVertex
 10
21.144818
 20
69.973959
 30
0.0
  0
VERTEX
  5
FC1
100
AcDbEntity
  8
POINTILLE_COURT
 62
     7
100
AcDbVertex
100
AcDb2dVertex
 10
21.144818
 20
75.277856
 30
0.0
  0
VERTEX
  5
FC2
100
AcDbEntity
  8
POINTILLE_COURT
 62
     7
100
AcDbVertex
100
AcDb2dVertex
 10
46.514157
 20
75.277856
 30
0.0
  0
SEQEND
  5
FC3
100
AcDbEntity
  8
POINTILLE_COURT
 62
     7
  0
POLYLINE
  5
FC4
100
AcDbEntity
  8
ALPHA
 62
     7
100
AcDb2dPolyline
 66
     1
 10
0.0
 20
0.0
 30
0.0
 70
     1
  0
VERTEX
  5
FC5
100
AcDbEntity
  8
ALPHA
 62
     7
100
AcDbVertex
100
AcDb2dVertex
 10
36.138563
 20
60.538015
 30
0.0
  0
VERTEX
  5
FC6
100
AcDbEntity
  8
ALPHA
 62
     7
100
AcDbVertex
100
AcDb2dVertex
 10
35.338612
 20
60.538015
 30
0.0
  0
VERTEX
  5
FC7
100
AcDbEntity
  8
ALPHA
 62
     7
100
AcDbVertex
100
AcDb2dVertex
 10
35.338612
 20
61.337966
 30
0.0
  0
VERTEX
  5
FC8
100
AcDbEntity
  8
ALPHA
 62
     7
100
AcDbVertex
100
AcDb2dVertex
 10
36.138563
 20
61.337966
 30
0.0
  0
SEQEND
  5
FC9
100
AcDbEntity
  8
ALPHA
 62
     7
  0
POLYLINE
  5
FCA
100
AcDbEntity
  8
ALPHA
 62
     7
100
AcDb2dPolyline
 66
     1
 10
0.0
 20
0.0
 30
0.0
 70
     1
  0
VERTEX
  5
FCB
100
AcDbEntity
  8
ALPHA
 62
     7
100
AcDbVertex
100
AcDb2dVertex
 10
36.138563
 20
82.919422
 30
0.0
  0
VERTEX
  5
FCC
100
AcDbEntity
  8
ALPHA
 62
     7
100
AcDbVertex
100
AcDb2dVertex
 10
35.338612
 20
82.919422
 30
0.0
  0
VERTEX
  5
FCD
100
AcDbEntity
  8
ALPHA
 62
     7
100
AcDbVertex
100
AcDb2dVertex
 10
35.338612
 20
83.719373
 30
0.0
  0
VERTEX
  5
FCE
100
AcDbEntity
  8
ALPHA
 62
     7
100
AcDbVertex
100
AcDb2dVertex
 10
36.138563
 20
83.719373
 30
0.0
  0
SEQEND
  5
FCF
100
AcDbEntity
  8
ALPHA
 62
     7
  0
POLYLINE
  5
FD0
100
AcDbEntity
  8
ALPHA
 62
     7
100
AcDb2dPolyline
 66
     1
 10
0.0
 20
0.0
 30
0.0
 70
     1
  0
VERTEX
  5
FD1
100
AcDbEntity
  8
ALPHA
 62
     7
100
AcDbVertex
100
AcDb2dVertex
 10
36.138563
 20
71.728718
 30
0.0
  0
VERTEX
  5
FD2
100
AcDbEntity
  8
ALPHA
 62
     7
100
AcDbVertex
100
AcDb2dVertex
 10
35.338612
 20
71.728718
 30
0.0
  0
VERTEX
  5
FD3
100
AcDbEntity
  8
ALPHA
 62
     7
100
AcDbVertex
100
AcDb2dVertex
 10
35.338612
 20
72.52867
 30
0.0
  0
VERTEX
  5
FD4
100
AcDbEntity
  8
ALPHA
 62
     7
100
AcDbVertex
100
AcDb2dVertex
 10
36.138563
 20
72.52867
 30
0.0
  0
SEQEND
  5
FD5
100
AcDbEntity
  8
ALPHA
 62
     7
  0
MTEXT
  5
FD6
100
AcDbEntity
  8
TEXTE
 62
     7
100
AcDbMText
 10
22.461189
 20
74.684102
 30
0.0
 40
1.312417
 41
0.0
 71
     1
 72
     2
  1
\fTxt|b0|i0;1
  7
STD
  0
POLYLINE
  5
FD7
100
AcDbEntity
  8
ALPHA
 62
     7
100
AcDb2dPolyline
 66
     1
 10
0.0
 20
0.0
 30
0.0
 70
     1
  0
VERTEX
  5
FD8
100
AcDbEntity
  8
ALPHA
 62
     7
100
AcDbVertex
100
AcDb2dVertex
 10
23.284911
 20
60.538015
 30
0.0
  0
VERTEX
  5
FD9
100
AcDbEntity
  8
ALPHA
 62
     7
100
AcDbVertex
100
AcDb2dVertex
 10
22.48496
 20
60.538015
 30
0.0
  0
VERTEX
  5
FDA
100
AcDbEntity
  8
ALPHA
 62
     7
100
AcDbVertex
100
AcDb2dVertex
 10
22.48496
 20
61.337966
 30
0.0
  0
VERTEX
  5
FDB
100
AcDbEntity
  8
ALPHA
 62
     7
100
AcDbVertex
100
AcDb2dVertex
 10
23.284911
 20
61.337966
 30
0.0
  0
SEQEND
  5
FDC
100
AcDbEntity
  8
ALPHA
 62
     7
  0
POLYLINE
  5
FDD
100
AcDbEntity
  8
ALPHA
 62
     7
100
AcDb2dPolyline
 66
     1
 10
0.0
 20
0.0
 30
0.0
 70
     1
  0
VERTEX
  5
FDE
100
AcDbEntity
  8
ALPHA
 62
     7
100
AcDbVertex
100
AcDb2dVertex
 10
23.284911
 20
71.728718
 30
0.0
  0
VERTEX
  5
FDF
100
AcDbEntity
  8
ALPHA
 62
     7
100
AcDbVertex
100
AcDb2dVertex
 10
22.48496
 20
71.728718
 30
0.0
  0
VERTEX
  5
FE0
100
AcDbEntity
  8
ALPHA
 62
     7
100
AcDbVertex
100
AcDb2dVertex
 10
22.48496
 20
72.52867
 30
0.0
  0
VERTEX
  5
FE1
100
AcDbEntity
  8
ALPHA
 62
     7
100
AcDbVertex
100
AcDb2dVertex
 10
23.284911
 20
72.52867
 30
0.0
  0
SEQEND
  5
FE2
100
AcDbEntity
  8
ALPHA
 62
     7
  0
POLYLINE
  5
FE3
100
AcDbEntity
  8
ALPHA
 62
     7
100
AcDb2dPolyline
 66
     1
 10
0.0
 20
0.0
 30
0.0
 70
     1
  0
VERTEX
  5
FE4
100
AcDbEntity
  8
ALPHA
 62
     7
100
AcDbVertex
100
AcDb2dVertex
 10
29.711909
 20
60.538015
 30
0.0
  0
VERTEX
  5
FE5
100
AcDbEntity
  8
ALPHA
 62
     7
100
AcDbVertex
100
AcDb2dVertex
 10
28.911786
 20
60.538015
 30
0.0
  0
VERTEX
  5
FE6
100
AcDbEntity
  8
ALPHA
 62
     7
100
AcDbVertex
100
AcDb2dVertex
 10
28.911786
 20
61.337966
 30
0.0
  0
VERTEX
  5
FE7
100
AcDbEntity
  8
ALPHA
 62
     7
100
AcDbVertex
100
AcDb2dVertex
 10
29.711909
 20
61.337966
 30
0.0
  0
SEQEND
  5
FE8
100
AcDbEntity
  8
ALPHA
 62
     7
  0
POLYLINE
  5
FE9
100
AcDbEntity
  8
ALPHA
 62
     7
100
AcDb2dPolyline
 66
     1
 10
0.0
 20
0.0
 30
0.0
 70
     1
  0
VERTEX
  5
FEA
100
AcDbEntity
  8
ALPHA
 62
     7
100
AcDbVertex
100
AcDb2dVertex
 10
26.498497
 20
60.538015
 30
0.0
  0
VERTEX
  5
FEB
100
AcDbEntity
  8
ALPHA
 62
     7
100
AcDbVertex
100
AcDb2dVertex
 10
25.698373
 20
60.538015
 30
0.0
  0
VERTEX
  5
FEC
100
AcDbEntity
  8
ALPHA
 62
     7
100
AcDbVertex
100
AcDb2dVertex
 10
25.698373
 20
61.337966
 30
0.0
  0
VERTEX
  5
FED
100
AcDbEntity
  8
ALPHA
 62
     7
100
AcDbVertex
100
AcDb2dVertex
 10
26.498497
 20
61.337966
 30
0.0
  0
SEQEND
  5
FEE
100
AcDbEntity
  8
ALPHA
 62
     7
  0
POLYLINE
  5
FEF
100
AcDbEntity
  8
ALPHA
 62
     7
100
AcDb2dPolyline
 66
     1
 10
0.0
 20
0.0
 30
0.0
 70
     1
  0
VERTEX
  5
FF0
100
AcDbEntity
  8
ALPHA
 62
     7
100
AcDbVertex
100
AcDb2dVertex
 10
32.925322
 20
60.538015
 30
0.0
  0
VERTEX
  5
FF1
100
AcDbEntity
  8
ALPHA
 62
     7
100
AcDbVertex
100
AcDb2dVertex
 10
32.125371
 20
60.538015
 30
0.0
  0
VERTEX
  5
FF2
100
AcDbEntity
  8
ALPHA
 62
     7
100
AcDbVertex
100
AcDb2dVertex
 10
32.125371
 20
61.337966
 30
0.0
  0
VERTEX
  5
FF3
100
AcDbEntity
  8
ALPHA
 62
     7
100
AcDbVertex
100
AcDb2dVertex
 10
32.925322
 20
61.337966
 30
0.0
  0
SEQEND
  5
FF4
100
AcDbEntity
  8
ALPHA
 62
     7
  0
MTEXT
  5
FF5
100
AcDbEntity
  8
TEXTE
 62
     7
100
AcDbMText
 10
28.676486
 20
74.684102
 30
0.0
 40
1.312417
 41
0.0
 71
     1
 72
     2
  1
\fTxt|b0|i0;3
  7
STD
  0
POLYLINE
  5
FF6
100
AcDbEntity
  8
ALPHA
 62
     7
100
AcDb2dPolyline
 66
     1
 10
0.0
 20
0.0
 30
0.0
 70
     1
  0
VERTEX
  5
FF7
100
AcDbEntity
  8
ALPHA
 62
     7
100
AcDbVertex
100
AcDb2dVertex
 10
29.711909
 20
71.728718
 30
0.0
  0
VERTEX
  5
FF8
100
AcDbEntity
  8
ALPHA
 62
     7
100
AcDbVertex
100
AcDb2dVertex
 10
28.911786
 20
71.728718
 30
0.0
  0
VERTEX
  5
FF9
100
AcDbEntity
  8
ALPHA
 62
     7
100
AcDbVertex
100
AcDb2dVertex
 10
28.911786
 20
72.52867
 30
0.0
  0
VERTEX
  5
FFA
100
AcDbEntity
  8
ALPHA
 62
     7
100
AcDbVertex
100
AcDb2dVertex
 10
29.711909
 20
72.52867
 30
0.0
  0
SEQEND
  5
FFB
100
AcDbEntity
  8
ALPHA
 62
     7
  0
MTEXT
  5
FFC
100
AcDbEntity
  8
TEXTE
 62
     7
100
AcDbMText
 10
25.463245
 20
74.684102
 30
0.0
 40
1.312417
 41
0.0
 71
     1
 72
     2
  1
\fTxt|b0|i0;2
  7
STD
  0
POLYLINE
  5
FFD
100
AcDbEntity
  8
ALPHA
 62
     7
100
AcDb2dPolyline
 66
     1
 10
0.0
 20
0.0
 30
0.0
 70
     1
  0
VERTEX
  5
FFE
100
AcDbEntity
  8
ALPHA
 62
     7
100
AcDbVertex
100
AcDb2dVertex
 10
26.498497
 20
71.728718
 30
0.0
  0
VERTEX
  5
FFF
100
AcDbEntity
  8
ALPHA
 62
     7
100
AcDbVertex
100
AcDb2dVertex
 10
25.698373
 20
71.728718
 30
0.0
  0
VERTEX
  5
1000
100
AcDbEntity
  8
ALPHA
 62
     7
100
AcDbVertex
100
AcDb2dVertex
 10
25.698373
 20
72.52867
 30
0.0
  0
VERTEX
  5
1001
100
AcDbEntity
  8
ALPHA
 62
     7
100
AcDbVertex
100
AcDb2dVertex
 10
26.498497
 20
72.52867
 30
0.0
  0
SEQEND
  5
1002
100
AcDbEntity
  8
ALPHA
 62
     7
  0
MTEXT
  5
1003
100
AcDbEntity
  8
TEXTE
 62
     7
100
AcDbMText
 10
31.890071
 20
74.684102
 30
0.0
 40
1.312417
 41
0.0
 71
     1
 72
     2
  1
\fTxt|b0|i0;4
  7
STD
  0
POLYLINE
  5
1004
100
AcDbEntity
  8
ALPHA
 62
     7
100
AcDb2dPolyline
 66
     1
 10
0.0
 20
0.0
 30
0.0
 70
     1
  0
VERTEX
  5
1005
100
AcDbEntity
  8
ALPHA
 62
     7
100
AcDbVertex
100
AcDb2dVertex
 10
32.925322
 20
71.728718
 30
0.0
  0
VERTEX
  5
1006
100
AcDbEntity
  8
ALPHA
 62
     7
100
AcDbVertex
100
AcDb2dVertex
 10
32.125371
 20
71.728718
 30
0.0
  0
VERTEX
  5
1007
100
AcDbEntity
  8
ALPHA
 62
     7
100
AcDbVertex
100
AcDb2dVertex
 10
32.125371
 20
72.52867
 30
0.0
  0
VERTEX
  5
1008
100
AcDbEntity
  8
ALPHA
 62
     7
100
AcDbVertex
100
AcDb2dVertex
 10
32.925322
 20
72.52867
 30
0.0
  0
SEQEND
  5
1009
100
AcDbEntity
  8
ALPHA
 62
     7
  0
MTEXT
  5
100A
100
AcDbEntity
  8
TEXTE
 62
     7
100
AcDbMText
 10
22.461189
 20
85.874805
 30
0.0
 40
1.312417
 41
0.0
 71
     1
 72
     2
  1
\fTxt|b0|i0;1
  7
STD
  0
POLYLINE
  5
100B
100
AcDbEntity
  8
ALPHA
 62
     7
100
AcDb2dPolyline
 66
     1
 10
0.0
 20
0.0
 30
0.0
 70
     1
  0
VERTEX
  5
100C
100
AcDbEntity
  8
ALPHA
 62
     7
100
AcDbVertex
100
AcDb2dVertex
 10
23.284911
 20
82.919422
 30
0.0
  0
VERTEX
  5
100D
100
AcDbEntity
  8
ALPHA
 62
     7
100
AcDbVertex
100
AcDb2dVertex
 10
22.48496
 20
82.919422
 30
0.0
  0
VERTEX
  5
100E
100
AcDbEntity
  8
ALPHA
 62
     7
100
AcDbVertex
100
AcDb2dVertex
 10
22.48496
 20
83.719373
 30
0.0
  0
VERTEX
  5
100F
100
AcDbEntity
  8
ALPHA
 62
     7
100
AcDbVertex
100
AcDb2dVertex
 10
23.284911
 20
83.719373
 30
0.0
  0
SEQEND
  5
1010
100
AcDbEntity
  8
ALPHA
 62
     7
  0
MTEXT
  5
1011
100
AcDbEntity
  8
TEXTE
 62
     7
100
AcDbMText
 10
28.676486
 20
85.874805
 30
0.0
 40
1.312417
 41
0.0
 71
     1
 72
     2
  1
\fTxt|b0|i0;3
  7
STD
  0
POLYLINE
  5
1012
100
AcDbEntity
  8
ALPHA
 62
     7
100
AcDb2dPolyline
 66
     1
 10
0.0
 20
0.0
 30
0.0
 70
     1
  0
VERTEX
  5
1013
100
AcDbEntity
  8
ALPHA
 62
     7
100
AcDbVertex
100
AcDb2dVertex
 10
29.711909
 20
82.919422
 30
0.0
  0
VERTEX
  5
1014
100
AcDbEntity
  8
ALPHA
 62
     7
100
AcDbVertex
100
AcDb2dVertex
 10
28.911786
 20
82.919422
 30
0.0
  0
VERTEX
  5
1015
100
AcDbEntity
  8
ALPHA
 62
     7
100
AcDbVertex
100
AcDb2dVertex
 10
28.911786
 20
83.719373
 30
0.0
  0
VERTEX
  5
1016
100
AcDbEntity
  8
ALPHA
 62
     7
100
AcDbVertex
100
AcDb2dVertex
 10
29.711909
 20
83.719373
 30
0.0
  0
SEQEND
  5
1017
100
AcDbEntity
  8
ALPHA
 62
     7
  0
POLYLINE
  5
1018
100
AcDbEntity
  8
ALPHA
 62
     7
100
AcDb2dPolyline
 66
     1
 10
0.0
 20
0.0
 30
0.0
 70
     1
  0
VERTEX
  5
1019
100
AcDbEntity
  8
ALPHA
 62
     7
100
AcDbVertex
100
AcDb2dVertex
 10
26.498497
 20
82.919422
 30
0.0
  0
VERTEX
  5
101A
100
AcDbEntity
  8
ALPHA
 62
     7
100
AcDbVertex
100
AcDb2dVertex
 10
25.698373
 20
82.919422
 30
0.0
  0
VERTEX
  5
101B
100
AcDbEntity
  8
ALPHA
 62
     7
100
AcDbVertex
100
AcDb2dVertex
 10
25.698373
 20
83.719373
 30
0.0
  0
VERTEX
  5
101C
100
AcDbEntity
  8
ALPHA
 62
     7
100
AcDbVertex
100
AcDb2dVertex
 10
26.498497
 20
83.719373
 30
0.0
  0
SEQEND
  5
101D
100
AcDbEntity
  8
ALPHA
 62
     7
  0
MTEXT
  5
101E
100
AcDbEntity
  8
TEXTE
 62
     7
100
AcDbMText
 10
25.463245
 20
85.874805
 30
0.0
 40
1.312417
 41
0.0
 71
     1
 72
     2
  1
\fTxt|b0|i0;2
  7
STD
  0
POLYLINE
  5
101F
100
AcDbEntity
  8
ALPHA
 62
     7
100
AcDb2dPolyline
 66
     1
 10
0.0
 20
0.0
 30
0.0
 70
     1
  0
VERTEX
  5
1020
100
AcDbEntity
  8
ALPHA
 62
     7
100
AcDbVertex
100
AcDb2dVertex
 10
32.925322
 20
82.919422
 30
0.0
  0
VERTEX
  5
1021
100
AcDbEntity
  8
ALPHA
 62
     7
100
AcDbVertex
100
AcDb2dVertex
 10
32.125371
 20
82.919422
 30
0.0
  0
VERTEX
  5
1022
100
AcDbEntity
  8
ALPHA
 62
     7
100
AcDbVertex
100
AcDb2dVertex
 10
32.125371
 20
83.719373
 30
0.0
  0
VERTEX
  5
1023
100
AcDbEntity
  8
ALPHA
 62
     7
100
AcDbVertex
100
AcDb2dVertex
 10
32.925322
 20
83.719373
 30
0.0
  0
SEQEND
  5
1024
100
AcDbEntity
  8
ALPHA
 62
     7
  0
MTEXT
  5
1025
100
AcDbEntity
  8
TEXTE
 62
     7
100
AcDbMText
 10
31.890071
 20
85.874805
 30
0.0
 40
1.312417
 41
0.0
 71
     1
 72
     2
  1
\fTxt|b0|i0;4
  7
STD
  0
MTEXT
  5
1026
100
AcDbEntity
  8
TEXTE
 62
     7
100
AcDbMText
 10
47.956963
 20
74.684102
 30
0.0
 40
1.312417
 41
0.0
 71
     1
 72
     2
  1
\fTxt|b0|i0;9
  7
STD
  0
POLYLINE
  5
1027
100
AcDbEntity
  8
ALPHA
 62
     7
100
AcDb2dPolyline
 66
     1
 10
0.0
 20
0.0
 30
0.0
 70
     1
  0
VERTEX
  5
1028
100
AcDbEntity
  8
ALPHA
 62
     7
100
AcDbVertex
100
AcDb2dVertex
 10
48.992558
 20
60.538015
 30
0.0
  0
VERTEX
  5
1029
100
AcDbEntity
  8
ALPHA
 62
     7
100
AcDbVertex
100
AcDb2dVertex
 10
48.192263
 20
60.538015
 30
0.0
  0
VERTEX
  5
102A
100
AcDbEntity
  8
ALPHA
 62
     7
100
AcDbVertex
100
AcDb2dVertex
 10
48.192263
 20
61.337966
 30
0.0
  0
VERTEX
  5
102B
100
AcDbEntity
  8
ALPHA
 62
     7
100
AcDbVertex
100
AcDb2dVertex
 10
48.992558
 20
61.337966
 30
0.0
  0
SEQEND
  5
102C
100
AcDbEntity
  8
ALPHA
 62
     7
  0
POLYLINE
  5
102D
100
AcDbEntity
  8
ALPHA
 62
     7
100
AcDb2dPolyline
 66
     1
 10
0.0
 20
0.0
 30
0.0
 70
     1
  0
VERTEX
  5
102E
100
AcDbEntity
  8
ALPHA
 62
     7
100
AcDbVertex
100
AcDb2dVertex
 10
48.992558
 20
71.728718
 30
0.0
  0
VERTEX
  5
102F
100
AcDbEntity
  8
ALPHA
 62
     7
100
AcDbVertex
100
AcDb2dVertex
 10
48.192263
 20
71.728718
 30
0.0
  0
VERTEX
  5
1030
100
AcDbEntity
  8
ALPHA
 62
     7
100
AcDbVertex
100
AcDb2dVertex
 10
48.192263
 20
72.52867
 30
0.0
  0
VERTEX
  5
1031
100
AcDbEntity
  8
ALPHA
 62
     7
100
AcDbVertex
100
AcDb2dVertex
 10
48.992558
 20
72.52867
 30
0.0
  0
SEQEND
  5
1032
100
AcDbEntity
  8
ALPHA
 62
     7
  0
POLYLINE
  5
1033
100
AcDbEntity
  8
ALPHA
 62
     7
100
AcDb2dPolyline
 66
     1
 10
0.0
 20
0.0
 30
0.0
 70
     1
  0
VERTEX
  5
1034
100
AcDbEntity
  8
ALPHA
 62
     7
100
AcDbVertex
100
AcDb2dVertex
 10
42.565733
 20
60.538015
 30
0.0
  0
VERTEX
  5
1035
100
AcDbEntity
  8
ALPHA
 62
     7
100
AcDbVertex
100
AcDb2dVertex
 10
41.765437
 20
60.538015
 30
0.0
  0
VERTEX
  5
1036
100
AcDbEntity
  8
ALPHA
 62
     7
100
AcDbVertex
100
AcDb2dVertex
 10
41.765437
 20
61.337966
 30
0.0
  0
VERTEX
  5
1037
100
AcDbEntity
  8
ALPHA
 62
     7
100
AcDbVertex
100
AcDb2dVertex
 10
42.565733
 20
61.337966
 30
0.0
  0
SEQEND
  5
1038
100
AcDbEntity
  8
ALPHA
 62
     7
  0
POLYLINE
  5
1039
100
AcDbEntity
  8
ALPHA
 62
     7
100
AcDb2dPolyline
 66
     1
 10
0.0
 20
0.0
 30
0.0
 70
     1
  0
VERTEX
  5
103A
100
AcDbEntity
  8
ALPHA
 62
     7
100
AcDbVertex
100
AcDb2dVertex
 10
39.352148
 20
60.538015
 30
0.0
  0
VERTEX
  5
103B
100
AcDbEntity
  8
ALPHA
 62
     7
100
AcDbVertex
100
AcDb2dVertex
 10
38.552197
 20
60.538015
 30
0.0
  0
VERTEX
  5
103C
100
AcDbEntity
  8
ALPHA
 62
     7
100
AcDbVertex
100
AcDb2dVertex
 10
38.552197
 20
61.337966
 30
0.0
  0
VERTEX
  5
103D
100
AcDbEntity
  8
ALPHA
 62
     7
100
AcDbVertex
100
AcDb2dVertex
 10
39.352148
 20
61.337966
 30
0.0
  0
SEQEND
  5
103E
100
AcDbEntity
  8
ALPHA
 62
     7
  0
POLYLINE
  5
103F
100
AcDbEntity
  8
ALPHA
 62
     7
100
AcDb2dPolyline
 66
     1
 10
0.0
 20
0.0
 30
0.0
 70
     1
  0
VERTEX
  5
1040
100
AcDbEntity
  8
ALPHA
 62
     7
100
AcDbVertex
100
AcDb2dVertex
 10
45.778973
 20
60.538015
 30
0.0
  0
VERTEX
  5
1041
100
AcDbEntity
  8
ALPHA
 62
     7
100
AcDbVertex
100
AcDb2dVertex
 10
44.979022
 20
60.538015
 30
0.0
  0
VERTEX
  5
1042
100
AcDbEntity
  8
ALPHA
 62
     7
100
AcDbVertex
100
AcDb2dVertex
 10
44.979022
 20
61.337966
 30
0.0
  0
VERTEX
  5
1043
100
AcDbEntity
  8
ALPHA
 62
     7
100
AcDbVertex
100
AcDb2dVertex
 10
45.778973
 20
61.337966
 30
0.0
  0
SEQEND
  5
1044
100
AcDbEntity
  8
ALPHA
 62
     7
  0
MTEXT
  5
1045
100
AcDbEntity
  8
TEXTE
 62
     7
100
AcDbMText
 10
41.530137
 20
74.684102
 30
0.0
 40
1.312417
 41
0.0
 71
     1
 72
     2
  1
\fTxt|b0|i0;7
  7
STD
  0
POLYLINE
  5
1046
100
AcDbEntity
  8
ALPHA
 62
     7
100
AcDb2dPolyline
 66
     1
 10
0.0
 20
0.0
 30
0.0
 70
     1
  0
VERTEX
  5
1047
100
AcDbEntity
  8
ALPHA
 62
     7
100
AcDbVertex
100
AcDb2dVertex
 10
42.565733
 20
71.728718
 30
0.0
  0
VERTEX
  5
1048
100
AcDbEntity
  8
ALPHA
 62
     7
100
AcDbVertex
100
AcDb2dVertex
 10
41.765437
 20
71.728718
 30
0.0
  0
VERTEX
  5
1049
100
AcDbEntity
  8
ALPHA
 62
     7
100
AcDbVertex
100
AcDb2dVertex
 10
41.765437
 20
72.52867
 30
0.0
  0
VERTEX
  5
104A
100
AcDbEntity
  8
ALPHA
 62
     7
100
AcDbVertex
100
AcDb2dVertex
 10
42.565733
 20
72.52867
 30
0.0
  0
SEQEND
  5
104B
100
AcDbEntity
  8
ALPHA
 62
     7
  0
MTEXT
  5
104C
100
AcDbEntity
  8
TEXTE
 62
     7
100
AcDbMText
 10
38.316897
 20
74.684102
 30
0.0
 40
1.312417
 41
0.0
 71
     1
 72
     2
  1
\fTxt|b0|i0;6
  7
STD
  0
POLYLINE
  5
104D
100
AcDbEntity
  8
ALPHA
 62
     7
100
AcDb2dPolyline
 66
     1
 10
0.0
 20
0.0
 30
0.0
 70
     1
  0
VERTEX
  5
104E
100
AcDbEntity
  8
ALPHA
 62
     7
100
AcDbVertex
100
AcDb2dVertex
 10
39.352148
 20
71.728718
 30
0.0
  0
VERTEX
  5
104F
100
AcDbEntity
  8
ALPHA
 62
     7
100
AcDbVertex
100
AcDb2dVertex
 10
38.552197
 20
71.728718
 30
0.0
  0
VERTEX
  5
1050
100
AcDbEntity
  8
ALPHA
 62
     7
100
AcDbVertex
100
AcDb2dVertex
 10
38.552197
 20
72.52867
 30
0.0
  0
VERTEX
  5
1051
100
AcDbEntity
  8
ALPHA
 62
     7
100
AcDbVertex
100
AcDb2dVertex
 10
39.352148
 20
72.52867
 30
0.0
  0
SEQEND
  5
1052
100
AcDbEntity
  8
ALPHA
 62
     7
  0
MTEXT
  5
1053
100
AcDbEntity
  8
TEXTE
 62
     7
100
AcDbMText
 10
44.743722
 20
74.684102
 30
0.0
 40
1.312417
 41
0.0
 71
     1
 72
     2
  1
\fTxt|b0|i0;8
  7
STD
  0
POLYLINE
  5
1054
100
AcDbEntity
  8
ALPHA
 62
     7
100
AcDb2dPolyline
 66
     1
 10
0.0
 20
0.0
 30
0.0
 70
     1
  0
VERTEX
  5
1055
100
AcDbEntity
  8
ALPHA
 62
     7
100
AcDbVertex
100
AcDb2dVertex
 10
45.778973
 20
71.728718
 30
0.0
  0
VERTEX
  5
1056
100
AcDbEntity
  8
ALPHA
 62
     7
100
AcDbVertex
100
AcDb2dVertex
 10
44.979022
 20
71.728718
 30
0.0
  0
VERTEX
  5
1057
100
AcDbEntity
  8
ALPHA
 62
     7
100
AcDbVertex
100
AcDb2dVertex
 10
44.979022
 20
72.52867
 30
0.0
  0
VERTEX
  5
1058
100
AcDbEntity
  8
ALPHA
 62
     7
100
AcDbVertex
100
AcDb2dVertex
 10
45.778973
 20
72.52867
 30
0.0
  0
SEQEND
  5
1059
100
AcDbEntity
  8
ALPHA
 62
     7
  0
POLYLINE
  5
105A
100
AcDbEntity
  8
ALPHA
 62
     7
100
AcDb2dPolyline
 66
     1
 10
0.0
 20
0.0
 30
0.0
 70
     1
  0
VERTEX
  5
105B
100
AcDbEntity
  8
ALPHA
 62
     7
100
AcDbVertex
100
AcDb2dVertex
 10
55.419384
 20
60.538015
 30
0.0
  0
VERTEX
  5
105C
100
AcDbEntity
  8
ALPHA
 62
     7
100
AcDbVertex
100
AcDb2dVertex
 10
54.619088
 20
60.538015
 30
0.0
  0
VERTEX
  5
105D
100
AcDbEntity
  8
ALPHA
 62
     7
100
AcDbVertex
100
AcDb2dVertex
 10
54.619088
 20
61.337966
 30
0.0
  0
VERTEX
  5
105E
100
AcDbEntity
  8
ALPHA
 62
     7
100
AcDbVertex
100
AcDb2dVertex
 10
55.419384
 20
61.337966
 30
0.0
  0
SEQEND
  5
105F
100
AcDbEntity
  8
ALPHA
 62
     7
  0
POLYLINE
  5
1060
100
AcDbEntity
  8
ALPHA
 62
     7
100
AcDb2dPolyline
 66
     1
 10
0.0
 20
0.0
 30
0.0
 70
     1
  0
VERTEX
  5
1061
100
AcDbEntity
  8
ALPHA
 62
     7
100
AcDbVertex
100
AcDb2dVertex
 10
52.205799
 20
60.538015
 30
0.0
  0
VERTEX
  5
1062
100
AcDbEntity
  8
ALPHA
 62
     7
100
AcDbVertex
100
AcDb2dVertex
 10
51.405848
 20
60.538015
 30
0.0
  0
VERTEX
  5
1063
100
AcDbEntity
  8
ALPHA
 62
     7
100
AcDbVertex
100
AcDb2dVertex
 10
51.405848
 20
61.337966
 30
0.0
  0
VERTEX
  5
1064
100
AcDbEntity
  8
ALPHA
 62
     7
100
AcDbVertex
100
AcDb2dVertex
 10
52.205799
 20
61.337966
 30
0.0
  0
SEQEND
  5
1065
100
AcDbEntity
  8
ALPHA
 62
     7
  0
POLYLINE
  5
1066
100
AcDbEntity
  8
ALPHA
 62
     7
100
AcDb2dPolyline
 66
     1
 10
0.0
 20
0.0
 30
0.0
 70
     1
  0
VERTEX
  5
1067
100
AcDbEntity
  8
ALPHA
 62
     7
100
AcDbVertex
100
AcDb2dVertex
 10
58.632625
 20
60.538015
 30
0.0
  0
VERTEX
  5
1068
100
AcDbEntity
  8
ALPHA
 62
     7
100
AcDbVertex
100
AcDb2dVertex
 10
57.832674
 20
60.538015
 30
0.0
  0
VERTEX
  5
1069
100
AcDbEntity
  8
ALPHA
 62
     7
100
AcDbVertex
100
AcDb2dVertex
 10
57.832674
 20
61.337966
 30
0.0
  0
VERTEX
  5
106A
100
AcDbEntity
  8
ALPHA
 62
     7
100
AcDbVertex
100
AcDb2dVertex
 10
58.632625
 20
61.337966
 30
0.0
  0
SEQEND
  5
106B
100
AcDbEntity
  8
ALPHA
 62
     7
  0
MTEXT
  5
106C
100
AcDbEntity
  8
TEXTE
 62
     7
100
AcDbMText
 10
54.171571
 20
74.684102
 30
0.0
 40
1.312417
 41
0.0
 71
     1
 72
     2
  1
\fTxt|b0|i0;11
  7
STD
  0
POLYLINE
  5
106D
100
AcDbEntity
  8
ALPHA
 62
     7
100
AcDb2dPolyline
 66
     1
 10
0.0
 20
0.0
 30
0.0
 70
     1
  0
VERTEX
  5
106E
100
AcDbEntity
  8
ALPHA
 62
     7
100
AcDbVertex
100
AcDb2dVertex
 10
55.419384
 20
71.728718
 30
0.0
  0
VERTEX
  5
106F
100
AcDbEntity
  8
ALPHA
 62
     7
100
AcDbVertex
100
AcDb2dVertex
 10
54.619088
 20
71.728718
 30
0.0
  0
VERTEX
  5
1070
100
AcDbEntity
  8
ALPHA
 62
     7
100
AcDbVertex
100
AcDb2dVertex
 10
54.619088
 20
72.52867
 30
0.0
  0
VERTEX
  5
1071
100
AcDbEntity
  8
ALPHA
 62
     7
100
AcDbVertex
100
AcDb2dVertex
 10
55.419384
 20
72.52867
 30
0.0
  0
SEQEND
  5
1072
100
AcDbEntity
  8
ALPHA
 62
     7
  0
MTEXT
  5
1073
100
AcDbEntity
  8
TEXTE
 62
     7
100
AcDbMText
 10
50.852393
 20
74.684102
 30
0.0
 40
1.312417
 41
0.0
 71
     1
 72
     2
  1
\fTxt|b0|i0;10
  7
STD
  0
POLYLINE
  5
1074
100
AcDbEntity
  8
ALPHA
 62
     7
100
AcDb2dPolyline
 66
     1
 10
0.0
 20
0.0
 30
0.0
 70
     1
  0
VERTEX
  5
1075
100
AcDbEntity
  8
ALPHA
 62
     7
100
AcDbVertex
100
AcDb2dVertex
 10
52.205799
 20
71.728718
 30
0.0
  0
VERTEX
  5
1076
100
AcDbEntity
  8
ALPHA
 62
     7
100
AcDbVertex
100
AcDb2dVertex
 10
51.405848
 20
71.728718
 30
0.0
  0
VERTEX
  5
1077
100
AcDbEntity
  8
ALPHA
 62
     7
100
AcDbVertex
100
AcDb2dVertex
 10
51.405848
 20
72.52867
 30
0.0
  0
VERTEX
  5
1078
100
AcDbEntity
  8
ALPHA
 62
     7
100
AcDbVertex
100
AcDb2dVertex
 10
52.205799
 20
72.52867
 30
0.0
  0
SEQEND
  5
1079
100
AcDbEntity
  8
ALPHA
 62
     7
  0
MTEXT
  5
107A
100
AcDbEntity
  8
TEXTE
 62
     7
100
AcDbMText
 10
57.173627
 20
74.684102
 30
0.0
 40
1.312417
 41
0.0
 71
     1
 72
     2
  1
\fTxt|b0|i0;12
  7
STD
  0
POLYLINE
  5
107B
100
AcDbEntity
  8
ALPHA
 62
     7
100
AcDb2dPolyline
 66
     1
 10
0.0
 20
0.0
 30
0.0
 70
     1
  0
VERTEX
  5
107C
100
AcDbEntity
  8
ALPHA
 62
     7
100
AcDbVertex
100
AcDb2dVertex
 10
58.632625
 20
71.728718
 30
0.0
  0
VERTEX
  5
107D
100
AcDbEntity
  8
ALPHA
 62
     7
100
AcDbVertex
100
AcDb2dVertex
 10
57.832674
 20
71.728718
 30
0.0
  0
VERTEX
  5
107E
100
AcDbEntity
  8
ALPHA
 62
     7
100
AcDbVertex
100
AcDb2dVertex
 10
57.832674
 20
72.52867
 30
0.0
  0
VERTEX
  5
107F
100
AcDbEntity
  8
ALPHA
 62
     7
100
AcDbVertex
100
AcDb2dVertex
 10
58.632625
 20
72.52867
 30
0.0
  0
SEQEND
  5
1080
100
AcDbEntity
  8
ALPHA
 62
     7
  0
MTEXT
  5
1081
100
AcDbEntity
  8
TEXTE
 62
     7
100
AcDbMText
 10
47.956963
 20
85.874805
 30
0.0
 40
1.312417
 41
0.0
 71
     1
 72
     2
  1
\fTxt|b0|i0;9
  7
STD
  0
POLYLINE
  5
1082
100
AcDbEntity
  8
ALPHA
 62
     7
100
AcDb2dPolyline
 66
     1
 10
0.0
 20
0.0
 30
0.0
 70
     1
  0
VERTEX
  5
1083
100
AcDbEntity
  8
ALPHA
 62
     7
100
AcDbVertex
100
AcDb2dVertex
 10
48.992558
 20
82.919422
 30
0.0
  0
VERTEX
  5
1084
100
AcDbEntity
  8
ALPHA
 62
     7
100
AcDbVertex
100
AcDb2dVertex
 10
48.192263
 20
82.919422
 30
0.0
  0
VERTEX
  5
1085
100
AcDbEntity
  8
ALPHA
 62
     7
100
AcDbVertex
100
AcDb2dVertex
 10
48.192263
 20
83.719373
 30
0.0
  0
VERTEX
  5
1086
100
AcDbEntity
  8
ALPHA
 62
     7
100
AcDbVertex
100
AcDb2dVertex
 10
48.992558
 20
83.719373
 30
0.0
  0
SEQEND
  5
1087
100
AcDbEntity
  8
ALPHA
 62
     7
  0
MTEXT
  5
1088
100
AcDbEntity
  8
TEXTE
 62
     7
100
AcDbMText
 10
41.530137
 20
85.874805
 30
0.0
 40
1.312417
 41
0.0
 71
     1
 72
     2
  1
\fTxt|b0|i0;7
  7
STD
  0
POLYLINE
  5
1089
100
AcDbEntity
  8
ALPHA
 62
     7
100
AcDb2dPolyline
 66
     1
 10
0.0
 20
0.0
 30
0.0
 70
     1
  0
VERTEX
  5
108A
100
AcDbEntity
  8
ALPHA
 62
     7
100
AcDbVertex
100
AcDb2dVertex
 10
42.565733
 20
82.919422
 30
0.0
  0
VERTEX
  5
108B
100
AcDbEntity
  8
ALPHA
 62
     7
100
AcDbVertex
100
AcDb2dVertex
 10
41.765437
 20
82.919422
 30
0.0
  0
VERTEX
  5
108C
100
AcDbEntity
  8
ALPHA
 62
     7
100
AcDbVertex
100
AcDb2dVertex
 10
41.765437
 20
83.719373
 30
0.0
  0
VERTEX
  5
108D
100
AcDbEntity
  8
ALPHA
 62
     7
100
AcDbVertex
100
AcDb2dVertex
 10
42.565733
 20
83.719373
 30
0.0
  0
SEQEND
  5
108E
100
AcDbEntity
  8
ALPHA
 62
     7
  0
POLYLINE
  5
108F
100
AcDbEntity
  8
ALPHA
 62
     7
100
AcDb2dPolyline
 66
     1
 10
0.0
 20
0.0
 30
0.0
 70
     1
  0
VERTEX
  5
1090
100
AcDbEntity
  8
ALPHA
 62
     7
100
AcDbVertex
100
AcDb2dVertex
 10
39.352148
 20
82.919422
 30
0.0
  0
VERTEX
  5
1091
100
AcDbEntity
  8
ALPHA
 62
     7
100
AcDbVertex
100
AcDb2dVertex
 10
38.552197
 20
82.919422
 30
0.0
  0
VERTEX
  5
1092
100
AcDbEntity
  8
ALPHA
 62
     7
100
AcDbVertex
100
AcDb2dVertex
 10
38.552197
 20
83.719373
 30
0.0
  0
VERTEX
  5
1093
100
AcDbEntity
  8
ALPHA
 62
     7
100
AcDbVertex
100
AcDb2dVertex
 10
39.352148
 20
83.719373
 30
0.0
  0
SEQEND
  5
1094
100
AcDbEntity
  8
ALPHA
 62
     7
  0
MTEXT
  5
1095
100
AcDbEntity
  8
TEXTE
 62
     7
100
AcDbMText
 10
38.316897
 20
85.874805
 30
0.0
 40
1.312417
 41
0.0
 71
     1
 72
     2
  1
\fTxt|b0|i0;6
  7
STD
  0
POLYLINE
  5
1096
100
AcDbEntity
  8
ALPHA
 62
     7
100
AcDb2dPolyline
 66
     1
 10
0.0
 20
0.0
 30
0.0
 70
     1
  0
VERTEX
  5
1097
100
AcDbEntity
  8
ALPHA
 62
     7
100
AcDbVertex
100
AcDb2dVertex
 10
45.778973
 20
82.919422
 30
0.0
  0
VERTEX
  5
1098
100
AcDbEntity
  8
ALPHA
 62
     7
100
AcDbVertex
100
AcDb2dVertex
 10
44.979022
 20
82.919422
 30
0.0
  0
VERTEX
  5
1099
100
AcDbEntity
  8
ALPHA
 62
     7
100
AcDbVertex
100
AcDb2dVertex
 10
44.979022
 20
83.719373
 30
0.0
  0
VERTEX
  5
109A
100
AcDbEntity
  8
ALPHA
 62
     7
100
AcDbVertex
100
AcDb2dVertex
 10
45.778973
 20
83.719373
 30
0.0
  0
SEQEND
  5
109B
100
AcDbEntity
  8
ALPHA
 62
     7
  0
MTEXT
  5
109C
100
AcDbEntity
  8
TEXTE
 62
     7
100
AcDbMText
 10
44.743722
 20
85.874805
 30
0.0
 40
1.312417
 41
0.0
 71
     1
 72
     2
  1
\fTxt|b0|i0;8
  7
STD
  0
MTEXT
  5
109D
100
AcDbEntity
  8
TEXTE
 62
     7
100
AcDbMText
 10
54.171571
 20
85.874805
 30
0.0
 40
1.312417
 41
0.0
 71
     1
 72
     2
  1
\fTxt|b0|i0;11
  7
STD
  0
POLYLINE
  5
109E
100
AcDbEntity
  8
ALPHA
 62
     7
100
AcDb2dPolyline
 66
     1
 10
0.0
 20
0.0
 30
0.0
 70
     1
  0
VERTEX
  5
109F
100
AcDbEntity
  8
ALPHA
 62
     7
100
AcDbVertex
100
AcDb2dVertex
 10
55.419384
 20
82.919422
 30
0.0
  0
VERTEX
  5
10A0
100
AcDbEntity
  8
ALPHA
 62
     7
100
AcDbVertex
100
AcDb2dVertex
 10
54.619088
 20
82.919422
 30
0.0
  0
VERTEX
  5
10A1
100
AcDbEntity
  8
ALPHA
 62
     7
100
AcDbVertex
100
AcDb2dVertex
 10
54.619088
 20
83.719373
 30
0.0
  0
VERTEX
  5
10A2
100
AcDbEntity
  8
ALPHA
 62
     7
100
AcDbVertex
100
AcDb2dVertex
 10
55.419384
 20
83.719373
 30
0.0
  0
SEQEND
  5
10A3
100
AcDbEntity
  8
ALPHA
 62
     7
  0
POLYLINE
  5
10A4
100
AcDbEntity
  8
ALPHA
 62
     7
100
AcDb2dPolyline
 66
     1
 10
0.0
 20
0.0
 30
0.0
 70
     1
  0
VERTEX
  5
10A5
100
AcDbEntity
  8
ALPHA
 62
     7
100
AcDbVertex
100
AcDb2dVertex
 10
52.205799
 20
82.919422
 30
0.0
  0
VERTEX
  5
10A6
100
AcDbEntity
  8
ALPHA
 62
     7
100
AcDbVertex
100
AcDb2dVertex
 10
51.405848
 20
82.919422
 30
0.0
  0
VERTEX
  5
10A7
100
AcDbEntity
  8
ALPHA
 62
     7
100
AcDbVertex
100
AcDb2dVertex
 10
51.405848
 20
83.719373
 30
0.0
  0
VERTEX
  5
10A8
100
AcDbEntity
  8
ALPHA
 62
     7
100
AcDbVertex
100
AcDb2dVertex
 10
52.205799
 20
83.719373
 30
0.0
  0
SEQEND
  5
10A9
100
AcDbEntity
  8
ALPHA
 62
     7
  0
MTEXT
  5
10AA
100
AcDbEntity
  8
TEXTE
 62
     7
100
AcDbMText
 10
50.852393
 20
85.874805
 30
0.0
 40
1.312417
 41
0.0
 71
     1
 72
     2
  1
\fTxt|b0|i0;10
  7
STD
  0
POLYLINE
  5
10AB
100
AcDbEntity
  8
ALPHA
 62
     7
100
AcDb2dPolyline
 66
     1
 10
0.0
 20
0.0
 30
0.0
 70
     1
  0
VERTEX
  5
10AC
100
AcDbEntity
  8
ALPHA
 62
     7
100
AcDbVertex
100
AcDb2dVertex
 10
58.632625
 20
82.919422
 30
0.0
  0
VERTEX
  5
10AD
100
AcDbEntity
  8
ALPHA
 62
     7
100
AcDbVertex
100
AcDb2dVertex
 10
57.832674
 20
82.919422
 30
0.0
  0
VERTEX
  5
10AE
100
AcDbEntity
  8
ALPHA
 62
     7
100
AcDbVertex
100
AcDb2dVertex
 10
57.832674
 20
83.719373
 30
0.0
  0
VERTEX
  5
10AF
100
AcDbEntity
  8
ALPHA
 62
     7
100
AcDbVertex
100
AcDb2dVertex
 10
58.632625
 20
83.719373
 30
0.0
  0
SEQEND
  5
10B0
100
AcDbEntity
  8
ALPHA
 62
     7
  0
MTEXT
  5
10B1
100
AcDbEntity
  8
TEXTE
 62
     7
100
AcDbMText
 10
57.173627
 20
85.874805
 30
0.0
 40
1.312417
 41
0.0
 71
     1
 72
     2
  1
\fTxt|b0|i0;12
  7
STD
  0
MTEXT
  5
10B2
100
AcDbEntity
  8
TEXTE
 62
     7
100
AcDbMText
 10
81.753005
 20
60.267583
 30
0.0
 40
1.312417
 41
0.0
 71
     1
 72
     2
  1
\fTxt|b0|i0;rapide
  7
STD
  0
POLYLINE
  5
10B3
100
AcDbEntity
  8
ALPHA
 62
     7
100
AcDb2dPolyline
 66
     1
 10
0.0
 20
0.0
 30
0.0
  0
VERTEX
  5
10B4
100
AcDbEntity
  8
ALPHA
 62
     7
100
AcDbVertex
100
AcDb2dVertex
 10
98.820697
 20
54.794007
 30
0.0
  0
VERTEX
  5
10B5
100
AcDbEntity
  8
ALPHA
 62
     7
100
AcDbVertex
100
AcDb2dVertex
 10
74.299885
 20
54.794007
 30
0.0
  0
VERTEX
  5
10B6
100
AcDbEntity
  8
ALPHA
 62
     7
100
AcDbVertex
100
AcDb2dVertex
 10
74.299885
 20
60.93799
 30
0.0
  0
SEQEND
  5
10B7
100
AcDbEntity
  8
ALPHA
 62
     7
  0
LINE
  5
10B8
100
AcDbEntity
  8
ALPHA
 62
     7
100
AcDbLine
 10
98.820697
 20
82.468115
 30
0.0
 11
98.820697
 21
30.505567
 31
0.0
  0
LINE
  5
10B9
100
AcDbEntity
  8
ALPHA
 62
     7
100
AcDbLine
 10
94.237342
 20
84.968393
 30
0.0
 11
94.237342
 21
33.005845
 31
0.0
  0
LINE
  5
10BA
100
AcDbEntity
  8
ALPHA
 62
     7
100
AcDbLine
 10
89.736669
 20
87.468671
 30
0.0
 11
89.736669
 21
35.506123
 31
0.0
  0
POLYLINE
  5
10BB
100
AcDbEntity
  8
ALPHA
 62
     7
100
AcDb2dPolyline
 66
     1
 10
0.0
 20
0.0
 30
0.0
  0
VERTEX
  5
10BC
100
AcDbEntity
  8
ALPHA
 62
     7
100
AcDbVertex
100
AcDb2dVertex
 10
98.820697
 20
56.794229
 30
0.0
  0
VERTEX
  5
10BD
100
AcDbEntity
  8
ALPHA
 62
     7
100
AcDbVertex
100
AcDb2dVertex
 10
77.513126
 20
56.794229
 30
0.0
  0
VERTEX
  5
10BE
100
AcDbEntity
  8
ALPHA
 62
     7
100
AcDbVertex
100
AcDb2dVertex
 10
77.513126
 20
60.93799
 30
0.0
  0
SEQEND
  5
10BF
100
AcDbEntity
  8
ALPHA
 62
     7
  0
LINE
  5
10C0
100
AcDbEntity
  8
TEXTE
 62
     7
100
AcDbLine
 10
89.119997
 20
88.815186
 30
0.0
 11
86.514127
 21
88.815186
 31
0.0
  0
MTEXT
  5
10C1
100
AcDbEntity
  8
TEXTE
 62
     7
100
AcDbMText
 10
82.176407
 20
86.382268
 30
0.0
 40
1.312417
 41
0.0
 71
     1
 72
     2
  1
\fTxt|b0|i0;315mA
  7
STD
  0
MTEXT
  5
10C2
100
AcDbEntity
  8
TEXTE
 62
     7
100
AcDbMText
 10
81.753005
 20
84.265601
 30
0.0
 40
1.312417
 41
0.0
 71
     1
 72
     2
  1
\fTxt|b0|i0;fusion
  7
STD
  0
MTEXT
  5
10C3
100
AcDbEntity
  8
TEXTE
 62
     7
100
AcDbMText
 10
81.753005
 20
82.148935
 30
0.0
 40
1.312417
 41
0.0
 71
     1
 72
     2
  1
\fTxt|b0|i0;rapide
  7
STD
  0
MTEXT
  5
10C4
100
AcDbEntity
  8
TEXTE
 62
     7
100
AcDbMText
 10
81.117902
 20
64.500916
 30
0.0
 40
1.312417
 41
0.0
 71
     1
 72
     2
  1
\fTxt|b0|i0;4A max.
  7
STD
  0
MTEXT
  5
10C5
100
AcDbEntity
  8
TEXTE
 62
     7
100
AcDbMText
 10
81.753005
 20
62.38425
 30
0.0
 40
1.312417
 41
0.0
 71
     1
 72
     2
  1
\fTxt|b0|i0;fusion
  7
STD
  0
MTEXT
  5
10C6
100
AcDbEntity
  8
TEXTE
 62
     7
100
AcDbMText
 10
81.117902
 20
75.191564
 30
0.0
 40
1.312417
 41
0.0
 71
     1
 72
     2
  1
\fTxt|b0|i0;4A max.
  7
STD
  0
MTEXT
  5
10C7
100
AcDbEntity
  8
TEXTE
 62
     7
100
AcDbMText
 10
81.753005
 20
73.074898
 30
0.0
 40
1.312417
 41
0.0
 71
     1
 72
     2
  1
\fTxt|b0|i0;fusion
  7
STD
  0
MTEXT
  5
10C8
100
AcDbEntity
  8
TEXTE
 62
     7
100
AcDbMText
 10
81.753005
 20
70.958231
 30
0.0
 40
1.312417
 41
0.0
 71
     1
 72
     2
  1
\fTxt|b0|i0;rapide
  7
STD
  0
POLYLINE
  5
10C9
100
AcDbEntity
  8
ALPHA
 62
     7
100
AcDb2dPolyline
 66
     1
 10
0.0
 20
0.0
 30
0.0
  0
VERTEX
  5
10CA
100
AcDbEntity
  8
ALPHA
 62
     7
100
AcDbVertex
100
AcDb2dVertex
 10
89.736669
 20
79.175637
 30
0.0
  0
VERTEX
  5
10CB
100
AcDbEntity
  8
ALPHA
 62
     7
100
AcDbVertex
100
AcDb2dVertex
 10
77.513126
 20
79.175637
 30
0.0
  0
VERTEX
  5
10CC
100
AcDbEntity
  8
ALPHA
 62
     7
100
AcDbVertex
100
AcDb2dVertex
 10
77.513126
 20
83.319398
 30
0.0
  0
SEQEND
  5
10CD
100
AcDbEntity
  8
ALPHA
 62
     7
  0
POLYLINE
  5
10CE
100
AcDbEntity
  8
ALPHA
 62
     7
100
AcDb2dPolyline
 66
     1
 10
0.0
 20
0.0
 30
0.0
  0
VERTEX
  5
10CF
100
AcDbEntity
  8
ALPHA
 62
     7
100
AcDbVertex
100
AcDb2dVertex
 10
98.820697
 20
77.175414
 30
0.0
  0
VERTEX
  5
10D0
100
AcDbEntity
  8
ALPHA
 62
     7
100
AcDbVertex
100
AcDb2dVertex
 10
74.299885
 20
77.175414
 30
0.0
  0
VERTEX
  5
10D1
100
AcDbEntity
  8
ALPHA
 62
     7
100
AcDbVertex
100
AcDb2dVertex
 10
74.299885
 20
83.319398
 30
0.0
  0
SEQEND
  5
10D2
100
AcDbEntity
  8
ALPHA
 62
     7
  0
POLYLINE
  5
10D3
100
AcDbEntity
  8
ALPHA
 62
     7
100
AcDb2dPolyline
 66
     1
 10
0.0
 20
0.0
 30
0.0
  0
VERTEX
  5
10D4
100
AcDbEntity
  8
ALPHA
 62
     7
100
AcDbVertex
100
AcDb2dVertex
 10
94.320024
 20
67.984933
 30
0.0
  0
VERTEX
  5
10D5
100
AcDbEntity
  8
ALPHA
 62
     7
100
AcDbVertex
100
AcDb2dVertex
 10
77.513126
 20
67.984933
 30
0.0
  0
VERTEX
  5
10D6
100
AcDbEntity
  8
ALPHA
 62
     7
100
AcDbVertex
100
AcDb2dVertex
 10
77.513126
 20
72.128694
 30
0.0
  0
SEQEND
  5
10D7
100
AcDbEntity
  8
ALPHA
 62
     7
  0
POLYLINE
  5
10D8
100
AcDbEntity
  8
ALPHA
 62
     7
100
AcDb2dPolyline
 66
     1
 10
0.0
 20
0.0
 30
0.0
  0
VERTEX
  5
10D9
100
AcDbEntity
  8
ALPHA
 62
     7
100
AcDbVertex
100
AcDb2dVertex
 10
94.320024
 20
65.984711
 30
0.0
  0
VERTEX
  5
10DA
100
AcDbEntity
  8
ALPHA
 62
     7
100
AcDbVertex
100
AcDb2dVertex
 10
74.299885
 20
65.984711
 30
0.0
  0
VERTEX
  5
10DB
100
AcDbEntity
  8
ALPHA
 62
     7
100
AcDbVertex
100
AcDb2dVertex
 10
74.299885
 20
72.128694
 30
0.0
  0
SEQEND
  5
10DC
100
AcDbEntity
  8
ALPHA
 62
     7
  0
POLYLINE
  5
10DD
100
AcDbEntity
  8
ALPHA
 62
     7
100
AcDb2dPolyline
 66
     1
 10
0.0
 20
0.0
 30
0.0
 70
     1
  0
VERTEX
  5
10DE
100
AcDbEntity
  8
ALPHA
 62
     7
100
AcDbVertex
100
AcDb2dVertex
 10
86.716699
 20
79.915471
 30
0.0
  0
VERTEX
  5
10DF
100
AcDbEntity
  8
ALPHA
 62
     7
100
AcDbVertex
100
AcDb2dVertex
 10
82.922615
 20
79.915471
 30
0.0
  0
VERTEX
  5
10E0
100
AcDbEntity
  8
ALPHA
 62
     7
100
AcDbVertex
100
AcDb2dVertex
 10
82.922615
 20
78.415476
 30
0.0
  0
VERTEX
  5
10E1
100
AcDbEntity
  8
ALPHA
 62
     7
100
AcDbVertex
100
AcDb2dVertex
 10
86.716699
 20
78.415476
 30
0.0
  0
SEQEND
  5
10E2
100
AcDbEntity
  8
ALPHA
 62
     7
  0
MTEXT
  5
10E3
100
AcDbEntity
  8
TEXTE
 62
     7
100
AcDbMText
 10
73.029506
 20
63.493398
 30
0.0
 40
1.312417
 41
0.0
 71
     1
 72
     2
  1
\fTxt|b0|i0;M-
  7
STD
  0
MTEXT
  5
10E4
100
AcDbEntity
  8
TEXTE
 62
     7
100
AcDbMText
 10
72.488799
 20
74.684102
 30
0.0
 40
1.312417
 41
0.0
 71
     1
 72
     2
  1
\fTxt|b0|i0;1L1
  7
STD
  0
POLYLINE
  5
10E5
100
AcDbEntity
  8
ALPHA
 62
     7
100
AcDb2dPolyline
 66
     1
 10
0.0
 20
0.0
 30
0.0
 70
     1
  0
VERTEX
  5
10E6
100
AcDbEntity
  8
ALPHA
 62
     7
100
AcDbVertex
100
AcDb2dVertex
 10
74.699861
 20
60.538015
 30
0.0
  0
VERTEX
  5
10E7
100
AcDbEntity
  8
ALPHA
 62
     7
100
AcDbVertex
100
AcDb2dVertex
 10
73.89991
 20
60.538015
 30
0.0
  0
VERTEX
  5
10E8
100
AcDbEntity
  8
ALPHA
 62
     7
100
AcDbVertex
100
AcDb2dVertex
 10
73.89991
 20
61.337966
 30
0.0
  0
VERTEX
  5
10E9
100
AcDbEntity
  8
ALPHA
 62
     7
100
AcDbVertex
100
AcDb2dVertex
 10
74.699861
 20
61.337966
 30
0.0
  0
SEQEND
  5
10EA
100
AcDbEntity
  8
ALPHA
 62
     7
  0
POLYLINE
  5
10EB
100
AcDbEntity
  8
ALPHA
 62
     7
100
AcDb2dPolyline
 66
     1
 10
0.0
 20
0.0
 30
0.0
 70
     1
  0
VERTEX
  5
10EC
100
AcDbEntity
  8
ALPHA
 62
     7
100
AcDbVertex
100
AcDb2dVertex
 10
74.699861
 20
71.728718
 30
0.0
  0
VERTEX
  5
10ED
100
AcDbEntity
  8
ALPHA
 62
     7
100
AcDbVertex
100
AcDb2dVertex
 10
73.89991
 20
71.728718
 30
0.0
  0
VERTEX
  5
10EE
100
AcDbEntity
  8
ALPHA
 62
     7
100
AcDbVertex
100
AcDb2dVertex
 10
73.89991
 20
72.52867
 30
0.0
  0
VERTEX
  5
10EF
100
AcDbEntity
  8
ALPHA
 62
     7
100
AcDbVertex
100
AcDb2dVertex
 10
74.699861
 20
72.52867
 30
0.0
  0
SEQEND
  5
10F0
100
AcDbEntity
  8
ALPHA
 62
     7
  0
POLYLINE
  5
10F1
100
AcDbEntity
  8
ALPHA
 62
     7
100
AcDb2dPolyline
 66
     1
 10
0.0
 20
0.0
 30
0.0
 70
     1
  0
VERTEX
  5
10F2
100
AcDbEntity
  8
ALPHA
 62
     7
100
AcDbVertex
100
AcDb2dVertex
 10
68.273035
 20
60.538015
 30
0.0
  0
VERTEX
  5
10F3
100
AcDbEntity
  8
ALPHA
 62
     7
100
AcDbVertex
100
AcDb2dVertex
 10
67.473084
 20
60.538015
 30
0.0
  0
VERTEX
  5
10F4
100
AcDbEntity
  8
ALPHA
 62
     7
100
AcDbVertex
100
AcDb2dVertex
 10
67.473084
 20
61.337966
 30
0.0
  0
VERTEX
  5
10F5
100
AcDbEntity
  8
ALPHA
 62
     7
100
AcDbVertex
100
AcDb2dVertex
 10
68.273035
 20
61.337966
 30
0.0
  0
SEQEND
  5
10F6
100
AcDbEntity
  8
ALPHA
 62
     7
  0
POLYLINE
  5
10F7
100
AcDbEntity
  8
ALPHA
 62
     7
100
AcDb2dPolyline
 66
     1
 10
0.0
 20
0.0
 30
0.0
 70
     1
  0
VERTEX
  5
10F8
100
AcDbEntity
  8
ALPHA
 62
     7
100
AcDbVertex
100
AcDb2dVertex
 10
65.059795
 20
60.538015
 30
0.0
  0
VERTEX
  5
10F9
100
AcDbEntity
  8
ALPHA
 62
     7
100
AcDbVertex
100
AcDb2dVertex
 10
64.259499
 20
60.538015
 30
0.0
  0
VERTEX
  5
10FA
100
AcDbEntity
  8
ALPHA
 62
     7
100
AcDbVertex
100
AcDb2dVertex
 10
64.259499
 20
61.337966
 30
0.0
  0
VERTEX
  5
10FB
100
AcDbEntity
  8
ALPHA
 62
     7
100
AcDbVertex
100
AcDb2dVertex
 10
65.059795
 20
61.337966
 30
0.0
  0
SEQEND
  5
10FC
100
AcDbEntity
  8
ALPHA
 62
     7
  0
POLYLINE
  5
10FD
100
AcDbEntity
  8
ALPHA
 62
     7
100
AcDb2dPolyline
 66
     1
 10
0.0
 20
0.0
 30
0.0
 70
     1
  0
VERTEX
  5
10FE
100
AcDbEntity
  8
ALPHA
 62
     7
100
AcDbVertex
100
AcDb2dVertex
 10
71.48662
 20
60.538015
 30
0.0
  0
VERTEX
  5
10FF
100
AcDbEntity
  8
ALPHA
 62
     7
100
AcDbVertex
100
AcDb2dVertex
 10
70.686325
 20
60.538015
 30
0.0
  0
VERTEX
  5
1100
100
AcDbEntity
  8
ALPHA
 62
     7
100
AcDbVertex
100
AcDb2dVertex
 10
70.686325
 20
61.337966
 30
0.0
  0
VERTEX
  5
1101
100
AcDbEntity
  8
ALPHA
 62
     7
100
AcDbVertex
100
AcDb2dVertex
 10
71.48662
 20
61.337966
 30
0.0
  0
SEQEND
  5
1102
100
AcDbEntity
  8
ALPHA
 62
     7
  0
MTEXT
  5
1103
100
AcDbEntity
  8
TEXTE
 62
     7
100
AcDbMText
 10
66.813693
 20
74.684102
 30
0.0
 40
1.312417
 41
0.0
 71
     1
 72
     2
  1
\fTxt|b0|i0;15
  7
STD
  0
POLYLINE
  5
1104
100
AcDbEntity
  8
ALPHA
 62
     7
100
AcDb2dPolyline
 66
     1
 10
0.0
 20
0.0
 30
0.0
 70
     1
  0
VERTEX
  5
1105
100
AcDbEntity
  8
ALPHA
 62
     7
100
AcDbVertex
100
AcDb2dVertex
 10
68.273035
 20
71.728718
 30
0.0
  0
VERTEX
  5
1106
100
AcDbEntity
  8
ALPHA
 62
     7
100
AcDbVertex
100
AcDb2dVertex
 10
67.473084
 20
71.728718
 30
0.0
  0
VERTEX
  5
1107
100
AcDbEntity
  8
ALPHA
 62
     7
100
AcDbVertex
100
AcDb2dVertex
 10
67.473084
 20
72.52867
 30
0.0
  0
VERTEX
  5
1108
100
AcDbEntity
  8
ALPHA
 62
     7
100
AcDbVertex
100
AcDb2dVertex
 10
68.273035
 20
72.52867
 30
0.0
  0
SEQEND
  5
1109
100
AcDbEntity
  8
ALPHA
 62
     7
  0
MTEXT
  5
110A
100
AcDbEntity
  8
TEXTE
 62
     7
100
AcDbMText
 10
63.600452
 20
74.684102
 30
0.0
 40
1.312417
 41
0.0
 71
     1
 72
     2
  1
\fTxt|b0|i0;14
  7
STD
  0
POLYLINE
  5
110B
100
AcDbEntity
  8
ALPHA
 62
     7
100
AcDb2dPolyline
 66
     1
 10
0.0
 20
0.0
 30
0.0
 70
     1
  0
VERTEX
  5
110C
100
AcDbEntity
  8
ALPHA
 62
     7
100
AcDbVertex
100
AcDb2dVertex
 10
65.059795
 20
71.728718
 30
0.0
  0
VERTEX
  5
110D
100
AcDbEntity
  8
ALPHA
 62
     7
100
AcDbVertex
100
AcDb2dVertex
 10
64.259499
 20
71.728718
 30
0.0
  0
VERTEX
  5
110E
100
AcDbEntity
  8
ALPHA
 62
     7
100
AcDbVertex
100
AcDb2dVertex
 10
64.259499
 20
72.52867
 30
0.0
  0
VERTEX
  5
110F
100
AcDbEntity
  8
ALPHA
 62
     7
100
AcDbVertex
100
AcDb2dVertex
 10
65.059795
 20
72.52867
 30
0.0
  0
SEQEND
  5
1110
100
AcDbEntity
  8
ALPHA
 62
     7
  0
MTEXT
  5
1111
100
AcDbEntity
  8
TEXTE
 62
     7
100
AcDbMText
 10
70.027278
 20
74.684102
 30
0.0
 40
1.312417
 41
0.0
 71
     1
 72
     2
  1
\fTxt|b0|i0;16
  7
STD
  0
POLYLINE
  5
1112
100
AcDbEntity
  8
ALPHA
 62
     7
100
AcDb2dPolyline
 66
     1
 10
0.0
 20
0.0
 30
0.0
 70
     1
  0
VERTEX
  5
1113
100
AcDbEntity
  8
ALPHA
 62
     7
100
AcDbVertex
100
AcDb2dVertex
 10
71.48662
 20
71.728718
 30
0.0
  0
VERTEX
  5
1114
100
AcDbEntity
  8
ALPHA
 62
     7
100
AcDbVertex
100
AcDb2dVertex
 10
70.686325
 20
71.728718
 30
0.0
  0
VERTEX
  5
1115
100
AcDbEntity
  8
ALPHA
 62
     7
100
AcDbVertex
100
AcDb2dVertex
 10
70.686325
 20
72.52867
 30
0.0
  0
VERTEX
  5
1116
100
AcDbEntity
  8
ALPHA
 62
     7
100
AcDbVertex
100
AcDb2dVertex
 10
71.48662
 20
72.52867
 30
0.0
  0
SEQEND
  5
1117
100
AcDbEntity
  8
ALPHA
 62
     7
  0
MTEXT
  5
1118
100
AcDbEntity
  8
TEXTE
 62
     7
100
AcDbMText
 10
76.243092
 20
63.493398
 30
0.0
 40
1.312417
 41
0.0
 71
     1
 72
     2
  1
\fTxt|b0|i0;M-
  7
STD
  0
POLYLINE
  5
1119
100
AcDbEntity
  8
ALPHA
 62
     7
100
AcDb2dPolyline
 66
     1
 10
0.0
 20
0.0
 30
0.0
 70
     1
  0
VERTEX
  5
111A
100
AcDbEntity
  8
ALPHA
 62
     7
100
AcDbVertex
100
AcDb2dVertex
 10
77.913446
 20
60.538015
 30
0.0
  0
VERTEX
  5
111B
100
AcDbEntity
  8
ALPHA
 62
     7
100
AcDbVertex
100
AcDb2dVertex
 10
77.11315
 20
60.538015
 30
0.0
  0
VERTEX
  5
111C
100
AcDbEntity
  8
ALPHA
 62
     7
100
AcDbVertex
100
AcDb2dVertex
 10
77.11315
 20
61.337966
 30
0.0
  0
VERTEX
  5
111D
100
AcDbEntity
  8
ALPHA
 62
     7
100
AcDbVertex
100
AcDb2dVertex
 10
77.913446
 20
61.337966
 30
0.0
  0
SEQEND
  5
111E
100
AcDbEntity
  8
ALPHA
 62
     7
  0
POLYLINE
  5
111F
100
AcDbEntity
  8
ALPHA
 62
     7
100
AcDb2dPolyline
 66
     1
 10
0.0
 20
0.0
 30
0.0
 70
     1
  0
VERTEX
  5
1120
100
AcDbEntity
  8
ALPHA
 62
     7
100
AcDbVertex
100
AcDb2dVertex
 10
86.716699
 20
66.724545
 30
0.0
  0
VERTEX
  5
1121
100
AcDbEntity
  8
ALPHA
 62
     7
100
AcDbVertex
100
AcDb2dVertex
 10
82.922615
 20
66.724545
 30
0.0
  0
VERTEX
  5
1122
100
AcDbEntity
  8
ALPHA
 62
     7
100
AcDbVertex
100
AcDb2dVertex
 10
82.922615
 20
65.22455
 30
0.0
  0
VERTEX
  5
1123
100
AcDbEntity
  8
ALPHA
 62
     7
100
AcDbVertex
100
AcDb2dVertex
 10
86.716699
 20
65.22455
 30
0.0
  0
SEQEND
  5
1124
100
AcDbEntity
  8
ALPHA
 62
     7
  0
POLYLINE
  5
1125
100
AcDbEntity
  8
ALPHA
 62
     7
100
AcDb2dPolyline
 66
     1
 10
0.0
 20
0.0
 30
0.0
 70
     1
  0
VERTEX
  5
1126
100
AcDbEntity
  8
ALPHA
 62
     7
100
AcDbVertex
100
AcDb2dVertex
 10
86.716699
 20
68.724767
 30
0.0
  0
VERTEX
  5
1127
100
AcDbEntity
  8
ALPHA
 62
     7
100
AcDbVertex
100
AcDb2dVertex
 10
82.922615
 20
68.724767
 30
0.0
  0
VERTEX
  5
1128
100
AcDbEntity
  8
ALPHA
 62
     7
100
AcDbVertex
100
AcDb2dVertex
 10
82.922615
 20
67.224773
 30
0.0
  0
VERTEX
  5
1129
100
AcDbEntity
  8
ALPHA
 62
     7
100
AcDbVertex
100
AcDb2dVertex
 10
86.716699
 20
67.224773
 30
0.0
  0
SEQEND
  5
112A
100
AcDbEntity
  8
ALPHA
 62
     7
  0
MTEXT
  5
112B
100
AcDbEntity
  8
TEXTE
 62
     7
100
AcDbMText
 10
76.299419
 20
74.684102
 30
0.0
 40
1.312417
 41
0.0
 71
     1
 72
     2
  1
\fTxt|b0|i0;2L+
  7
STD
  0
POLYLINE
  5
112C
100
AcDbEntity
  8
ALPHA
 62
     7
100
AcDb2dPolyline
 66
     1
 10
0.0
 20
0.0
 30
0.0
 70
     1
  0
VERTEX
  5
112D
100
AcDbEntity
  8
ALPHA
 62
     7
100
AcDbVertex
100
AcDb2dVertex
 10
77.913446
 20
71.728718
 30
0.0
  0
VERTEX
  5
112E
100
AcDbEntity
  8
ALPHA
 62
     7
100
AcDbVertex
100
AcDb2dVertex
 10
77.11315
 20
71.728718
 30
0.0
  0
VERTEX
  5
112F
100
AcDbEntity
  8
ALPHA
 62
     7
100
AcDbVertex
100
AcDb2dVertex
 10
77.11315
 20
72.52867
 30
0.0
  0
VERTEX
  5
1130
100
AcDbEntity
  8
ALPHA
 62
     7
100
AcDbVertex
100
AcDb2dVertex
 10
77.913446
 20
72.52867
 30
0.0
  0
SEQEND
  5
1131
100
AcDbEntity
  8
ALPHA
 62
     7
  0
MTEXT
  5
1132
100
AcDbEntity
  8
TEXTE
 62
     7
100
AcDbMText
 10
73.029506
 20
85.874805
 30
0.0
 40
1.312417
 41
0.0
 71
     1
 72
     2
  1
\fTxt|b0|i0;M-
  7
STD
  0
POLYLINE
  5
1133
100
AcDbEntity
  8
ALPHA
 62
     7
100
AcDb2dPolyline
 66
     1
 10
0.0
 20
0.0
 30
0.0
 70
     1
  0
VERTEX
  5
1134
100
AcDbEntity
  8
ALPHA
 62
     7
100
AcDbVertex
100
AcDb2dVertex
 10
74.699861
 20
82.919422
 30
0.0
  0
VERTEX
  5
1135
100
AcDbEntity
  8
ALPHA
 62
     7
100
AcDbVertex
100
AcDb2dVertex
 10
73.89991
 20
82.919422
 30
0.0
  0
VERTEX
  5
1136
100
AcDbEntity
  8
ALPHA
 62
     7
100
AcDbVertex
100
AcDb2dVertex
 10
73.89991
 20
83.719373
 30
0.0
  0
VERTEX
  5
1137
100
AcDbEntity
  8
ALPHA
 62
     7
100
AcDbVertex
100
AcDb2dVertex
 10
74.699861
 20
83.719373
 30
0.0
  0
SEQEND
  5
1138
100
AcDbEntity
  8
ALPHA
 62
     7
  0
MTEXT
  5
1139
100
AcDbEntity
  8
TEXTE
 62
     7
100
AcDbMText
 10
66.813693
 20
85.874805
 30
0.0
 40
1.312417
 41
0.0
 71
     1
 72
     2
  1
\fTxt|b0|i0;15
  7
STD
  0
POLYLINE
  5
113A
100
AcDbEntity
  8
ALPHA
 62
     7
100
AcDb2dPolyline
 66
     1
 10
0.0
 20
0.0
 30
0.0
 70
     1
  0
VERTEX
  5
113B
100
AcDbEntity
  8
ALPHA
 62
     7
100
AcDbVertex
100
AcDb2dVertex
 10
68.273035
 20
82.919422
 30
0.0
  0
VERTEX
  5
113C
100
AcDbEntity
  8
ALPHA
 62
     7
100
AcDbVertex
100
AcDb2dVertex
 10
67.473084
 20
82.919422
 30
0.0
  0
VERTEX
  5
113D
100
AcDbEntity
  8
ALPHA
 62
     7
100
AcDbVertex
100
AcDb2dVertex
 10
67.473084
 20
83.719373
 30
0.0
  0
VERTEX
  5
113E
100
AcDbEntity
  8
ALPHA
 62
     7
100
AcDbVertex
100
AcDb2dVertex
 10
68.273035
 20
83.719373
 30
0.0
  0
SEQEND
  5
113F
100
AcDbEntity
  8
ALPHA
 62
     7
  0
POLYLINE
  5
1140
100
AcDbEntity
  8
ALPHA
 62
     7
100
AcDb2dPolyline
 66
     1
 10
0.0
 20
0.0
 30
0.0
 70
     1
  0
VERTEX
  5
1141
100
AcDbEntity
  8
ALPHA
 62
     7
100
AcDbVertex
100
AcDb2dVertex
 10
65.059795
 20
82.919422
 30
0.0
  0
VERTEX
  5
1142
100
AcDbEntity
  8
ALPHA
 62
     7
100
AcDbVertex
100
AcDb2dVertex
 10
64.259499
 20
82.919422
 30
0.0
  0
VERTEX
  5
1143
100
AcDbEntity
  8
ALPHA
 62
     7
100
AcDbVertex
100
AcDb2dVertex
 10
64.259499
 20
83.719373
 30
0.0
  0
VERTEX
  5
1144
100
AcDbEntity
  8
ALPHA
 62
     7
100
AcDbVertex
100
AcDb2dVertex
 10
65.059795
 20
83.719373
 30
0.0
  0
SEQEND
  5
1145
100
AcDbEntity
  8
ALPHA
 62
     7
  0
MTEXT
  5
1146
100
AcDbEntity
  8
TEXTE
 62
     7
100
AcDbMText
 10
63.600452
 20
85.874805
 30
0.0
 40
1.312417
 41
0.0
 71
     1
 72
     2
  1
\fTxt|b0|i0;14
  7
STD
  0
POLYLINE
  5
1147
100
AcDbEntity
  8
ALPHA
 62
     7
100
AcDb2dPolyline
 66
     1
 10
0.0
 20
0.0
 30
0.0
 70
     1
  0
VERTEX
  5
1148
100
AcDbEntity
  8
ALPHA
 62
     7
100
AcDbVertex
100
AcDb2dVertex
 10
71.48662
 20
82.919422
 30
0.0
  0
VERTEX
  5
1149
100
AcDbEntity
  8
ALPHA
 62
     7
100
AcDbVertex
100
AcDb2dVertex
 10
70.686325
 20
82.919422
 30
0.0
  0
VERTEX
  5
114A
100
AcDbEntity
  8
ALPHA
 62
     7
100
AcDbVertex
100
AcDb2dVertex
 10
70.686325
 20
83.719373
 30
0.0
  0
VERTEX
  5
114B
100
AcDbEntity
  8
ALPHA
 62
     7
100
AcDbVertex
100
AcDb2dVertex
 10
71.48662
 20
83.719373
 30
0.0
  0
SEQEND
  5
114C
100
AcDbEntity
  8
ALPHA
 62
     7
  0
MTEXT
  5
114D
100
AcDbEntity
  8
TEXTE
 62
     7
100
AcDbMText
 10
70.027278
 20
85.874805
 30
0.0
 40
1.312417
 41
0.0
 71
     1
 72
     2
  1
\fTxt|b0|i0;16
  7
STD
  0
POLYLINE
  5
114E
100
AcDbEntity
  8
ALPHA
 62
     7
100
AcDb2dPolyline
 66
     1
 10
0.0
 20
0.0
 30
0.0
 70
     1
  0
VERTEX
  5
114F
100
AcDbEntity
  8
ALPHA
 62
     7
100
AcDbVertex
100
AcDb2dVertex
 10
77.913446
 20
82.919422
 30
0.0
  0
VERTEX
  5
1150
100
AcDbEntity
  8
ALPHA
 62
     7
100
AcDbVertex
100
AcDb2dVertex
 10
77.11315
 20
82.919422
 30
0.0
  0
VERTEX
  5
1151
100
AcDbEntity
  8
ALPHA
 62
     7
100
AcDbVertex
100
AcDb2dVertex
 10
77.11315
 20
83.719373
 30
0.0
  0
VERTEX
  5
1152
100
AcDbEntity
  8
ALPHA
 62
     7
100
AcDbVertex
100
AcDb2dVertex
 10
77.913446
 20
83.719373
 30
0.0
  0
SEQEND
  5
1153
100
AcDbEntity
  8
ALPHA
 62
     7
  0
MTEXT
  5
1154
100
AcDbEntity
  8
TEXTE
 62
     7
100
AcDbMText
 10
76.242919
 20
85.874805
 30
0.0
 40
1.312417
 41
0.0
 71
     1
 72
     2
  1
\fTxt|b0|i0;L+
  7
STD
  0
LINE
  5
1155
100
AcDbEntity
  8
TEXTE
 62
     7
100
AcDbLine
 10
87.151814
 20
87.968726
 30
0.0
 11
86.514127
 21
87.968726
 31
0.0
  0
MTEXT
  5
1156
100
AcDbEntity
  8
TEXTE
 62
     7
100
AcDbMText
 10
95.00956
 20
84.280587
 30
0.0
 40
1.312417
 41
0.0
 71
     1
 72
     2
  1
\fTxt|b0|i0;Retour
  7
STD
  0
MTEXT
  5
1157
100
AcDbEntity
  8
TEXTE
 62
     7
100
AcDbMText
 10
89.924427
 20
89.281144
 30
0.0
 40
1.312417
 41
0.0
 71
     1
 72
     2
  1
\fTxt|b0|i0;24V
  7
STD
  0
LINE
  5
1158
100
AcDbEntity
  8
TEXTE
 62
     7
100
AcDbLine
 10
93.620325
 20
85.468448
 30
0.0
 11
92.982983
 21
85.468448
 31
0.0
  0
LINE
  5
1159
100
AcDbEntity
  8
TEXTE
 62
     7
100
AcDbLine
 10
93.620325
 20
86.314908
 30
0.0
 11
91.014455
 21
86.314908
 31
0.0
  0
LINE
  5
115A
100
AcDbEntity
  8
TEXTE
 62
     7
100
AcDbLine
 10
91.652142
 20
85.468448
 30
0.0
 11
91.014455
 21
85.468448
 31
0.0
  0
LINE
  5
115B
100
AcDbEntity
  8
TEXTE
 62
     7
100
AcDbLine
 10
92.638818
 20
85.468448
 30
0.0
 11
92.001475
 21
85.468448
 31
0.0
  0
MTEXT
  5
115C
100
AcDbEntity
  8
TEXTE
 62
     7
100
AcDbMText
 10
94.4251
 20
86.780866
 30
0.0
 40
1.312417
 41
0.0
 71
     1
 72
     2
  1
\fTxt|b0|i0;24V
  7
STD
  0
LINE
  5
115D
100
AcDbEntity
  8
TEXTE
 62
     7
100
AcDbLine
 10
89.119997
 20
87.968726
 30
0.0
 11
88.482655
 21
87.968726
 31
0.0
  0
LINE
  5
115E
100
AcDbEntity
  8
TEXTE
 62
     7
100
AcDbLine
 10
88.138489
 20
87.968726
 30
0.0
 11
87.501147
 21
87.968726
 31
0.0
  0
ENDSEC
  0
SECTION
  2
OBJECTS
  0
DICTIONARY
  5
F8
100
AcDbDictionary
  3
ACAD_GROUP
350
F9
  3
ACAD_MLINESTYLE
350
106
  3
ACDBVARIABLEDICTIONARY
350
143
  0
DICTIONARY
  5
F9
102
{ACAD_REACTORS
330
F8
102
}
100
AcDbDictionary
  0
DICTIONARY
  5
106
102
{ACAD_REACTORS
330
F8
102
}
100
AcDbDictionary
  3
STANDARD
350
107
  0
DICTIONARY
  5
143
102
{ACAD_REACTORS
330
F8
102
}
100
AcDbDictionary
  3
DIMADEC
350
144
  0
MLINESTYLE
  5
107
102
{ACAD_REACTORS
330
106
102
}
100
AcDbMlineStyle
  2
STANDARD
 70
     0
  3

 62
   256
 51
90.0
 52
90.0
 71
     2
 49
0.5
 62
   256
  6
BYLAYER
 49
-0.5
 62
   256
  6
BYLAYER
  0
DICTIONARYVAR
  5
144
102
{ACAD_REACTORS
330
143
102
}
100
DictionaryVariables
280
     0
  1
0
  0
ENDSEC
  0
EOF
