  0
SECTION
  2
HEADER
  9
$ACADVER
  1
AC1014
  9
$ACADMAINTVER
 70
     0
  9
$DWGCODEPAGE
  3
ANSI_1252
  9
$INSBASE
 10
93.894301
 20
236.06014
 30
0.0
  9
$EXTMIN
 10
20.281477
 20
109.903422
 30
0.0
  9
$EXTMAX
 10
97.393261
 20
151.880823
 30
0.0
  9
$LIMMIN
 10
0.0
 20
0.0
  9
$LIMMAX
 10
210.0
 20
297.0
  9
$ORTHOMODE
 70
     0
  9
$REGENMODE
 70
     1
  9
$FILLMODE
 70
     1
  9
$QTEXTMODE
 70
     0
  9
$MIRRTEXT
 70
     0
  9
$DRAGMODE
 70
     1
  9
$LTSCALE
 40
7.0
  9
$OSMODE
 70
     0
  9
$ATTMODE
 70
     1
  9
$TEXTSIZE
 40
2.5
  9
$TRACEWID
 40
0.05
  9
$TEXTSTYLE
  7
STANDARD
  9
$CLAYER
  8
COTATION1
  9
$CELTYPE
  6
BYLAYER
  9
$CECOLOR
 62
   256
  9
$CELTSCALE
 40
1.0
  9
$DELOBJ
 70
     1
  9
$DISPSILH
 70
     0
  9
$DIMSCALE
 40
1.0
  9
$DIMASZ
 40
3.0
  9
$DIMEXO
 40
0.0625
  9
$DIMDLI
 40
0.38
  9
$DIMRND
 40
0.01
  9
$DIMDLE
 40
0.0
  9
$DIMEXE
 40
0.18
  9
$DIMTP
 40
0.0
  9
$DIMTM
 40
0.0
  9
$DIMTXT
 40
2.5
  9
$DIMCEN
 40
0.09
  9
$DIMTSZ
 40
0.0
  9
$DIMTOL
 70
     0
  9
$DIMLIM
 70
     0
  9
$DIMTIH
 70
     0
  9
$DIMTOH
 70
     0
  9
$DIMSE1
 70
     0
  9
$DIMSE2
 70
     0
  9
$DIMTAD
 70
     1
  9
$DIMZIN
 70
    12
  9
$DIMBLK
  1

  9
$DIMASO
 70
     1
  9
$DIMSHO
 70
     0
  9
$DIMPOST
  1

  9
$DIMAPOST
  1

  9
$DIMALT
 70
     0
  9
$DIMALTD
 70
     2
  9
$DIMALTF
 40
25.4
  9
$DIMLFAC
 40
1.0
  9
$DIMTOFL
 70
     1
  9
$DIMTVP
 40
0.0
  9
$DIMTIX
 70
     0
  9
$DIMSOXD
 70
     0
  9
$DIMSAH
 70
     0
  9
$DIMBLK1
  1

  9
$DIMBLK2
  1

  9
$DIMSTYLE
  2
SC_STAND
  9
$DIMCLRD
 70
     0
  9
$DIMCLRE
 70
     0
  9
$DIMCLRT
 70
     0
  9
$DIMTFAC
 40
1.0
  9
$DIMGAP
 40
1.0
  9
$DIMJUST
 70
     0
  9
$DIMSD1
 70
     0
  9
$DIMSD2
 70
     0
  9
$DIMTOLJ
 70
     1
  9
$DIMTZIN
 70
    12
  9
$DIMALTZ
 70
    12
  9
$DIMALTTZ
 70
    12
  9
$DIMFIT
 70
     5
  9
$DIMUPT
 70
     0
  9
$DIMUNIT
 70
     2
  9
$DIMDEC
 70
     3
  9
$DIMTDEC
 70
     3
  9
$DIMALTU
 70
     2
  9
$DIMALTTD
 70
     2
  9
$DIMTXSTY
  7
STANDARD
  9
$DIMAUNIT
 70
     0
  9
$LUNITS
 70
     2
  9
$LUPREC
 70
     3
  9
$SKETCHINC
 40
0.1
  9
$FILLETRAD
 40
0.0625
  9
$AUNITS
 70
     0
  9
$AUPREC
 70
     0
  9
$MENU
  1
ACAD
  9
$ELEVATION
 40
0.0
  9
$PELEVATION
 40
0.0
  9
$THICKNESS
 40
0.0
  9
$LIMCHECK
 70
     0
  9
$BLIPMODE
 70
     1
  9
$CHAMFERA
 40
0.0
  9
$CHAMFERB
 40
0.0
  9
$CHAMFERC
 40
0.0
  9
$CHAMFERD
 40
0.0
  9
$SKPOLY
 70
     0
  9
$TDCREATE
 40
2450953.590960648
  9
$TDUPDATE
 40
2452853.351513669
  9
$TDINDWG
 40
0.0028319213
  9
$TDUSRTIMER
 40
0.0028319213
  9
$USRTIMER
 70
     1
  9
$ANGBASE
 50
0.0
  9
$ANGDIR
 70
     0
  9
$PDMODE
 70
     0
  9
$PDSIZE
 40
0.0
  9
$PLINEWID
 40
0.0
  9
$COORDS
 70
     0
  9
$SPLFRAME
 70
     0
  9
$SPLINETYPE
 70
     6
  9
$SPLINESEGS
 70
     8
  9
$ATTDIA
 70
     0
  9
$ATTREQ
 70
     1
  9
$HANDLING
 70
     1
  9
$HANDSEED
  5
8D3
  9
$SURFTAB1
 70
     6
  9
$SURFTAB2
 70
     6
  9
$SURFTYPE
 70
     6
  9
$SURFU
 70
     6
  9
$SURFV
 70
     6
  9
$UCSNAME
  2

  9
$UCSORG
 10
0.0
 20
0.0
 30
0.0
  9
$UCSXDIR
 10
1.0
 20
0.0
 30
0.0
  9
$UCSYDIR
 10
0.0
 20
1.0
 30
0.0
  9
$PUCSNAME
  2

  9
$PUCSORG
 10
0.0
 20
0.0
 30
0.0
  9
$PUCSXDIR
 10
1.0
 20
0.0
 30
0.0
  9
$PUCSYDIR
 10
0.0
 20
1.0
 30
0.0
  9
$USERI1
 70
     0
  9
$USERI2
 70
     0
  9
$USERI3
 70
     0
  9
$USERI4
 70
     0
  9
$USERI5
 70
     0
  9
$USERR1
 40
0.0
  9
$USERR2
 40
0.0
  9
$USERR3
 40
0.0
  9
$USERR4
 40
0.0
  9
$USERR5
 40
0.0
  9
$WORLDVIEW
 70
     1
  9
$SHADEDGE
 70
     3
  9
$SHADEDIF
 70
    70
  9
$TILEMODE
 70
     1
  9
$MAXACTVP
 70
    32
  9
$PINSBASE
 10
0.0
 20
0.0
 30
0.0
  9
$PLIMCHECK
 70
     0
  9
$PEXTMIN
 10
-3.174999
 20
-3.175
 30
0.0
  9
$PEXTMAX
 10
203.812116
 20
370.276807
 30
0.0
  9
$PLIMMIN
 10
-3.175
 20
-3.175
  9
$PLIMMAX
 10
203.812115
 20
370.276807
  9
$UNITMODE
 70
     0
  9
$VISRETAIN
 70
     0
  9
$PLINEGEN
 70
     0
  9
$PSLTSCALE
 70
     1
  9
$TREEDEPTH
 70
  3020
  9
$PICKSTYLE
 70
     1
  9
$CMLSTYLE
  2
STANDARD
  9
$CMLJUST
 70
     0
  9
$CMLSCALE
 40
1.0
  9
$PROXYGRAPHICS
 70
     1
  9
$MEASUREMENT
 70
     0
  0
ENDSEC
  0
SECTION
  2
CLASSES
  0
CLASS
  1
DICTIONARYVAR
  2
AcDbDictionaryVar
  3
"AutoCAD"
 90
        0
280
     0
281
     0
  0
ENDSEC
  0
SECTION
  2
TABLES
  0
TABLE
  2
VPORT
  5
F4
100
AcDbSymbolTable
 70
     2
  0
VPORT
  5
8D2
100
AcDbSymbolTableRecord
100
AcDbViewportTableRecord
  2
*ACTIVE
 70
     0
 10
0.0
 20
0.0
 11
1.0
 21
1.0
 12
58.841401
 22
130.893723
 13
0.0
 23
0.0
 14
1.0
 24
1.0
 15
10.0
 25
10.0
 16
0.0
 26
0.0
 36
1.0
 17
0.0
 27
0.0
 37
0.0
 40
48.664499
 41
1.592689
 42
50.0
 43
0.0
 44
0.0
 50
0.0
 51
0.0
 71
     0
 72
   100
 73
     1
 74
     1
 75
     0
 76
     1
 77
     0
 78
     0
  0
ENDTAB
  0
TABLE
  2
LTYPE
  5
F1
100
AcDbSymbolTable
 70
     5
  0
LTYPE
  5
FD
100
AcDbSymbolTableRecord
100
AcDbLinetypeTableRecord
  2
BYBLOCK
 70
     0
  3

 72
    65
 73
     0
 40
0.0
  0
LTYPE
  5
FE
100
AcDbSymbolTableRecord
100
AcDbLinetypeTableRecord
  2
BYLAYER
 70
     0
  3

 72
    65
 73
     0
 40
0.0
  0
LTYPE
  5
FF
100
AcDbSymbolTableRecord
100
AcDbLinetypeTableRecord
  2
CONTINUOUS
 70
     0
  3
Solid line
 72
    65
 73
     0
 40
0.0
  0
LTYPE
  5
120
100
AcDbSymbolTableRecord
100
AcDbLinetypeTableRecord
  2
CACHE2
 70
     0
  3
_ _ _ _ _ _ _ _ _ _ _ _ _ _ _ _ _ _ _ _ _ _ _ _
 72
    65
 73
     2
 40
0.1875
 49
0.125
 74
     0
 49
-0.0625
 74
     0
  0
ENDTAB
  0
TABLE
  2
LAYER
  5
EE
100
AcDbSymbolTable
 70
     6
  0
LAYER
  5
FA
100
AcDbSymbolTableRecord
100
AcDbLayerTableRecord
  2
0
 70
     0
 62
     7
  6
CONTINUOUS
  0
LAYER
  5
12C
100
AcDbSymbolTableRecord
100
AcDbLayerTableRecord
  2
ALPHA
 70
     0
 62
   255
  6
CONTINUOUS
  0
LAYER
  5
12F
100
AcDbSymbolTableRecord
100
AcDbLayerTableRecord
  2
COTATION1
 70
     0
 62
     2
  6
CONTINUOUS
  0
LAYER
  5
132
100
AcDbSymbolTableRecord
100
AcDbLayerTableRecord
  2
TEXTE
 70
     0
 62
   131
  6
CONTINUOUS
  0
LAYER
  5
13B
100
AcDbSymbolTableRecord
100
AcDbLayerTableRecord
  2
ASHADE
 70
     0
 62
     7
  6
CONTINUOUS
  0
LAYER
  5
13C
100
AcDbSymbolTableRecord
100
AcDbLayerTableRecord
  2
POINTILLE_COURT
 70
     0
 62
    40
  6
CACHE2
  0
ENDTAB
  0
TABLE
  2
STYLE
  5
EF
100
AcDbSymbolTable
 70
     2
  0
STYLE
  5
FB
100
AcDbSymbolTableRecord
100
AcDbTextStyleTableRecord
  2
STANDARD
 70
     0
 40
0.0
 41
1.0
 50
0.0
 71
     0
 42
2.5
  3
txt
  4

  0
STYLE
  5
5E8
100
AcDbSymbolTableRecord
100
AcDbTextStyleTableRecord
  2
STD
 70
     0
 40
0.0
 41
1.0
 50
0.0
 71
     0
 42
0.0
  3
txt
  4

  0
ENDTAB
  0
TABLE
  2
VIEW
  5
F2
100
AcDbSymbolTable
 70
     0
  0
ENDTAB
  0
TABLE
  2
UCS
  5
F3
100
AcDbSymbolTable
 70
     0
  0
ENDTAB
  0
TABLE
  2
APPID
  5
F5
100
AcDbSymbolTable
 70
     3
  0
APPID
  5
FC
100
AcDbSymbolTableRecord
100
AcDbRegAppTableRecord
  2
ACAD
 70
     0
  0
APPID
  5
127
100
AcDbSymbolTableRecord
100
AcDbRegAppTableRecord
  2
AVE_RENDER
 70
     0
  0
APPID
  5
128
100
AcDbSymbolTableRecord
100
AcDbRegAppTableRecord
  2
AVE_MATERIAL
 70
     0
  0
ENDTAB
  0
TABLE
  2
DIMSTYLE
  5
F6
100
AcDbSymbolTable
 70
     2
  0
DIMSTYLE
105
129
100
AcDbSymbolTableRecord
100
AcDbDimStyleTableRecord
  2
STANDARD
 70
     0
  3

  4

  5

  6

  7

 40
1.0
 41
0.18
 42
0.0625
 43
0.38
 44
0.18
 45
0.0
 46
0.0
 47
0.0
 48
0.0
140
0.18
141
0.09
142
0.0
143
25.4
144
1.0
145
0.0
146
1.0
147
0.09
 71
     0
 72
     0
 73
     1
 74
     1
 75
     0
 76
     0
 77
     0
 78
     0
170
     0
171
     2
172
     0
173
     0
174
     0
175
     0
176
     0
177
     0
178
     0
270
     2
271
     3
272
     3
273
     2
274
     2
340
FB
275
     0
280
     0
281
     0
282
     0
283
     1
284
    12
285
    12
286
    12
287
     5
288
     0
  0
DIMSTYLE
105
12A
100
AcDbSymbolTableRecord
100
AcDbDimStyleTableRecord
  2
SC_STAND
 70
     0
  3

  4

  5

  6

  7

 40
1.0
 41
3.0
 42
0.0625
 43
0.38
 44
0.18
 45
0.01
 46
0.0
 47
0.0
 48
0.0
140
2.5
141
0.09
142
0.0
143
25.4
144
1.0
145
0.0
146
1.0
147
1.0
 71
     0
 72
     0
 73
     0
 74
     0
 75
     0
 76
     0
 77
     1
 78
    12
170
     0
171
     2
172
     1
173
     0
174
     0
175
     0
176
     0
177
     0
178
     0
270
     2
271
     3
272
     3
273
     2
274
     2
340
FB
275
     0
280
     0
281
     0
282
     0
283
     1
284
    12
285
    12
286
    12
287
     5
288
     0
  0
ENDTAB
  0
TABLE
  2
BLOCK_RECORD
  5
ED
100
AcDbSymbolTable
 70
     4
  0
BLOCK_RECORD
  5
103
100
AcDbSymbolTableRecord
100
AcDbBlockTableRecord
  2
*MODEL_SPACE
  0
BLOCK_RECORD
  5
100
100
AcDbSymbolTableRecord
100
AcDbBlockTableRecord
  2
*PAPER_SPACE
  0
BLOCK_RECORD
  5
108
100
AcDbSymbolTableRecord
100
AcDbBlockTableRecord
  2
AVE_RENDER
  0
BLOCK_RECORD
  5
109
100
AcDbSymbolTableRecord
100
AcDbBlockTableRecord
  2
AVE_GLOBAL
  0
BLOCK_RECORD
  5
10A
100
AcDbSymbolTableRecord
100
AcDbBlockTableRecord
  2
SCH_IS
  0
ENDTAB
  0
ENDSEC
  0
SECTION
  2
BLOCKS
  0
BLOCK
  5
141
100
AcDbEntity
  8
0
100
AcDbBlockBegin
  2
*MODEL_SPACE
 70
     0
 10
0.0
 20
0.0
 30
0.0
  3
*MODEL_SPACE
  1

  0
ENDBLK
  5
142
100
AcDbEntity
  8
0
100
AcDbBlockEnd
  0
BLOCK
  5
13F
100
AcDbEntity
 67
     1
  8
0
100
AcDbBlockBegin
  2
*PAPER_SPACE
 70
     0
 10
0.0
 20
0.0
 30
0.0
  3
*PAPER_SPACE
  1

  0
ENDBLK
  5
140
100
AcDbEntity
 67
     1
  8
0
100
AcDbBlockEnd
  0
BLOCK
  5
8D
100
AcDbEntity
  8
0
100
AcDbBlockBegin
  2
AVE_RENDER
 70
     0
 10
0.0
 20
0.0
 30
0.0
  3
AVE_RENDER
  1
AVE_RENDER
  0
ENDBLK
  5
8E
100
AcDbEntity
  8
0
100
AcDbBlockEnd
  0
BLOCK
  5
90
100
AcDbEntity
  8
0
100
AcDbBlockBegin
  2
AVE_GLOBAL
 70
     0
 10
0.0
 20
0.0
 30
0.0
  3
AVE_GLOBAL
  1
AVE_GLOBAL
  0
ENDBLK
  5
91
100
AcDbEntity
  8
0
100
AcDbBlockEnd
  0
BLOCK
  5
C9
100
AcDbEntity
  8
0
100
AcDbBlockBegin
  2
SCH_IS
 70
     0
 10
0.0
 20
0.0
 30
0.0
  3
SCH_IS
  1

  0
INSERT
  5
C0
100
AcDbEntity
  8
ASHADE
 62
     1
100
AcDbBlockReference
  2
AVE_RENDER
 10
0.0
 20
0.0
 30
0.0
1001
AVE_RENDER
1002
{
1070
     6
1000
Pref
1070
    50
1070
    20
1070
     1
1070
     0
1000

1070
    10
1070
     1
1070
    30
1040
25.4
1070
     1
1040
0.3
1040
0.7
1040
0.0
1040
10.0
1010
-1.0
1020
-1.0
1030
-1.0
1040
0.3
1070
    49
1070
     0
1070
     0
1010
1.0
1020
1.0
1030
1.0
1040
45.0
1070
     1
1070
     0
1000
WCS
1040
0.0
1002
}
  0
INSERT
  5
C1
100
AcDbEntity
  8
ASHADE
 62
     3
100
AcDbBlockReference
  2
AVE_RENDER
 10
0.0
 20
0.0
 30
0.0
1001
AVE_RENDER
1002
{
1070
     0
1000
Full Opt
1070
     0
1070
     1
1070
     1
1070
     1
1070
     0
1070
     0
1070
     0
1070
     1
1070
     1
1040
0.0001
1040
0.0001
1002
}
  0
INSERT
  5
C2
100
AcDbEntity
  8
ASHADE
 62
     4
100
AcDbBlockReference
  2
AVE_RENDER
 10
0.0
 20
0.0
 30
0.0
1001
AVE_RENDER
1002
{
1070
     0
1000
Quick Opt
1070
     0
1070
     1
1070
     1
1070
     1
1070
     0
1070
     0
1070
     1
1002
}
  0
INSERT
  5
C3
100
AcDbEntity
  8
ASHADE
 62
     5
100
AcDbBlockReference
  2
AVE_RENDER
 10
0.0
 20
0.0
 30
0.0
1001
AVE_RENDER
1002
{
1070
     1
1000
Scanl Opt
1070
     2
1070
     0
1070
     2
1040
2.0
1040
4.0
1070
     0
1070
     1
1070
     0
1040
0.03
1002
}
  0
INSERT
  5
C4
100
AcDbEntity
  8
ASHADE
 62
     6
100
AcDbBlockReference
  2
AVE_RENDER
 10
0.0
 20
0.0
 30
0.0
1001
AVE_RENDER
1002
{
1070
     2
1000
Raytr Opt
1070
     2
1070
     0
1070
     2
1040
2.0
1040
4.0
1070
     0
1070
     1
1070
     1
1040
0.03
1070
     3
1040
0.03
1002
}
  0
INSERT
  5
C5
100
AcDbEntity
  8
ASHADE
 62
     7
100
AcDbBlockReference
  2
AVE_RENDER
 10
0.0
 20
0.0
 30
0.0
1001
AVE_RENDER
1002
{
1070
     0
1000
RFile Opt
1070
     5
1070
   640
1070
   480
1070
 10000
1070
     3
1070
    32
1070
    24
1070
     0
1070
     0
1070
     0
1070
     1
1070
     0
1070
     0
1070
     0
1002
}
  0
INSERT
  5
C6
100
AcDbEntity
  8
ASHADE
 62
     8
100
AcDbBlockReference
  2
AVE_RENDER
 10
0.0
 20
0.0
 30
0.0
1001
AVE_RENDER
1002
{
1070
     0
1000
Fog Opt
1070
     0
1070
     0
1040
0.0
1040
1.0
1040
0.0
1040
1.0
1010
0.5
1020
0.5
1030
0.5
1002
}
  0
INSERT
  5
C7
100
AcDbEntity
  8
ASHADE
 62
     9
100
AcDbBlockReference
  2
AVE_RENDER
 10
0.0
 20
0.0
 30
0.0
1001
AVE_RENDER
1002
{
1070
     0
1000
BG Opt
1070
     0
1070
     1
1010
0.0
1020
0.0
1030
0.0
1010
1.0
1020
0.0
1030
0.0
1010
0.0
1020
1.0
1030
0.0
1010
0.0
1020
0.0
1030
1.0
1040
0.5
1040
0.33
1040
0.0
1000

1070
     1
1000

1070
     1
1070
     1
1040
1.0
1040
1.0
1040
0.0
1040
0.0
1070
     0
1002
}
  0
INSERT
  5
C8
100
AcDbEntity
  8
ASHADE
 62
     1
100
AcDbBlockReference
  2
AVE_GLOBAL
 10
0.0
 20
0.0
 30
0.0
1001
AVE_MATERIAL
1002
{
1000
*GLOBAL*
1000
1
1000
Finition globale.
1002
{
1002
}
1002
{
1070
    63
1002
{
1002
{
1010
-1.0
1020
-1.0
1030
-1.0
1002
}
1040
0.1
1000

1040
0.0
1002
{
1002
}
1040
0.0
1002
{
1002
}
1040
0.0
1002
}
1002
{
1002
{
1010
-1.0
1020
-1.0
1030
-1.0
1002
}
1040
0.7
1000

1040
0.0
1002
{
1002
}
1040
0.0
1002
{
1002
}
1040
0.0
1002
}
1002
{
1002
{
1010
-1.0
1020
-1.0
1030
-1.0
1002
}
1040
0.2
1000

1040
0.0
1002
{
1002
}
1040
0.0
1002
{
1002
}
1040
0.0
1002
}
1002
{
1070
     0
1002
{
1070
     1
1002
{
1040
1.0
1040
1.0
1000

1040
0.0
1002
{
1002
}
1040
0.0
1002
{
1002
}
1040
0.0
1002
}
1002
}
1040
1.0
1040
0.0
1040
0.0
1002
}
1002
{
1040
1.0
1040
1.0
1000

1040
0.0
1002
{
1002
}
1040
0.0
1002
{
1002
}
1040
0.0
1002
}
1002
{
1040
0.5
1040
1.0
1000

1040
0.0
1002
{
1002
}
1040
0.0
1002
{
1002
}
1040
0.0
1002
}
1002
{
1070
     0
1040
0.0
1002
{
1002
}
1040
1.0
1002
{
1002
}
1040
0.0
1002
}
1002
{
1040
0.0
1002
{
1002
{
1010
0.0
1020
0.0
1030
0.0
1002
}
1040
1.0
1000

1040
0.0
1002
{
1002
}
1040
0.0
1002
{
1002
}
1040
0.0
1002
}
1002
}
1002
{
1002
{
1070
     1
1002
{
1040
0.0
1040
1.0
1000

1040
0.0
1002
{
1002
}
1040
0.0
1002
{
1002
}
1040
0.0
1002
}
1002
}
1040
0.0
1002
{
1002
}
1010
1.0
1020
0.0
1030
0.0
1010
0.0
1020
1.0
1030
0.0
1010
0.0
1020
0.0
1030
1.0
1070
     0
1002
}
1002
{
1002
{
1040
1.0
1040
1.0
1002
{
1070
     1
1002
{
1040
1.0
1040
1.0
1000

1040
0.0
1002
{
1002
}
1040
0.0
1002
{
1002
}
1040
0.0
1002
}
1002
}
1002
}
1070
     0
1040
0.0
1002
{
1002
}
1002
}
1002
{
1002
}
1002
}
1002
{
1071
        3
1070
     3
1070
     0
1002
{
1070
     2
1070
     0
1070
     0
1040
0.0
1002
}
1070
     0
1070
     2
1002
{
1002
}
1002
}
1002
{
1040
8030.0
1040
190.300003
1040
0.305
1040
228.0
1040
545.0
1040
14.0
1040
17.4
1040
0.456
1002
}
1002
}
  0
ENDBLK
  5
CA
100
AcDbEntity
  8
0
100
AcDbBlockEnd
  0
ENDSEC
  0
SECTION
  2
ENTITIES
  0
INSERT
  5
CC
100
AcDbEntity
  8
0
100
AcDbBlockReference
  2
SCH_IS
 10
-68.718396
 20
-140.042541
 30
0.0
  0
INSERT
  5
EC
100
AcDbEntity
  8
COTATION1
100
AcDbBlockReference
  2
SCH_IS
 10
0.0
 20
0.0
 30
0.0
  0
MTEXT
  5
75D
100
AcDbEntity
  8
TEXTE
 62
     7
100
AcDbMText
 10
57.154498
 20
114.844378
 30
0.0
 40
1.312417
 41
0.0
 71
     1
 72
     2
  1
\fTxt|b0|i0;InU3-
  7
STD
 11
0.0
 21
1.0
 31
0.0
  0
MTEXT
  5
75E
100
AcDbEntity
  8
TEXTE
 62
     7
100
AcDbMText
 10
57.154498
 20
130.137673
 30
0.0
 40
1.312417
 41
0.0
 71
     1
 72
     2
  1
\fTxt|b0|i0;IS3-
  7
STD
 11
0.0
 21
1.0
 31
0.0
  0
POLYLINE
  5
75F
100
AcDbEntity
  8
POINTILLE_COURT
 62
     7
100
AcDb2dPolyline
 66
     1
 10
0.0
 20
0.0
 30
0.0
 70
     1
  0
VERTEX
  5
760
100
AcDbEntity
  8
POINTILLE_COURT
 62
     7
100
AcDbVertex
100
AcDb2dVertex
 10
58.999011
 20
128.685738
 30
0.0
  0
VERTEX
  5
761
100
AcDbEntity
  8
POINTILLE_COURT
 62
     7
100
AcDbVertex
100
AcDb2dVertex
 10
47.088626
 20
128.685738
 30
0.0
  0
VERTEX
  5
762
100
AcDbEntity
  8
POINTILLE_COURT
 62
     7
100
AcDbVertex
100
AcDb2dVertex
 10
47.088626
 20
136.989451
 30
0.0
  0
VERTEX
  5
763
100
AcDbEntity
  8
POINTILLE_COURT
 62
     7
100
AcDbVertex
100
AcDb2dVertex
 10
58.999011
 20
136.989451
 30
0.0
  0
SEQEND
  5
764
100
AcDbEntity
  8
POINTILLE_COURT
 62
     7
  0
POLYLINE
  5
765
100
AcDbEntity
  8
POINTILLE_COURT
 62
     7
100
AcDb2dPolyline
 66
     1
 10
0.0
 20
0.0
 30
0.0
 70
     1
  0
VERTEX
  5
766
100
AcDbEntity
  8
POINTILLE_COURT
 62
     7
100
AcDbVertex
100
AcDb2dVertex
 10
71.852834
 20
113.392442
 30
0.0
  0
VERTEX
  5
767
100
AcDbEntity
  8
POINTILLE_COURT
 62
     7
100
AcDbVertex
100
AcDb2dVertex
 10
21.381324
 20
113.392442
 30
0.0
  0
VERTEX
  5
768
100
AcDbEntity
  8
POINTILLE_COURT
 62
     7
100
AcDbVertex
100
AcDb2dVertex
 10
21.381324
 20
121.696156
 30
0.0
  0
VERTEX
  5
769
100
AcDbEntity
  8
POINTILLE_COURT
 62
     7
100
AcDbVertex
100
AcDb2dVertex
 10
71.852834
 20
121.696156
 30
0.0
  0
SEQEND
  5
76A
100
AcDbEntity
  8
POINTILLE_COURT
 62
     7
  0
POLYLINE
  5
76B
100
AcDbEntity
  8
ALPHA
 62
     7
100
AcDb2dPolyline
 66
     1
 10
0.0
 20
0.0
 30
0.0
 70
     1
  0
VERTEX
  5
76C
100
AcDbEntity
  8
ALPHA
 62
     7
100
AcDbVertex
100
AcDb2dVertex
 10
79.450992
 20
112.403527
 30
0.0
  0
VERTEX
  5
76D
100
AcDbEntity
  8
ALPHA
 62
     7
100
AcDbVertex
100
AcDb2dVertex
 10
20.281477
 20
112.403527
 30
0.0
  0
VERTEX
  5
76E
100
AcDbEntity
  8
ALPHA
 62
     7
100
AcDbVertex
100
AcDb2dVertex
 10
20.281477
 20
122.696267
 30
0.0
  0
VERTEX
  5
76F
100
AcDbEntity
  8
ALPHA
 62
     7
100
AcDbVertex
100
AcDb2dVertex
 10
79.450992
 20
122.696267
 30
0.0
  0
SEQEND
  5
770
100
AcDbEntity
  8
ALPHA
 62
     7
  0
POLYLINE
  5
771
100
AcDbEntity
  8
ALPHA
 62
     7
100
AcDb2dPolyline
 66
     1
 10
0.0
 20
0.0
 30
0.0
 70
     1
  0
VERTEX
  5
772
100
AcDbEntity
  8
ALPHA
 62
     7
100
AcDbVertex
100
AcDb2dVertex
 10
79.450992
 20
127.696823
 30
0.0
  0
VERTEX
  5
773
100
AcDbEntity
  8
ALPHA
 62
     7
100
AcDbVertex
100
AcDb2dVertex
 10
20.281477
 20
127.696823
 30
0.0
  0
VERTEX
  5
774
100
AcDbEntity
  8
ALPHA
 62
     7
100
AcDbVertex
100
AcDb2dVertex
 10
20.281477
 20
137.989563
 30
0.0
  0
VERTEX
  5
775
100
AcDbEntity
  8
ALPHA
 62
     7
100
AcDbVertex
100
AcDb2dVertex
 10
79.450992
 20
137.989563
 30
0.0
  0
SEQEND
  5
776
100
AcDbEntity
  8
ALPHA
 62
     7
  0
POLYLINE
  5
777
100
AcDbEntity
  8
ALPHA
 62
     7
100
AcDb2dPolyline
 66
     1
 10
0.0
 20
0.0
 30
0.0
 70
     1
  0
VERTEX
  5
778
100
AcDbEntity
  8
ALPHA
 62
     7
100
AcDbVertex
100
AcDb2dVertex
 10
79.450992
 20
140.489668
 30
0.0
  0
VERTEX
  5
779
100
AcDbEntity
  8
ALPHA
 62
     7
100
AcDbVertex
100
AcDb2dVertex
 10
20.281477
 20
140.489668
 30
0.0
  0
VERTEX
  5
77A
100
AcDbEntity
  8
ALPHA
 62
     7
100
AcDbVertex
100
AcDb2dVertex
 10
20.281477
 20
150.78258
 30
0.0
  0
VERTEX
  5
77B
100
AcDbEntity
  8
ALPHA
 62
     7
100
AcDbVertex
100
AcDb2dVertex
 10
79.450992
 20
150.78258
 30
0.0
  0
SEQEND
  5
77C
100
AcDbEntity
  8
ALPHA
 62
     7
  0
MTEXT
  5
77D
100
AcDbEntity
  8
TEXTE
 62
     7
100
AcDbMText
 10
53.940913
 20
130.137673
 30
0.0
 40
1.312417
 41
0.0
 71
     1
 72
     2
  1
\fTxt|b0|i0;RTD3-
  7
STD
 11
0.0
 21
1.0
 31
0.0
  0
MTEXT
  5
77E
100
AcDbEntity
  8
TEXTE
 62
     7
100
AcDbMText
 10
50.727328
 20
130.137673
 30
0.0
 40
1.312417
 41
0.0
 71
     1
 72
     2
  1
\fTxt|b0|i0;RTD3+
  7
STD
 11
0.0
 21
1.0
 31
0.0
  0
MTEXT
  5
77F
100
AcDbEntity
  8
TEXTE
 62
     7
100
AcDbMText
 10
47.513743
 20
130.137673
 30
0.0
 40
1.312417
 41
0.0
 71
     1
 72
     2
  1
\fTxt|b0|i0;IS3+
  7
STD
 11
0.0
 21
1.0
 31
0.0
  0
MTEXT
  5
780
100
AcDbEntity
  8
TEXTE
 62
     7
100
AcDbMText
 10
44.300158
 20
130.137673
 30
0.0
 40
1.312417
 41
0.0
 71
     1
 72
     2
  1
\fTxt|b0|i0;IS2-
  7
STD
 11
0.0
 21
1.0
 31
0.0
  0
MTEXT
  5
781
100
AcDbEntity
  8
TEXTE
 62
     7
100
AcDbMText
 10
41.086573
 20
130.137673
 30
0.0
 40
1.312417
 41
0.0
 71
     1
 72
     2
  1
\fTxt|b0|i0;RTD2-
  7
STD
 11
0.0
 21
1.0
 31
0.0
  0
MTEXT
  5
782
100
AcDbEntity
  8
TEXTE
 62
     7
100
AcDbMText
 10
37.872988
 20
130.137673
 30
0.0
 40
1.312417
 41
0.0
 71
     1
 72
     2
  1
\fTxt|b0|i0;RTD2+
  7
STD
 11
0.0
 21
1.0
 31
0.0
  0
MTEXT
  5
783
100
AcDbEntity
  8
TEXTE
 62
     7
100
AcDbMText
 10
34.659403
 20
130.137673
 30
0.0
 40
1.312417
 41
0.0
 71
     1
 72
     2
  1
\fTxt|b0|i0;IS2+
  7
STD
 11
0.0
 21
1.0
 31
0.0
  0
MTEXT
  5
784
100
AcDbEntity
  8
TEXTE
 62
     7
100
AcDbMText
 10
31.445818
 20
130.137673
 30
0.0
 40
1.312417
 41
0.0
 71
     1
 72
     2
  1
\fTxt|b0|i0;IS1-
  7
STD
 11
0.0
 21
1.0
 31
0.0
  0
MTEXT
  5
785
100
AcDbEntity
  8
TEXTE
 62
     7
100
AcDbMText
 10
28.232233
 20
130.137673
 30
0.0
 40
1.312417
 41
0.0
 71
     1
 72
     2
  1
\fTxt|b0|i0;RTD1-
  7
STD
 11
0.0
 21
1.0
 31
0.0
  0
MTEXT
  5
786
100
AcDbEntity
  8
TEXTE
 62
     7
100
AcDbMText
 10
25.018648
 20
130.137673
 30
0.0
 40
1.312417
 41
0.0
 71
     1
 72
     2
  1
\fTxt|b0|i0;RTD1+
  7
STD
 11
0.0
 21
1.0
 31
0.0
  0
MTEXT
  5
787
100
AcDbEntity
  8
TEXTE
 62
     7
100
AcDbMText
 10
21.805062
 20
130.137673
 30
0.0
 40
1.312417
 41
0.0
 71
     1
 72
     2
  1
\fTxt|b0|i0;IS1+
  7
STD
 11
0.0
 21
1.0
 31
0.0
  0
POLYLINE
  5
788
100
AcDbEntity
  8
POINTILLE_COURT
 62
     7
100
AcDb2dPolyline
 66
     1
 10
0.0
 20
0.0
 30
0.0
 70
     1
  0
VERTEX
  5
789
100
AcDbEntity
  8
POINTILLE_COURT
 62
     7
100
AcDbVertex
100
AcDb2dVertex
 10
46.145359
 20
128.685738
 30
0.0
  0
VERTEX
  5
78A
100
AcDbEntity
  8
POINTILLE_COURT
 62
     7
100
AcDbVertex
100
AcDb2dVertex
 10
34.234975
 20
128.685738
 30
0.0
  0
VERTEX
  5
78B
100
AcDbEntity
  8
POINTILLE_COURT
 62
     7
100
AcDbVertex
100
AcDb2dVertex
 10
34.234975
 20
136.989451
 30
0.0
  0
VERTEX
  5
78C
100
AcDbEntity
  8
POINTILLE_COURT
 62
     7
100
AcDbVertex
100
AcDb2dVertex
 10
46.145359
 20
136.989451
 30
0.0
  0
SEQEND
  5
78D
100
AcDbEntity
  8
POINTILLE_COURT
 62
     7
  0
POLYLINE
  5
78E
100
AcDbEntity
  8
POINTILLE_COURT
 62
     7
100
AcDb2dPolyline
 66
     1
 10
0.0
 20
0.0
 30
0.0
 70
     1
  0
VERTEX
  5
78F
100
AcDbEntity
  8
POINTILLE_COURT
 62
     7
100
AcDbVertex
100
AcDb2dVertex
 10
33.291708
 20
128.685738
 30
0.0
  0
VERTEX
  5
790
100
AcDbEntity
  8
POINTILLE_COURT
 62
     7
100
AcDbVertex
100
AcDb2dVertex
 10
21.381324
 20
128.685738
 30
0.0
  0
VERTEX
  5
791
100
AcDbEntity
  8
POINTILLE_COURT
 62
     7
100
AcDbVertex
100
AcDb2dVertex
 10
21.381324
 20
136.989451
 30
0.0
  0
VERTEX
  5
792
100
AcDbEntity
  8
POINTILLE_COURT
 62
     7
100
AcDbVertex
100
AcDb2dVertex
 10
33.291708
 20
136.989451
 30
0.0
  0
SEQEND
  5
793
100
AcDbEntity
  8
POINTILLE_COURT
 62
     7
  0
MTEXT
  5
794
100
AcDbEntity
  8
TEXTE
 62
     7
100
AcDbMText
 10
31.445818
 20
114.844378
 30
0.0
 40
1.312417
 41
0.0
 71
     1
 72
     2
  1
\fTxt|b0|i0;InU1-
  7
STD
 11
0.0
 21
1.0
 31
0.0
  0
MTEXT
  5
795
100
AcDbEntity
  8
TEXTE
 62
     7
100
AcDbMText
 10
28.232233
 20
114.844378
 30
0.0
 40
1.312417
 41
0.0
 71
     1
 72
     2
  1
\fTxt|b0|i0;InU1+
  7
STD
 11
0.0
 21
1.0
 31
0.0
  0
POLYLINE
  5
796
100
AcDbEntity
  8
ALPHA
 62
     7
100
AcDb2dPolyline
 66
     1
 10
0.0
 20
0.0
 30
0.0
  0
VERTEX
  5
797
100
AcDbEntity
  8
ALPHA
 62
     7
100
AcDbVertex
100
AcDb2dVertex
 10
32.156549
 20
129.398528
 30
0.0
  0
VERTEX
  5
798
100
AcDbEntity
  8
ALPHA
 62
     7
100
AcDbVertex
100
AcDb2dVertex
 10
30.549929
 20
128.15037
 30
0.0
  0
VERTEX
  5
799
100
AcDbEntity
  8
ALPHA
 62
     7
100
AcDbVertex
100
AcDb2dVertex
 10
30.549929
 20
115.605571
 30
0.0
  0
VERTEX
  5
79A
100
AcDbEntity
  8
ALPHA
 62
     7
100
AcDbVertex
100
AcDb2dVertex
 10
32.156549
 20
114.105405
 30
0.0
  0
SEQEND
  5
79B
100
AcDbEntity
  8
ALPHA
 62
     7
  0
POLYLINE
  5
79C
100
AcDbEntity
  8
ALPHA
 62
     7
100
AcDb2dPolyline
 66
     1
 10
0.0
 20
0.0
 30
0.0
  0
VERTEX
  5
79D
100
AcDbEntity
  8
ALPHA
 62
     7
100
AcDbVertex
100
AcDb2dVertex
 10
25.729896
 20
129.398528
 30
0.0
  0
VERTEX
  5
79E
100
AcDbEntity
  8
ALPHA
 62
     7
100
AcDbVertex
100
AcDb2dVertex
 10
27.336516
 20
128.15037
 30
0.0
  0
VERTEX
  5
79F
100
AcDbEntity
  8
ALPHA
 62
     7
100
AcDbVertex
100
AcDb2dVertex
 10
27.336516
 20
115.605571
 30
0.0
  0
VERTEX
  5
7A0
100
AcDbEntity
  8
ALPHA
 62
     7
100
AcDbVertex
100
AcDb2dVertex
 10
28.943136
 20
114.105405
 30
0.0
  0
SEQEND
  5
7A1
100
AcDbEntity
  8
ALPHA
 62
     7
  0
POLYLINE
  5
7A2
100
AcDbEntity
  8
ALPHA
 62
     7
100
AcDb2dPolyline
 66
     1
 10
0.0
 20
0.0
 30
0.0
 70
     1
  0
VERTEX
  5
7A3
100
AcDbEntity
  8
ALPHA
 62
     7
100
AcDbVertex
100
AcDb2dVertex
 10
22.916286
 20
113.705257
 30
0.0
  0
VERTEX
  5
7A4
100
AcDbEntity
  8
ALPHA
 62
     7
100
AcDbVertex
100
AcDb2dVertex
 10
22.116335
 20
113.705257
 30
0.0
  0
VERTEX
  5
7A5
100
AcDbEntity
  8
ALPHA
 62
     7
100
AcDbVertex
100
AcDb2dVertex
 10
22.116335
 20
114.505208
 30
0.0
  0
VERTEX
  5
7A6
100
AcDbEntity
  8
ALPHA
 62
     7
100
AcDbVertex
100
AcDb2dVertex
 10
22.916286
 20
114.505208
 30
0.0
  0
SEQEND
  5
7A7
100
AcDbEntity
  8
ALPHA
 62
     7
  0
POLYLINE
  5
7A8
100
AcDbEntity
  8
ALPHA
 62
     7
100
AcDb2dPolyline
 66
     1
 10
0.0
 20
0.0
 30
0.0
 70
     1
  0
VERTEX
  5
7A9
100
AcDbEntity
  8
ALPHA
 62
     7
100
AcDbVertex
100
AcDb2dVertex
 10
29.343456
 20
113.705257
 30
0.0
  0
VERTEX
  5
7AA
100
AcDbEntity
  8
ALPHA
 62
     7
100
AcDbVertex
100
AcDb2dVertex
 10
28.543161
 20
113.705257
 30
0.0
  0
VERTEX
  5
7AB
100
AcDbEntity
  8
ALPHA
 62
     7
100
AcDbVertex
100
AcDb2dVertex
 10
28.543161
 20
114.505208
 30
0.0
  0
VERTEX
  5
7AC
100
AcDbEntity
  8
ALPHA
 62
     7
100
AcDbVertex
100
AcDb2dVertex
 10
29.343456
 20
114.505208
 30
0.0
  0
SEQEND
  5
7AD
100
AcDbEntity
  8
ALPHA
 62
     7
  0
POLYLINE
  5
7AE
100
AcDbEntity
  8
ALPHA
 62
     7
100
AcDb2dPolyline
 66
     1
 10
0.0
 20
0.0
 30
0.0
 70
     1
  0
VERTEX
  5
7AF
100
AcDbEntity
  8
ALPHA
 62
     7
100
AcDbVertex
100
AcDb2dVertex
 10
26.129871
 20
113.705257
 30
0.0
  0
VERTEX
  5
7B0
100
AcDbEntity
  8
ALPHA
 62
     7
100
AcDbVertex
100
AcDb2dVertex
 10
25.32992
 20
113.705257
 30
0.0
  0
VERTEX
  5
7B1
100
AcDbEntity
  8
ALPHA
 62
     7
100
AcDbVertex
100
AcDb2dVertex
 10
25.32992
 20
114.505208
 30
0.0
  0
VERTEX
  5
7B2
100
AcDbEntity
  8
ALPHA
 62
     7
100
AcDbVertex
100
AcDb2dVertex
 10
26.129871
 20
114.505208
 30
0.0
  0
SEQEND
  5
7B3
100
AcDbEntity
  8
ALPHA
 62
     7
  0
POLYLINE
  5
7B4
100
AcDbEntity
  8
ALPHA
 62
     7
100
AcDb2dPolyline
 66
     1
 10
0.0
 20
0.0
 30
0.0
 70
     1
  0
VERTEX
  5
7B5
100
AcDbEntity
  8
ALPHA
 62
     7
100
AcDbVertex
100
AcDb2dVertex
 10
32.556697
 20
113.705257
 30
0.0
  0
VERTEX
  5
7B6
100
AcDbEntity
  8
ALPHA
 62
     7
100
AcDbVertex
100
AcDb2dVertex
 10
31.756746
 20
113.705257
 30
0.0
  0
VERTEX
  5
7B7
100
AcDbEntity
  8
ALPHA
 62
     7
100
AcDbVertex
100
AcDb2dVertex
 10
31.756746
 20
114.505208
 30
0.0
  0
VERTEX
  5
7B8
100
AcDbEntity
  8
ALPHA
 62
     7
100
AcDbVertex
100
AcDb2dVertex
 10
32.556697
 20
114.505208
 30
0.0
  0
SEQEND
  5
7B9
100
AcDbEntity
  8
ALPHA
 62
     7
  0
POLYLINE
  5
7BA
100
AcDbEntity
  8
ALPHA
 62
     7
100
AcDb2dPolyline
 66
     1
 10
0.0
 20
0.0
 30
0.0
 70
     1
  0
VERTEX
  5
7BB
100
AcDbEntity
  8
ALPHA
 62
     7
100
AcDbVertex
100
AcDb2dVertex
 10
22.916286
 20
128.998552
 30
0.0
  0
VERTEX
  5
7BC
100
AcDbEntity
  8
ALPHA
 62
     7
100
AcDbVertex
100
AcDb2dVertex
 10
22.116335
 20
128.998552
 30
0.0
  0
VERTEX
  5
7BD
100
AcDbEntity
  8
ALPHA
 62
     7
100
AcDbVertex
100
AcDb2dVertex
 10
22.116335
 20
129.798504
 30
0.0
  0
VERTEX
  5
7BE
100
AcDbEntity
  8
ALPHA
 62
     7
100
AcDbVertex
100
AcDb2dVertex
 10
22.916286
 20
129.798504
 30
0.0
  0
SEQEND
  5
7BF
100
AcDbEntity
  8
ALPHA
 62
     7
  0
POLYLINE
  5
7C0
100
AcDbEntity
  8
ALPHA
 62
     7
100
AcDb2dPolyline
 66
     1
 10
0.0
 20
0.0
 30
0.0
 70
     1
  0
VERTEX
  5
7C1
100
AcDbEntity
  8
ALPHA
 62
     7
100
AcDbVertex
100
AcDb2dVertex
 10
29.343456
 20
128.998552
 30
0.0
  0
VERTEX
  5
7C2
100
AcDbEntity
  8
ALPHA
 62
     7
100
AcDbVertex
100
AcDb2dVertex
 10
28.543161
 20
128.998552
 30
0.0
  0
VERTEX
  5
7C3
100
AcDbEntity
  8
ALPHA
 62
     7
100
AcDbVertex
100
AcDb2dVertex
 10
28.543161
 20
129.798504
 30
0.0
  0
VERTEX
  5
7C4
100
AcDbEntity
  8
ALPHA
 62
     7
100
AcDbVertex
100
AcDb2dVertex
 10
29.343456
 20
129.798504
 30
0.0
  0
SEQEND
  5
7C5
100
AcDbEntity
  8
ALPHA
 62
     7
  0
POLYLINE
  5
7C6
100
AcDbEntity
  8
ALPHA
 62
     7
100
AcDb2dPolyline
 66
     1
 10
0.0
 20
0.0
 30
0.0
 70
     1
  0
VERTEX
  5
7C7
100
AcDbEntity
  8
ALPHA
 62
     7
100
AcDbVertex
100
AcDb2dVertex
 10
26.129871
 20
128.998552
 30
0.0
  0
VERTEX
  5
7C8
100
AcDbEntity
  8
ALPHA
 62
     7
100
AcDbVertex
100
AcDb2dVertex
 10
25.32992
 20
128.998552
 30
0.0
  0
VERTEX
  5
7C9
100
AcDbEntity
  8
ALPHA
 62
     7
100
AcDbVertex
100
AcDb2dVertex
 10
25.32992
 20
129.798504
 30
0.0
  0
VERTEX
  5
7CA
100
AcDbEntity
  8
ALPHA
 62
     7
100
AcDbVertex
100
AcDb2dVertex
 10
26.129871
 20
129.798504
 30
0.0
  0
SEQEND
  5
7CB
100
AcDbEntity
  8
ALPHA
 62
     7
  0
POLYLINE
  5
7CC
100
AcDbEntity
  8
ALPHA
 62
     7
100
AcDb2dPolyline
 66
     1
 10
0.0
 20
0.0
 30
0.0
 70
     1
  0
VERTEX
  5
7CD
100
AcDbEntity
  8
ALPHA
 62
     7
100
AcDbVertex
100
AcDb2dVertex
 10
32.556697
 20
128.998552
 30
0.0
  0
VERTEX
  5
7CE
100
AcDbEntity
  8
ALPHA
 62
     7
100
AcDbVertex
100
AcDb2dVertex
 10
31.756746
 20
128.998552
 30
0.0
  0
VERTEX
  5
7CF
100
AcDbEntity
  8
ALPHA
 62
     7
100
AcDbVertex
100
AcDb2dVertex
 10
31.756746
 20
129.798504
 30
0.0
  0
VERTEX
  5
7D0
100
AcDbEntity
  8
ALPHA
 62
     7
100
AcDbVertex
100
AcDb2dVertex
 10
32.556697
 20
129.798504
 30
0.0
  0
SEQEND
  5
7D1
100
AcDbEntity
  8
ALPHA
 62
     7
  0
MTEXT
  5
7D2
100
AcDbEntity
  8
TEXTE
 62
     7
100
AcDbMText
 10
53.940913
 20
114.844378
 30
0.0
 40
1.312417
 41
0.0
 71
     1
 72
     2
  1
\fTxt|b0|i0;InU3+
  7
STD
 11
0.0
 21
1.0
 31
0.0
  0
MTEXT
  5
7D3
100
AcDbEntity
  8
TEXTE
 62
     7
100
AcDbMText
 10
44.300158
 20
114.844378
 30
0.0
 40
1.312417
 41
0.0
 71
     1
 72
     2
  1
\fTxt|b0|i0;InU2-
  7
STD
 11
0.0
 21
1.0
 31
0.0
  0
MTEXT
  5
7D4
100
AcDbEntity
  8
TEXTE
 62
     7
100
AcDbMText
 10
41.086573
 20
114.844378
 30
0.0
 40
1.312417
 41
0.0
 71
     1
 72
     2
  1
\fTxt|b0|i0;InU2+
  7
STD
 11
0.0
 21
1.0
 31
0.0
  0
POLYLINE
  5
7D5
100
AcDbEntity
  8
ALPHA
 62
     7
100
AcDb2dPolyline
 66
     1
 10
0.0
 20
0.0
 30
0.0
  0
VERTEX
  5
7D6
100
AcDbEntity
  8
ALPHA
 62
     7
100
AcDbVertex
100
AcDb2dVertex
 10
57.864024
 20
129.398528
 30
0.0
  0
VERTEX
  5
7D7
100
AcDbEntity
  8
ALPHA
 62
     7
100
AcDbVertex
100
AcDb2dVertex
 10
56.257404
 20
128.15037
 30
0.0
  0
VERTEX
  5
7D8
100
AcDbEntity
  8
ALPHA
 62
     7
100
AcDbVertex
100
AcDb2dVertex
 10
56.257404
 20
115.605571
 30
0.0
  0
VERTEX
  5
7D9
100
AcDbEntity
  8
ALPHA
 62
     7
100
AcDbVertex
100
AcDb2dVertex
 10
57.864024
 20
114.105405
 30
0.0
  0
SEQEND
  5
7DA
100
AcDbEntity
  8
ALPHA
 62
     7
  0
POLYLINE
  5
7DB
100
AcDbEntity
  8
ALPHA
 62
     7
100
AcDb2dPolyline
 66
     1
 10
0.0
 20
0.0
 30
0.0
  0
VERTEX
  5
7DC
100
AcDbEntity
  8
ALPHA
 62
     7
100
AcDbVertex
100
AcDb2dVertex
 10
51.43737
 20
129.398528
 30
0.0
  0
VERTEX
  5
7DD
100
AcDbEntity
  8
ALPHA
 62
     7
100
AcDbVertex
100
AcDb2dVertex
 10
53.043991
 20
128.15037
 30
0.0
  0
VERTEX
  5
7DE
100
AcDbEntity
  8
ALPHA
 62
     7
100
AcDbVertex
100
AcDb2dVertex
 10
53.043991
 20
115.605571
 30
0.0
  0
VERTEX
  5
7DF
100
AcDbEntity
  8
ALPHA
 62
     7
100
AcDbVertex
100
AcDb2dVertex
 10
54.650611
 20
114.105405
 30
0.0
  0
SEQEND
  5
7E0
100
AcDbEntity
  8
ALPHA
 62
     7
  0
POLYLINE
  5
7E1
100
AcDbEntity
  8
ALPHA
 62
     7
100
AcDb2dPolyline
 66
     1
 10
0.0
 20
0.0
 30
0.0
  0
VERTEX
  5
7E2
100
AcDbEntity
  8
ALPHA
 62
     7
100
AcDbVertex
100
AcDb2dVertex
 10
45.010373
 20
129.398528
 30
0.0
  0
VERTEX
  5
7E3
100
AcDbEntity
  8
ALPHA
 62
     7
100
AcDbVertex
100
AcDb2dVertex
 10
43.403752
 20
128.15037
 30
0.0
  0
VERTEX
  5
7E4
100
AcDbEntity
  8
ALPHA
 62
     7
100
AcDbVertex
100
AcDb2dVertex
 10
43.403752
 20
115.605571
 30
0.0
  0
VERTEX
  5
7E5
100
AcDbEntity
  8
ALPHA
 62
     7
100
AcDbVertex
100
AcDb2dVertex
 10
45.010373
 20
114.105405
 30
0.0
  0
SEQEND
  5
7E6
100
AcDbEntity
  8
ALPHA
 62
     7
  0
POLYLINE
  5
7E7
100
AcDbEntity
  8
ALPHA
 62
     7
100
AcDb2dPolyline
 66
     1
 10
0.0
 20
0.0
 30
0.0
  0
VERTEX
  5
7E8
100
AcDbEntity
  8
ALPHA
 62
     7
100
AcDbVertex
100
AcDb2dVertex
 10
38.583719
 20
129.398528
 30
0.0
  0
VERTEX
  5
7E9
100
AcDbEntity
  8
ALPHA
 62
     7
100
AcDbVertex
100
AcDb2dVertex
 10
40.190339
 20
128.15037
 30
0.0
  0
VERTEX
  5
7EA
100
AcDbEntity
  8
ALPHA
 62
     7
100
AcDbVertex
100
AcDb2dVertex
 10
40.190339
 20
115.605571
 30
0.0
  0
VERTEX
  5
7EB
100
AcDbEntity
  8
ALPHA
 62
     7
100
AcDbVertex
100
AcDb2dVertex
 10
41.79696
 20
114.105405
 30
0.0
  0
SEQEND
  5
7EC
100
AcDbEntity
  8
ALPHA
 62
     7
  0
POLYLINE
  5
7ED
100
AcDbEntity
  8
ALPHA
 62
     7
100
AcDb2dPolyline
 66
     1
 10
0.0
 20
0.0
 30
0.0
 70
     1
  0
VERTEX
  5
7EE
100
AcDbEntity
  8
ALPHA
 62
     7
100
AcDbVertex
100
AcDb2dVertex
 10
38.983523
 20
113.705257
 30
0.0
  0
VERTEX
  5
7EF
100
AcDbEntity
  8
ALPHA
 62
     7
100
AcDbVertex
100
AcDb2dVertex
 10
38.183571
 20
113.705257
 30
0.0
  0
VERTEX
  5
7F0
100
AcDbEntity
  8
ALPHA
 62
     7
100
AcDbVertex
100
AcDb2dVertex
 10
38.183571
 20
114.505208
 30
0.0
  0
VERTEX
  5
7F1
100
AcDbEntity
  8
ALPHA
 62
     7
100
AcDbVertex
100
AcDb2dVertex
 10
38.983523
 20
114.505208
 30
0.0
  0
SEQEND
  5
7F2
100
AcDbEntity
  8
ALPHA
 62
     7
  0
POLYLINE
  5
7F3
100
AcDbEntity
  8
ALPHA
 62
     7
100
AcDb2dPolyline
 66
     1
 10
0.0
 20
0.0
 30
0.0
 70
     1
  0
VERTEX
  5
7F4
100
AcDbEntity
  8
ALPHA
 62
     7
100
AcDbVertex
100
AcDb2dVertex
 10
35.769937
 20
113.705257
 30
0.0
  0
VERTEX
  5
7F5
100
AcDbEntity
  8
ALPHA
 62
     7
100
AcDbVertex
100
AcDb2dVertex
 10
34.969986
 20
113.705257
 30
0.0
  0
VERTEX
  5
7F6
100
AcDbEntity
  8
ALPHA
 62
     7
100
AcDbVertex
100
AcDb2dVertex
 10
34.969986
 20
114.505208
 30
0.0
  0
VERTEX
  5
7F7
100
AcDbEntity
  8
ALPHA
 62
     7
100
AcDbVertex
100
AcDb2dVertex
 10
35.769937
 20
114.505208
 30
0.0
  0
SEQEND
  5
7F8
100
AcDbEntity
  8
ALPHA
 62
     7
  0
POLYLINE
  5
7F9
100
AcDbEntity
  8
ALPHA
 62
     7
100
AcDb2dPolyline
 66
     1
 10
0.0
 20
0.0
 30
0.0
 70
     1
  0
VERTEX
  5
7FA
100
AcDbEntity
  8
ALPHA
 62
     7
100
AcDbVertex
100
AcDb2dVertex
 10
45.410348
 20
113.705257
 30
0.0
  0
VERTEX
  5
7FB
100
AcDbEntity
  8
ALPHA
 62
     7
100
AcDbVertex
100
AcDb2dVertex
 10
44.610397
 20
113.705257
 30
0.0
  0
VERTEX
  5
7FC
100
AcDbEntity
  8
ALPHA
 62
     7
100
AcDbVertex
100
AcDb2dVertex
 10
44.610397
 20
114.505208
 30
0.0
  0
VERTEX
  5
7FD
100
AcDbEntity
  8
ALPHA
 62
     7
100
AcDbVertex
100
AcDb2dVertex
 10
45.410348
 20
114.505208
 30
0.0
  0
SEQEND
  5
7FE
100
AcDbEntity
  8
ALPHA
 62
     7
  0
POLYLINE
  5
7FF
100
AcDbEntity
  8
ALPHA
 62
     7
100
AcDb2dPolyline
 66
     1
 10
0.0
 20
0.0
 30
0.0
 70
     1
  0
VERTEX
  5
800
100
AcDbEntity
  8
ALPHA
 62
     7
100
AcDbVertex
100
AcDb2dVertex
 10
42.197108
 20
113.705257
 30
0.0
  0
VERTEX
  5
801
100
AcDbEntity
  8
ALPHA
 62
     7
100
AcDbVertex
100
AcDb2dVertex
 10
41.396812
 20
113.705257
 30
0.0
  0
VERTEX
  5
802
100
AcDbEntity
  8
ALPHA
 62
     7
100
AcDbVertex
100
AcDb2dVertex
 10
41.396812
 20
114.505208
 30
0.0
  0
VERTEX
  5
803
100
AcDbEntity
  8
ALPHA
 62
     7
100
AcDbVertex
100
AcDb2dVertex
 10
42.197108
 20
114.505208
 30
0.0
  0
SEQEND
  5
804
100
AcDbEntity
  8
ALPHA
 62
     7
  0
POLYLINE
  5
805
100
AcDbEntity
  8
ALPHA
 62
     7
100
AcDb2dPolyline
 66
     1
 10
0.0
 20
0.0
 30
0.0
 70
     1
  0
VERTEX
  5
806
100
AcDbEntity
  8
ALPHA
 62
     7
100
AcDbVertex
100
AcDb2dVertex
 10
51.837174
 20
113.705257
 30
0.0
  0
VERTEX
  5
807
100
AcDbEntity
  8
ALPHA
 62
     7
100
AcDbVertex
100
AcDb2dVertex
 10
51.037223
 20
113.705257
 30
0.0
  0
VERTEX
  5
808
100
AcDbEntity
  8
ALPHA
 62
     7
100
AcDbVertex
100
AcDb2dVertex
 10
51.037223
 20
114.505208
 30
0.0
  0
VERTEX
  5
809
100
AcDbEntity
  8
ALPHA
 62
     7
100
AcDbVertex
100
AcDb2dVertex
 10
51.837174
 20
114.505208
 30
0.0
  0
SEQEND
  5
80A
100
AcDbEntity
  8
ALPHA
 62
     7
  0
POLYLINE
  5
80B
100
AcDbEntity
  8
ALPHA
 62
     7
100
AcDb2dPolyline
 66
     1
 10
0.0
 20
0.0
 30
0.0
 70
     1
  0
VERTEX
  5
80C
100
AcDbEntity
  8
ALPHA
 62
     7
100
AcDbVertex
100
AcDb2dVertex
 10
48.623933
 20
113.705257
 30
0.0
  0
VERTEX
  5
80D
100
AcDbEntity
  8
ALPHA
 62
     7
100
AcDbVertex
100
AcDb2dVertex
 10
47.823638
 20
113.705257
 30
0.0
  0
VERTEX
  5
80E
100
AcDbEntity
  8
ALPHA
 62
     7
100
AcDbVertex
100
AcDb2dVertex
 10
47.823638
 20
114.505208
 30
0.0
  0
VERTEX
  5
80F
100
AcDbEntity
  8
ALPHA
 62
     7
100
AcDbVertex
100
AcDb2dVertex
 10
48.623933
 20
114.505208
 30
0.0
  0
SEQEND
  5
810
100
AcDbEntity
  8
ALPHA
 62
     7
  0
POLYLINE
  5
811
100
AcDbEntity
  8
ALPHA
 62
     7
100
AcDb2dPolyline
 66
     1
 10
0.0
 20
0.0
 30
0.0
 70
     1
  0
VERTEX
  5
812
100
AcDbEntity
  8
ALPHA
 62
     7
100
AcDbVertex
100
AcDb2dVertex
 10
58.263999
 20
113.705257
 30
0.0
  0
VERTEX
  5
813
100
AcDbEntity
  8
ALPHA
 62
     7
100
AcDbVertex
100
AcDb2dVertex
 10
57.464048
 20
113.705257
 30
0.0
  0
VERTEX
  5
814
100
AcDbEntity
  8
ALPHA
 62
     7
100
AcDbVertex
100
AcDb2dVertex
 10
57.464048
 20
114.505208
 30
0.0
  0
VERTEX
  5
815
100
AcDbEntity
  8
ALPHA
 62
     7
100
AcDbVertex
100
AcDb2dVertex
 10
58.263999
 20
114.505208
 30
0.0
  0
SEQEND
  5
816
100
AcDbEntity
  8
ALPHA
 62
     7
  0
POLYLINE
  5
817
100
AcDbEntity
  8
ALPHA
 62
     7
100
AcDb2dPolyline
 66
     1
 10
0.0
 20
0.0
 30
0.0
 70
     1
  0
VERTEX
  5
818
100
AcDbEntity
  8
ALPHA
 62
     7
100
AcDbVertex
100
AcDb2dVertex
 10
55.050759
 20
113.705257
 30
0.0
  0
VERTEX
  5
819
100
AcDbEntity
  8
ALPHA
 62
     7
100
AcDbVertex
100
AcDb2dVertex
 10
54.250463
 20
113.705257
 30
0.0
  0
VERTEX
  5
81A
100
AcDbEntity
  8
ALPHA
 62
     7
100
AcDbVertex
100
AcDb2dVertex
 10
54.250463
 20
114.505208
 30
0.0
  0
VERTEX
  5
81B
100
AcDbEntity
  8
ALPHA
 62
     7
100
AcDbVertex
100
AcDb2dVertex
 10
55.050759
 20
114.505208
 30
0.0
  0
SEQEND
  5
81C
100
AcDbEntity
  8
ALPHA
 62
     7
  0
POLYLINE
  5
81D
100
AcDbEntity
  8
ALPHA
 62
     7
100
AcDb2dPolyline
 66
     1
 10
0.0
 20
0.0
 30
0.0
 70
     1
  0
VERTEX
  5
81E
100
AcDbEntity
  8
ALPHA
 62
     7
100
AcDbVertex
100
AcDb2dVertex
 10
35.769937
 20
128.998552
 30
0.0
  0
VERTEX
  5
81F
100
AcDbEntity
  8
ALPHA
 62
     7
100
AcDbVertex
100
AcDb2dVertex
 10
34.969986
 20
128.998552
 30
0.0
  0
VERTEX
  5
820
100
AcDbEntity
  8
ALPHA
 62
     7
100
AcDbVertex
100
AcDb2dVertex
 10
34.969986
 20
129.798504
 30
0.0
  0
VERTEX
  5
821
100
AcDbEntity
  8
ALPHA
 62
     7
100
AcDbVertex
100
AcDb2dVertex
 10
35.769937
 20
129.798504
 30
0.0
  0
SEQEND
  5
822
100
AcDbEntity
  8
ALPHA
 62
     7
  0
POLYLINE
  5
823
100
AcDbEntity
  8
ALPHA
 62
     7
100
AcDb2dPolyline
 66
     1
 10
0.0
 20
0.0
 30
0.0
 70
     1
  0
VERTEX
  5
824
100
AcDbEntity
  8
ALPHA
 62
     7
100
AcDbVertex
100
AcDb2dVertex
 10
38.983523
 20
128.998552
 30
0.0
  0
VERTEX
  5
825
100
AcDbEntity
  8
ALPHA
 62
     7
100
AcDbVertex
100
AcDb2dVertex
 10
38.183571
 20
128.998552
 30
0.0
  0
VERTEX
  5
826
100
AcDbEntity
  8
ALPHA
 62
     7
100
AcDbVertex
100
AcDb2dVertex
 10
38.183571
 20
129.798504
 30
0.0
  0
VERTEX
  5
827
100
AcDbEntity
  8
ALPHA
 62
     7
100
AcDbVertex
100
AcDb2dVertex
 10
38.983523
 20
129.798504
 30
0.0
  0
SEQEND
  5
828
100
AcDbEntity
  8
ALPHA
 62
     7
  0
POLYLINE
  5
829
100
AcDbEntity
  8
ALPHA
 62
     7
100
AcDb2dPolyline
 66
     1
 10
0.0
 20
0.0
 30
0.0
 70
     1
  0
VERTEX
  5
82A
100
AcDbEntity
  8
ALPHA
 62
     7
100
AcDbVertex
100
AcDb2dVertex
 10
42.197108
 20
128.998552
 30
0.0
  0
VERTEX
  5
82B
100
AcDbEntity
  8
ALPHA
 62
     7
100
AcDbVertex
100
AcDb2dVertex
 10
41.396812
 20
128.998552
 30
0.0
  0
VERTEX
  5
82C
100
AcDbEntity
  8
ALPHA
 62
     7
100
AcDbVertex
100
AcDb2dVertex
 10
41.396812
 20
129.798504
 30
0.0
  0
VERTEX
  5
82D
100
AcDbEntity
  8
ALPHA
 62
     7
100
AcDbVertex
100
AcDb2dVertex
 10
42.197108
 20
129.798504
 30
0.0
  0
SEQEND
  5
82E
100
AcDbEntity
  8
ALPHA
 62
     7
  0
POLYLINE
  5
82F
100
AcDbEntity
  8
ALPHA
 62
     7
100
AcDb2dPolyline
 66
     1
 10
0.0
 20
0.0
 30
0.0
 70
     1
  0
VERTEX
  5
830
100
AcDbEntity
  8
ALPHA
 62
     7
100
AcDbVertex
100
AcDb2dVertex
 10
45.410348
 20
128.998552
 30
0.0
  0
VERTEX
  5
831
100
AcDbEntity
  8
ALPHA
 62
     7
100
AcDbVertex
100
AcDb2dVertex
 10
44.610397
 20
128.998552
 30
0.0
  0
VERTEX
  5
832
100
AcDbEntity
  8
ALPHA
 62
     7
100
AcDbVertex
100
AcDb2dVertex
 10
44.610397
 20
129.798504
 30
0.0
  0
VERTEX
  5
833
100
AcDbEntity
  8
ALPHA
 62
     7
100
AcDbVertex
100
AcDb2dVertex
 10
45.410348
 20
129.798504
 30
0.0
  0
SEQEND
  5
834
100
AcDbEntity
  8
ALPHA
 62
     7
  0
POLYLINE
  5
835
100
AcDbEntity
  8
ALPHA
 62
     7
100
AcDb2dPolyline
 66
     1
 10
0.0
 20
0.0
 30
0.0
 70
     1
  0
VERTEX
  5
836
100
AcDbEntity
  8
ALPHA
 62
     7
100
AcDbVertex
100
AcDb2dVertex
 10
48.623589
 20
128.998552
 30
0.0
  0
VERTEX
  5
837
100
AcDbEntity
  8
ALPHA
 62
     7
100
AcDbVertex
100
AcDb2dVertex
 10
47.823638
 20
128.998552
 30
0.0
  0
VERTEX
  5
838
100
AcDbEntity
  8
ALPHA
 62
     7
100
AcDbVertex
100
AcDb2dVertex
 10
47.823638
 20
129.798504
 30
0.0
  0
VERTEX
  5
839
100
AcDbEntity
  8
ALPHA
 62
     7
100
AcDbVertex
100
AcDb2dVertex
 10
48.623589
 20
129.798504
 30
0.0
  0
SEQEND
  5
83A
100
AcDbEntity
  8
ALPHA
 62
     7
  0
POLYLINE
  5
83B
100
AcDbEntity
  8
ALPHA
 62
     7
100
AcDb2dPolyline
 66
     1
 10
0.0
 20
0.0
 30
0.0
 70
     1
  0
VERTEX
  5
83C
100
AcDbEntity
  8
ALPHA
 62
     7
100
AcDbVertex
100
AcDb2dVertex
 10
51.837174
 20
128.998552
 30
0.0
  0
VERTEX
  5
83D
100
AcDbEntity
  8
ALPHA
 62
     7
100
AcDbVertex
100
AcDb2dVertex
 10
51.037223
 20
128.998552
 30
0.0
  0
VERTEX
  5
83E
100
AcDbEntity
  8
ALPHA
 62
     7
100
AcDbVertex
100
AcDb2dVertex
 10
51.037223
 20
129.798504
 30
0.0
  0
VERTEX
  5
83F
100
AcDbEntity
  8
ALPHA
 62
     7
100
AcDbVertex
100
AcDb2dVertex
 10
51.837174
 20
129.798504
 30
0.0
  0
SEQEND
  5
840
100
AcDbEntity
  8
ALPHA
 62
     7
  0
POLYLINE
  5
841
100
AcDbEntity
  8
ALPHA
 62
     7
100
AcDb2dPolyline
 66
     1
 10
0.0
 20
0.0
 30
0.0
 70
     1
  0
VERTEX
  5
842
100
AcDbEntity
  8
ALPHA
 62
     7
100
AcDbVertex
100
AcDb2dVertex
 10
55.050759
 20
128.998552
 30
0.0
  0
VERTEX
  5
843
100
AcDbEntity
  8
ALPHA
 62
     7
100
AcDbVertex
100
AcDb2dVertex
 10
54.250463
 20
128.998552
 30
0.0
  0
VERTEX
  5
844
100
AcDbEntity
  8
ALPHA
 62
     7
100
AcDbVertex
100
AcDb2dVertex
 10
54.250463
 20
129.798504
 30
0.0
  0
VERTEX
  5
845
100
AcDbEntity
  8
ALPHA
 62
     7
100
AcDbVertex
100
AcDb2dVertex
 10
55.050759
 20
129.798504
 30
0.0
  0
SEQEND
  5
846
100
AcDbEntity
  8
ALPHA
 62
     7
  0
POLYLINE
  5
847
100
AcDbEntity
  8
ALPHA
 62
     7
100
AcDb2dPolyline
 66
     1
 10
0.0
 20
0.0
 30
0.0
 70
     1
  0
VERTEX
  5
848
100
AcDbEntity
  8
ALPHA
 62
     7
100
AcDbVertex
100
AcDb2dVertex
 10
58.263999
 20
128.998552
 30
0.0
  0
VERTEX
  5
849
100
AcDbEntity
  8
ALPHA
 62
     7
100
AcDbVertex
100
AcDb2dVertex
 10
57.464048
 20
128.998552
 30
0.0
  0
VERTEX
  5
84A
100
AcDbEntity
  8
ALPHA
 62
     7
100
AcDbVertex
100
AcDb2dVertex
 10
57.464048
 20
129.798504
 30
0.0
  0
VERTEX
  5
84B
100
AcDbEntity
  8
ALPHA
 62
     7
100
AcDbVertex
100
AcDb2dVertex
 10
58.263999
 20
129.798504
 30
0.0
  0
SEQEND
  5
84C
100
AcDbEntity
  8
ALPHA
 62
     7
  0
MTEXT
  5
84D
100
AcDbEntity
  8
TEXTE
 62
     7
100
AcDbMText
 10
75.874466
 20
131.953936
 30
0.0
 40
1.312417
 41
0.0
 71
     1
 72
     2
  1
\fTxt|b0|i0;L+
  7
STD
  0
MTEXT
  5
84E
100
AcDbEntity
  8
TEXTE
 62
     7
100
AcDbMText
 10
72.660709
 20
131.953936
 30
0.0
 40
1.312417
 41
0.0
 71
     1
 72
     2
  1
\fTxt|b0|i0;M-
  7
STD
  0
MTEXT
  5
84F
100
AcDbEntity
  8
TEXTE
 62
     7
100
AcDbMText
 10
80.884496
 20
131.286621
 30
0.0
 40
1.312417
 41
0.0
 71
     1
 72
     2
  1
\fTxt|b0|i0;fusion
  7
STD
  0
MTEXT
  5
850
100
AcDbEntity
  8
TEXTE
 62
     7
100
AcDbMText
 10
70.008839
 20
130.137673
 30
0.0
 40
1.312417
 41
0.0
 71
     1
 72
     2
  1
\fTxt|b0|i0;IS4-
  7
STD
 11
0.0
 21
1.0
 31
0.0
  0
MTEXT
  5
851
100
AcDbEntity
  8
TEXTE
 62
     7
100
AcDbMText
 10
66.795253
 20
130.137673
 30
0.0
 40
1.312417
 41
0.0
 71
     1
 72
     2
  1
\fTxt|b0|i0;RTD4-
  7
STD
 11
0.0
 21
1.0
 31
0.0
  0
MTEXT
  5
852
100
AcDbEntity
  8
TEXTE
 62
     7
100
AcDbMText
 10
63.581668
 20
130.137673
 30
0.0
 40
1.312417
 41
0.0
 71
     1
 72
     2
  1
\fTxt|b0|i0;RTD4+
  7
STD
 11
0.0
 21
1.0
 31
0.0
  0
MTEXT
  5
853
100
AcDbEntity
  8
TEXTE
 62
     7
100
AcDbMText
 10
60.368083
 20
130.137673
 30
0.0
 40
1.312417
 41
0.0
 71
     1
 72
     2
  1
\fTxt|b0|i0;IS4+
  7
STD
 11
0.0
 21
1.0
 31
0.0
  0
POLYLINE
  5
854
100
AcDbEntity
  8
POINTILLE_COURT
 62
     7
100
AcDb2dPolyline
 66
     1
 10
0.0
 20
0.0
 30
0.0
 70
     1
  0
VERTEX
  5
855
100
AcDbEntity
  8
POINTILLE_COURT
 62
     7
100
AcDbVertex
100
AcDb2dVertex
 10
71.852662
 20
128.685738
 30
0.0
  0
VERTEX
  5
856
100
AcDbEntity
  8
POINTILLE_COURT
 62
     7
100
AcDbVertex
100
AcDb2dVertex
 10
59.942278
 20
128.685738
 30
0.0
  0
VERTEX
  5
857
100
AcDbEntity
  8
POINTILLE_COURT
 62
     7
100
AcDbVertex
100
AcDb2dVertex
 10
59.942278
 20
136.989451
 30
0.0
  0
VERTEX
  5
858
100
AcDbEntity
  8
POINTILLE_COURT
 62
     7
100
AcDbVertex
100
AcDb2dVertex
 10
71.852662
 20
136.989451
 30
0.0
  0
SEQEND
  5
859
100
AcDbEntity
  8
POINTILLE_COURT
 62
     7
  0
LINE
  5
85A
100
AcDbEntity
  8
ALPHA
 62
     7
100
AcDbLine
 10
93.534543
 20
146.935442
 30
0.0
 11
93.534543
 21
109.903422
 31
0.0
  0
LINE
  5
85B
100
AcDbEntity
  8
ALPHA
 62
     7
100
AcDbLine
 10
88.951187
 20
149.435892
 30
0.0
 11
88.951187
 21
112.403527
 31
0.0
  0
MTEXT
  5
85C
100
AcDbEntity
  8
TEXTE
 62
     7
100
AcDbMText
 10
80.884496
 20
129.169954
 30
0.0
 40
1.312417
 41
0.0
 71
     1
 72
     2
  1
\fTxt|b0|i0;rapide
  7
STD
  0
POLYLINE
  5
85D
100
AcDbEntity
  8
ALPHA
 62
     7
100
AcDb2dPolyline
 66
     1
 10
0.0
 20
0.0
 30
0.0
 70
     1
  0
VERTEX
  5
85E
100
AcDbEntity
  8
ALPHA
 62
     7
100
AcDbVertex
100
AcDb2dVertex
 10
85.84819
 20
126.93649
 30
0.0
  0
VERTEX
  5
85F
100
AcDbEntity
  8
ALPHA
 62
     7
100
AcDbVertex
100
AcDb2dVertex
 10
82.054106
 20
126.93649
 30
0.0
  0
VERTEX
  5
860
100
AcDbEntity
  8
ALPHA
 62
     7
100
AcDbVertex
100
AcDb2dVertex
 10
82.054106
 20
125.436496
 30
0.0
  0
VERTEX
  5
861
100
AcDbEntity
  8
ALPHA
 62
     7
100
AcDbVertex
100
AcDb2dVertex
 10
85.84819
 20
125.436496
 30
0.0
  0
SEQEND
  5
862
100
AcDbEntity
  8
ALPHA
 62
     7
  0
POLYLINE
  5
863
100
AcDbEntity
  8
ALPHA
 62
     7
100
AcDb2dPolyline
 66
     1
 10
0.0
 20
0.0
 30
0.0
  0
VERTEX
  5
864
100
AcDbEntity
  8
ALPHA
 62
     7
100
AcDbVertex
100
AcDb2dVertex
 10
88.951187
 20
126.196656
 30
0.0
  0
VERTEX
  5
865
100
AcDbEntity
  8
ALPHA
 62
     7
100
AcDbVertex
100
AcDb2dVertex
 10
77.144845
 20
126.196656
 30
0.0
  0
VERTEX
  5
866
100
AcDbEntity
  8
ALPHA
 62
     7
100
AcDbVertex
100
AcDb2dVertex
 10
77.144845
 20
129.398528
 30
0.0
  0
SEQEND
  5
867
100
AcDbEntity
  8
ALPHA
 62
     7
  0
POLYLINE
  5
868
100
AcDbEntity
  8
ALPHA
 62
     7
100
AcDb2dPolyline
 66
     1
 10
0.0
 20
0.0
 30
0.0
  0
VERTEX
  5
869
100
AcDbEntity
  8
ALPHA
 62
     7
100
AcDbVertex
100
AcDb2dVertex
 10
93.534543
 20
124.196434
 30
0.0
  0
VERTEX
  5
86A
100
AcDbEntity
  8
ALPHA
 62
     7
100
AcDbVertex
100
AcDb2dVertex
 10
73.931605
 20
124.196434
 30
0.0
  0
VERTEX
  5
86B
100
AcDbEntity
  8
ALPHA
 62
     7
100
AcDbVertex
100
AcDb2dVertex
 10
73.931605
 20
129.398528
 30
0.0
  0
SEQEND
  5
86C
100
AcDbEntity
  8
ALPHA
 62
     7
  0
MTEXT
  5
86D
100
AcDbEntity
  8
TEXTE
 62
     7
100
AcDbMText
 10
70.008839
 20
114.844378
 30
0.0
 40
1.312417
 41
0.0
 71
     1
 72
     2
  1
\fTxt|b0|i0;InU4-
  7
STD
 11
0.0
 21
1.0
 31
0.0
  0
MTEXT
  5
86E
100
AcDbEntity
  8
TEXTE
 62
     7
100
AcDbMText
 10
66.795253
 20
114.844378
 30
0.0
 40
1.312417
 41
0.0
 71
     1
 72
     2
  1
\fTxt|b0|i0;InU4+
  7
STD
 11
0.0
 21
1.0
 31
0.0
  0
POLYLINE
  5
86F
100
AcDbEntity
  8
ALPHA
 62
     7
100
AcDb2dPolyline
 66
     1
 10
0.0
 20
0.0
 30
0.0
  0
VERTEX
  5
870
100
AcDbEntity
  8
ALPHA
 62
     7
100
AcDbVertex
100
AcDb2dVertex
 10
70.717847
 20
129.398528
 30
0.0
  0
VERTEX
  5
871
100
AcDbEntity
  8
ALPHA
 62
     7
100
AcDbVertex
100
AcDb2dVertex
 10
69.111227
 20
128.15037
 30
0.0
  0
VERTEX
  5
872
100
AcDbEntity
  8
ALPHA
 62
     7
100
AcDbVertex
100
AcDb2dVertex
 10
69.111227
 20
115.605571
 30
0.0
  0
VERTEX
  5
873
100
AcDbEntity
  8
ALPHA
 62
     7
100
AcDbVertex
100
AcDb2dVertex
 10
70.717847
 20
114.105405
 30
0.0
  0
SEQEND
  5
874
100
AcDbEntity
  8
ALPHA
 62
     7
  0
POLYLINE
  5
875
100
AcDbEntity
  8
ALPHA
 62
     7
100
AcDb2dPolyline
 66
     1
 10
0.0
 20
0.0
 30
0.0
  0
VERTEX
  5
876
100
AcDbEntity
  8
ALPHA
 62
     7
100
AcDbVertex
100
AcDb2dVertex
 10
64.291194
 20
129.398528
 30
0.0
  0
VERTEX
  5
877
100
AcDbEntity
  8
ALPHA
 62
     7
100
AcDbVertex
100
AcDb2dVertex
 10
65.897814
 20
128.15037
 30
0.0
  0
VERTEX
  5
878
100
AcDbEntity
  8
ALPHA
 62
     7
100
AcDbVertex
100
AcDb2dVertex
 10
65.897814
 20
115.605571
 30
0.0
  0
VERTEX
  5
879
100
AcDbEntity
  8
ALPHA
 62
     7
100
AcDbVertex
100
AcDb2dVertex
 10
67.504435
 20
114.105405
 30
0.0
  0
SEQEND
  5
87A
100
AcDbEntity
  8
ALPHA
 62
     7
  0
POLYLINE
  5
87B
100
AcDbEntity
  8
ALPHA
 62
     7
100
AcDb2dPolyline
 66
     1
 10
0.0
 20
0.0
 30
0.0
 70
     1
  0
VERTEX
  5
87C
100
AcDbEntity
  8
ALPHA
 62
     7
100
AcDbVertex
100
AcDb2dVertex
 10
71.117995
 20
113.705257
 30
0.0
  0
VERTEX
  5
87D
100
AcDbEntity
  8
ALPHA
 62
     7
100
AcDbVertex
100
AcDb2dVertex
 10
70.3177
 20
113.705257
 30
0.0
  0
VERTEX
  5
87E
100
AcDbEntity
  8
ALPHA
 62
     7
100
AcDbVertex
100
AcDb2dVertex
 10
70.3177
 20
114.505208
 30
0.0
  0
VERTEX
  5
87F
100
AcDbEntity
  8
ALPHA
 62
     7
100
AcDbVertex
100
AcDb2dVertex
 10
71.117995
 20
114.505208
 30
0.0
  0
SEQEND
  5
880
100
AcDbEntity
  8
ALPHA
 62
     7
  0
POLYLINE
  5
881
100
AcDbEntity
  8
ALPHA
 62
     7
100
AcDb2dPolyline
 66
     1
 10
0.0
 20
0.0
 30
0.0
 70
     1
  0
VERTEX
  5
882
100
AcDbEntity
  8
ALPHA
 62
     7
100
AcDbVertex
100
AcDb2dVertex
 10
64.69117
 20
113.705257
 30
0.0
  0
VERTEX
  5
883
100
AcDbEntity
  8
ALPHA
 62
     7
100
AcDbVertex
100
AcDb2dVertex
 10
63.890874
 20
113.705257
 30
0.0
  0
VERTEX
  5
884
100
AcDbEntity
  8
ALPHA
 62
     7
100
AcDbVertex
100
AcDb2dVertex
 10
63.890874
 20
114.505208
 30
0.0
  0
VERTEX
  5
885
100
AcDbEntity
  8
ALPHA
 62
     7
100
AcDbVertex
100
AcDb2dVertex
 10
64.69117
 20
114.505208
 30
0.0
  0
SEQEND
  5
886
100
AcDbEntity
  8
ALPHA
 62
     7
  0
POLYLINE
  5
887
100
AcDbEntity
  8
ALPHA
 62
     7
100
AcDb2dPolyline
 66
     1
 10
0.0
 20
0.0
 30
0.0
 70
     1
  0
VERTEX
  5
888
100
AcDbEntity
  8
ALPHA
 62
     7
100
AcDbVertex
100
AcDb2dVertex
 10
61.477585
 20
113.705257
 30
0.0
  0
VERTEX
  5
889
100
AcDbEntity
  8
ALPHA
 62
     7
100
AcDbVertex
100
AcDb2dVertex
 10
60.677633
 20
113.705257
 30
0.0
  0
VERTEX
  5
88A
100
AcDbEntity
  8
ALPHA
 62
     7
100
AcDbVertex
100
AcDb2dVertex
 10
60.677633
 20
114.505208
 30
0.0
  0
VERTEX
  5
88B
100
AcDbEntity
  8
ALPHA
 62
     7
100
AcDbVertex
100
AcDb2dVertex
 10
61.477585
 20
114.505208
 30
0.0
  0
SEQEND
  5
88C
100
AcDbEntity
  8
ALPHA
 62
     7
  0
POLYLINE
  5
88D
100
AcDbEntity
  8
ALPHA
 62
     7
100
AcDb2dPolyline
 66
     1
 10
0.0
 20
0.0
 30
0.0
 70
     1
  0
VERTEX
  5
88E
100
AcDbEntity
  8
ALPHA
 62
     7
100
AcDbVertex
100
AcDb2dVertex
 10
67.90441
 20
113.705257
 30
0.0
  0
VERTEX
  5
88F
100
AcDbEntity
  8
ALPHA
 62
     7
100
AcDbVertex
100
AcDb2dVertex
 10
67.104459
 20
113.705257
 30
0.0
  0
VERTEX
  5
890
100
AcDbEntity
  8
ALPHA
 62
     7
100
AcDbVertex
100
AcDb2dVertex
 10
67.104459
 20
114.505208
 30
0.0
  0
VERTEX
  5
891
100
AcDbEntity
  8
ALPHA
 62
     7
100
AcDbVertex
100
AcDb2dVertex
 10
67.90441
 20
114.505208
 30
0.0
  0
SEQEND
  5
892
100
AcDbEntity
  8
ALPHA
 62
     7
  0
MTEXT
  5
893
100
AcDbEntity
  8
TEXTE
 62
     7
100
AcDbMText
 10
75.874466
 20
116.66064
 30
0.0
 40
1.312417
 41
0.0
 71
     1
 72
     2
  1
\fTxt|b0|i0;L+
  7
STD
  0
POLYLINE
  5
894
100
AcDbEntity
  8
ALPHA
 62
     7
100
AcDb2dPolyline
 66
     1
 10
0.0
 20
0.0
 30
0.0
 70
     1
  0
VERTEX
  5
895
100
AcDbEntity
  8
ALPHA
 62
     7
100
AcDbVertex
100
AcDb2dVertex
 10
77.544821
 20
113.705257
 30
0.0
  0
VERTEX
  5
896
100
AcDbEntity
  8
ALPHA
 62
     7
100
AcDbVertex
100
AcDb2dVertex
 10
76.744525
 20
113.705257
 30
0.0
  0
VERTEX
  5
897
100
AcDbEntity
  8
ALPHA
 62
     7
100
AcDbVertex
100
AcDb2dVertex
 10
76.744525
 20
114.505208
 30
0.0
  0
VERTEX
  5
898
100
AcDbEntity
  8
ALPHA
 62
     7
100
AcDbVertex
100
AcDb2dVertex
 10
77.544821
 20
114.505208
 30
0.0
  0
SEQEND
  5
899
100
AcDbEntity
  8
ALPHA
 62
     7
  0
POLYLINE
  5
89A
100
AcDbEntity
  8
ALPHA
 62
     7
100
AcDb2dPolyline
 66
     1
 10
0.0
 20
0.0
 30
0.0
 70
     1
  0
VERTEX
  5
89B
100
AcDbEntity
  8
ALPHA
 62
     7
100
AcDbVertex
100
AcDb2dVertex
 10
74.331236
 20
113.705257
 30
0.0
  0
VERTEX
  5
89C
100
AcDbEntity
  8
ALPHA
 62
     7
100
AcDbVertex
100
AcDb2dVertex
 10
73.531285
 20
113.705257
 30
0.0
  0
VERTEX
  5
89D
100
AcDbEntity
  8
ALPHA
 62
     7
100
AcDbVertex
100
AcDb2dVertex
 10
73.531285
 20
114.505208
 30
0.0
  0
VERTEX
  5
89E
100
AcDbEntity
  8
ALPHA
 62
     7
100
AcDbVertex
100
AcDb2dVertex
 10
74.331236
 20
114.505208
 30
0.0
  0
SEQEND
  5
89F
100
AcDbEntity
  8
ALPHA
 62
     7
  0
MTEXT
  5
8A0
100
AcDbEntity
  8
TEXTE
 62
     7
100
AcDbMText
 10
72.660709
 20
116.66064
 30
0.0
 40
1.312417
 41
0.0
 71
     1
 72
     2
  1
\fTxt|b0|i0;M-
  7
STD
  0
POLYLINE
  5
8A1
100
AcDbEntity
  8
ALPHA
 62
     7
100
AcDb2dPolyline
 66
     1
 10
0.0
 20
0.0
 30
0.0
 70
     1
  0
VERTEX
  5
8A2
100
AcDbEntity
  8
ALPHA
 62
     7
100
AcDbVertex
100
AcDb2dVertex
 10
71.117995
 20
128.998552
 30
0.0
  0
VERTEX
  5
8A3
100
AcDbEntity
  8
ALPHA
 62
     7
100
AcDbVertex
100
AcDb2dVertex
 10
70.3177
 20
128.998552
 30
0.0
  0
VERTEX
  5
8A4
100
AcDbEntity
  8
ALPHA
 62
     7
100
AcDbVertex
100
AcDb2dVertex
 10
70.3177
 20
129.798504
 30
0.0
  0
VERTEX
  5
8A5
100
AcDbEntity
  8
ALPHA
 62
     7
100
AcDbVertex
100
AcDb2dVertex
 10
71.117995
 20
129.798504
 30
0.0
  0
SEQEND
  5
8A6
100
AcDbEntity
  8
ALPHA
 62
     7
  0
POLYLINE
  5
8A7
100
AcDbEntity
  8
ALPHA
 62
     7
100
AcDb2dPolyline
 66
     1
 10
0.0
 20
0.0
 30
0.0
 70
     1
  0
VERTEX
  5
8A8
100
AcDbEntity
  8
ALPHA
 62
     7
100
AcDbVertex
100
AcDb2dVertex
 10
61.477585
 20
128.998552
 30
0.0
  0
VERTEX
  5
8A9
100
AcDbEntity
  8
ALPHA
 62
     7
100
AcDbVertex
100
AcDb2dVertex
 10
60.677633
 20
128.998552
 30
0.0
  0
VERTEX
  5
8AA
100
AcDbEntity
  8
ALPHA
 62
     7
100
AcDbVertex
100
AcDb2dVertex
 10
60.677633
 20
129.798504
 30
0.0
  0
VERTEX
  5
8AB
100
AcDbEntity
  8
ALPHA
 62
     7
100
AcDbVertex
100
AcDb2dVertex
 10
61.477585
 20
129.798504
 30
0.0
  0
SEQEND
  5
8AC
100
AcDbEntity
  8
ALPHA
 62
     7
  0
POLYLINE
  5
8AD
100
AcDbEntity
  8
ALPHA
 62
     7
100
AcDb2dPolyline
 66
     1
 10
0.0
 20
0.0
 30
0.0
 70
     1
  0
VERTEX
  5
8AE
100
AcDbEntity
  8
ALPHA
 62
     7
100
AcDbVertex
100
AcDb2dVertex
 10
64.69117
 20
128.998552
 30
0.0
  0
VERTEX
  5
8AF
100
AcDbEntity
  8
ALPHA
 62
     7
100
AcDbVertex
100
AcDb2dVertex
 10
63.890874
 20
128.998552
 30
0.0
  0
VERTEX
  5
8B0
100
AcDbEntity
  8
ALPHA
 62
     7
100
AcDbVertex
100
AcDb2dVertex
 10
63.890874
 20
129.798504
 30
0.0
  0
VERTEX
  5
8B1
100
AcDbEntity
  8
ALPHA
 62
     7
100
AcDbVertex
100
AcDb2dVertex
 10
64.69117
 20
129.798504
 30
0.0
  0
SEQEND
  5
8B2
100
AcDbEntity
  8
ALPHA
 62
     7
  0
POLYLINE
  5
8B3
100
AcDbEntity
  8
ALPHA
 62
     7
100
AcDb2dPolyline
 66
     1
 10
0.0
 20
0.0
 30
0.0
 70
     1
  0
VERTEX
  5
8B4
100
AcDbEntity
  8
ALPHA
 62
     7
100
AcDbVertex
100
AcDb2dVertex
 10
67.90441
 20
128.998552
 30
0.0
  0
VERTEX
  5
8B5
100
AcDbEntity
  8
ALPHA
 62
     7
100
AcDbVertex
100
AcDb2dVertex
 10
67.104459
 20
128.998552
 30
0.0
  0
VERTEX
  5
8B6
100
AcDbEntity
  8
ALPHA
 62
     7
100
AcDbVertex
100
AcDb2dVertex
 10
67.104459
 20
129.798504
 30
0.0
  0
VERTEX
  5
8B7
100
AcDbEntity
  8
ALPHA
 62
     7
100
AcDbVertex
100
AcDb2dVertex
 10
67.90441
 20
129.798504
 30
0.0
  0
SEQEND
  5
8B8
100
AcDbEntity
  8
ALPHA
 62
     7
  0
POLYLINE
  5
8B9
100
AcDbEntity
  8
ALPHA
 62
     7
100
AcDb2dPolyline
 66
     1
 10
0.0
 20
0.0
 30
0.0
 70
     1
  0
VERTEX
  5
8BA
100
AcDbEntity
  8
ALPHA
 62
     7
100
AcDbVertex
100
AcDb2dVertex
 10
77.544821
 20
128.998552
 30
0.0
  0
VERTEX
  5
8BB
100
AcDbEntity
  8
ALPHA
 62
     7
100
AcDbVertex
100
AcDb2dVertex
 10
76.744525
 20
128.998552
 30
0.0
  0
VERTEX
  5
8BC
100
AcDbEntity
  8
ALPHA
 62
     7
100
AcDbVertex
100
AcDb2dVertex
 10
76.744525
 20
129.798504
 30
0.0
  0
VERTEX
  5
8BD
100
AcDbEntity
  8
ALPHA
 62
     7
100
AcDbVertex
100
AcDb2dVertex
 10
77.544821
 20
129.798504
 30
0.0
  0
SEQEND
  5
8BE
100
AcDbEntity
  8
ALPHA
 62
     7
  0
POLYLINE
  5
8BF
100
AcDbEntity
  8
ALPHA
 62
     7
100
AcDb2dPolyline
 66
     1
 10
0.0
 20
0.0
 30
0.0
 70
     1
  0
VERTEX
  5
8C0
100
AcDbEntity
  8
ALPHA
 62
     7
100
AcDbVertex
100
AcDb2dVertex
 10
74.331236
 20
128.998552
 30
0.0
  0
VERTEX
  5
8C1
100
AcDbEntity
  8
ALPHA
 62
     7
100
AcDbVertex
100
AcDb2dVertex
 10
73.531285
 20
128.998552
 30
0.0
  0
VERTEX
  5
8C2
100
AcDbEntity
  8
ALPHA
 62
     7
100
AcDbVertex
100
AcDb2dVertex
 10
73.531285
 20
129.798504
 30
0.0
  0
VERTEX
  5
8C3
100
AcDbEntity
  8
ALPHA
 62
     7
100
AcDbVertex
100
AcDb2dVertex
 10
74.331236
 20
129.798504
 30
0.0
  0
SEQEND
  5
8C4
100
AcDbEntity
  8
ALPHA
 62
     7
  0
MTEXT
  5
8C5
100
AcDbEntity
  8
TEXTE
 62
     7
100
AcDbMText
 10
81.307554
 20
133.403287
 30
0.0
 40
1.312417
 41
0.0
 71
     1
 72
     2
  1
\fTxt|b0|i0;500mA
  7
STD
  0
MTEXT
  5
8C6
100
AcDbEntity
  8
TEXTE
 62
     7
100
AcDbMText
 10
89.723406
 20
148.748087
 30
0.0
 40
1.312417
 41
0.0
 71
     1
 72
     2
  1
\fTxt|b0|i0;Retour
  7
STD
  0
MTEXT
  5
8C7
100
AcDbEntity
  8
TEXTE
 62
     7
100
AcDbMText
 10
89.138945
 20
151.248193
 30
0.0
 40
1.312417
 41
0.0
 71
     1
 72
     2
  1
\fTxt|b0|i0;24V
  7
STD
  0
LINE
  5
8C8
100
AcDbEntity
  8
TEXTE
 62
     7
100
AcDbLine
 10
86.365988
 20
149.935776
 30
0.0
 11
85.728301
 21
149.935776
 31
0.0
  0
LINE
  5
8C9
100
AcDbEntity
  8
TEXTE
 62
     7
100
AcDbLine
 10
87.352663
 20
149.935776
 30
0.0
 11
86.715321
 21
149.935776
 31
0.0
  0
LINE
  5
8CA
100
AcDbEntity
  8
TEXTE
 62
     7
100
AcDbLine
 10
88.334171
 20
149.935776
 30
0.0
 11
87.696828
 21
149.935776
 31
0.0
  0
LINE
  5
8CB
100
AcDbEntity
  8
TEXTE
 62
     7
100
AcDbLine
 10
88.334171
 20
150.78258
 30
0.0
 11
85.728301
 21
150.78258
 31
0.0
  0
ENDSEC
  0
SECTION
  2
OBJECTS
  0
DICTIONARY
  5
F8
100
AcDbDictionary
  3
ACAD_GROUP
350
F9
  3
ACAD_MLINESTYLE
350
106
  3
ACDBVARIABLEDICTIONARY
350
143
  0
DICTIONARY
  5
F9
102
{ACAD_REACTORS
330
F8
102
}
100
AcDbDictionary
  0
DICTIONARY
  5
106
102
{ACAD_REACTORS
330
F8
102
}
100
AcDbDictionary
  3
STANDARD
350
107
  0
DICTIONARY
  5
143
102
{ACAD_REACTORS
330
F8
102
}
100
AcDbDictionary
  3
DIMADEC
350
144
  0
MLINESTYLE
  5
107
102
{ACAD_REACTORS
330
106
102
}
100
AcDbMlineStyle
  2
STANDARD
 70
     0
  3

 62
   256
 51
90.0
 52
90.0
 71
     2
 49
0.5
 62
   256
  6
BYLAYER
 49
-0.5
 62
   256
  6
BYLAYER
  0
DICTIONARYVAR
  5
144
102
{ACAD_REACTORS
330
143
102
}
100
DictionaryVariables
280
     0
  1
0
  0
ENDSEC
  0
EOF
