  0
SECTION
  2
HEADER
  9
$ACADVER
  1
AC1012
  9
$DWGCODEPAGE
  3
ANSI_1252
  9
$INSBASE
 10
0.0
 20
0.0
 30
0.0
  9
$EXTMIN
 10
0.8486364959103113
 20
0.0266810734365048
 30
0.0
  9
$EXTMAX
 10
7.376526941484817
 20
10.02666521597872
 30
0.0
  9
$LIMMIN
 10
0.0
 20
0.0
  9
$LIMMAX
 10
12.0
 20
9.0
  9
$ORTHOMODE
 70
     0
  9
$REGENMODE
 70
     1
  9
$FILLMODE
 70
     1
  9
$QTEXTMODE
 70
     0
  9
$MIRRTEXT
 70
     1
  9
$DRAGMODE
 70
     2
  9
$LTSCALE
 40
1.0
  9
$OSMODE
 70
   547
  9
$ATTMODE
 70
     1
  9
$TEXTSIZE
 40
0.2
  9
$TRACEWID
 40
0.05
  9
$TEXTSTYLE
  7
STANDARD
  9
$CLAYER
  8
0
  9
$CELTYPE
  6
BYLAYER
  9
$CECOLOR
 62
   256
  9
$CELTSCALE
 40
1.0
  9
$DELOBJ
 70
     1
  9
$DISPSILH
 70
     0
  9
$DIMSCALE
 40
1.0
  9
$DIMASZ
 40
0.18
  9
$DIMEXO
 40
0.0625
  9
$DIMDLI
 40
0.38
  9
$DIMRND
 40
0.0
  9
$DIMDLE
 40
0.0
  9
$DIMEXE
 40
0.18
  9
$DIMTP
 40
0.0
  9
$DIMTM
 40
0.0
  9
$DIMTXT
 40
0.18
  9
$DIMCEN
 40
0.09
  9
$DIMTSZ
 40
0.0
  9
$DIMTOL
 70
     0
  9
$DIMLIM
 70
     0
  9
$DIMTIH
 70
     1
  9
$DIMTOH
 70
     1
  9
$DIMSE1
 70
     0
  9
$DIMSE2
 70
     0
  9
$DIMTAD
 70
     0
  9
$DIMZIN
 70
     0
  9
$DIMBLK
  1

  9
$DIMASO
 70
     1
  9
$DIMSHO
 70
     1
  9
$DIMPOST
  1

  9
$DIMAPOST
  1

  9
$DIMALT
 70
     0
  9
$DIMALTD
 70
     2
  9
$DIMALTF
 40
25.4
  9
$DIMLFAC
 40
1.0
  9
$DIMTOFL
 70
     0
  9
$DIMTVP
 40
0.0
  9
$DIMTIX
 70
     0
  9
$DIMSOXD
 70
     0
  9
$DIMSAH
 70
     0
  9
$DIMBLK1
  1

  9
$DIMBLK2
  1

  9
$DIMSTYLE
  2
STANDARD
  9
$DIMCLRD
 70
     0
  9
$DIMCLRE
 70
     0
  9
$DIMCLRT
 70
     0
  9
$DIMTFAC
 40
1.0
  9
$DIMGAP
 40
0.09
  9
$DIMJUST
 70
     0
  9
$DIMSD1
 70
     0
  9
$DIMSD2
 70
     0
  9
$DIMTOLJ
 70
     1
  9
$DIMTZIN
 70
     0
  9
$DIMALTZ
 70
     0
  9
$DIMALTTZ
 70
     0
  9
$DIMFIT
 70
     5
  9
$DIMUPT
 70
     0
  9
$DIMUNIT
 70
     2
  9
$DIMDEC
 70
     4
  9
$DIMTDEC
 70
     4
  9
$DIMALTU
 70
     2
  9
$DIMALTTD
 70
     2
  9
$DIMTXSTY
  7
STANDARD
  9
$DIMAUNIT
 70
     0
  9
$LUNITS
 70
     2
  9
$LUPREC
 70
     4
  9
$SKETCHINC
 40
0.1
  9
$FILLETRAD
 40
0.0
  9
$AUNITS
 70
     0
  9
$AUPREC
 70
     0
  9
$MENU
  1
acad
  9
$ELEVATION
 40
0.0
  9
$PELEVATION
 40
0.0
  9
$THICKNESS
 40
0.0
  9
$LIMCHECK
 70
     0
  9
$BLIPMODE
 70
     0
  9
$CHAMFERA
 40
0.0
  9
$CHAMFERB
 40
0.0
  9
$CHAMFERC
 40
0.0
  9
$CHAMFERD
 40
0.0
  9
$SKPOLY
 70
     0
  9
$TDCREATE
 40
2452569.573842592
  9
$TDUPDATE
 40
2453776.651002210
  9
$TDINDWG
 40
0.0029132870
  9
$TDUSRTIMER
 40
0.0029132870
  9
$USRTIMER
 70
     1
  9
$ANGBASE
 50
0.0
  9
$ANGDIR
 70
     0
  9
$PDMODE
 70
     0
  9
$PDSIZE
 40
0.0
  9
$PLINEWID
 40
0.0
  9
$COORDS
 70
     1
  9
$SPLFRAME
 70
     0
  9
$SPLINETYPE
 70
     6
  9
$SPLINESEGS
 70
     8
  9
$ATTDIA
 70
     0
  9
$ATTREQ
 70
     1
  9
$HANDLING
 70
  4097
  9
$HANDSEED
  5
48DE
  9
$SURFTAB1
 70
     6
  9
$SURFTAB2
 70
     6
  9
$SURFTYPE
 70
     6
  9
$SURFU
 70
     6
  9
$SURFV
 70
     6
  9
$UCSNAME
  2

  9
$UCSORG
 10
0.0
 20
0.0
 30
0.0
  9
$UCSXDIR
 10
1.0
 20
0.0
 30
0.0
  9
$UCSYDIR
 10
0.0
 20
1.0
 30
0.0
  9
$PUCSNAME
  2

  9
$PUCSORG
 10
0.0
 20
0.0
 30
0.0
  9
$PUCSXDIR
 10
1.0
 20
0.0
 30
0.0
  9
$PUCSYDIR
 10
0.0
 20
1.0
 30
0.0
  9
$USERI1
 70
     0
  9
$USERI2
 70
     0
  9
$USERI3
 70
     0
  9
$USERI4
 70
     0
  9
$USERI5
 70
     0
  9
$USERR1
 40
0.0
  9
$USERR2
 40
0.0
  9
$USERR3
 40
0.0
  9
$USERR4
 40
0.0
  9
$USERR5
 40
0.0
  9
$WORLDVIEW
 70
     1
  9
$SHADEDGE
 70
     3
  9
$SHADEDIF
 70
    70
  9
$TILEMODE
 70
     1
  9
$MAXACTVP
 70
    16
  9
$PINSBASE
 10
0.0
 20
0.0
 30
0.0
  9
$PLIMCHECK
 70
     0
  9
$PEXTMIN
 10
1.000000000000000E+20
 20
1.000000000000000E+20
 30
1.000000000000000E+20
  9
$PEXTMAX
 10
-1.000000000000000E+20
 20
-1.000000000000000E+20
 30
-1.000000000000000E+20
  9
$PLIMMIN
 10
0.0
 20
0.0
  9
$PLIMMAX
 10
12.0
 20
9.0
  9
$UNITMODE
 70
     0
  9
$VISRETAIN
 70
     0
  9
$PLINEGEN
 70
     0
  9
$PSLTSCALE
 70
     1
  9
$TREEDEPTH
 70
  3020
  9
$PICKSTYLE
 70
     1
  9
$CMLSTYLE
  2
STANDARD
  9
$CMLJUST
 70
     0
  9
$CMLSCALE
 40
1.0
  9
$SAVEIMAGES
 70
     1
  0
ENDSEC
  0
SECTION
  2
CLASSES
  0
CLASS
  1
ACDBDICTIONARYWDFLT
  2
AcDbDictionaryWithDefault
  3
AutoCAD 2000
 90
    32768
280
     0
281
     0
  0
CLASS
  1
ACDBPLACEHOLDER
  2
AcDbPlaceHolder
  3
AutoCAD 2000
 90
    32768
280
     0
281
     0
  0
CLASS
  1
LAYOUT
  2
AcDbLayout
  3
AutoCAD 2000
 90
    32768
280
     0
281
     0
  0
CLASS
  1
LONG_TRANSACTION
  2
AcDbLongTransaction
  3
AutoCAD 2000
 90
    32768
280
     0
281
     0
  0
CLASS
  1
LWPOLYLINE
  2
AcDbPolyline
  3
AutoCAD 2000
 90
    32768
280
     0
281
     1
  0
CLASS
  1
HATCH
  2
AcDbHatch
  3
AutoCAD 2000
 90
    32768
280
     0
281
     1
  0
CLASS
  1
XRECORD
  2
AcDbXrecord
  3
AutoCAD 2000
 90
    32768
280
     0
281
     0
  0
CLASS
  1
LONG_TRANSACTION
  2
AcDbLongTransaction
  3
AutoCAD 2000
 90
    32768
280
     0
281
     0
  0
CLASS
  1
LWPOLYLINE
  2
AcDbPolyline
  3
AutoCAD 2000
 90
    32768
280
     0
281
     1
  0
CLASS
  1
HATCH
  2
AcDbHatch
  3
AutoCAD 2000
 90
    32768
280
     0
281
     1
  0
CLASS
  1
XRECORD
  2
AcDbXrecord
  3
AutoCAD 2000
 90
    32768
280
     0
281
     0
  0
ENDSEC
  0
SECTION
  2
TABLES
  0
TABLE
  2
VPORT
  5
8
330
0
100
AcDbSymbolTable
 70
     2
  0
VPORT
  5
48DB
330
8
100
AcDbSymbolTableRecord
100
AcDbViewportTableRecord
  2
*ACTIVE
 70
     0
 10
0.0
 20
0.0
 11
1.0
 21
1.0
 12
4.711589830854067
 22
5.026657126060055
 13
0.0
 23
0.0
 14
1.0
 24
1.0
 15
0.0
 25
0.0
 16
0.0
 26
0.0
 36
1.0
 17
0.0
 27
0.0
 37
0.0
 40
10.08260774830995
 41
1.748134328358209
 42
50.0
 43
0.0
 44
0.0
 50
0.0
 51
0.0
 71
     0
 72
   100
 73
     1
 74
     1
 75
     0
 76
     0
 77
     0
 78
     0
  0
ENDTAB
  0
TABLE
  2
LTYPE
  5
5
330
0
100
AcDbSymbolTable
 70
    25
  0
LTYPE
  5
13
330
5
100
AcDbSymbolTableRecord
100
AcDbLinetypeTableRecord
  2
BYBLOCK
 70
     0
  3

 72
    65
 73
     0
 40
0.0
  0
LTYPE
  5
14
330
5
100
AcDbSymbolTableRecord
100
AcDbLinetypeTableRecord
  2
BYLAYER
 70
     0
  3

 72
    65
 73
     0
 40
0.0
  0
LTYPE
  5
15
330
5
100
AcDbSymbolTableRecord
100
AcDbLinetypeTableRecord
  2
CONTINUOUS
 70
     0
  3
Solid line
 72
    65
 73
     0
 40
0.0
  0
LTYPE
  5
22
330
5
100
AcDbSymbolTableRecord
100
AcDbLinetypeTableRecord
  2
BORDER
 70
     0
  3
__ __ . __ __ . __ __ . __ __ . __ __ . __ __ .
 72
    65
 73
     6
 40
1.75
 49
0.5
 74
     0
 49
-0.25
 74
     0
 49
0.5
 74
     0
 49
-0.25
 74
     0
 49
0.5
 74
     0
 49
-0.25
 74
     0
  0
LTYPE
  5
23
330
5
100
AcDbSymbolTableRecord
100
AcDbLinetypeTableRecord
  2
BORDER2
 70
     0
  3
__.__.__.__.__.__.__.__.__.__.__.__.__.__.__.__
 72
    65
 73
     6
 40
0.875
 49
0.25
 74
     0
 49
-0.125
 74
     0
 49
0.25
 74
     0
 49
-0.125
 74
     0
 49
0.25
 74
     0
 49
-0.125
 74
     0
  0
LTYPE
  5
24
330
5
100
AcDbSymbolTableRecord
100
AcDbLinetypeTableRecord
  2
BORDERX2
 70
     0
  3
____  ____  .  ____  ____  .  
 72
    65
 73
     6
 40
3.5
 49
1.0
 74
     0
 49
-0.5
 74
     0
 49
1.0
 74
     0
 49
-0.5
 74
     0
 49
1.0
 74
     0
 49
-0.5
 74
     0
  0
LTYPE
  5
25
330
5
100
AcDbSymbolTableRecord
100
AcDbLinetypeTableRecord
  2
CENTER
 70
     0
  3
____ _ ____ _ ____ _ ____ _ ____ _ ____ _ ____
 72
    65
 73
     4
 40
2.0
 49
1.25
 74
     0
 49
-0.25
 74
     0
 49
0.25
 74
     0
 49
-0.25
 74
     0
  0
LTYPE
  5
26
330
5
100
AcDbSymbolTableRecord
100
AcDbLinetypeTableRecord
  2
CENTER2
 70
     0
  3
____ _ ____ _ ____ _ ____ _ ____ _ ____ _ ____
 72
    65
 73
     4
 40
1.125
 49
0.75
 74
     0
 49
-0.125
 74
     0
 49
0.125
 74
     0
 49
-0.125
 74
     0
  0
LTYPE
  5
27
330
5
100
AcDbSymbolTableRecord
100
AcDbLinetypeTableRecord
  2
CENTERX2
 70
     0
  3
________  __  ________  __  ________  __  
 72
    65
 73
     4
 40
4.0
 49
2.5
 74
     0
 49
-0.5
 74
     0
 49
0.5
 74
     0
 49
-0.5
 74
     0
  0
LTYPE
  5
28
330
5
100
AcDbSymbolTableRecord
100
AcDbLinetypeTableRecord
  2
DASHDOT
 70
     0
  3
__ . __ . __ . __ . __ . __ . __ . 
 72
    65
 73
     4
 40
1.0
 49
0.5
 74
     0
 49
-0.25
 74
     0
 49
0.0
 74
     0
 49
-0.25
 74
     0
  0
LTYPE
  5
29
330
5
100
AcDbSymbolTableRecord
100
AcDbLinetypeTableRecord
  2
DASHDOT2
 70
     0
  3
_._._._._._._._._._._._._._._._.
 72
    65
 73
     4
 40
0.5
 49
0.25
 74
     0
 49
-0.125
 74
     0
 49
0.0
 74
     0
 49
-0.125
 74
     0
  0
LTYPE
  5
2A
330
5
100
AcDbSymbolTableRecord
100
AcDbLinetypeTableRecord
  2
DASHDOTX2
 70
     0
  3
____  .  ____  .  ____  .  ____  .  
 72
    65
 73
     4
 40
2.0
 49
1.0
 74
     0
 49
-0.5
 74
     0
 49
0.0
 74
     0
 49
-0.5
 74
     0
  0
LTYPE
  5
2B
330
5
100
AcDbSymbolTableRecord
100
AcDbLinetypeTableRecord
  2
DASHED
 70
     0
  3
__ __ __ __ __ __ __ __ __ __ __ __ 
 72
    65
 73
     2
 40
0.75
 49
0.5
 74
     0
 49
-0.25
 74
     0
  0
LTYPE
  5
2C
330
5
100
AcDbSymbolTableRecord
100
AcDbLinetypeTableRecord
  2
DASHED2
 70
     0
  3
_ _ _ _ _ _ _ _ _ _ _ _ _ _ _ _ _ _ 
 72
    65
 73
     2
 40
0.375
 49
0.25
 74
     0
 49
-0.125
 74
     0
  0
LTYPE
  5
2D
330
5
100
AcDbSymbolTableRecord
100
AcDbLinetypeTableRecord
  2
DASHEDX2
 70
     0
  3
____  ____  ____  ____  ____  ____  
 72
    65
 73
     2
 40
1.5
 49
1.0
 74
     0
 49
-0.5
 74
     0
  0
LTYPE
  5
2E
330
5
100
AcDbSymbolTableRecord
100
AcDbLinetypeTableRecord
  2
DIVIDE
 70
     0
  3
____ . . ____ . . ____ . . ____ . . 
 72
    65
 73
     6
 40
1.25
 49
0.5
 74
     0
 49
-0.25
 74
     0
 49
0.0
 74
     0
 49
-0.25
 74
     0
 49
0.0
 74
     0
 49
-0.25
 74
     0
  0
LTYPE
  5
2F
330
5
100
AcDbSymbolTableRecord
100
AcDbLinetypeTableRecord
  2
DIVIDE2
 70
     0
  3
__..__..__..__..__..__..__..__..__..
 72
    65
 73
     6
 40
0.625
 49
0.25
 74
     0
 49
-0.125
 74
     0
 49
0.0
 74
     0
 49
-0.125
 74
     0
 49
0.0
 74
     0
 49
-0.125
 74
     0
  0
LTYPE
  5
30
330
5
100
AcDbSymbolTableRecord
100
AcDbLinetypeTableRecord
  2
DIVIDEX2
 70
     0
  3
________  .  .  ________  .  .  ________  .  . 
 72
    65
 73
     6
 40
2.5
 49
1.0
 74
     0
 49
-0.5
 74
     0
 49
0.0
 74
     0
 49
-0.5
 74
     0
 49
0.0
 74
     0
 49
-0.5
 74
     0
  0
LTYPE
  5
31
330
5
100
AcDbSymbolTableRecord
100
AcDbLinetypeTableRecord
  2
DOT
 70
     0
  3
. . . . . . . . . . . . . . . . . . 
 72
    65
 73
     2
 40
0.25
 49
0.0
 74
     0
 49
-0.25
 74
     0
  0
LTYPE
  5
32
330
5
100
AcDbSymbolTableRecord
100
AcDbLinetypeTableRecord
  2
DOT2
 70
     0
  3
....................................
 72
    65
 73
     2
 40
0.125
 49
0.0
 74
     0
 49
-0.125
 74
     0
  0
LTYPE
  5
33
330
5
100
AcDbSymbolTableRecord
100
AcDbLinetypeTableRecord
  2
DOTX2
 70
     0
  3
.  .  .  .  .  .  .  .  .  .  .  .  .  
 72
    65
 73
     2
 40
0.5
 49
0.0
 74
     0
 49
-0.5
 74
     0
  0
LTYPE
  5
34
330
5
100
AcDbSymbolTableRecord
100
AcDbLinetypeTableRecord
  2
HIDDEN
 70
     0
  3
__ __ __ __ __ __ __ __ __ __ __ __ 
 72
    65
 73
     2
 40
0.375
 49
0.25
 74
     0
 49
-0.125
 74
     0
  0
LTYPE
  5
35
330
5
100
AcDbSymbolTableRecord
100
AcDbLinetypeTableRecord
  2
HIDDEN2
 70
     0
  3
_ _ _ _ _ _ _ _ _ _ _ _ _ _ _ _ _ _ 
 72
    65
 73
     2
 40
0.1875
 49
0.125
 74
     0
 49
-0.0625
 74
     0
  0
LTYPE
  5
36
330
5
100
AcDbSymbolTableRecord
100
AcDbLinetypeTableRecord
  2
HIDDENX2
 70
     0
  3
____ ____ ____ ____ ____ ____ ____ 
 72
    65
 73
     2
 40
0.75
 49
0.5
 74
     0
 49
-0.25
 74
     0
  0
LTYPE
  5
37
330
5
100
AcDbSymbolTableRecord
100
AcDbLinetypeTableRecord
  2
PHANTOM
 70
     0
  3
______  __  __  ______  __  __  
 72
    65
 73
     6
 40
2.5
 49
1.25
 74
     0
 49
-0.25
 74
     0
 49
0.25
 74
     0
 49
-0.25
 74
     0
 49
0.25
 74
     0
 49
-0.25
 74
     0
  0
LTYPE
  5
38
330
5
100
AcDbSymbolTableRecord
100
AcDbLinetypeTableRecord
  2
PHANTOM2
 70
     0
  3
___ _ _ ___ _ _ ___ _ _ ___ _ _ 
 72
    65
 73
     6
 40
1.25
 49
0.625
 74
     0
 49
-0.125
 74
     0
 49
0.125
 74
     0
 49
-0.125
 74
     0
 49
0.125
 74
     0
 49
-0.125
 74
     0
  0
LTYPE
  5
39
330
5
100
AcDbSymbolTableRecord
100
AcDbLinetypeTableRecord
  2
PHANTOMX2
 70
     0
  3
___ _ _ ___ _ _ ___ _ _ ___ _ _ 
 72
    65
 73
     6
 40
5.0
 49
2.5
 74
     0
 49
-0.5
 74
     0
 49
0.5
 74
     0
 49
-0.5
 74
     0
 49
0.5
 74
     0
 49
-0.5
 74
     0
  0
ENDTAB
  0
TABLE
  2
LAYER
  5
2
330
0
100
AcDbSymbolTable
 70
   257
  0
LAYER
  5
10
330
2
100
AcDbSymbolTableRecord
100
AcDbLayerTableRecord
  2
0
 70
     0
 62
     7
  6
CONTINUOUS
  0
LAYER
  5
3A
330
2
100
AcDbSymbolTableRecord
100
AcDbLayerTableRecord
  2
1
 70
     0
 62
     1
  6
CONTINUOUS
  0
LAYER
  5
3B
330
2
100
AcDbSymbolTableRecord
100
AcDbLayerTableRecord
  2
2
 70
     0
 62
     2
  6
CONTINUOUS
  0
LAYER
  5
3C
330
2
100
AcDbSymbolTableRecord
100
AcDbLayerTableRecord
  2
3
 70
     0
 62
     3
  6
CONTINUOUS
  0
LAYER
  5
3D
330
2
100
AcDbSymbolTableRecord
100
AcDbLayerTableRecord
  2
4
 70
     0
 62
     4
  6
CONTINUOUS
  0
LAYER
  5
3E
330
2
100
AcDbSymbolTableRecord
100
AcDbLayerTableRecord
  2
5
 70
     0
 62
     5
  6
CONTINUOUS
  0
LAYER
  5
3F
330
2
100
AcDbSymbolTableRecord
100
AcDbLayerTableRecord
  2
6
 70
     0
 62
     6
  6
CONTINUOUS
  0
LAYER
  5
40
330
2
100
AcDbSymbolTableRecord
100
AcDbLayerTableRecord
  2
7
 70
     0
 62
     7
  6
CONTINUOUS
  0
LAYER
  5
41
330
2
100
AcDbSymbolTableRecord
100
AcDbLayerTableRecord
  2
8
 70
     0
 62
     8
  6
CONTINUOUS
  0
LAYER
  5
42
330
2
100
AcDbSymbolTableRecord
100
AcDbLayerTableRecord
  2
9
 70
     0
 62
     9
  6
CONTINUOUS
  0
LAYER
  5
43
330
2
100
AcDbSymbolTableRecord
100
AcDbLayerTableRecord
  2
10
 70
     0
 62
    10
  6
CONTINUOUS
  0
LAYER
  5
44
330
2
100
AcDbSymbolTableRecord
100
AcDbLayerTableRecord
  2
11
 70
     0
 62
    11
  6
CONTINUOUS
  0
LAYER
  5
45
330
2
100
AcDbSymbolTableRecord
100
AcDbLayerTableRecord
  2
12
 70
     0
 62
    12
  6
CONTINUOUS
  0
LAYER
  5
46
330
2
100
AcDbSymbolTableRecord
100
AcDbLayerTableRecord
  2
13
 70
     0
 62
    13
  6
CONTINUOUS
  0
LAYER
  5
47
330
2
100
AcDbSymbolTableRecord
100
AcDbLayerTableRecord
  2
14
 70
     0
 62
    14
  6
CONTINUOUS
  0
LAYER
  5
48
330
2
100
AcDbSymbolTableRecord
100
AcDbLayerTableRecord
  2
15
 70
     0
 62
    15
  6
CONTINUOUS
  0
LAYER
  5
49
330
2
100
AcDbSymbolTableRecord
100
AcDbLayerTableRecord
  2
16
 70
     0
 62
    16
  6
CONTINUOUS
  0
LAYER
  5
4A
330
2
100
AcDbSymbolTableRecord
100
AcDbLayerTableRecord
  2
17
 70
     0
 62
    17
  6
CONTINUOUS
  0
LAYER
  5
4B
330
2
100
AcDbSymbolTableRecord
100
AcDbLayerTableRecord
  2
18
 70
     0
 62
    18
  6
CONTINUOUS
  0
LAYER
  5
4C
330
2
100
AcDbSymbolTableRecord
100
AcDbLayerTableRecord
  2
19
 70
     0
 62
    19
  6
CONTINUOUS
  0
LAYER
  5
4D
330
2
100
AcDbSymbolTableRecord
100
AcDbLayerTableRecord
  2
20
 70
     0
 62
    20
  6
CONTINUOUS
  0
LAYER
  5
4E
330
2
100
AcDbSymbolTableRecord
100
AcDbLayerTableRecord
  2
21
 70
     0
 62
    21
  6
CONTINUOUS
  0
LAYER
  5
4F
330
2
100
AcDbSymbolTableRecord
100
AcDbLayerTableRecord
  2
22
 70
     0
 62
    22
  6
CONTINUOUS
  0
LAYER
  5
50
330
2
100
AcDbSymbolTableRecord
100
AcDbLayerTableRecord
  2
23
 70
     0
 62
    23
  6
CONTINUOUS
  0
LAYER
  5
51
330
2
100
AcDbSymbolTableRecord
100
AcDbLayerTableRecord
  2
24
 70
     0
 62
    24
  6
CONTINUOUS
  0
LAYER
  5
52
330
2
100
AcDbSymbolTableRecord
100
AcDbLayerTableRecord
  2
25
 70
     0
 62
    25
  6
CONTINUOUS
  0
LAYER
  5
53
330
2
100
AcDbSymbolTableRecord
100
AcDbLayerTableRecord
  2
26
 70
     0
 62
    26
  6
CONTINUOUS
  0
LAYER
  5
54
330
2
100
AcDbSymbolTableRecord
100
AcDbLayerTableRecord
  2
27
 70
     0
 62
    27
  6
CONTINUOUS
  0
LAYER
  5
55
330
2
100
AcDbSymbolTableRecord
100
AcDbLayerTableRecord
  2
28
 70
     0
 62
    28
  6
CONTINUOUS
  0
LAYER
  5
56
330
2
100
AcDbSymbolTableRecord
100
AcDbLayerTableRecord
  2
29
 70
     0
 62
    29
  6
CONTINUOUS
  0
LAYER
  5
57
330
2
100
AcDbSymbolTableRecord
100
AcDbLayerTableRecord
  2
30
 70
     0
 62
    30
  6
CONTINUOUS
  0
LAYER
  5
58
330
2
100
AcDbSymbolTableRecord
100
AcDbLayerTableRecord
  2
31
 70
     0
 62
    31
  6
CONTINUOUS
  0
LAYER
  5
59
330
2
100
AcDbSymbolTableRecord
100
AcDbLayerTableRecord
  2
32
 70
     0
 62
    32
  6
CONTINUOUS
  0
LAYER
  5
5A
330
2
100
AcDbSymbolTableRecord
100
AcDbLayerTableRecord
  2
33
 70
     0
 62
    33
  6
CONTINUOUS
  0
LAYER
  5
5B
330
2
100
AcDbSymbolTableRecord
100
AcDbLayerTableRecord
  2
34
 70
     0
 62
    34
  6
CONTINUOUS
  0
LAYER
  5
5C
330
2
100
AcDbSymbolTableRecord
100
AcDbLayerTableRecord
  2
35
 70
     0
 62
    35
  6
CONTINUOUS
  0
LAYER
  5
5D
330
2
100
AcDbSymbolTableRecord
100
AcDbLayerTableRecord
  2
36
 70
     0
 62
    36
  6
CONTINUOUS
  0
LAYER
  5
5E
330
2
100
AcDbSymbolTableRecord
100
AcDbLayerTableRecord
  2
37
 70
     0
 62
    37
  6
CONTINUOUS
  0
LAYER
  5
5F
330
2
100
AcDbSymbolTableRecord
100
AcDbLayerTableRecord
  2
38
 70
     0
 62
    38
  6
CONTINUOUS
  0
LAYER
  5
60
330
2
100
AcDbSymbolTableRecord
100
AcDbLayerTableRecord
  2
39
 70
     0
 62
    39
  6
CONTINUOUS
  0
LAYER
  5
61
330
2
100
AcDbSymbolTableRecord
100
AcDbLayerTableRecord
  2
40
 70
     0
 62
    40
  6
CONTINUOUS
  0
LAYER
  5
62
330
2
100
AcDbSymbolTableRecord
100
AcDbLayerTableRecord
  2
41
 70
     0
 62
    41
  6
CONTINUOUS
  0
LAYER
  5
63
330
2
100
AcDbSymbolTableRecord
100
AcDbLayerTableRecord
  2
42
 70
     0
 62
    42
  6
CONTINUOUS
  0
LAYER
  5
64
330
2
100
AcDbSymbolTableRecord
100
AcDbLayerTableRecord
  2
43
 70
     0
 62
    43
  6
CONTINUOUS
  0
LAYER
  5
65
330
2
100
AcDbSymbolTableRecord
100
AcDbLayerTableRecord
  2
44
 70
     0
 62
    44
  6
CONTINUOUS
  0
LAYER
  5
66
330
2
100
AcDbSymbolTableRecord
100
AcDbLayerTableRecord
  2
45
 70
     0
 62
    45
  6
CONTINUOUS
  0
LAYER
  5
67
330
2
100
AcDbSymbolTableRecord
100
AcDbLayerTableRecord
  2
46
 70
     0
 62
    46
  6
CONTINUOUS
  0
LAYER
  5
68
330
2
100
AcDbSymbolTableRecord
100
AcDbLayerTableRecord
  2
47
 70
     0
 62
    47
  6
CONTINUOUS
  0
LAYER
  5
69
330
2
100
AcDbSymbolTableRecord
100
AcDbLayerTableRecord
  2
48
 70
     0
 62
    48
  6
CONTINUOUS
  0
LAYER
  5
6A
330
2
100
AcDbSymbolTableRecord
100
AcDbLayerTableRecord
  2
49
 70
     0
 62
    49
  6
CONTINUOUS
  0
LAYER
  5
6B
330
2
100
AcDbSymbolTableRecord
100
AcDbLayerTableRecord
  2
50
 70
     0
 62
    50
  6
CONTINUOUS
  0
LAYER
  5
6C
330
2
100
AcDbSymbolTableRecord
100
AcDbLayerTableRecord
  2
51
 70
     0
 62
    51
  6
CONTINUOUS
  0
LAYER
  5
6D
330
2
100
AcDbSymbolTableRecord
100
AcDbLayerTableRecord
  2
52
 70
     0
 62
    52
  6
CONTINUOUS
  0
LAYER
  5
6E
330
2
100
AcDbSymbolTableRecord
100
AcDbLayerTableRecord
  2
53
 70
     0
 62
    53
  6
CONTINUOUS
  0
LAYER
  5
6F
330
2
100
AcDbSymbolTableRecord
100
AcDbLayerTableRecord
  2
54
 70
     0
 62
    54
  6
CONTINUOUS
  0
LAYER
  5
70
330
2
100
AcDbSymbolTableRecord
100
AcDbLayerTableRecord
  2
55
 70
     0
 62
    55
  6
CONTINUOUS
  0
LAYER
  5
71
330
2
100
AcDbSymbolTableRecord
100
AcDbLayerTableRecord
  2
56
 70
     0
 62
    56
  6
CONTINUOUS
  0
LAYER
  5
72
330
2
100
AcDbSymbolTableRecord
100
AcDbLayerTableRecord
  2
57
 70
     0
 62
    57
  6
CONTINUOUS
  0
LAYER
  5
73
330
2
100
AcDbSymbolTableRecord
100
AcDbLayerTableRecord
  2
58
 70
     0
 62
    58
  6
CONTINUOUS
  0
LAYER
  5
74
330
2
100
AcDbSymbolTableRecord
100
AcDbLayerTableRecord
  2
59
 70
     0
 62
    59
  6
CONTINUOUS
  0
LAYER
  5
75
330
2
100
AcDbSymbolTableRecord
100
AcDbLayerTableRecord
  2
60
 70
     0
 62
    60
  6
CONTINUOUS
  0
LAYER
  5
76
330
2
100
AcDbSymbolTableRecord
100
AcDbLayerTableRecord
  2
61
 70
     0
 62
    61
  6
CONTINUOUS
  0
LAYER
  5
77
330
2
100
AcDbSymbolTableRecord
100
AcDbLayerTableRecord
  2
62
 70
     0
 62
    62
  6
CONTINUOUS
  0
LAYER
  5
78
330
2
100
AcDbSymbolTableRecord
100
AcDbLayerTableRecord
  2
63
 70
     0
 62
    63
  6
CONTINUOUS
  0
LAYER
  5
79
330
2
100
AcDbSymbolTableRecord
100
AcDbLayerTableRecord
  2
64
 70
     0
 62
    64
  6
CONTINUOUS
  0
LAYER
  5
7A
330
2
100
AcDbSymbolTableRecord
100
AcDbLayerTableRecord
  2
65
 70
     0
 62
    65
  6
CONTINUOUS
  0
LAYER
  5
7B
330
2
100
AcDbSymbolTableRecord
100
AcDbLayerTableRecord
  2
66
 70
     0
 62
    66
  6
CONTINUOUS
  0
LAYER
  5
7C
330
2
100
AcDbSymbolTableRecord
100
AcDbLayerTableRecord
  2
67
 70
     0
 62
    67
  6
CONTINUOUS
  0
LAYER
  5
7D
330
2
100
AcDbSymbolTableRecord
100
AcDbLayerTableRecord
  2
68
 70
     0
 62
    68
  6
CONTINUOUS
  0
LAYER
  5
7E
330
2
100
AcDbSymbolTableRecord
100
AcDbLayerTableRecord
  2
69
 70
     0
 62
    69
  6
CONTINUOUS
  0
LAYER
  5
7F
330
2
100
AcDbSymbolTableRecord
100
AcDbLayerTableRecord
  2
70
 70
     0
 62
    70
  6
CONTINUOUS
  0
LAYER
  5
80
330
2
100
AcDbSymbolTableRecord
100
AcDbLayerTableRecord
  2
71
 70
     0
 62
    71
  6
CONTINUOUS
  0
LAYER
  5
81
330
2
100
AcDbSymbolTableRecord
100
AcDbLayerTableRecord
  2
72
 70
     0
 62
    72
  6
CONTINUOUS
  0
LAYER
  5
82
330
2
100
AcDbSymbolTableRecord
100
AcDbLayerTableRecord
  2
73
 70
     0
 62
    73
  6
CONTINUOUS
  0
LAYER
  5
83
330
2
100
AcDbSymbolTableRecord
100
AcDbLayerTableRecord
  2
74
 70
     0
 62
    74
  6
CONTINUOUS
  0
LAYER
  5
84
330
2
100
AcDbSymbolTableRecord
100
AcDbLayerTableRecord
  2
75
 70
     0
 62
    75
  6
CONTINUOUS
  0
LAYER
  5
85
330
2
100
AcDbSymbolTableRecord
100
AcDbLayerTableRecord
  2
76
 70
     0
 62
    76
  6
CONTINUOUS
  0
LAYER
  5
86
330
2
100
AcDbSymbolTableRecord
100
AcDbLayerTableRecord
  2
77
 70
     0
 62
    77
  6
CONTINUOUS
  0
LAYER
  5
87
330
2
100
AcDbSymbolTableRecord
100
AcDbLayerTableRecord
  2
78
 70
     0
 62
    78
  6
CONTINUOUS
  0
LAYER
  5
88
330
2
100
AcDbSymbolTableRecord
100
AcDbLayerTableRecord
  2
79
 70
     0
 62
    79
  6
CONTINUOUS
  0
LAYER
  5
89
330
2
100
AcDbSymbolTableRecord
100
AcDbLayerTableRecord
  2
80
 70
     0
 62
    80
  6
CONTINUOUS
  0
LAYER
  5
8A
330
2
100
AcDbSymbolTableRecord
100
AcDbLayerTableRecord
  2
81
 70
     0
 62
    81
  6
CONTINUOUS
  0
LAYER
  5
8B
330
2
100
AcDbSymbolTableRecord
100
AcDbLayerTableRecord
  2
82
 70
     0
 62
    82
  6
CONTINUOUS
  0
LAYER
  5
8C
330
2
100
AcDbSymbolTableRecord
100
AcDbLayerTableRecord
  2
83
 70
     0
 62
    83
  6
CONTINUOUS
  0
LAYER
  5
8D
330
2
100
AcDbSymbolTableRecord
100
AcDbLayerTableRecord
  2
84
 70
     0
 62
    84
  6
CONTINUOUS
  0
LAYER
  5
8E
330
2
100
AcDbSymbolTableRecord
100
AcDbLayerTableRecord
  2
85
 70
     0
 62
    85
  6
CONTINUOUS
  0
LAYER
  5
8F
330
2
100
AcDbSymbolTableRecord
100
AcDbLayerTableRecord
  2
86
 70
     0
 62
    86
  6
CONTINUOUS
  0
LAYER
  5
90
330
2
100
AcDbSymbolTableRecord
100
AcDbLayerTableRecord
  2
87
 70
     0
 62
    87
  6
CONTINUOUS
  0
LAYER
  5
91
330
2
100
AcDbSymbolTableRecord
100
AcDbLayerTableRecord
  2
88
 70
     0
 62
    88
  6
CONTINUOUS
  0
LAYER
  5
92
330
2
100
AcDbSymbolTableRecord
100
AcDbLayerTableRecord
  2
89
 70
     0
 62
    89
  6
CONTINUOUS
  0
LAYER
  5
93
330
2
100
AcDbSymbolTableRecord
100
AcDbLayerTableRecord
  2
90
 70
     0
 62
    90
  6
CONTINUOUS
  0
LAYER
  5
94
330
2
100
AcDbSymbolTableRecord
100
AcDbLayerTableRecord
  2
91
 70
     0
 62
    91
  6
CONTINUOUS
  0
LAYER
  5
95
330
2
100
AcDbSymbolTableRecord
100
AcDbLayerTableRecord
  2
92
 70
     0
 62
    92
  6
CONTINUOUS
  0
LAYER
  5
96
330
2
100
AcDbSymbolTableRecord
100
AcDbLayerTableRecord
  2
93
 70
     0
 62
    93
  6
CONTINUOUS
  0
LAYER
  5
97
330
2
100
AcDbSymbolTableRecord
100
AcDbLayerTableRecord
  2
94
 70
     0
 62
    94
  6
CONTINUOUS
  0
LAYER
  5
98
330
2
100
AcDbSymbolTableRecord
100
AcDbLayerTableRecord
  2
95
 70
     0
 62
    95
  6
CONTINUOUS
  0
LAYER
  5
99
330
2
100
AcDbSymbolTableRecord
100
AcDbLayerTableRecord
  2
96
 70
     0
 62
    96
  6
CONTINUOUS
  0
LAYER
  5
9A
330
2
100
AcDbSymbolTableRecord
100
AcDbLayerTableRecord
  2
97
 70
     0
 62
    97
  6
CONTINUOUS
  0
LAYER
  5
9B
330
2
100
AcDbSymbolTableRecord
100
AcDbLayerTableRecord
  2
98
 70
     0
 62
    98
  6
CONTINUOUS
  0
LAYER
  5
9C
330
2
100
AcDbSymbolTableRecord
100
AcDbLayerTableRecord
  2
99
 70
     0
 62
    99
  6
CONTINUOUS
  0
LAYER
  5
9D
330
2
100
AcDbSymbolTableRecord
100
AcDbLayerTableRecord
  2
100
 70
     0
 62
   100
  6
CONTINUOUS
  0
LAYER
  5
9E
330
2
100
AcDbSymbolTableRecord
100
AcDbLayerTableRecord
  2
101
 70
     0
 62
   101
  6
CONTINUOUS
  0
LAYER
  5
9F
330
2
100
AcDbSymbolTableRecord
100
AcDbLayerTableRecord
  2
102
 70
     0
 62
   102
  6
CONTINUOUS
  0
LAYER
  5
A0
330
2
100
AcDbSymbolTableRecord
100
AcDbLayerTableRecord
  2
103
 70
     0
 62
   103
  6
CONTINUOUS
  0
LAYER
  5
A1
330
2
100
AcDbSymbolTableRecord
100
AcDbLayerTableRecord
  2
104
 70
     0
 62
   104
  6
CONTINUOUS
  0
LAYER
  5
A2
330
2
100
AcDbSymbolTableRecord
100
AcDbLayerTableRecord
  2
105
 70
     0
 62
   105
  6
CONTINUOUS
  0
LAYER
  5
A3
330
2
100
AcDbSymbolTableRecord
100
AcDbLayerTableRecord
  2
106
 70
     0
 62
   106
  6
CONTINUOUS
  0
LAYER
  5
A4
330
2
100
AcDbSymbolTableRecord
100
AcDbLayerTableRecord
  2
107
 70
     0
 62
   107
  6
CONTINUOUS
  0
LAYER
  5
A5
330
2
100
AcDbSymbolTableRecord
100
AcDbLayerTableRecord
  2
108
 70
     0
 62
   108
  6
CONTINUOUS
  0
LAYER
  5
A6
330
2
100
AcDbSymbolTableRecord
100
AcDbLayerTableRecord
  2
109
 70
     0
 62
   109
  6
CONTINUOUS
  0
LAYER
  5
A7
330
2
100
AcDbSymbolTableRecord
100
AcDbLayerTableRecord
  2
110
 70
     0
 62
   110
  6
CONTINUOUS
  0
LAYER
  5
A8
330
2
100
AcDbSymbolTableRecord
100
AcDbLayerTableRecord
  2
111
 70
     0
 62
   111
  6
CONTINUOUS
  0
LAYER
  5
A9
330
2
100
AcDbSymbolTableRecord
100
AcDbLayerTableRecord
  2
112
 70
     0
 62
   112
  6
CONTINUOUS
  0
LAYER
  5
AA
330
2
100
AcDbSymbolTableRecord
100
AcDbLayerTableRecord
  2
113
 70
     0
 62
   113
  6
CONTINUOUS
  0
LAYER
  5
AB
330
2
100
AcDbSymbolTableRecord
100
AcDbLayerTableRecord
  2
114
 70
     0
 62
   114
  6
CONTINUOUS
  0
LAYER
  5
AC
330
2
100
AcDbSymbolTableRecord
100
AcDbLayerTableRecord
  2
115
 70
     0
 62
   115
  6
CONTINUOUS
  0
LAYER
  5
AD
330
2
100
AcDbSymbolTableRecord
100
AcDbLayerTableRecord
  2
116
 70
     0
 62
   116
  6
CONTINUOUS
  0
LAYER
  5
AE
330
2
100
AcDbSymbolTableRecord
100
AcDbLayerTableRecord
  2
117
 70
     0
 62
   117
  6
CONTINUOUS
  0
LAYER
  5
AF
330
2
100
AcDbSymbolTableRecord
100
AcDbLayerTableRecord
  2
118
 70
     0
 62
   118
  6
CONTINUOUS
  0
LAYER
  5
B0
330
2
100
AcDbSymbolTableRecord
100
AcDbLayerTableRecord
  2
119
 70
     0
 62
   119
  6
CONTINUOUS
  0
LAYER
  5
B1
330
2
100
AcDbSymbolTableRecord
100
AcDbLayerTableRecord
  2
120
 70
     0
 62
   120
  6
CONTINUOUS
  0
LAYER
  5
B2
330
2
100
AcDbSymbolTableRecord
100
AcDbLayerTableRecord
  2
121
 70
     0
 62
   121
  6
CONTINUOUS
  0
LAYER
  5
B3
330
2
100
AcDbSymbolTableRecord
100
AcDbLayerTableRecord
  2
122
 70
     0
 62
   122
  6
CONTINUOUS
  0
LAYER
  5
B4
330
2
100
AcDbSymbolTableRecord
100
AcDbLayerTableRecord
  2
123
 70
     0
 62
   123
  6
CONTINUOUS
  0
LAYER
  5
B5
330
2
100
AcDbSymbolTableRecord
100
AcDbLayerTableRecord
  2
124
 70
     0
 62
   124
  6
CONTINUOUS
  0
LAYER
  5
B6
330
2
100
AcDbSymbolTableRecord
100
AcDbLayerTableRecord
  2
125
 70
     0
 62
   125
  6
CONTINUOUS
  0
LAYER
  5
B7
330
2
100
AcDbSymbolTableRecord
100
AcDbLayerTableRecord
  2
126
 70
     0
 62
   126
  6
CONTINUOUS
  0
LAYER
  5
B8
330
2
100
AcDbSymbolTableRecord
100
AcDbLayerTableRecord
  2
127
 70
     0
 62
   127
  6
CONTINUOUS
  0
LAYER
  5
B9
330
2
100
AcDbSymbolTableRecord
100
AcDbLayerTableRecord
  2
128
 70
     0
 62
   128
  6
CONTINUOUS
  0
LAYER
  5
BA
330
2
100
AcDbSymbolTableRecord
100
AcDbLayerTableRecord
  2
129
 70
     0
 62
   129
  6
CONTINUOUS
  0
LAYER
  5
BB
330
2
100
AcDbSymbolTableRecord
100
AcDbLayerTableRecord
  2
130
 70
     0
 62
   130
  6
CONTINUOUS
  0
LAYER
  5
BC
330
2
100
AcDbSymbolTableRecord
100
AcDbLayerTableRecord
  2
131
 70
     0
 62
   131
  6
CONTINUOUS
  0
LAYER
  5
BD
330
2
100
AcDbSymbolTableRecord
100
AcDbLayerTableRecord
  2
132
 70
     0
 62
   132
  6
CONTINUOUS
  0
LAYER
  5
BE
330
2
100
AcDbSymbolTableRecord
100
AcDbLayerTableRecord
  2
133
 70
     0
 62
   133
  6
CONTINUOUS
  0
LAYER
  5
BF
330
2
100
AcDbSymbolTableRecord
100
AcDbLayerTableRecord
  2
134
 70
     0
 62
   134
  6
CONTINUOUS
  0
LAYER
  5
C0
330
2
100
AcDbSymbolTableRecord
100
AcDbLayerTableRecord
  2
135
 70
     0
 62
   135
  6
CONTINUOUS
  0
LAYER
  5
C1
330
2
100
AcDbSymbolTableRecord
100
AcDbLayerTableRecord
  2
136
 70
     0
 62
   136
  6
CONTINUOUS
  0
LAYER
  5
C2
330
2
100
AcDbSymbolTableRecord
100
AcDbLayerTableRecord
  2
137
 70
     0
 62
   137
  6
CONTINUOUS
  0
LAYER
  5
C3
330
2
100
AcDbSymbolTableRecord
100
AcDbLayerTableRecord
  2
138
 70
     0
 62
   138
  6
CONTINUOUS
  0
LAYER
  5
C4
330
2
100
AcDbSymbolTableRecord
100
AcDbLayerTableRecord
  2
139
 70
     0
 62
   139
  6
CONTINUOUS
  0
LAYER
  5
C5
330
2
100
AcDbSymbolTableRecord
100
AcDbLayerTableRecord
  2
140
 70
     0
 62
   140
  6
CONTINUOUS
  0
LAYER
  5
C6
330
2
100
AcDbSymbolTableRecord
100
AcDbLayerTableRecord
  2
141
 70
     0
 62
   141
  6
CONTINUOUS
  0
LAYER
  5
C7
330
2
100
AcDbSymbolTableRecord
100
AcDbLayerTableRecord
  2
142
 70
     0
 62
   142
  6
CONTINUOUS
  0
LAYER
  5
C8
330
2
100
AcDbSymbolTableRecord
100
AcDbLayerTableRecord
  2
143
 70
     0
 62
   143
  6
CONTINUOUS
  0
LAYER
  5
C9
330
2
100
AcDbSymbolTableRecord
100
AcDbLayerTableRecord
  2
144
 70
     0
 62
   144
  6
CONTINUOUS
  0
LAYER
  5
CA
330
2
100
AcDbSymbolTableRecord
100
AcDbLayerTableRecord
  2
145
 70
     0
 62
   145
  6
CONTINUOUS
  0
LAYER
  5
CB
330
2
100
AcDbSymbolTableRecord
100
AcDbLayerTableRecord
  2
146
 70
     0
 62
   146
  6
CONTINUOUS
  0
LAYER
  5
CC
330
2
100
AcDbSymbolTableRecord
100
AcDbLayerTableRecord
  2
147
 70
     0
 62
   147
  6
CONTINUOUS
  0
LAYER
  5
CD
330
2
100
AcDbSymbolTableRecord
100
AcDbLayerTableRecord
  2
148
 70
     0
 62
   148
  6
CONTINUOUS
  0
LAYER
  5
CE
330
2
100
AcDbSymbolTableRecord
100
AcDbLayerTableRecord
  2
149
 70
     0
 62
   149
  6
CONTINUOUS
  0
LAYER
  5
CF
330
2
100
AcDbSymbolTableRecord
100
AcDbLayerTableRecord
  2
150
 70
     0
 62
   150
  6
CONTINUOUS
  0
LAYER
  5
D0
330
2
100
AcDbSymbolTableRecord
100
AcDbLayerTableRecord
  2
151
 70
     0
 62
   151
  6
CONTINUOUS
  0
LAYER
  5
D1
330
2
100
AcDbSymbolTableRecord
100
AcDbLayerTableRecord
  2
152
 70
     0
 62
   152
  6
CONTINUOUS
  0
LAYER
  5
D2
330
2
100
AcDbSymbolTableRecord
100
AcDbLayerTableRecord
  2
153
 70
     0
 62
   153
  6
CONTINUOUS
  0
LAYER
  5
D3
330
2
100
AcDbSymbolTableRecord
100
AcDbLayerTableRecord
  2
154
 70
     0
 62
   154
  6
CONTINUOUS
  0
LAYER
  5
D4
330
2
100
AcDbSymbolTableRecord
100
AcDbLayerTableRecord
  2
155
 70
     0
 62
   155
  6
CONTINUOUS
  0
LAYER
  5
D5
330
2
100
AcDbSymbolTableRecord
100
AcDbLayerTableRecord
  2
156
 70
     0
 62
   156
  6
CONTINUOUS
  0
LAYER
  5
D6
330
2
100
AcDbSymbolTableRecord
100
AcDbLayerTableRecord
  2
157
 70
     0
 62
   157
  6
CONTINUOUS
  0
LAYER
  5
D7
330
2
100
AcDbSymbolTableRecord
100
AcDbLayerTableRecord
  2
158
 70
     0
 62
   158
  6
CONTINUOUS
  0
LAYER
  5
D8
330
2
100
AcDbSymbolTableRecord
100
AcDbLayerTableRecord
  2
159
 70
     0
 62
   159
  6
CONTINUOUS
  0
LAYER
  5
D9
330
2
100
AcDbSymbolTableRecord
100
AcDbLayerTableRecord
  2
160
 70
     0
 62
   160
  6
CONTINUOUS
  0
LAYER
  5
DA
330
2
100
AcDbSymbolTableRecord
100
AcDbLayerTableRecord
  2
161
 70
     0
 62
   161
  6
CONTINUOUS
  0
LAYER
  5
DB
330
2
100
AcDbSymbolTableRecord
100
AcDbLayerTableRecord
  2
162
 70
     0
 62
   162
  6
CONTINUOUS
  0
LAYER
  5
DC
330
2
100
AcDbSymbolTableRecord
100
AcDbLayerTableRecord
  2
163
 70
     0
 62
   163
  6
CONTINUOUS
  0
LAYER
  5
DD
330
2
100
AcDbSymbolTableRecord
100
AcDbLayerTableRecord
  2
164
 70
     0
 62
   164
  6
CONTINUOUS
  0
LAYER
  5
DE
330
2
100
AcDbSymbolTableRecord
100
AcDbLayerTableRecord
  2
165
 70
     0
 62
   165
  6
CONTINUOUS
  0
LAYER
  5
DF
330
2
100
AcDbSymbolTableRecord
100
AcDbLayerTableRecord
  2
166
 70
     0
 62
   166
  6
CONTINUOUS
  0
LAYER
  5
E0
330
2
100
AcDbSymbolTableRecord
100
AcDbLayerTableRecord
  2
167
 70
     0
 62
   167
  6
CONTINUOUS
  0
LAYER
  5
E1
330
2
100
AcDbSymbolTableRecord
100
AcDbLayerTableRecord
  2
168
 70
     0
 62
   168
  6
CONTINUOUS
  0
LAYER
  5
E2
330
2
100
AcDbSymbolTableRecord
100
AcDbLayerTableRecord
  2
169
 70
     0
 62
   169
  6
CONTINUOUS
  0
LAYER
  5
E3
330
2
100
AcDbSymbolTableRecord
100
AcDbLayerTableRecord
  2
170
 70
     0
 62
   170
  6
CONTINUOUS
  0
LAYER
  5
E4
330
2
100
AcDbSymbolTableRecord
100
AcDbLayerTableRecord
  2
171
 70
     0
 62
   171
  6
CONTINUOUS
  0
LAYER
  5
E5
330
2
100
AcDbSymbolTableRecord
100
AcDbLayerTableRecord
  2
172
 70
     0
 62
   172
  6
CONTINUOUS
  0
LAYER
  5
E6
330
2
100
AcDbSymbolTableRecord
100
AcDbLayerTableRecord
  2
173
 70
     0
 62
   173
  6
CONTINUOUS
  0
LAYER
  5
E7
330
2
100
AcDbSymbolTableRecord
100
AcDbLayerTableRecord
  2
174
 70
     0
 62
   174
  6
CONTINUOUS
  0
LAYER
  5
E8
330
2
100
AcDbSymbolTableRecord
100
AcDbLayerTableRecord
  2
175
 70
     0
 62
   175
  6
CONTINUOUS
  0
LAYER
  5
E9
330
2
100
AcDbSymbolTableRecord
100
AcDbLayerTableRecord
  2
176
 70
     0
 62
   176
  6
CONTINUOUS
  0
LAYER
  5
EA
330
2
100
AcDbSymbolTableRecord
100
AcDbLayerTableRecord
  2
177
 70
     0
 62
   177
  6
CONTINUOUS
  0
LAYER
  5
EB
330
2
100
AcDbSymbolTableRecord
100
AcDbLayerTableRecord
  2
178
 70
     0
 62
   178
  6
CONTINUOUS
  0
LAYER
  5
EC
330
2
100
AcDbSymbolTableRecord
100
AcDbLayerTableRecord
  2
179
 70
     0
 62
   179
  6
CONTINUOUS
  0
LAYER
  5
ED
330
2
100
AcDbSymbolTableRecord
100
AcDbLayerTableRecord
  2
180
 70
     0
 62
   180
  6
CONTINUOUS
  0
LAYER
  5
EE
330
2
100
AcDbSymbolTableRecord
100
AcDbLayerTableRecord
  2
181
 70
     0
 62
   181
  6
CONTINUOUS
  0
LAYER
  5
EF
330
2
100
AcDbSymbolTableRecord
100
AcDbLayerTableRecord
  2
182
 70
     0
 62
   182
  6
CONTINUOUS
  0
LAYER
  5
F0
330
2
100
AcDbSymbolTableRecord
100
AcDbLayerTableRecord
  2
183
 70
     0
 62
   183
  6
CONTINUOUS
  0
LAYER
  5
F1
330
2
100
AcDbSymbolTableRecord
100
AcDbLayerTableRecord
  2
184
 70
     0
 62
   184
  6
CONTINUOUS
  0
LAYER
  5
F2
330
2
100
AcDbSymbolTableRecord
100
AcDbLayerTableRecord
  2
185
 70
     0
 62
   185
  6
CONTINUOUS
  0
LAYER
  5
F3
330
2
100
AcDbSymbolTableRecord
100
AcDbLayerTableRecord
  2
186
 70
     0
 62
   186
  6
CONTINUOUS
  0
LAYER
  5
F4
330
2
100
AcDbSymbolTableRecord
100
AcDbLayerTableRecord
  2
187
 70
     0
 62
   187
  6
CONTINUOUS
  0
LAYER
  5
F5
330
2
100
AcDbSymbolTableRecord
100
AcDbLayerTableRecord
  2
188
 70
     0
 62
   188
  6
CONTINUOUS
  0
LAYER
  5
F6
330
2
100
AcDbSymbolTableRecord
100
AcDbLayerTableRecord
  2
189
 70
     0
 62
   189
  6
CONTINUOUS
  0
LAYER
  5
F7
330
2
100
AcDbSymbolTableRecord
100
AcDbLayerTableRecord
  2
190
 70
     0
 62
   190
  6
CONTINUOUS
  0
LAYER
  5
F8
330
2
100
AcDbSymbolTableRecord
100
AcDbLayerTableRecord
  2
191
 70
     0
 62
   191
  6
CONTINUOUS
  0
LAYER
  5
F9
330
2
100
AcDbSymbolTableRecord
100
AcDbLayerTableRecord
  2
192
 70
     0
 62
   192
  6
CONTINUOUS
  0
LAYER
  5
FA
330
2
100
AcDbSymbolTableRecord
100
AcDbLayerTableRecord
  2
193
 70
     0
 62
   193
  6
CONTINUOUS
  0
LAYER
  5
FB
330
2
100
AcDbSymbolTableRecord
100
AcDbLayerTableRecord
  2
194
 70
     0
 62
   194
  6
CONTINUOUS
  0
LAYER
  5
FC
330
2
100
AcDbSymbolTableRecord
100
AcDbLayerTableRecord
  2
195
 70
     0
 62
   195
  6
CONTINUOUS
  0
LAYER
  5
FD
330
2
100
AcDbSymbolTableRecord
100
AcDbLayerTableRecord
  2
196
 70
     0
 62
   196
  6
CONTINUOUS
  0
LAYER
  5
FE
330
2
100
AcDbSymbolTableRecord
100
AcDbLayerTableRecord
  2
197
 70
     0
 62
   197
  6
CONTINUOUS
  0
LAYER
  5
FF
330
2
100
AcDbSymbolTableRecord
100
AcDbLayerTableRecord
  2
198
 70
     0
 62
   198
  6
CONTINUOUS
  0
LAYER
  5
100
330
2
100
AcDbSymbolTableRecord
100
AcDbLayerTableRecord
  2
199
 70
     0
 62
   199
  6
CONTINUOUS
  0
LAYER
  5
101
330
2
100
AcDbSymbolTableRecord
100
AcDbLayerTableRecord
  2
200
 70
     0
 62
   200
  6
CONTINUOUS
  0
LAYER
  5
102
330
2
100
AcDbSymbolTableRecord
100
AcDbLayerTableRecord
  2
201
 70
     0
 62
   201
  6
CONTINUOUS
  0
LAYER
  5
103
330
2
100
AcDbSymbolTableRecord
100
AcDbLayerTableRecord
  2
202
 70
     0
 62
   202
  6
CONTINUOUS
  0
LAYER
  5
104
330
2
100
AcDbSymbolTableRecord
100
AcDbLayerTableRecord
  2
203
 70
     0
 62
   203
  6
CONTINUOUS
  0
LAYER
  5
105
330
2
100
AcDbSymbolTableRecord
100
AcDbLayerTableRecord
  2
204
 70
     0
 62
   204
  6
CONTINUOUS
  0
LAYER
  5
106
330
2
100
AcDbSymbolTableRecord
100
AcDbLayerTableRecord
  2
205
 70
     0
 62
   205
  6
CONTINUOUS
  0
LAYER
  5
107
330
2
100
AcDbSymbolTableRecord
100
AcDbLayerTableRecord
  2
206
 70
     0
 62
   206
  6
CONTINUOUS
  0
LAYER
  5
108
330
2
100
AcDbSymbolTableRecord
100
AcDbLayerTableRecord
  2
207
 70
     0
 62
   207
  6
CONTINUOUS
  0
LAYER
  5
109
330
2
100
AcDbSymbolTableRecord
100
AcDbLayerTableRecord
  2
208
 70
     0
 62
   208
  6
CONTINUOUS
  0
LAYER
  5
10A
330
2
100
AcDbSymbolTableRecord
100
AcDbLayerTableRecord
  2
209
 70
     0
 62
   209
  6
CONTINUOUS
  0
LAYER
  5
10B
330
2
100
AcDbSymbolTableRecord
100
AcDbLayerTableRecord
  2
210
 70
     0
 62
   210
  6
CONTINUOUS
  0
LAYER
  5
10C
330
2
100
AcDbSymbolTableRecord
100
AcDbLayerTableRecord
  2
211
 70
     0
 62
   211
  6
CONTINUOUS
  0
LAYER
  5
10D
330
2
100
AcDbSymbolTableRecord
100
AcDbLayerTableRecord
  2
212
 70
     0
 62
   212
  6
CONTINUOUS
  0
LAYER
  5
10E
330
2
100
AcDbSymbolTableRecord
100
AcDbLayerTableRecord
  2
213
 70
     0
 62
   213
  6
CONTINUOUS
  0
LAYER
  5
10F
330
2
100
AcDbSymbolTableRecord
100
AcDbLayerTableRecord
  2
214
 70
     0
 62
   214
  6
CONTINUOUS
  0
LAYER
  5
110
330
2
100
AcDbSymbolTableRecord
100
AcDbLayerTableRecord
  2
215
 70
     0
 62
   215
  6
CONTINUOUS
  0
LAYER
  5
111
330
2
100
AcDbSymbolTableRecord
100
AcDbLayerTableRecord
  2
216
 70
     0
 62
   216
  6
CONTINUOUS
  0
LAYER
  5
112
330
2
100
AcDbSymbolTableRecord
100
AcDbLayerTableRecord
  2
217
 70
     0
 62
   217
  6
CONTINUOUS
  0
LAYER
  5
113
330
2
100
AcDbSymbolTableRecord
100
AcDbLayerTableRecord
  2
218
 70
     0
 62
   218
  6
CONTINUOUS
  0
LAYER
  5
114
330
2
100
AcDbSymbolTableRecord
100
AcDbLayerTableRecord
  2
219
 70
     0
 62
   219
  6
CONTINUOUS
  0
LAYER
  5
115
330
2
100
AcDbSymbolTableRecord
100
AcDbLayerTableRecord
  2
220
 70
     0
 62
   220
  6
CONTINUOUS
  0
LAYER
  5
116
330
2
100
AcDbSymbolTableRecord
100
AcDbLayerTableRecord
  2
221
 70
     0
 62
   221
  6
CONTINUOUS
  0
LAYER
  5
117
330
2
100
AcDbSymbolTableRecord
100
AcDbLayerTableRecord
  2
222
 70
     0
 62
   222
  6
CONTINUOUS
  0
LAYER
  5
118
330
2
100
AcDbSymbolTableRecord
100
AcDbLayerTableRecord
  2
223
 70
     0
 62
   223
  6
CONTINUOUS
  0
LAYER
  5
119
330
2
100
AcDbSymbolTableRecord
100
AcDbLayerTableRecord
  2
224
 70
     0
 62
   224
  6
CONTINUOUS
  0
LAYER
  5
11A
330
2
100
AcDbSymbolTableRecord
100
AcDbLayerTableRecord
  2
225
 70
     0
 62
   225
  6
CONTINUOUS
  0
LAYER
  5
11B
330
2
100
AcDbSymbolTableRecord
100
AcDbLayerTableRecord
  2
226
 70
     0
 62
   226
  6
CONTINUOUS
  0
LAYER
  5
11C
330
2
100
AcDbSymbolTableRecord
100
AcDbLayerTableRecord
  2
227
 70
     0
 62
   227
  6
CONTINUOUS
  0
LAYER
  5
11D
330
2
100
AcDbSymbolTableRecord
100
AcDbLayerTableRecord
  2
228
 70
     0
 62
   228
  6
CONTINUOUS
  0
LAYER
  5
11E
330
2
100
AcDbSymbolTableRecord
100
AcDbLayerTableRecord
  2
229
 70
     0
 62
   229
  6
CONTINUOUS
  0
LAYER
  5
11F
330
2
100
AcDbSymbolTableRecord
100
AcDbLayerTableRecord
  2
230
 70
     0
 62
   230
  6
CONTINUOUS
  0
LAYER
  5
120
330
2
100
AcDbSymbolTableRecord
100
AcDbLayerTableRecord
  2
231
 70
     0
 62
   231
  6
CONTINUOUS
  0
LAYER
  5
121
330
2
100
AcDbSymbolTableRecord
100
AcDbLayerTableRecord
  2
232
 70
     0
 62
   232
  6
CONTINUOUS
  0
LAYER
  5
122
330
2
100
AcDbSymbolTableRecord
100
AcDbLayerTableRecord
  2
233
 70
     0
 62
   233
  6
CONTINUOUS
  0
LAYER
  5
123
330
2
100
AcDbSymbolTableRecord
100
AcDbLayerTableRecord
  2
234
 70
     0
 62
   234
  6
CONTINUOUS
  0
LAYER
  5
124
330
2
100
AcDbSymbolTableRecord
100
AcDbLayerTableRecord
  2
235
 70
     0
 62
   235
  6
CONTINUOUS
  0
LAYER
  5
125
330
2
100
AcDbSymbolTableRecord
100
AcDbLayerTableRecord
  2
236
 70
     0
 62
   236
  6
CONTINUOUS
  0
LAYER
  5
126
330
2
100
AcDbSymbolTableRecord
100
AcDbLayerTableRecord
  2
237
 70
     0
 62
   237
  6
CONTINUOUS
  0
LAYER
  5
127
330
2
100
AcDbSymbolTableRecord
100
AcDbLayerTableRecord
  2
238
 70
     0
 62
   238
  6
CONTINUOUS
  0
LAYER
  5
128
330
2
100
AcDbSymbolTableRecord
100
AcDbLayerTableRecord
  2
239
 70
     0
 62
   239
  6
CONTINUOUS
  0
LAYER
  5
129
330
2
100
AcDbSymbolTableRecord
100
AcDbLayerTableRecord
  2
240
 70
     0
 62
   240
  6
CONTINUOUS
  0
LAYER
  5
12A
330
2
100
AcDbSymbolTableRecord
100
AcDbLayerTableRecord
  2
241
 70
     0
 62
   241
  6
CONTINUOUS
  0
LAYER
  5
12B
330
2
100
AcDbSymbolTableRecord
100
AcDbLayerTableRecord
  2
242
 70
     0
 62
   242
  6
CONTINUOUS
  0
LAYER
  5
12C
330
2
100
AcDbSymbolTableRecord
100
AcDbLayerTableRecord
  2
243
 70
     0
 62
   243
  6
CONTINUOUS
  0
LAYER
  5
12D
330
2
100
AcDbSymbolTableRecord
100
AcDbLayerTableRecord
  2
244
 70
     0
 62
   244
  6
CONTINUOUS
  0
LAYER
  5
12E
330
2
100
AcDbSymbolTableRecord
100
AcDbLayerTableRecord
  2
245
 70
     0
 62
   245
  6
CONTINUOUS
  0
LAYER
  5
12F
330
2
100
AcDbSymbolTableRecord
100
AcDbLayerTableRecord
  2
246
 70
     0
 62
   246
  6
CONTINUOUS
  0
LAYER
  5
130
330
2
100
AcDbSymbolTableRecord
100
AcDbLayerTableRecord
  2
247
 70
     0
 62
   247
  6
CONTINUOUS
  0
LAYER
  5
131
330
2
100
AcDbSymbolTableRecord
100
AcDbLayerTableRecord
  2
248
 70
     0
 62
   248
  6
CONTINUOUS
  0
LAYER
  5
132
330
2
100
AcDbSymbolTableRecord
100
AcDbLayerTableRecord
  2
249
 70
     0
 62
   249
  6
CONTINUOUS
  0
LAYER
  5
133
330
2
100
AcDbSymbolTableRecord
100
AcDbLayerTableRecord
  2
250
 70
     0
 62
   250
  6
CONTINUOUS
  0
LAYER
  5
134
330
2
100
AcDbSymbolTableRecord
100
AcDbLayerTableRecord
  2
251
 70
     0
 62
   251
  6
CONTINUOUS
  0
LAYER
  5
135
330
2
100
AcDbSymbolTableRecord
100
AcDbLayerTableRecord
  2
252
 70
     0
 62
   252
  6
CONTINUOUS
  0
LAYER
  5
136
330
2
100
AcDbSymbolTableRecord
100
AcDbLayerTableRecord
  2
253
 70
     0
 62
   253
  6
CONTINUOUS
  0
LAYER
  5
137
330
2
100
AcDbSymbolTableRecord
100
AcDbLayerTableRecord
  2
254
 70
     0
 62
   254
  6
CONTINUOUS
  0
LAYER
  5
138
330
2
100
AcDbSymbolTableRecord
100
AcDbLayerTableRecord
  2
255
 70
     0
 62
   255
  6
CONTINUOUS
  0
LAYER
  5
4876
330
2
100
AcDbSymbolTableRecord
100
AcDbLayerTableRecord
  2
DEFPOINTS
 70
     0
 62
     7
  6
CONTINUOUS
  0
ENDTAB
  0
TABLE
  2
STYLE
  5
3
330
0
100
AcDbSymbolTable
 70
     1
  0
STYLE
  5
11
330
3
100
AcDbSymbolTableRecord
100
AcDbTextStyleTableRecord
  2
STANDARD
 70
     0
 40
0.0
 41
1.0
 50
0.0
 71
     0
 42
0.2
  3
monotxt
  4

  0
ENDTAB
  0
TABLE
  2
VIEW
  5
6
330
0
100
AcDbSymbolTable
 70
     0
  0
ENDTAB
  0
TABLE
  2
UCS
  5
7
330
0
100
AcDbSymbolTable
 70
     0
  0
ENDTAB
  0
TABLE
  2
APPID
  5
9
330
0
100
AcDbSymbolTable
 70
     1
  0
APPID
  5
12
330
9
100
AcDbSymbolTableRecord
100
AcDbRegAppTableRecord
  2
ACAD
 70
     0
  0
ENDTAB
  0
TABLE
  2
DIMSTYLE
  5
A
330
0
100
AcDbSymbolTable
 70
     1
  0
DIMSTYLE
105
33E6
330
A
100
AcDbSymbolTableRecord
100
AcDbDimStyleTableRecord
  2
STANDARD
 70
     0
  3

  4

  5

  6

  7

 40
1.0
 41
0.18
 42
0.0625
 43
0.38
 44
0.18
 45
0.0
 46
0.0
 47
0.0
 48
0.0
140
0.18
141
0.09
142
0.0
143
25.4
144
1.0
145
0.0
146
1.0
147
0.09
 71
     0
 72
     0
 73
     1
 74
     1
 75
     0
 76
     0
 77
     0
 78
     0
170
     0
171
     2
172
     0
173
     0
174
     0
175
     0
176
     0
177
     0
178
     0
270
     2
271
     4
272
     4
273
     2
274
     2
340
11
275
     0
280
     0
281
     0
282
     0
283
     1
284
     0
285
     0
286
     0
287
     3
288
     0
  0
ENDTAB
  0
TABLE
  2
BLOCK_RECORD
  5
1
330
0
100
AcDbSymbolTable
 70
     1
  0
BLOCK_RECORD
  5
1E
102
{ACAD_XDICTIONARY
360
48A3
102
}
330
1
100
AcDbSymbolTableRecord
100
AcDbBlockTableRecord
  2
*MODEL_SPACE
  0
BLOCK_RECORD
  5
1A
102
{ACAD_XDICTIONARY
360
48A5
102
}
330
1
100
AcDbSymbolTableRecord
100
AcDbBlockTableRecord
  2
*PAPER_SPACE
  0
ENDTAB
  0
ENDSEC
  0
SECTION
  2
BLOCKS
  0
BLOCK
  5
13B
330
1E
100
AcDbEntity
  8
0
100
AcDbBlockBegin
  2
*MODEL_SPACE
 70
     0
 10
0.0
 20
0.0
 30
0.0
  3
*MODEL_SPACE
  1

  0
ENDBLK
  5
13C
330
1E
100
AcDbEntity
  8
0
100
AcDbBlockEnd
  0
BLOCK
  5
139
330
1A
100
AcDbEntity
 67
     1
  8
0
100
AcDbBlockBegin
  2
*PAPER_SPACE
 70
     0
 10
0.0
 20
0.0
 30
0.0
  3
*PAPER_SPACE
  1

  0
ENDBLK
  5
13A
330
1A
100
AcDbEntity
 67
     1
  8
0
100
AcDbBlockEnd
  0
ENDSEC
  0
SECTION
  2
ENTITIES
  0
LINE
  5
28E5
330
1E
100
AcDbEntity
  8
7
100
AcDbLine
 10
6.63841178481651
 20
9.619225649497824
 30
0.0
 11
6.653174087949878
 21
9.619225649497824
 31
0.0
  0
LINE
  5
28E6
330
1E
100
AcDbEntity
  8
7
100
AcDbLine
 10
6.664983930456569
 20
9.631035492004517
 30
0.0
 11
6.664983930456569
 21
9.796373287098219
 31
0.0
  0
LINE
  5
28E7
330
1E
100
AcDbEntity
  8
7
100
AcDbLine
 10
5.690671923654405
 20
9.566081358217704
 30
0.0
 11
5.690671923654405
 21
9.867232342138377
 31
0.0
  0
LINE
  5
28E8
330
1E
100
AcDbEntity
  8
7
100
AcDbLine
 10
6.024299974468479
 20
9.713704389551367
 30
0.0
 11
6.053824580735212
 21
9.648750255764557
 31
0.0
  0
LINE
  5
28E9
330
1E
100
AcDbEntity
  8
7
100
AcDbLine
 10
5.823532651854701
 20
9.814088050858256
 30
0.0
 11
5.85305725812143
 21
9.814088050858256
 31
0.0
  0
LINE
  5
28EA
330
1E
100
AcDbEntity
  8
7
100
AcDbLine
 10
6.63841178481651
 20
9.619225649497824
 30
0.0
 11
6.653174087949878
 21
9.619225649497824
 31
0.0
  0
LINE
  5
28EB
330
1E
100
AcDbEntity
  8
7
100
AcDbLine
 10
5.823532651854701
 20
9.566081358217704
 30
0.0
 11
5.690671923654405
 21
9.566081358217704
 31
0.0
  0
LINE
  5
28EC
330
1E
100
AcDbEntity
  8
7
100
AcDbLine
 10
6.591172414789737
 20
9.566081358217704
 30
0.0
 11
6.670888851709916
 21
9.566081358217704
 31
0.0
  0
LINE
  5
28ED
330
1E
100
AcDbEntity
  8
7
100
AcDbLine
 10
6.467169068469464
 20
9.566081358217704
 30
0.0
 11
6.340213261522515
 21
9.566081358217704
 31
0.0
  0
LINE
  5
28EE
330
1E
100
AcDbEntity
  8
7
100
AcDbLine
 10
6.815559422416906
 20
9.566081358217704
 30
0.0
 11
6.815559422416906
 21
9.796373287098219
 31
0.0
  0
LINE
  5
28EF
330
1E
100
AcDbEntity
  8
7
100
AcDbLine
 10
5.823532651854701
 20
9.707799468298022
 30
0.0
 11
5.85305725812143
 21
9.707799468298022
 31
0.0
  0
LINE
  5
28F0
330
1E
100
AcDbEntity
  8
7
100
AcDbLine
 10
6.815559422416906
 20
9.566081358217704
 30
0.0
 11
6.753557749256765
 21
9.566081358217704
 31
0.0
  0
LINE
  5
28F1
330
1E
100
AcDbEntity
  8
7
100
AcDbLine
 10
5.968203222561687
 20
9.566081358217704
 30
0.0
 11
5.982965525695055
 21
9.598558425111113
 31
0.0
  0
LINE
  5
28F2
330
1E
100
AcDbEntity
  8
7
100
AcDbLine
 10
6.239829600215624
 20
9.796373287098219
 30
0.0
 11
6.298878812749087
 21
9.796373287098219
 31
0.0
  0
LINE
  5
28F3
330
1E
100
AcDbEntity
  8
7
100
AcDbLine
 10
5.678862081147713
 20
0.4577403249307963
 30
0.0
 11
5.678862081147713
 21
0.1565893410101271
 31
0.0
  0
LINE
  5
28F4
330
1E
100
AcDbEntity
  8
7
100
AcDbLine
 10
6.298878812749087
 20
9.566081358217704
 30
0.0
 11
6.230972218335605
 21
9.566081358217704
 31
0.0
  0
LINE
  5
28F5
330
1E
100
AcDbEntity
  8
7
100
AcDbLine
 10
6.549837966016314
 20
9.607415806991131
 30
0.0
 11
6.549837966016314
 21
9.796373287098219
 31
0.0
  0
LINE
  5
28F6
330
1E
100
AcDbEntity
  8
7
100
AcDbLine
 10
7.025184126910701
 20
9.749133917071446
 30
0.0
 11
6.972039835630585
 21
9.749133917071446
 31
0.0
  0
LINE
  5
28F7
330
1E
100
AcDbEntity
  8
7
100
AcDbLine
 10
5.823532651854701
 20
9.814088050858256
 30
0.0
 11
5.85305725812143
 21
9.814088050858256
 31
0.0
  0
LINE
  5
28F8
330
1E
100
AcDbEntity
  8
7
100
AcDbLine
 10
5.823532651854701
 20
9.660560098271249
 30
0.0
 11
5.897344167521529
 21
9.660560098271249
 31
0.0
  0
LINE
  5
28F9
330
1E
100
AcDbEntity
  8
7
100
AcDbLine
 10
6.815559422416906
 20
9.566081358217704
 30
0.0
 11
6.753557749256765
 21
9.566081358217704
 31
0.0
  0
LINE
  5
28FA
330
1E
100
AcDbEntity
  8
7
100
AcDbLine
 10
6.242782060842299
 20
9.710751928924693
 30
0.0
 11
6.201447612068871
 21
9.796373287098219
 31
0.0
  0
LINE
  5
28FB
330
1E
100
AcDbEntity
  8
7
100
AcDbLine
 10
6.443549383456078
 20
9.737324074564753
 30
0.0
 11
6.443549383456078
 21
9.631035492004517
 31
0.0
  0
LINE
  5
28FC
330
1E
100
AcDbEntity
  8
7
100
AcDbLine
 10
5.823532651854701
 20
9.660560098271249
 30
0.0
 11
5.823532651854701
 21
9.566081358217704
 31
0.0
  0
LINE
  5
28FD
330
1E
100
AcDbEntity
  8
7
100
AcDbLine
 10
5.997727828828422
 20
9.648750255764557
 30
0.0
 11
6.024299974468479
 21
9.713704389551367
 31
0.0
  0
LINE
  5
28FE
330
1E
100
AcDbEntity
  8
7
100
AcDbLine
 10
6.239829600215624
 20
9.796373287098219
 30
0.0
 11
6.298878812749087
 21
9.796373287098219
 31
0.0
  0
LINE
  5
28FF
330
1E
100
AcDbEntity
  8
7
100
AcDbLine
 10
6.901180780590428
 20
9.566081358217704
 30
0.0
 11
6.901180780590428
 21
9.749133917071446
 31
0.0
  0
LINE
  5
2900
330
1E
100
AcDbEntity
  8
7
100
AcDbLine
 10
6.508503517242887
 20
9.755038838324793
 30
0.0
 11
6.508503517242887
 21
9.607415806991131
 31
0.0
  0
LINE
  5
2901
330
1E
100
AcDbEntity
  8
7
100
AcDbLine
 10
6.972039835630585
 20
9.566081358217704
 30
0.0
 11
6.972039835630585
 21
9.749133917071446
 31
0.0
  0
LINE
  5
2902
330
1E
100
AcDbEntity
  8
7
100
AcDbLine
 10
6.340213261522515
 20
9.796373287098219
 30
0.0
 11
6.467169068469464
 21
9.796373287098219
 31
0.0
  0
LINE
  5
2903
330
1E
100
AcDbEntity
  8
7
100
AcDbLine
 10
6.664983930456569
 20
9.796373287098219
 30
0.0
 11
6.712223300483342
 21
9.796373287098219
 31
0.0
  0
LINE
  5
2904
330
1E
100
AcDbEntity
  8
7
100
AcDbLine
 10
6.124683635775371
 20
9.645797795137882
 30
0.0
 11
6.124683635775371
 21
9.796373287098219
 31
0.0
  0
LINE
  5
2905
330
1E
100
AcDbEntity
  8
7
100
AcDbLine
 10
5.900296628148202
 20
9.569033818844378
 30
0.0
 11
5.944583537548301
 21
9.66941748015127
 31
0.0
  0
LINE
  5
2906
330
1E
100
AcDbEntity
  8
7
100
AcDbLine
 10
6.591172414789737
 20
9.566081358217704
 30
0.0
 11
6.670888851709916
 21
9.566081358217704
 31
0.0
  0
LINE
  5
2907
330
1E
100
AcDbEntity
  8
7
100
AcDbLine
 10
6.340213261522515
 20
9.566081358217704
 30
0.0
 11
6.340213261522515
 21
9.796373287098219
 31
0.0
  0
LINE
  5
2908
330
1E
100
AcDbEntity
  8
7
100
AcDbLine
 10
7.036993969417395
 20
0.1565893410101271
 30
0.0
 11
5.678862081147713
 21
0.1565893410101271
 31
0.0
  0
LINE
  5
2909
330
1E
100
AcDbEntity
  8
7
100
AcDbLine
 10
6.549837966016314
 20
9.796373287098219
 30
0.0
 11
6.626601942309816
 21
9.796373287098219
 31
0.0
  0
LINE
  5
290F
330
1E
100
AcDbEntity
  8
7
100
AcDbLine
 10
6.18963776956218
 20
9.66351255889792
 30
0.0
 11
6.230972218335605
 21
9.566081358217704
 31
0.0
  0
LINE
  5
2910
330
1E
100
AcDbEntity
  8
7
100
AcDbLine
 10
6.124683635775371
 20
9.796373287098219
 30
0.0
 11
6.201447612068871
 21
9.796373287098219
 31
0.0
  0
LINE
  5
2911
330
1E
100
AcDbEntity
  8
7
100
AcDbLine
 10
6.972039835630585
 20
9.566081358217704
 30
0.0
 11
6.901180780590428
 21
9.566081358217704
 31
0.0
  0
LINE
  5
2912
330
1E
100
AcDbEntity
  8
7
100
AcDbLine
 10
5.997727828828422
 20
9.648750255764557
 30
0.0
 11
6.024299974468479
 21
9.713704389551367
 31
0.0
  0
LINE
  5
2913
330
1E
100
AcDbEntity
  8
7
100
AcDbLine
 10
5.997727828828422
 20
9.648750255764557
 30
0.0
 11
6.053824580735212
 21
9.648750255764557
 31
0.0
  0
LINE
  5
2914
330
1E
100
AcDbEntity
  8
7
100
AcDbLine
 10
6.712223300483342
 20
9.796373287098219
 30
0.0
 11
6.712223300483342
 21
9.607415806991131
 31
0.0
  0
LINE
  5
2915
330
1E
100
AcDbEntity
  8
7
100
AcDbLine
 10
6.068586883868578
 20
9.598558425111113
 30
0.0
 11
6.086301647628616
 21
9.566081358217704
 31
0.0
  0
LINE
  5
2916
330
1E
100
AcDbEntity
  8
7
100
AcDbLine
 10
6.18963776956218
 20
9.566081358217704
 30
0.0
 11
6.18963776956218
 21
9.66351255889792
 31
0.0
  0
LINE
  5
2917
330
1E
100
AcDbEntity
  8
7
100
AcDbLine
 10
6.239829600215624
 20
9.710751928924693
 30
0.0
 11
6.239829600215624
 21
9.796373287098219
 31
0.0
  0
LINE
  5
2918
330
1E
100
AcDbEntity
  8
7
100
AcDbLine
 10
5.867819561254798
 20
9.722561771431387
 30
0.0
 11
5.867819561254798
 21
9.799325747724891
 31
0.0
  0
LINE
  5
2919
330
1E
100
AcDbEntity
  8
7
100
AcDbLine
 10
6.753557749256765
 20
9.566081358217704
 30
0.0
 11
6.753557749256765
 21
9.796373287098219
 31
0.0
  0
LINE
  5
291A
330
1E
100
AcDbEntity
  8
7
100
AcDbLine
 10
5.690671923654405
 20
9.867232342138377
 30
0.0
 11
5.897344167521529
 21
9.867232342138377
 31
0.0
  0
LINE
  5
291B
330
1E
100
AcDbEntity
  8
7
100
AcDbLine
 10
6.508503517242887
 20
9.755038838324793
 30
0.0
 11
6.508503517242887
 21
9.607415806991131
 31
0.0
  0
LINE
  5
291C
330
1E
100
AcDbEntity
  8
7
100
AcDbLine
 10
6.056777041361884
 20
9.796373287098219
 30
0.0
 11
6.124683635775371
 21
9.645797795137882
 31
0.0
  0
LINE
  5
291D
330
1E
100
AcDbEntity
  8
7
100
AcDbLine
 10
5.690671923654405
 20
9.867232342138377
 30
0.0
 11
5.897344167521529
 21
9.867232342138377
 31
0.0
  0
LINE
  5
291E
330
1E
100
AcDbEntity
  8
7
100
AcDbLine
 10
5.823532651854701
 20
9.660560098271249
 30
0.0
 11
5.823532651854701
 21
9.566081358217704
 31
0.0
  0
LINE
  5
291F
330
1E
100
AcDbEntity
  8
7
100
AcDbLine
 10
7.025184126910701
 20
9.749133917071446
 30
0.0
 11
7.025184126910701
 21
9.796373287098219
 31
0.0
  0
LINE
  5
2920
330
1E
100
AcDbEntity
  8
7
100
AcDbLine
 10
7.036993969417395
 20
0.4577403249307963
 30
0.0
 11
5.678862081147713
 21
0.4577403249307963
 31
0.0
  0
LINE
  5
2921
330
1E
100
AcDbEntity
  8
7
100
AcDbLine
 10
5.823532651854701
 20
9.707799468298022
 30
0.0
 11
5.85305725812143
 21
9.707799468298022
 31
0.0
  0
LINE
  5
2922
330
1E
100
AcDbEntity
  8
7
100
AcDbLine
 10
6.853941410563656
 20
9.749133917071446
 30
0.0
 11
6.901180780590428
 21
9.749133917071446
 31
0.0
  0
LINE
  5
2923
330
1E
100
AcDbEntity
  8
7
100
AcDbLine
 10
6.056777041361884
 20
9.796373287098219
 30
0.0
 11
6.124683635775371
 21
9.645797795137882
 31
0.0
  0
LINE
  5
2924
330
1E
100
AcDbEntity
  8
7
100
AcDbLine
 10
6.853941410563656
 20
9.796373287098219
 30
0.0
 11
7.025184126910701
 21
9.796373287098219
 31
0.0
  0
LINE
  5
2925
330
1E
100
AcDbEntity
  8
7
100
AcDbLine
 10
6.18963776956218
 20
9.566081358217704
 30
0.0
 11
6.18963776956218
 21
9.66351255889792
 31
0.0
  0
LINE
  5
2926
330
1E
100
AcDbEntity
  8
7
100
AcDbLine
 10
6.068586883868578
 20
9.598558425111113
 30
0.0
 11
6.086301647628616
 21
9.566081358217704
 31
0.0
  0
LINE
  5
2927
330
1E
100
AcDbEntity
  8
7
100
AcDbLine
 10
5.900296628148202
 20
9.569033818844378
 30
0.0
 11
5.944583537548301
 21
9.66941748015127
 31
0.0
  0
LINE
  5
2928
330
1E
100
AcDbEntity
  8
7
100
AcDbLine
 10
5.867819561254798
 20
9.722561771431387
 30
0.0
 11
5.867819561254798
 21
9.799325747724891
 31
0.0
  0
LINE
  5
2929
330
1E
100
AcDbEntity
  8
7
100
AcDbLine
 10
5.823532651854701
 20
9.707799468298022
 30
0.0
 11
5.823532651854701
 21
9.814088050858256
 31
0.0
  0
LINE
  5
292A
330
1E
100
AcDbEntity
  8
7
100
AcDbLine
 10
6.408119855935999
 20
9.619225649497824
 30
0.0
 11
6.431739540949386
 21
9.619225649497824
 31
0.0
  0
LINE
  5
292B
330
1E
100
AcDbEntity
  8
7
100
AcDbLine
 10
6.18963776956218
 20
9.566081358217704
 30
0.0
 11
6.086301647628616
 21
9.566081358217704
 31
0.0
  0
LINE
  5
292C
330
1E
100
AcDbEntity
  8
7
100
AcDbLine
 10
7.036993969417395
 20
0.1565893410101271
 30
0.0
 11
5.678862081147713
 21
0.1565893410101271
 31
0.0
  0
LINE
  5
292D
330
1E
100
AcDbEntity
  8
7
100
AcDbLine
 10
5.994775368201748
 20
9.796373287098219
 30
0.0
 11
6.056777041361884
 21
9.796373287098219
 31
0.0
  0
LINE
  5
292E
330
1E
100
AcDbEntity
  8
7
100
AcDbLine
 10
5.823532651854701
 20
9.566081358217704
 30
0.0
 11
5.690671923654405
 21
9.566081358217704
 31
0.0
  0
LINE
  5
292F
330
1E
100
AcDbEntity
  8
7
100
AcDbLine
 10
6.467169068469464
 20
9.566081358217704
 30
0.0
 11
6.340213261522515
 21
9.566081358217704
 31
0.0
  0
LINE
  5
2930
330
1E
100
AcDbEntity
  8
7
100
AcDbLine
 10
6.408119855935999
 20
9.749133917071446
 30
0.0
 11
6.431739540949386
 21
9.749133917071446
 31
0.0
  0
LINE
  5
2931
330
1E
100
AcDbEntity
  8
7
100
AcDbLine
 10
6.549837966016314
 20
9.796373287098219
 30
0.0
 11
6.626601942309816
 21
9.796373287098219
 31
0.0
  0
LINE
  5
2932
330
1E
100
AcDbEntity
  8
7
100
AcDbLine
 10
6.298878812749087
 20
9.796373287098219
 30
0.0
 11
6.298878812749087
 21
9.566081358217704
 31
0.0
  0
LINE
  5
2933
330
1E
100
AcDbEntity
  8
7
100
AcDbLine
 10
6.443549383456078
 20
9.737324074564753
 30
0.0
 11
6.443549383456078
 21
9.631035492004517
 31
0.0
  0
LINE
  5
2934
330
1E
100
AcDbEntity
  8
7
100
AcDbLine
 10
6.340213261522515
 20
9.566081358217704
 30
0.0
 11
6.340213261522515
 21
9.796373287098219
 31
0.0
  0
LINE
  5
2935
330
1E
100
AcDbEntity
  8
7
100
AcDbLine
 10
5.982965525695055
 20
9.598558425111113
 30
0.0
 11
6.068586883868578
 21
9.598558425111113
 31
0.0
  0
LINE
  5
2936
330
1E
100
AcDbEntity
  8
7
100
AcDbLine
 10
5.997727828828422
 20
9.648750255764557
 30
0.0
 11
6.053824580735212
 21
9.648750255764557
 31
0.0
  0
LINE
  5
2937
330
1E
100
AcDbEntity
  8
7
100
AcDbLine
 10
6.242782060842299
 20
9.710751928924693
 30
0.0
 11
6.201447612068871
 21
9.796373287098219
 31
0.0
  0
LINE
  5
2938
330
1E
100
AcDbEntity
  8
7
100
AcDbLine
 10
6.18963776956218
 20
9.66351255889792
 30
0.0
 11
6.230972218335605
 21
9.566081358217704
 31
0.0
  0
LINE
  5
2939
330
1E
100
AcDbEntity
  8
7
100
AcDbLine
 10
6.972039835630585
 20
9.566081358217704
 30
0.0
 11
6.901180780590428
 21
9.566081358217704
 31
0.0
  0
LINE
  5
293A
330
1E
100
AcDbEntity
  8
7
100
AcDbLine
 10
7.036993969417395
 20
0.4577403249307963
 30
0.0
 11
7.036993969417395
 21
0.1565893410101271
 31
0.0
  0
LINE
  5
293B
330
1E
100
AcDbEntity
  8
7
100
AcDbLine
 10
6.024299974468479
 20
9.713704389551367
 30
0.0
 11
6.053824580735212
 21
9.648750255764557
 31
0.0
  0
LINE
  5
2941
330
1E
100
AcDbEntity
  8
7
100
AcDbLine
 10
6.664983930456569
 20
9.796373287098219
 30
0.0
 11
6.712223300483342
 21
9.796373287098219
 31
0.0
  0
LINE
  5
2942
330
1E
100
AcDbEntity
  8
7
100
AcDbLine
 10
6.901180780590428
 20
9.566081358217704
 30
0.0
 11
6.901180780590428
 21
9.749133917071446
 31
0.0
  0
LINE
  5
2943
330
1E
100
AcDbEntity
  8
7
100
AcDbLine
 10
6.664983930456569
 20
9.631035492004517
 30
0.0
 11
6.664983930456569
 21
9.796373287098219
 31
0.0
  0
LINE
  5
2944
330
1E
100
AcDbEntity
  8
7
100
AcDbLine
 10
5.823532651854701
 20
9.707799468298022
 30
0.0
 11
5.823532651854701
 21
9.814088050858256
 31
0.0
  0
LINE
  5
2945
330
1E
100
AcDbEntity
  8
7
100
AcDbLine
 10
6.298878812749087
 20
9.566081358217704
 30
0.0
 11
6.230972218335605
 21
9.566081358217704
 31
0.0
  0
LINE
  5
2946
330
1E
100
AcDbEntity
  8
7
100
AcDbLine
 10
6.239829600215624
 20
9.710751928924693
 30
0.0
 11
6.239829600215624
 21
9.796373287098219
 31
0.0
  0
LINE
  5
2947
330
1E
100
AcDbEntity
  8
7
100
AcDbLine
 10
6.626601942309816
 20
9.796373287098219
 30
0.0
 11
6.626601942309816
 21
9.631035492004517
 31
0.0
  0
LINE
  5
2948
330
1E
100
AcDbEntity
  8
7
100
AcDbLine
 10
6.18963776956218
 20
9.566081358217704
 30
0.0
 11
6.086301647628616
 21
9.566081358217704
 31
0.0
  0
LINE
  5
2949
330
1E
100
AcDbEntity
  8
7
100
AcDbLine
 10
6.408119855935999
 20
9.619225649497824
 30
0.0
 11
6.408119855935999
 21
9.749133917071446
 31
0.0
  0
LINE
  5
294A
330
1E
100
AcDbEntity
  8
7
100
AcDbLine
 10
6.815559422416906
 20
9.566081358217704
 30
0.0
 11
6.815559422416906
 21
9.796373287098219
 31
0.0
  0
LINE
  5
294B
330
1E
100
AcDbEntity
  8
7
100
AcDbLine
 10
6.972039835630585
 20
9.566081358217704
 30
0.0
 11
6.972039835630585
 21
9.749133917071446
 31
0.0
  0
LINE
  5
294C
330
1E
100
AcDbEntity
  8
7
100
AcDbLine
 10
7.025184126910701
 20
9.749133917071446
 30
0.0
 11
7.025184126910701
 21
9.796373287098219
 31
0.0
  0
LINE
  5
294D
330
1E
100
AcDbEntity
  8
7
100
AcDbLine
 10
6.340213261522515
 20
9.796373287098219
 30
0.0
 11
6.467169068469464
 21
9.796373287098219
 31
0.0
  0
LINE
  5
294E
330
1E
100
AcDbEntity
  8
7
100
AcDbLine
 10
6.853941410563656
 20
9.796373287098219
 30
0.0
 11
6.853941410563656
 21
9.749133917071446
 31
0.0
  0
LINE
  5
294F
330
1E
100
AcDbEntity
  8
7
100
AcDbLine
 10
6.408119855935999
 20
9.749133917071446
 30
0.0
 11
6.431739540949386
 21
9.749133917071446
 31
0.0
  0
LINE
  5
2950
330
1E
100
AcDbEntity
  8
7
100
AcDbLine
 10
6.626601942309816
 20
9.796373287098219
 30
0.0
 11
6.626601942309816
 21
9.631035492004517
 31
0.0
  0
LINE
  5
2951
330
1E
100
AcDbEntity
  8
7
100
AcDbLine
 10
6.124683635775371
 20
9.645797795137882
 30
0.0
 11
6.124683635775371
 21
9.796373287098219
 31
0.0
  0
LINE
  5
2952
330
1E
100
AcDbEntity
  8
7
100
AcDbLine
 10
5.690671923654405
 20
9.566081358217704
 30
0.0
 11
5.690671923654405
 21
9.867232342138377
 31
0.0
  0
LINE
  5
2953
330
1E
100
AcDbEntity
  8
7
100
AcDbLine
 10
5.968203222561687
 20
9.566081358217704
 30
0.0
 11
5.982965525695055
 21
9.598558425111113
 31
0.0
  0
LINE
  5
2954
330
1E
100
AcDbEntity
  8
7
100
AcDbLine
 10
7.025184126910701
 20
9.749133917071446
 30
0.0
 11
6.972039835630585
 21
9.749133917071446
 31
0.0
  0
LINE
  5
2955
330
1E
100
AcDbEntity
  8
7
100
AcDbLine
 10
6.853941410563656
 20
9.796373287098219
 30
0.0
 11
6.853941410563656
 21
9.749133917071446
 31
0.0
  0
LINE
  5
2956
330
1E
100
AcDbEntity
  8
7
100
AcDbLine
 10
6.549837966016314
 20
9.607415806991131
 30
0.0
 11
6.549837966016314
 21
9.796373287098219
 31
0.0
  0
LINE
  5
2957
330
1E
100
AcDbEntity
  8
7
100
AcDbLine
 10
6.408119855935999
 20
9.619225649497824
 30
0.0
 11
6.408119855935999
 21
9.749133917071446
 31
0.0
  0
LINE
  5
2958
330
1E
100
AcDbEntity
  8
7
100
AcDbLine
 10
5.994775368201748
 20
9.796373287098219
 30
0.0
 11
6.056777041361884
 21
9.796373287098219
 31
0.0
  0
LINE
  5
2959
330
1E
100
AcDbEntity
  8
7
100
AcDbLine
 10
6.853941410563656
 20
9.796373287098219
 30
0.0
 11
7.025184126910701
 21
9.796373287098219
 31
0.0
  0
LINE
  5
295A
330
1E
100
AcDbEntity
  8
7
100
AcDbLine
 10
5.982965525695055
 20
9.598558425111113
 30
0.0
 11
6.068586883868578
 21
9.598558425111113
 31
0.0
  0
LINE
  5
295B
330
1E
100
AcDbEntity
  8
7
100
AcDbLine
 10
6.124683635775371
 20
9.796373287098219
 30
0.0
 11
6.201447612068871
 21
9.796373287098219
 31
0.0
  0
LINE
  5
295C
330
1E
100
AcDbEntity
  8
7
100
AcDbLine
 10
5.823532651854701
 20
9.660560098271249
 30
0.0
 11
5.897344167521529
 21
9.660560098271249
 31
0.0
  0
LINE
  5
295D
330
1E
100
AcDbEntity
  8
7
100
AcDbLine
 10
6.853941410563656
 20
9.749133917071446
 30
0.0
 11
6.901180780590428
 21
9.749133917071446
 31
0.0
  0
LINE
  5
295E
330
1E
100
AcDbEntity
  8
7
100
AcDbLine
 10
6.408119855935999
 20
9.619225649497824
 30
0.0
 11
6.431739540949386
 21
9.619225649497824
 31
0.0
  0
LINE
  5
295F
330
1E
100
AcDbEntity
  8
7
100
AcDbLine
 10
6.298878812749087
 20
9.796373287098219
 30
0.0
 11
6.298878812749087
 21
9.566081358217704
 31
0.0
  0
LINE
  5
2960
330
1E
100
AcDbEntity
  8
7
100
AcDbLine
 10
5.968203222561687
 20
9.566081358217704
 30
0.0
 11
5.903249088774877
 21
9.566081358217704
 31
0.0
  0
LINE
  5
2961
330
1E
100
AcDbEntity
  8
7
100
AcDbLine
 10
6.712223300483342
 20
9.796373287098219
 30
0.0
 11
6.712223300483342
 21
9.607415806991131
 31
0.0
  0
LINE
  5
2962
330
1E
100
AcDbEntity
  8
7
100
AcDbLine
 10
6.753557749256765
 20
9.796373287098219
 30
0.0
 11
6.815559422416906
 21
9.796373287098219
 31
0.0
  0
LINE
  5
2963
330
1E
100
AcDbEntity
  8
7
100
AcDbLine
 10
5.968203222561687
 20
9.566081358217704
 30
0.0
 11
5.903249088774877
 21
9.566081358217704
 31
0.0
  0
LINE
  5
2973
330
1E
100
AcDbEntity
  8
7
100
AcDbLine
 10
6.505551056616215
 20
9.755038838324793
 30
0.0
 11
6.493741214109522
 21
9.781610983964851
 31
0.0
  0
LINE
  5
2974
330
1E
100
AcDbEntity
  8
7
100
AcDbLine
 10
6.493741214109522
 20
9.781610983964851
 30
0.0
 11
6.467169068469464
 21
9.793420826471544
 31
0.0
  0
LINE
  5
29EF
330
1E
100
AcDbEntity
  8
7
100
AcDbLine
 10
5.336376648453619
 20
10.02666521597872
 30
0.0
 11
5.336376648453619
 21
0.0266810734365048
 31
0.0
  0
LINE
  5
29F6
330
1E
100
AcDbEntity
  8
7
100
AcDbLine
 10
5.427902927880488
 20
10.02666521597872
 30
0.0
 11
5.427902927880488
 21
0.0266810734365048
 31
0.0
  0
LINE
  5
29F7
330
1E
100
AcDbEntity
  8
7
100
AcDbLine
 10
7.287953122684621
 20
0.0266810734365048
 30
0.0
 11
5.427902927880488
 21
0.0266810734365048
 31
0.0
  0
LINE
  5
29F8
330
1E
100
AcDbEntity
  8
7
100
AcDbLine
 10
7.172807158244365
 20
4.526231068486505
 30
0.0
 11
7.181664540124385
 21
4.526231068486505
 31
0.0
  0
LINE
  5
29F9
330
1E
100
AcDbEntity
  8
7
100
AcDbLine
 10
7.172807158244365
 20
4.526231068486505
 30
0.0
 11
7.172807158244365
 21
3.70839947489802
 31
0.0
  0
LINE
  5
29FA
330
1E
100
AcDbEntity
  8
7
100
AcDbLine
 10
7.181664540124385
 20
3.696589632391328
 30
0.0
 11
7.172807158244365
 21
3.70839947489802
 31
0.0
  0
LINE
  5
29FB
330
1E
100
AcDbEntity
  8
7
100
AcDbLine
 10
7.181664540124385
 20
4.526231068486505
 30
0.0
 11
7.181664540124385
 21
3.696589632391328
 31
0.0
  0
LINE
  5
29FC
330
1E
100
AcDbEntity
  8
7
100
AcDbLine
 10
6.58231503290972
 20
6.291802523237094
 30
0.0
 11
5.935726155668281
 21
6.291802523237094
 31
0.0
  0
LINE
  5
29FD
330
1E
100
AcDbEntity
  8
7
100
AcDbLine
 10
6.58231503290972
 20
3.76154376617814
 30
0.0
 11
5.935726155668281
 21
3.76154376617814
 31
0.0
  0
LINE
  5
29FE
330
1E
100
AcDbEntity
  8
7
100
AcDbLine
 10
7.169854697617693
 20
4.526231068486505
 30
0.0
 11
7.169854697617693
 21
5.527115220928728
 31
0.0
  0
LINE
  5
29FF
330
1E
100
AcDbEntity
  8
7
100
AcDbLine
 10
5.935726155668281
 20
4.343178509632764
 30
0.0
 11
5.935726155668281
 21
3.76154376617814
 31
0.0
  0
LINE
  5
2A00
330
1E
100
AcDbEntity
  8
7
100
AcDbLine
 10
5.935726155668281
 20
4.992719847500875
 30
0.0
 11
5.935726155668281
 21
4.411085104046248
 31
0.0
  0
LINE
  5
2A01
330
1E
100
AcDbEntity
  8
7
100
AcDbLine
 10
6.58231503290972
 20
4.343178509632764
 30
0.0
 11
5.935726155668281
 21
4.343178509632764
 31
0.0
  0
LINE
  5
2A02
330
1E
100
AcDbEntity
  8
7
100
AcDbLine
 10
6.58231503290972
 20
4.343178509632764
 30
0.0
 11
6.58231503290972
 21
3.76154376617814
 31
0.0
  0
LINE
  5
2A03
330
1E
100
AcDbEntity
  8
7
100
AcDbLine
 10
6.58231503290972
 20
4.992719847500875
 30
0.0
 11
5.935726155668281
 21
4.992719847500875
 31
0.0
  0
LINE
  5
2A09
330
1E
100
AcDbEntity
  8
7
100
AcDbLine
 10
5.935726155668281
 20
5.642261185368985
 30
0.0
 11
5.935726155668281
 21
5.063578902541033
 31
0.0
  0
LINE
  5
2A0A
330
1E
100
AcDbEntity
  8
7
100
AcDbLine
 10
6.58231503290972
 20
5.063578902541033
 30
0.0
 11
5.935726155668281
 21
5.063578902541033
 31
0.0
  0
LINE
  5
2A0B
330
1E
100
AcDbEntity
  8
7
100
AcDbLine
 10
6.58231503290972
 20
5.642261185368985
 30
0.0
 11
6.58231503290972
 21
5.063578902541033
 31
0.0
  0
LINE
  5
2A0C
330
1E
100
AcDbEntity
  8
7
100
AcDbLine
 10
6.58231503290972
 20
5.642261185368985
 30
0.0
 11
5.935726155668281
 21
5.642261185368985
 31
0.0
  0
LINE
  5
2A0D
330
1E
100
AcDbEntity
  8
7
100
AcDbLine
 10
5.935726155668281
 20
6.291802523237094
 30
0.0
 11
5.935726155668281
 21
5.713120240409143
 31
0.0
  0
LINE
  5
2A0E
330
1E
100
AcDbEntity
  8
7
100
AcDbLine
 10
6.58231503290972
 20
5.713120240409143
 30
0.0
 11
5.935726155668281
 21
5.713120240409143
 31
0.0
  0
LINE
  5
2A0F
330
1E
100
AcDbEntity
  8
7
100
AcDbLine
 10
6.58231503290972
 20
6.291802523237094
 30
0.0
 11
6.58231503290972
 21
5.713120240409143
 31
0.0
  0
LINE
  5
2A10
330
1E
100
AcDbEntity
  8
7
100
AcDbLine
 10
7.181664540124385
 20
5.527115220928728
 30
0.0
 11
7.172807158244365
 21
5.527115220928728
 31
0.0
  0
LINE
  5
2A11
330
1E
100
AcDbEntity
  8
7
100
AcDbLine
 10
7.181664540124385
 20
6.356756657023907
 30
0.0
 11
7.181664540124385
 21
5.527115220928728
 31
0.0
  0
LINE
  5
2A17
330
1E
100
AcDbEntity
  8
7
100
AcDbLine
 10
7.172807158244365
 20
4.526231068486505
 30
0.0
 11
7.169854697617693
 21
4.526231068486505
 31
0.0
  0
LINE
  5
2A18
330
1E
100
AcDbEntity
  8
7
100
AcDbLine
 10
7.169854697617693
 20
5.527115220928728
 30
0.0
 11
7.172807158244365
 21
5.527115220928728
 31
0.0
  0
LINE
  5
2A3A
330
1E
100
AcDbEntity
  8
7
100
AcDbLine
 10
7.051756272550763
 20
6.465997700210815
 30
0.0
 11
7.060613654430781
 21
6.477807542717508
 31
0.0
  0
LINE
  5
2A54
330
1E
100
AcDbEntity
  8
7
100
AcDbLine
 10
5.486952140413952
 20
3.70839947489802
 30
0.0
 11
5.478094758533933
 21
3.696589632391328
 31
0.0
  0
LINE
  5
2A55
330
1E
100
AcDbEntity
  8
7
100
AcDbLine
 10
5.60505056548088
 20
6.347899275143886
 30
0.0
 11
5.60505056548088
 21
3.70839947489802
 31
0.0
  0
LINE
  5
2A62
330
1E
100
AcDbEntity
  8
7
100
AcDbLine
 10
5.478094758533933
 20
3.696589632391328
 30
0.0
 11
5.486952140413952
 21
3.652302722991229
 31
0.0
  0
LINE
  5
2A78
330
1E
100
AcDbEntity
  8
7
100
AcDbLine
 10
5.501714443547316
 20
6.40694848767735
 30
0.0
 11
5.486952140413952
 21
6.347899275143886
 31
0.0
  0
LINE
  5
2A79
330
1E
100
AcDbEntity
  8
7
100
AcDbLine
 10
5.596193183600862
 20
6.477807542717508
 30
0.0
 11
5.60505056548088
 21
6.465997700210815
 31
0.0
  0
LINE
  5
2A88
330
1E
100
AcDbEntity
  8
7
100
AcDbLine
 10
7.051756272550763
 20
6.465997700210815
 30
0.0
 11
5.60505056548088
 21
6.465997700210815
 31
0.0
  0
LINE
  5
2A89
330
1E
100
AcDbEntity
  8
7
100
AcDbLine
 10
5.596193183600862
 20
6.477807542717508
 30
0.0
 11
7.060613654430781
 21
6.477807542717508
 31
0.0
  0
LINE
  5
2A8A
330
1E
100
AcDbEntity
  8
7
100
AcDbLine
 10
7.051756272550763
 20
3.587348589204419
 30
0.0
 11
5.60505056548088
 21
3.587348589204419
 31
0.0
  0
LINE
  5
2A8B
330
1E
100
AcDbEntity
  8
7
100
AcDbLine
 10
5.60505056548088
 20
3.70839947489802
 30
0.0
 11
7.051756272550763
 21
3.70839947489802
 31
0.0
  0
LINE
  5
2A8C
330
1E
100
AcDbEntity
  8
7
100
AcDbLine
 10
5.596193183600862
 20
3.578491207324399
 30
0.0
 11
7.060613654430781
 21
3.578491207324399
 31
0.0
  0
LINE
  5
2A8D
330
1E
100
AcDbEntity
  8
7
100
AcDbLine
 10
7.279095740804601
 20
5.214154394501368
 30
0.0
 11
7.279095740804601
 21
4.84214435554054
 31
0.0
  0
LINE
  5
2A8E
330
1E
100
AcDbEntity
  8
7
100
AcDbLine
 10
7.169854697617693
 20
5.225964237008062
 30
0.0
 11
7.279095740804601
 21
5.214154394501368
 31
0.0
  0
LINE
  5
2A8F
330
1E
100
AcDbEntity
  8
7
100
AcDbLine
 10
7.169854697617693
 20
4.830334513033847
 30
0.0
 11
7.279095740804601
 21
4.84214435554054
 31
0.0
  0
LINE
  5
2A90
330
1E
100
AcDbEntity
  8
7
100
AcDbLine
 10
7.172807158244365
 20
7.446214628266328
 30
0.0
 11
7.181664540124385
 21
7.446214628266328
 31
0.0
  0
LINE
  5
2A91
330
1E
100
AcDbEntity
  8
7
100
AcDbLine
 10
7.172807158244365
 20
7.446214628266328
 30
0.0
 11
7.172807158244365
 21
6.62543057405117
 31
0.0
  0
LINE
  5
2A92
330
1E
100
AcDbEntity
  8
7
100
AcDbLine
 10
7.181664540124385
 20
6.616573192171149
 30
0.0
 11
7.172807158244365
 21
6.62543057405117
 31
0.0
  0
LINE
  5
2A93
330
1E
100
AcDbEntity
  8
7
100
AcDbLine
 10
7.181664540124385
 20
7.446214628266328
 30
0.0
 11
7.181664540124385
 21
6.616573192171149
 31
0.0
  0
LINE
  5
2A94
330
1E
100
AcDbEntity
  8
7
100
AcDbLine
 10
6.58231503290972
 20
9.211786083016917
 30
0.0
 11
5.935726155668281
 21
9.211786083016917
 31
0.0
  0
LINE
  5
2A95
330
1E
100
AcDbEntity
  8
7
100
AcDbLine
 10
6.58231503290972
 20
6.681527325957962
 30
0.0
 11
5.935726155668281
 21
6.681527325957962
 31
0.0
  0
LINE
  5
2A96
330
1E
100
AcDbEntity
  8
7
100
AcDbLine
 10
7.169854697617693
 20
7.446214628266328
 30
0.0
 11
7.169854697617693
 21
8.447098780708552
 31
0.0
  0
LINE
  5
2A97
330
1E
100
AcDbEntity
  8
7
100
AcDbLine
 10
5.935726155668281
 20
7.263162069412587
 30
0.0
 11
5.935726155668281
 21
6.681527325957962
 31
0.0
  0
LINE
  5
2A98
330
1E
100
AcDbEntity
  8
7
100
AcDbLine
 10
5.935726155668281
 20
7.912703407280699
 30
0.0
 11
5.935726155668281
 21
7.331068663826071
 31
0.0
  0
LINE
  5
2A99
330
1E
100
AcDbEntity
  8
7
100
AcDbLine
 10
6.58231503290972
 20
7.263162069412587
 30
0.0
 11
5.935726155668281
 21
7.263162069412587
 31
0.0
  0
LINE
  5
2A9A
330
1E
100
AcDbEntity
  8
7
100
AcDbLine
 10
6.58231503290972
 20
7.263162069412587
 30
0.0
 11
6.58231503290972
 21
6.681527325957962
 31
0.0
  0
LINE
  5
2A9B
330
1E
100
AcDbEntity
  8
7
100
AcDbLine
 10
6.58231503290972
 20
7.912703407280699
 30
0.0
 11
5.935726155668281
 21
7.912703407280699
 31
0.0
  0
LINE
  5
2AA1
330
1E
100
AcDbEntity
  8
7
100
AcDbLine
 10
5.935726155668281
 20
8.562244745148808
 30
0.0
 11
5.935726155668281
 21
7.980610001694183
 31
0.0
  0
LINE
  5
2AA2
330
1E
100
AcDbEntity
  8
7
100
AcDbLine
 10
6.58231503290972
 20
7.980610001694183
 30
0.0
 11
5.935726155668281
 21
7.980610001694183
 31
0.0
  0
LINE
  5
2AA3
330
1E
100
AcDbEntity
  8
7
100
AcDbLine
 10
6.58231503290972
 20
8.562244745148808
 30
0.0
 11
6.58231503290972
 21
7.980610001694183
 31
0.0
  0
LINE
  5
2AA4
330
1E
100
AcDbEntity
  8
7
100
AcDbLine
 10
6.58231503290972
 20
8.562244745148808
 30
0.0
 11
5.935726155668281
 21
8.562244745148808
 31
0.0
  0
LINE
  5
2AA5
330
1E
100
AcDbEntity
  8
7
100
AcDbLine
 10
5.935726155668281
 20
9.211786083016917
 30
0.0
 11
5.935726155668281
 21
8.633103800188964
 31
0.0
  0
LINE
  5
2AA6
330
1E
100
AcDbEntity
  8
7
100
AcDbLine
 10
6.58231503290972
 20
8.633103800188964
 30
0.0
 11
5.935726155668281
 21
8.633103800188964
 31
0.0
  0
LINE
  5
2AA7
330
1E
100
AcDbEntity
  8
7
100
AcDbLine
 10
6.58231503290972
 20
9.211786083016917
 30
0.0
 11
6.58231503290972
 21
8.633103800188964
 31
0.0
  0
LINE
  5
2AA8
330
1E
100
AcDbEntity
  8
7
100
AcDbLine
 10
7.181664540124385
 20
8.447098780708552
 30
0.0
 11
7.172807158244365
 21
8.447098780708552
 31
0.0
  0
LINE
  5
2AA9
330
1E
100
AcDbEntity
  8
7
100
AcDbLine
 10
7.181664540124385
 20
9.27674021680373
 30
0.0
 11
7.181664540124385
 21
8.447098780708552
 31
0.0
  0
LINE
  5
2AAF
330
1E
100
AcDbEntity
  8
7
100
AcDbLine
 10
7.172807158244365
 20
7.446214628266328
 30
0.0
 11
7.169854697617693
 21
7.446214628266328
 31
0.0
  0
LINE
  5
2AB0
330
1E
100
AcDbEntity
  8
7
100
AcDbLine
 10
7.169854697617693
 20
8.447098780708552
 30
0.0
 11
7.172807158244365
 21
8.447098780708552
 31
0.0
  0
LINE
  5
2AD2
330
1E
100
AcDbEntity
  8
7
100
AcDbLine
 10
7.051756272550763
 20
9.385981259990639
 30
0.0
 11
7.060613654430781
 21
9.397791102497333
 31
0.0
  0
LINE
  5
2AEC
330
1E
100
AcDbEntity
  8
7
100
AcDbLine
 10
5.486952140413952
 20
6.62543057405117
 30
0.0
 11
5.478094758533933
 21
6.616573192171149
 31
0.0
  0
LINE
  5
2AED
330
1E
100
AcDbEntity
  8
7
100
AcDbLine
 10
5.60505056548088
 20
9.267882834923709
 30
0.0
 11
5.60505056548088
 21
6.62543057405117
 31
0.0
  0
LINE
  5
2B0B
330
1E
100
AcDbEntity
  8
7
100
AcDbLine
 10
5.60505056548088
 20
9.385981259990639
 30
0.0
 11
5.546001352947415
 21
9.371218956857273
 31
0.0
  0
LINE
  5
2B11
330
1E
100
AcDbEntity
  8
7
100
AcDbLine
 10
5.596193183600862
 20
9.397791102497333
 30
0.0
 11
5.60505056548088
 21
9.385981259990639
 31
0.0
  0
LINE
  5
2B20
330
1E
100
AcDbEntity
  8
7
100
AcDbLine
 10
7.051756272550763
 20
9.385981259990639
 30
0.0
 11
5.60505056548088
 21
9.385981259990639
 31
0.0
  0
LINE
  5
2B21
330
1E
100
AcDbEntity
  8
7
100
AcDbLine
 10
5.596193183600862
 20
9.397791102497333
 30
0.0
 11
7.060613654430781
 21
9.397791102497333
 31
0.0
  0
LINE
  5
2B22
330
1E
100
AcDbEntity
  8
7
100
AcDbLine
 10
7.051756272550763
 20
6.507332148984241
 30
0.0
 11
5.60505056548088
 21
6.507332148984241
 31
0.0
  0
LINE
  5
2B23
330
1E
100
AcDbEntity
  8
7
100
AcDbLine
 10
5.60505056548088
 20
6.62543057405117
 30
0.0
 11
7.051756272550763
 21
6.62543057405117
 31
0.0
  0
LINE
  5
2B24
330
1E
100
AcDbEntity
  8
7
100
AcDbLine
 10
5.596193183600862
 20
6.495522306477548
 30
0.0
 11
7.060613654430781
 21
6.495522306477548
 31
0.0
  0
LINE
  5
2B25
330
1E
100
AcDbEntity
  8
7
100
AcDbLine
 10
7.279095740804601
 20
8.134137954281191
 30
0.0
 11
7.279095740804601
 21
7.762127915320363
 31
0.0
  0
LINE
  5
2B26
330
1E
100
AcDbEntity
  8
7
100
AcDbLine
 10
7.169854697617693
 20
8.142995336161209
 30
0.0
 11
7.279095740804601
 21
8.134137954281191
 31
0.0
  0
LINE
  5
2B27
330
1E
100
AcDbEntity
  8
7
100
AcDbLine
 10
7.169854697617693
 20
7.750318072813671
 30
0.0
 11
7.279095740804601
 21
7.762127915320363
 31
0.0
  0
LINE
  5
2B28
330
1E
100
AcDbEntity
  8
7
100
AcDbLine
 10
7.172807158244365
 20
1.606247508706681
 30
0.0
 11
7.181664540124385
 21
1.606247508706681
 31
0.0
  0
LINE
  5
2B29
330
1E
100
AcDbEntity
  8
7
100
AcDbLine
 10
7.172807158244365
 20
1.606247508706681
 30
0.0
 11
7.172807158244365
 21
0.7884159151181987
 31
0.0
  0
LINE
  5
2B2A
330
1E
100
AcDbEntity
  8
7
100
AcDbLine
 10
7.181664540124385
 20
0.7766060726115054
 30
0.0
 11
7.172807158244365
 21
0.7884159151181987
 31
0.0
  0
LINE
  5
2B2B
330
1E
100
AcDbEntity
  8
7
100
AcDbLine
 10
7.181664540124385
 20
1.606247508706681
 30
0.0
 11
7.181664540124385
 21
0.7766060726115054
 31
0.0
  0
LINE
  5
2B2C
330
1E
100
AcDbEntity
  8
7
100
AcDbLine
 10
6.58231503290972
 20
3.371818963457272
 30
0.0
 11
5.935726155668281
 21
3.371818963457272
 31
0.0
  0
LINE
  5
2B2D
330
1E
100
AcDbEntity
  8
7
100
AcDbLine
 10
6.58231503290972
 20
0.8415602063983156
 30
0.0
 11
5.935726155668281
 21
0.8415602063983156
 31
0.0
  0
LINE
  5
2B2E
330
1E
100
AcDbEntity
  8
7
100
AcDbLine
 10
7.169854697617693
 20
1.606247508706681
 30
0.0
 11
7.169854697617693
 21
2.607131661148906
 31
0.0
  0
LINE
  5
2B2F
330
1E
100
AcDbEntity
  8
7
100
AcDbLine
 10
5.935726155668281
 20
1.423194949852941
 30
0.0
 11
5.935726155668281
 21
0.8415602063983156
 31
0.0
  0
LINE
  5
2B30
330
1E
100
AcDbEntity
  8
7
100
AcDbLine
 10
5.935726155668281
 20
2.072736287721052
 30
0.0
 11
5.935726155668281
 21
1.491101544266426
 31
0.0
  0
LINE
  5
2B31
330
1E
100
AcDbEntity
  8
7
100
AcDbLine
 10
6.58231503290972
 20
1.423194949852941
 30
0.0
 11
5.935726155668281
 21
1.423194949852941
 31
0.0
  0
LINE
  5
2B32
330
1E
100
AcDbEntity
  8
7
100
AcDbLine
 10
6.58231503290972
 20
1.423194949852941
 30
0.0
 11
6.58231503290972
 21
0.8415602063983156
 31
0.0
  0
LINE
  5
2B33
330
1E
100
AcDbEntity
  8
7
100
AcDbLine
 10
6.58231503290972
 20
2.072736287721052
 30
0.0
 11
5.935726155668281
 21
2.072736287721052
 31
0.0
  0
LINE
  5
2B39
330
1E
100
AcDbEntity
  8
7
100
AcDbLine
 10
5.935726155668281
 20
2.722277625589162
 30
0.0
 11
5.935726155668281
 21
2.143595342761209
 31
0.0
  0
LINE
  5
2B3A
330
1E
100
AcDbEntity
  8
7
100
AcDbLine
 10
6.58231503290972
 20
2.143595342761209
 30
0.0
 11
5.935726155668281
 21
2.143595342761209
 31
0.0
  0
LINE
  5
2B3B
330
1E
100
AcDbEntity
  8
7
100
AcDbLine
 10
6.58231503290972
 20
2.722277625589162
 30
0.0
 11
6.58231503290972
 21
2.143595342761209
 31
0.0
  0
LINE
  5
2B3C
330
1E
100
AcDbEntity
  8
7
100
AcDbLine
 10
6.58231503290972
 20
2.722277625589162
 30
0.0
 11
5.935726155668281
 21
2.722277625589162
 31
0.0
  0
LINE
  5
2B3D
330
1E
100
AcDbEntity
  8
7
100
AcDbLine
 10
5.935726155668281
 20
3.371818963457272
 30
0.0
 11
5.935726155668281
 21
2.79313668062932
 31
0.0
  0
LINE
  5
2B3E
330
1E
100
AcDbEntity
  8
7
100
AcDbLine
 10
6.58231503290972
 20
2.79313668062932
 30
0.0
 11
5.935726155668281
 21
2.79313668062932
 31
0.0
  0
LINE
  5
2B3F
330
1E
100
AcDbEntity
  8
7
100
AcDbLine
 10
6.58231503290972
 20
3.371818963457272
 30
0.0
 11
6.58231503290972
 21
2.79313668062932
 31
0.0
  0
LINE
  5
2B40
330
1E
100
AcDbEntity
  8
7
100
AcDbLine
 10
7.181664540124385
 20
2.610084121775579
 30
0.0
 11
7.172807158244365
 21
2.607131661148906
 31
0.0
  0
LINE
  5
2B41
330
1E
100
AcDbEntity
  8
7
100
AcDbLine
 10
7.181664540124385
 20
3.436773097244083
 30
0.0
 11
7.181664540124385
 21
2.610084121775579
 31
0.0
  0
LINE
  5
2B47
330
1E
100
AcDbEntity
  8
7
100
AcDbLine
 10
7.172807158244365
 20
1.606247508706681
 30
0.0
 11
7.169854697617693
 21
1.606247508706681
 31
0.0
  0
LINE
  5
2B48
330
1E
100
AcDbEntity
  8
7
100
AcDbLine
 10
7.169854697617693
 20
2.607131661148906
 30
0.0
 11
7.172807158244365
 21
2.607131661148906
 31
0.0
  0
LINE
  5
2B56
330
1E
100
AcDbEntity
  8
7
100
AcDbLine
 10
7.051756272550763
 20
0.6673650294245955
 30
0.0
 11
7.060613654430781
 21
0.6585076475445764
 31
0.0
  0
LINE
  5
2B6A
330
1E
100
AcDbEntity
  8
7
100
AcDbLine
 10
7.051756272550763
 20
3.546014140430992
 30
0.0
 11
7.060613654430781
 21
3.557823982937685
 31
0.0
  0
LINE
  5
2B84
330
1E
100
AcDbEntity
  8
7
100
AcDbLine
 10
5.486952140413952
 20
0.7884159151181987
 30
0.0
 11
5.478094758533933
 21
0.7766060726115054
 31
0.0
  0
LINE
  5
2B85
330
1E
100
AcDbEntity
  8
7
100
AcDbLine
 10
5.60505056548088
 20
3.427915715364064
 30
0.0
 11
5.60505056548088
 21
0.7884159151181987
 31
0.0
  0
LINE
  5
2B8C
330
1E
100
AcDbEntity
  8
7
100
AcDbLine
 10
5.486952140413952
 20
0.7884159151181987
 30
0.0
 11
5.504666904173991
 21
0.7884159151181987
 31
0.0
  0
LINE
  5
2BA9
330
1E
100
AcDbEntity
  8
7
100
AcDbLine
 10
5.596193183600862
 20
3.557823982937685
 30
0.0
 11
5.60505056548088
 21
3.546014140430992
 31
0.0
  0
LINE
  5
2BBB
330
1E
100
AcDbEntity
  8
7
100
AcDbLine
 10
7.051756272550763
 20
3.546014140430992
 30
0.0
 11
5.60505056548088
 21
3.546014140430992
 31
0.0
  0
LINE
  5
2BBC
330
1E
100
AcDbEntity
  8
7
100
AcDbLine
 10
5.596193183600862
 20
3.557823982937685
 30
0.0
 11
7.060613654430781
 21
3.557823982937685
 31
0.0
  0
LINE
  5
2BBD
330
1E
100
AcDbEntity
  8
7
100
AcDbLine
 10
7.051756272550763
 20
0.6673650294245955
 30
0.0
 11
5.60505056548088
 21
0.6673650294245955
 31
0.0
  0
LINE
  5
2BBE
330
1E
100
AcDbEntity
  8
7
100
AcDbLine
 10
5.60505056548088
 20
0.7884159151181987
 30
0.0
 11
7.051756272550763
 21
0.7884159151181987
 31
0.0
  0
LINE
  5
2BBF
330
1E
100
AcDbEntity
  8
7
100
AcDbLine
 10
5.596193183600862
 20
0.6585076475445764
 30
0.0
 11
7.060613654430781
 21
0.6585076475445764
 31
0.0
  0
LINE
  5
2BC0
330
1E
100
AcDbEntity
  8
7
100
AcDbLine
 10
7.279095740804601
 20
2.294170834721544
 30
0.0
 11
7.279095740804601
 21
1.922160795760717
 31
0.0
  0
LINE
  5
2BC1
330
1E
100
AcDbEntity
  8
7
100
AcDbLine
 10
7.169854697617693
 20
2.305980677228237
 30
0.0
 11
7.279095740804601
 21
2.294170834721544
 31
0.0
  0
LINE
  5
2BC2
330
1E
100
AcDbEntity
  8
7
100
AcDbLine
 10
7.169854697617693
 20
1.910350953254024
 30
0.0
 11
7.279095740804601
 21
1.922160795760717
 31
0.0
  0
LINE
  5
2BC3
330
1E
100
AcDbEntity
  8
7
100
AcDbLine
 10
2.363248797393676
 20
9.631035492004517
 30
0.0
 11
2.363248797393676
 21
9.796373287098219
 31
0.0
  0
LINE
  5
2BC4
330
1E
100
AcDbEntity
  8
7
100
AcDbLine
 10
2.363248797393676
 20
9.566081358217704
 30
0.0
 11
2.363248797393676
 21
9.867232342138377
 31
0.0
  0
LINE
  5
2BC5
330
1E
100
AcDbEntity
  8
7
100
AcDbLine
 10
2.363248797393676
 20
9.713704389551367
 30
0.0
 11
2.363248797393676
 21
9.648750255764557
 31
0.0
  0
LINE
  5
2BC6
330
1E
100
AcDbEntity
  8
7
100
AcDbLine
 10
2.363248797393676
 20
9.566081358217704
 30
0.0
 11
2.363248797393676
 21
9.796373287098219
 31
0.0
  0
LINE
  5
2BC7
330
1E
100
AcDbEntity
  8
7
100
AcDbLine
 10
2.363248797393676
 20
9.566081358217704
 30
0.0
 11
2.363248797393676
 21
9.598558425111113
 31
0.0
  0
LINE
  5
2BC8
330
1E
100
AcDbEntity
  8
7
100
AcDbLine
 10
2.363248797393676
 20
0.4577403249307963
 30
0.0
 11
2.363248797393676
 21
0.1565893410101271
 31
0.0
  0
LINE
  5
2BC9
330
1E
100
AcDbEntity
  8
7
100
AcDbLine
 10
2.363248797393676
 20
9.607415806991131
 30
0.0
 11
2.363248797393676
 21
9.796373287098219
 31
0.0
  0
LINE
  5
2BCA
330
1E
100
AcDbEntity
  8
7
100
AcDbLine
 10
2.363248797393676
 20
9.710751928924693
 30
0.0
 11
2.363248797393676
 21
9.796373287098219
 31
0.0
  0
LINE
  5
2BCB
330
1E
100
AcDbEntity
  8
7
100
AcDbLine
 10
2.363248797393676
 20
9.737324074564753
 30
0.0
 11
2.363248797393676
 21
9.631035492004517
 31
0.0
  0
LINE
  5
2BCC
330
1E
100
AcDbEntity
  8
7
100
AcDbLine
 10
2.363248797393676
 20
9.660560098271249
 30
0.0
 11
2.363248797393676
 21
9.566081358217704
 31
0.0
  0
LINE
  5
2BCD
330
1E
100
AcDbEntity
  8
7
100
AcDbLine
 10
2.363248797393676
 20
9.648750255764557
 30
0.0
 11
2.363248797393676
 21
9.713704389551367
 31
0.0
  0
LINE
  5
2BCE
330
1E
100
AcDbEntity
  8
7
100
AcDbLine
 10
2.363248797393676
 20
9.566081358217704
 30
0.0
 11
2.363248797393676
 21
9.749133917071446
 31
0.0
  0
LINE
  5
2BCF
330
1E
100
AcDbEntity
  8
7
100
AcDbLine
 10
2.363248797393676
 20
9.755038838324793
 30
0.0
 11
2.363248797393676
 21
9.607415806991131
 31
0.0
  0
LINE
  5
2BD0
330
1E
100
AcDbEntity
  8
7
100
AcDbLine
 10
2.363248797393676
 20
9.566081358217704
 30
0.0
 11
2.363248797393676
 21
9.749133917071446
 31
0.0
  0
LINE
  5
2BD1
330
1E
100
AcDbEntity
  8
7
100
AcDbLine
 10
2.363248797393676
 20
9.645797795137882
 30
0.0
 11
2.363248797393676
 21
9.796373287098219
 31
0.0
  0
LINE
  5
2BD2
330
1E
100
AcDbEntity
  8
7
100
AcDbLine
 10
2.363248797393676
 20
9.569033818844378
 30
0.0
 11
2.363248797393676
 21
9.66941748015127
 31
0.0
  0
LINE
  5
2BD3
330
1E
100
AcDbEntity
  8
7
100
AcDbLine
 10
2.363248797393676
 20
9.566081358217704
 30
0.0
 11
2.363248797393676
 21
9.796373287098219
 31
0.0
  0
LINE
  5
2BD4
330
1E
100
AcDbEntity
  8
7
100
AcDbLine
 10
2.363248797393676
 20
9.566081358217704
 30
0.0
 11
2.363248797393676
 21
9.796373287098219
 31
0.0
  0
LINE
  5
2BD5
330
1E
100
AcDbEntity
  8
7
100
AcDbLine
 10
2.363248797393676
 20
9.66351255889792
 30
0.0
 11
2.363248797393676
 21
9.566081358217704
 31
0.0
  0
LINE
  5
2BD6
330
1E
100
AcDbEntity
  8
7
100
AcDbLine
 10
2.363248797393676
 20
9.648750255764557
 30
0.0
 11
2.363248797393676
 21
9.713704389551367
 31
0.0
  0
LINE
  5
2BD7
330
1E
100
AcDbEntity
  8
7
100
AcDbLine
 10
2.363248797393676
 20
9.796373287098219
 30
0.0
 11
2.363248797393676
 21
9.607415806991131
 31
0.0
  0
LINE
  5
2BDD
330
1E
100
AcDbEntity
  8
7
100
AcDbLine
 10
2.363248797393676
 20
9.710751928924693
 30
0.0
 11
2.363248797393676
 21
9.796373287098219
 31
0.0
  0
LINE
  5
2BDE
330
1E
100
AcDbEntity
  8
7
100
AcDbLine
 10
2.363248797393676
 20
9.722561771431387
 30
0.0
 11
2.363248797393676
 21
9.799325747724891
 31
0.0
  0
LINE
  5
2BDF
330
1E
100
AcDbEntity
  8
7
100
AcDbLine
 10
2.363248797393676
 20
9.566081358217704
 30
0.0
 11
2.363248797393676
 21
9.796373287098219
 31
0.0
  0
LINE
  5
2BE0
330
1E
100
AcDbEntity
  8
7
100
AcDbLine
 10
2.363248797393676
 20
9.755038838324793
 30
0.0
 11
2.363248797393676
 21
9.607415806991131
 31
0.0
  0
LINE
  5
2BE1
330
1E
100
AcDbEntity
  8
7
100
AcDbLine
 10
2.363248797393676
 20
9.796373287098219
 30
0.0
 11
2.363248797393676
 21
9.645797795137882
 31
0.0
  0
LINE
  5
2BE2
330
1E
100
AcDbEntity
  8
7
100
AcDbLine
 10
2.363248797393676
 20
9.660560098271249
 30
0.0
 11
2.363248797393676
 21
9.566081358217704
 31
0.0
  0
LINE
  5
2BE3
330
1E
100
AcDbEntity
  8
7
100
AcDbLine
 10
2.363248797393676
 20
9.749133917071446
 30
0.0
 11
2.363248797393676
 21
9.796373287098219
 31
0.0
  0
LINE
  5
2BE4
330
1E
100
AcDbEntity
  8
7
100
AcDbLine
 10
2.363248797393676
 20
9.796373287098219
 30
0.0
 11
2.363248797393676
 21
9.645797795137882
 31
0.0
  0
LINE
  5
2BE5
330
1E
100
AcDbEntity
  8
7
100
AcDbLine
 10
2.363248797393676
 20
9.566081358217704
 30
0.0
 11
2.363248797393676
 21
9.66351255889792
 31
0.0
  0
LINE
  5
2BE6
330
1E
100
AcDbEntity
  8
7
100
AcDbLine
 10
2.363248797393676
 20
9.598558425111113
 30
0.0
 11
2.363248797393676
 21
9.566081358217704
 31
0.0
  0
LINE
  5
2BE7
330
1E
100
AcDbEntity
  8
7
100
AcDbLine
 10
2.363248797393676
 20
9.569033818844378
 30
0.0
 11
2.363248797393676
 21
9.66941748015127
 31
0.0
  0
LINE
  5
2BE8
330
1E
100
AcDbEntity
  8
7
100
AcDbLine
 10
2.363248797393676
 20
9.722561771431387
 30
0.0
 11
2.363248797393676
 21
9.799325747724891
 31
0.0
  0
LINE
  5
2BE9
330
1E
100
AcDbEntity
  8
7
100
AcDbLine
 10
2.363248797393676
 20
9.707799468298022
 30
0.0
 11
2.363248797393676
 21
9.814088050858256
 31
0.0
  0
LINE
  5
2BEA
330
1E
100
AcDbEntity
  8
7
100
AcDbLine
 10
2.363248797393676
 20
9.796373287098219
 30
0.0
 11
2.363248797393676
 21
9.566081358217704
 31
0.0
  0
LINE
  5
2BEB
330
1E
100
AcDbEntity
  8
7
100
AcDbLine
 10
2.363248797393676
 20
9.737324074564753
 30
0.0
 11
2.363248797393676
 21
9.631035492004517
 31
0.0
  0
LINE
  5
2BEC
330
1E
100
AcDbEntity
  8
7
100
AcDbLine
 10
2.363248797393676
 20
9.566081358217704
 30
0.0
 11
2.363248797393676
 21
9.796373287098219
 31
0.0
  0
LINE
  5
2BED
330
1E
100
AcDbEntity
  8
7
100
AcDbLine
 10
2.363248797393676
 20
9.710751928924693
 30
0.0
 11
2.363248797393676
 21
9.796373287098219
 31
0.0
  0
LINE
  5
2BEE
330
1E
100
AcDbEntity
  8
7
100
AcDbLine
 10
2.363248797393676
 20
9.66351255889792
 30
0.0
 11
2.363248797393676
 21
9.566081358217704
 31
0.0
  0
LINE
  5
2BEF
330
1E
100
AcDbEntity
  8
7
100
AcDbLine
 10
2.363248797393676
 20
0.4577403249307963
 30
0.0
 11
2.363248797393676
 21
0.1565893410101271
 31
0.0
  0
LINE
  5
2BF0
330
1E
100
AcDbEntity
  8
7
100
AcDbLine
 10
2.363248797393676
 20
9.713704389551367
 30
0.0
 11
2.363248797393676
 21
9.648750255764557
 31
0.0
  0
LINE
  5
2BF1
330
1E
100
AcDbEntity
  8
7
100
AcDbLine
 10
2.363248797393676
 20
0.4577403249307963
 30
0.0
 11
2.363248797393676
 21
0.1565893410101271
 31
0.0
  0
LINE
  5
2BF2
330
1E
100
AcDbEntity
  8
7
100
AcDbLine
 10
2.363248797393676
 20
9.566081358217704
 30
0.0
 11
2.363248797393676
 21
9.749133917071446
 31
0.0
  0
LINE
  5
2BF3
330
1E
100
AcDbEntity
  8
7
100
AcDbLine
 10
2.363248797393676
 20
9.631035492004517
 30
0.0
 11
2.363248797393676
 21
9.796373287098219
 31
0.0
  0
LINE
  5
2BF4
330
1E
100
AcDbEntity
  8
7
100
AcDbLine
 10
2.363248797393676
 20
9.707799468298022
 30
0.0
 11
2.363248797393676
 21
9.814088050858256
 31
0.0
  0
LINE
  5
2BFA
330
1E
100
AcDbEntity
  8
7
100
AcDbLine
 10
2.363248797393676
 20
9.619225649497824
 30
0.0
 11
2.363248797393676
 21
9.749133917071446
 31
0.0
  0
LINE
  5
2BFB
330
1E
100
AcDbEntity
  8
7
100
AcDbLine
 10
2.363248797393676
 20
9.566081358217704
 30
0.0
 11
2.363248797393676
 21
9.796373287098219
 31
0.0
  0
LINE
  5
2C02
330
1E
100
AcDbEntity
  8
7
100
AcDbLine
 10
2.363248797393676
 20
9.796373287098219
 30
0.0
 11
2.363248797393676
 21
9.631035492004517
 31
0.0
  0
LINE
  5
2C03
330
1E
100
AcDbEntity
  8
7
100
AcDbLine
 10
2.363248797393676
 20
9.645797795137882
 30
0.0
 11
2.363248797393676
 21
9.796373287098219
 31
0.0
  0
LINE
  5
2C04
330
1E
100
AcDbEntity
  8
7
100
AcDbLine
 10
2.363248797393676
 20
9.566081358217704
 30
0.0
 11
2.363248797393676
 21
9.867232342138377
 31
0.0
  0
LINE
  5
2C05
330
1E
100
AcDbEntity
  8
7
100
AcDbLine
 10
2.363248797393676
 20
9.566081358217704
 30
0.0
 11
2.363248797393676
 21
9.598558425111113
 31
0.0
  0
LINE
  5
2C06
330
1E
100
AcDbEntity
  8
7
100
AcDbLine
 10
2.363248797393676
 20
9.796373287098219
 30
0.0
 11
2.363248797393676
 21
9.749133917071446
 31
0.0
  0
LINE
  5
2C07
330
1E
100
AcDbEntity
  8
7
100
AcDbLine
 10
2.363248797393676
 20
9.607415806991131
 30
0.0
 11
2.363248797393676
 21
9.796373287098219
 31
0.0
  0
LINE
  5
2C08
330
1E
100
AcDbEntity
  8
7
100
AcDbLine
 10
2.363248797393676
 20
9.619225649497824
 30
0.0
 11
2.363248797393676
 21
9.749133917071446
 31
0.0
  0
LINE
  5
2C09
330
1E
100
AcDbEntity
  8
7
100
AcDbLine
 10
2.363248797393676
 20
9.796373287098219
 30
0.0
 11
2.363248797393676
 21
9.566081358217704
 31
0.0
  0
LINE
  5
2C0A
330
1E
100
AcDbEntity
  8
7
100
AcDbLine
 10
2.363248797393676
 20
9.796373287098219
 30
0.0
 11
2.363248797393676
 21
9.607415806991131
 31
0.0
  0
LINE
  5
2C0B
330
1E
100
AcDbEntity
  8
7
100
AcDbLine
 10
2.363248797393676
 20
9.631035492004517
 30
0.0
 11
2.363248797393676
 21
9.622178110124499
 31
0.0
  0
LINE
  5
2C0C
330
1E
100
AcDbEntity
  8
7
100
AcDbLine
 10
2.363248797393676
 20
9.622178110124499
 30
0.0
 11
2.363248797393676
 21
9.619225649497824
 31
0.0
  0
LINE
  5
2C21
330
1E
100
AcDbEntity
  8
7
100
AcDbLine
 10
2.363248797393676
 20
9.607415806991131
 30
0.0
 11
2.363248797393676
 21
9.577891200724398
 31
0.0
  0
LINE
  5
2C22
330
1E
100
AcDbEntity
  8
7
100
AcDbLine
 10
2.363248797393676
 20
9.577891200724398
 30
0.0
 11
2.363248797393676
 21
9.566081358217704
 31
0.0
  0
LINE
  5
2C36
330
1E
100
AcDbEntity
  8
7
100
AcDbLine
 10
2.363248797393676
 20
9.631035492004517
 30
0.0
 11
2.363248797393676
 21
9.622178110124499
 31
0.0
  0
LINE
  5
2C37
330
1E
100
AcDbEntity
  8
7
100
AcDbLine
 10
2.363248797393676
 20
9.622178110124499
 30
0.0
 11
2.363248797393676
 21
9.619225649497824
 31
0.0
  0
LINE
  5
2C4C
330
1E
100
AcDbEntity
  8
7
100
AcDbLine
 10
2.363248797393676
 20
9.566081358217704
 30
0.0
 11
2.363248797393676
 21
9.577891200724398
 31
0.0
  0
LINE
  5
2C4D
330
1E
100
AcDbEntity
  8
7
100
AcDbLine
 10
2.363248797393676
 20
9.577891200724398
 30
0.0
 11
2.363248797393676
 21
9.607415806991131
 31
0.0
  0
LINE
  5
2C7B
330
1E
100
AcDbEntity
  8
7
100
AcDbLine
 10
1.672373010752141
 20
8.774821910269279
 30
0.0
 11
1.672373010752141
 21
9.253120531790344
 31
0.0
  0
LINE
  5
2C7C
330
1E
100
AcDbEntity
  8
7
100
AcDbLine
 10
2.271722517966807
 20
10.02666521597872
 30
0.0
 11
2.271722517966807
 21
0.0266810734365048
 31
0.0
  0
LINE
  5
2C83
330
1E
100
AcDbEntity
  8
7
100
AcDbLine
 10
2.363248797393676
 20
10.02666521597872
 30
0.0
 11
2.363248797393676
 21
0.0266810734365048
 31
0.0
  0
LINE
  5
2C89
330
1E
100
AcDbEntity
  8
7
100
AcDbLine
 10
0.9726398422305866
 20
4.780142682380401
 30
0.0
 11
0.9726398422305866
 21
5.276156067661506
 31
0.0
  0
LINE
  5
2C8F
330
1E
100
AcDbEntity
  8
7
100
AcDbLine
 10
0.9726398422305866
 20
0.5581239862376855
 30
0.0
 11
0.8486364959103113
 21
0.5581239862376855
 31
0.0
  0
LINE
  5
2C90
330
1E
100
AcDbEntity
  8
7
100
AcDbLine
 10
0.9726398422305866
 20
0.5581239862376855
 30
0.0
 11
0.8486364959103113
 21
0.5581239862376855
 31
0.0
  0
LINE
  5
2C91
330
1E
100
AcDbEntity
  8
7
100
AcDbLine
 10
0.9726398422305866
 20
0.3071648329704617
 30
0.0
 11
0.9726398422305866
 21
0.5581239862376855
 31
0.0
  0
LINE
  5
2C92
330
1E
100
AcDbEntity
  8
7
100
AcDbLine
 10
0.8486364959103113
 20
0.3071648329704617
 30
0.0
 11
0.9726398422305866
 21
0.3071648329704617
 31
0.0
  0
LINE
  5
2C93
330
1E
100
AcDbEntity
  8
7
100
AcDbLine
 10
0.8486364959103113
 20
0.3071648329704617
 30
0.0
 11
0.8486364959103113
 21
0.0886827465966418
 31
0.0
  0
LINE
  5
2C99
330
1E
100
AcDbEntity
  8
7
100
AcDbLine
 10
2.271722517966807
 20
0.0266810734365048
 30
0.0
 11
0.9106381690704484
 21
0.0266810734365048
 31
0.0
  0
LINE
  5
2C9A
330
1E
100
AcDbEntity
  8
7
100
AcDbLine
 10
2.271722517966807
 20
10.02666521597872
 30
0.0
 11
0.9106381690704484
 21
10.02666521597872
 31
0.0
  0
LINE
  5
2CA0
330
1E
100
AcDbEntity
  8
7
100
AcDbLine
 10
0.8486364959103113
 20
9.964663542818593
 30
0.0
 11
0.8486364959103113
 21
9.746181456444771
 31
0.0
  0
LINE
  5
2CA1
330
1E
100
AcDbEntity
  8
7
100
AcDbLine
 10
0.9726398422305866
 20
9.746181456444771
 30
0.0
 11
0.8486364959103113
 21
9.746181456444771
 31
0.0
  0
LINE
  5
2CA2
330
1E
100
AcDbEntity
  8
7
100
AcDbLine
 10
0.9726398422305866
 20
9.746181456444771
 30
0.0
 11
0.8486364959103113
 21
9.746181456444771
 31
0.0
  0
LINE
  5
2CA3
330
1E
100
AcDbEntity
  8
7
100
AcDbLine
 10
0.9726398422305866
 20
9.495222303177548
 30
0.0
 11
0.9726398422305866
 21
9.746181456444771
 31
0.0
  0
LINE
  5
2CA4
330
1E
100
AcDbEntity
  8
7
100
AcDbLine
 10
0.8486364959103113
 20
9.495222303177548
 30
0.0
 11
0.9726398422305866
 21
9.495222303177548
 31
0.0
  0
LINE
  5
2CA5
330
1E
100
AcDbEntity
  8
7
100
AcDbLine
 10
0.9637824603505666
 20
8.774821910269279
 30
0.0
 11
1.672373010752141
 21
8.774821910269279
 31
0.0
  0
LINE
  5
2CA6
330
1E
100
AcDbEntity
  8
7
100
AcDbLine
 10
0.9637824603505666
 20
8.774821910269279
 30
0.0
 11
0.9637824603505666
 21
9.253120531790344
 31
0.0
  0
LINE
  5
2CA7
330
1E
100
AcDbEntity
  8
7
100
AcDbLine
 10
1.672373010752141
 20
9.253120531790344
 30
0.0
 11
0.9637824603505666
 21
9.253120531790344
 31
0.0
  0
LINE
  5
2CA8
330
1E
100
AcDbEntity
  8
7
100
AcDbLine
 10
0.9637824603505666
 20
0.8386077457716423
 30
0.0
 11
1.672373010752141
 21
0.8386077457716423
 31
0.0
  0
LINE
  5
2CA9
330
1E
100
AcDbEntity
  8
7
100
AcDbLine
 10
0.9637824603505666
 20
0.8386077457716423
 30
0.0
 11
0.9637824603505666
 21
1.316906367292705
 31
0.0
  0
LINE
  5
2CAA
330
1E
100
AcDbEntity
  8
7
100
AcDbLine
 10
1.672373010752141
 20
1.316906367292705
 30
0.0
 11
0.9637824603505666
 21
1.316906367292705
 31
0.0
  0
LINE
  5
2CAB
330
1E
100
AcDbEntity
  8
7
100
AcDbLine
 10
1.672373010752141
 20
0.8386077457716423
 30
0.0
 11
1.672373010752141
 21
1.316906367292705
 31
0.0
  0
LINE
  5
2CAC
330
1E
100
AcDbEntity
  8
7
100
AcDbLine
 10
0.8486364959103113
 20
0.4311681792907374
 30
0.0
 11
0.8486364959103113
 21
0.4341206399174107
 31
0.0
  0
LINE
  5
2CB3
330
1E
100
AcDbEntity
  8
7
100
AcDbLine
 10
0.8486364959103113
 20
0.4341206399174107
 30
0.0
 11
0.8486364959103113
 21
0.5138370768375884
 31
0.0
  0
LINE
  5
2CB4
330
1E
100
AcDbEntity
  8
7
100
AcDbLine
 10
0.9726398422305866
 20
0.3514517423705596
 30
0.0
 11
0.8486364959103113
 21
0.3514517423705596
 31
0.0
  0
LINE
  5
2CB5
330
1E
100
AcDbEntity
  8
7
100
AcDbLine
 10
0.9726398422305866
 20
0.4311681792907374
 30
0.0
 11
0.8486364959103113
 21
0.4311681792907374
 31
0.0
  0
LINE
  5
2CB6
330
1E
100
AcDbEntity
  8
7
100
AcDbLine
 10
0.9726398422305866
 20
0.4341206399174107
 30
0.0
 11
0.8486364959103113
 21
0.4341206399174107
 31
0.0
  0
LINE
  5
2CC2
330
1E
100
AcDbEntity
  8
7
100
AcDbLine
 10
0.9726398422305866
 20
0.5138370768375884
 30
0.0
 11
0.8486364959103113
 21
0.5138370768375884
 31
0.0
  0
LINE
  5
2CC3
330
1E
100
AcDbEntity
  8
7
100
AcDbLine
 10
0.8486364959103113
 20
9.622178110124499
 30
0.0
 11
0.8486364959103113
 21
9.70484700767135
 31
0.0
  0
LINE
  5
2CC4
330
1E
100
AcDbEntity
  8
7
100
AcDbLine
 10
0.9726398422305866
 20
9.622178110124499
 30
0.0
 11
0.8486364959103113
 21
9.622178110124499
 31
0.0
  0
LINE
  5
2CC5
330
1E
100
AcDbEntity
  8
7
100
AcDbLine
 10
0.9726398422305866
 20
9.622178110124499
 30
0.0
 11
0.8486364959103113
 21
9.622178110124499
 31
0.0
  0
LINE
  5
2CD0
330
1E
100
AcDbEntity
  8
7
100
AcDbLine
 10
0.9726398422305866
 20
9.70484700767135
 30
0.0
 11
0.8486364959103113
 21
9.70484700767135
 31
0.0
  0
LINE
  5
2CDC
330
1E
100
AcDbEntity
  8
7
100
AcDbLine
 10
0.8486364959103113
 20
5.025196914394279
 30
0.0
 11
0.8486364959103113
 21
5.028149375020955
 31
0.0
  0
LINE
  5
2CDD
330
1E
100
AcDbEntity
  8
7
100
AcDbLine
 10
0.8486364959103113
 20
4.84214435554054
 30
0.0
 11
0.9726398422305866
 21
4.84214435554054
 31
0.0
  0
LINE
  5
2CDE
330
1E
100
AcDbEntity
  8
7
100
AcDbLine
 10
0.9726398422305866
 20
5.025196914394279
 30
0.0
 11
0.8486364959103113
 21
5.025196914394279
 31
0.0
  0
LINE
  5
2CDF
330
1E
100
AcDbEntity
  8
7
100
AcDbLine
 10
0.9726398422305866
 20
5.028149375020955
 30
0.0
 11
0.8486364959103113
 21
5.028149375020955
 31
0.0
  0
LINE
  5
2CE0
330
1E
100
AcDbEntity
  8
7
100
AcDbLine
 10
0.9726398422305866
 20
5.211201933874693
 30
0.0
 11
0.8486364959103113
 21
5.211201933874693
 31
0.0
  0
LINE
  5
2CE6
330
1E
100
AcDbEntity
  8
7
100
AcDbLine
 10
2.646685017554307
 20
3.70839947489802
 30
0.0
 11
2.363248797393676
 21
3.696589632391328
 31
0.0
  0
LINE
  5
2CE7
330
1E
100
AcDbEntity
  8
7
100
AcDbLine
 10
2.761830981994562
 20
6.347899275143886
 30
0.0
 11
2.761830981994562
 21
3.70839947489802
 31
0.0
  0
LINE
  5
2D0A
330
1E
100
AcDbEntity
  8
7
100
AcDbLine
 10
2.363248797393676
 20
6.477807542717508
 30
0.0
 11
2.646685017554307
 21
6.465997700210815
 31
0.0
  0
LINE
  5
2D16
330
1E
100
AcDbEntity
  8
7
100
AcDbLine
 10
2.646685017554307
 20
6.62543057405117
 30
0.0
 11
2.363248797393676
 21
6.616573192171149
 31
0.0
  0
LINE
  5
2D17
330
1E
100
AcDbEntity
  8
7
100
AcDbLine
 10
2.761830981994562
 20
9.267882834923709
 30
0.0
 11
2.761830981994562
 21
6.62543057405117
 31
0.0
  0
LINE
  5
2D37
330
1E
100
AcDbEntity
  8
7
100
AcDbLine
 10
2.363248797393676
 20
9.397791102497333
 30
0.0
 11
2.646685017554307
 21
9.385981259990639
 31
0.0
  0
LINE
  5
2D43
330
1E
100
AcDbEntity
  8
7
100
AcDbLine
 10
2.646685017554307
 20
0.7884159151181987
 30
0.0
 11
2.363248797393676
 21
0.7766060726115054
 31
0.0
  0
LINE
  5
2D44
330
1E
100
AcDbEntity
  8
7
100
AcDbLine
 10
2.761830981994562
 20
3.427915715364064
 30
0.0
 11
2.761830981994562
 21
0.7884159151181987
 31
0.0
  0
LINE
  5
2D64
330
1E
100
AcDbEntity
  8
7
100
AcDbLine
 10
2.363248797393676
 20
3.557823982937685
 30
0.0
 11
2.646685017554307
 21
3.546014140430992
 31
0.0
  0
LINE
  5
2D65
330
1E
100
AcDbEntity
  8
7
100
AcDbLine
 10
2.761830981994562
 20
3.427915715364064
 30
0.0
 11
2.747068678861197
 21
3.486964927897528
 31
0.0
  0
LINE
  5
354E
330
1E
100
AcDbEntity
  8
7
100
AcDbLine
 10
2.747068678861197
 20
3.486964927897528
 30
0.0
 11
2.705734230087772
 21
3.528299376670954
 31
0.0
  0
LINE
  5
354F
330
1E
100
AcDbEntity
  8
7
100
AcDbLine
 10
2.705734230087772
 20
3.528299376670954
 30
0.0
 11
2.646685017554307
 21
3.546014140430992
 31
0.0
  0
LINE
  5
3550
330
1E
100
AcDbEntity
  8
7
100
AcDbLine
 10
2.646685017554307
 20
3.546014140430992
 30
0.0
 11
2.64963747818098
 21
3.531251837297627
 31
0.0
  0
LINE
  5
3551
330
1E
100
AcDbEntity
  8
7
100
AcDbLine
 10
2.64963747818098
 20
3.531251837297627
 30
0.0
 11
2.64963747818098
 21
3.486964927897528
 31
0.0
  0
LINE
  5
3552
330
1E
100
AcDbEntity
  8
7
100
AcDbLine
 10
2.64963747818098
 20
3.486964927897528
 30
0.0
 11
2.646685017554307
 21
3.427915715364064
 31
0.0
  0
LINE
  5
3553
330
1E
100
AcDbEntity
  8
7
100
AcDbLine
 10
2.646685017554307
 20
0.6703174900512688
 30
0.0
 11
2.705734230087772
 21
0.6880322538113087
 31
0.0
  0
LINE
  5
3554
330
1E
100
AcDbEntity
  8
7
100
AcDbLine
 10
2.705734230087772
 20
0.6880322538113087
 30
0.0
 11
2.747068678861197
 21
0.7293667025847342
 31
0.0
  0
LINE
  5
3555
330
1E
100
AcDbEntity
  8
7
100
AcDbLine
 10
2.747068678861197
 20
0.7293667025847342
 30
0.0
 11
2.761830981994562
 21
0.7884159151181987
 31
0.0
  0
LINE
  5
3556
330
1E
100
AcDbEntity
  8
7
100
AcDbLine
 10
2.363248797393676
 20
0.6585076475445764
 30
0.0
 11
2.646685017554307
 21
0.6673650294245955
 31
0.0
  0
LINE
  5
3557
330
1E
100
AcDbEntity
  8
7
100
AcDbLine
 10
2.646685017554307
 20
0.6673650294245955
 30
0.0
 11
2.64963747818098
 21
0.682127332557962
 31
0.0
  0
LINE
  5
3558
330
1E
100
AcDbEntity
  8
7
100
AcDbLine
 10
2.64963747818098
 20
0.682127332557962
 30
0.0
 11
2.64963747818098
 21
0.72641424195806
 31
0.0
  0
LINE
  5
3559
330
1E
100
AcDbEntity
  8
7
100
AcDbLine
 10
2.64963747818098
 20
0.72641424195806
 30
0.0
 11
2.646685017554307
 21
0.7884159151181987
 31
0.0
  0
LINE
  5
355A
330
1E
100
AcDbEntity
  8
7
100
AcDbLine
 10
2.646685017554307
 20
0.7884159151181987
 30
0.0
 11
2.705734230087772
 21
0.7884159151181987
 31
0.0
  0
LINE
  5
355B
330
1E
100
AcDbEntity
  8
7
100
AcDbLine
 10
2.705734230087772
 20
0.7884159151181987
 30
0.0
 11
2.747068678861197
 21
0.7884159151181987
 31
0.0
  0
LINE
  5
355C
330
1E
100
AcDbEntity
  8
7
100
AcDbLine
 10
2.747068678861197
 20
0.7884159151181987
 30
0.0
 11
2.761830981994562
 21
0.7884159151181987
 31
0.0
  0
LINE
  5
355D
330
1E
100
AcDbEntity
  8
7
100
AcDbLine
 10
2.646685017554307
 20
3.427915715364064
 30
0.0
 11
2.705734230087772
 21
3.427915715364064
 31
0.0
  0
LINE
  5
355E
330
1E
100
AcDbEntity
  8
7
100
AcDbLine
 10
2.705734230087772
 20
3.427915715364064
 30
0.0
 11
2.747068678861197
 21
3.427915715364064
 31
0.0
  0
LINE
  5
355F
330
1E
100
AcDbEntity
  8
7
100
AcDbLine
 10
2.747068678861197
 20
3.427915715364064
 30
0.0
 11
2.761830981994562
 21
3.427915715364064
 31
0.0
  0
LINE
  5
3560
330
1E
100
AcDbEntity
  8
7
100
AcDbLine
 10
2.646685017554307
 20
0.7884159151181987
 30
0.0
 11
2.646685017554307
 21
3.427915715364064
 31
0.0
  0
LINE
  5
3561
330
1E
100
AcDbEntity
  8
7
100
AcDbLine
 10
2.646685017554307
 20
3.427915715364064
 30
0.0
 11
2.363248797393676
 21
3.436773097244083
 31
0.0
  0
LINE
  5
3562
330
1E
100
AcDbEntity
  8
7
100
AcDbLine
 10
2.761830981994562
 20
9.267882834923709
 30
0.0
 11
2.747068678861197
 21
9.326932047457173
 31
0.0
  0
LINE
  5
3563
330
1E
100
AcDbEntity
  8
7
100
AcDbLine
 10
2.747068678861197
 20
9.326932047457173
 30
0.0
 11
2.705734230087772
 21
9.368266496230601
 31
0.0
  0
LINE
  5
3564
330
1E
100
AcDbEntity
  8
7
100
AcDbLine
 10
2.705734230087772
 20
9.368266496230601
 30
0.0
 11
2.646685017554307
 21
9.385981259990639
 31
0.0
  0
LINE
  5
3565
330
1E
100
AcDbEntity
  8
7
100
AcDbLine
 10
2.646685017554307
 20
9.385981259990639
 30
0.0
 11
2.64963747818098
 21
9.371218956857273
 31
0.0
  0
LINE
  5
3566
330
1E
100
AcDbEntity
  8
7
100
AcDbLine
 10
2.64963747818098
 20
9.371218956857273
 30
0.0
 11
2.64963747818098
 21
9.326932047457173
 31
0.0
  0
LINE
  5
3567
330
1E
100
AcDbEntity
  8
7
100
AcDbLine
 10
2.64963747818098
 20
9.326932047457173
 30
0.0
 11
2.646685017554307
 21
9.267882834923709
 31
0.0
  0
LINE
  5
3568
330
1E
100
AcDbEntity
  8
7
100
AcDbLine
 10
2.646685017554307
 20
6.507332148984241
 30
0.0
 11
2.705734230087772
 21
6.525046912744279
 31
0.0
  0
LINE
  5
3569
330
1E
100
AcDbEntity
  8
7
100
AcDbLine
 10
2.705734230087772
 20
6.525046912744279
 30
0.0
 11
2.747068678861197
 21
6.566381361517706
 31
0.0
  0
LINE
  5
356A
330
1E
100
AcDbEntity
  8
7
100
AcDbLine
 10
2.747068678861197
 20
6.566381361517706
 30
0.0
 11
2.761830981994562
 21
6.62543057405117
 31
0.0
  0
LINE
  5
356B
330
1E
100
AcDbEntity
  8
7
100
AcDbLine
 10
2.363248797393676
 20
6.495522306477548
 30
0.0
 11
2.646685017554307
 21
6.507332148984241
 31
0.0
  0
LINE
  5
356C
330
1E
100
AcDbEntity
  8
7
100
AcDbLine
 10
2.646685017554307
 20
6.507332148984241
 30
0.0
 11
2.64963747818098
 21
6.522094452117607
 31
0.0
  0
LINE
  5
356D
330
1E
100
AcDbEntity
  8
7
100
AcDbLine
 10
2.64963747818098
 20
6.522094452117607
 30
0.0
 11
2.64963747818098
 21
6.566381361517706
 31
0.0
  0
LINE
  5
356E
330
1E
100
AcDbEntity
  8
7
100
AcDbLine
 10
2.64963747818098
 20
6.566381361517706
 30
0.0
 11
2.646685017554307
 21
6.62543057405117
 31
0.0
  0
LINE
  5
356F
330
1E
100
AcDbEntity
  8
7
100
AcDbLine
 10
2.646685017554307
 20
6.62543057405117
 30
0.0
 11
2.705734230087772
 21
6.62543057405117
 31
0.0
  0
LINE
  5
3570
330
1E
100
AcDbEntity
  8
7
100
AcDbLine
 10
2.705734230087772
 20
6.62543057405117
 30
0.0
 11
2.747068678861197
 21
6.62543057405117
 31
0.0
  0
LINE
  5
3571
330
1E
100
AcDbEntity
  8
7
100
AcDbLine
 10
2.747068678861197
 20
6.62543057405117
 30
0.0
 11
2.761830981994562
 21
6.62543057405117
 31
0.0
  0
LINE
  5
3572
330
1E
100
AcDbEntity
  8
7
100
AcDbLine
 10
2.646685017554307
 20
9.267882834923709
 30
0.0
 11
2.705734230087772
 21
9.267882834923709
 31
0.0
  0
LINE
  5
3573
330
1E
100
AcDbEntity
  8
7
100
AcDbLine
 10
2.705734230087772
 20
9.267882834923709
 30
0.0
 11
2.747068678861197
 21
9.267882834923709
 31
0.0
  0
LINE
  5
3574
330
1E
100
AcDbEntity
  8
7
100
AcDbLine
 10
2.747068678861197
 20
9.267882834923709
 30
0.0
 11
2.761830981994562
 21
9.267882834923709
 31
0.0
  0
LINE
  5
3575
330
1E
100
AcDbEntity
  8
7
100
AcDbLine
 10
2.646685017554307
 20
6.62543057405117
 30
0.0
 11
2.646685017554307
 21
9.267882834923709
 31
0.0
  0
LINE
  5
3576
330
1E
100
AcDbEntity
  8
7
100
AcDbLine
 10
2.646685017554307
 20
9.267882834923709
 30
0.0
 11
2.363248797393676
 21
9.27674021680373
 31
0.0
  0
LINE
  5
3577
330
1E
100
AcDbEntity
  8
7
100
AcDbLine
 10
2.761830981994562
 20
6.347899275143886
 30
0.0
 11
2.747068678861197
 21
6.40694848767735
 31
0.0
  0
LINE
  5
3578
330
1E
100
AcDbEntity
  8
7
100
AcDbLine
 10
2.747068678861197
 20
6.40694848767735
 30
0.0
 11
2.705734230087772
 21
6.448282936450777
 31
0.0
  0
LINE
  5
3579
330
1E
100
AcDbEntity
  8
7
100
AcDbLine
 10
2.705734230087772
 20
6.448282936450777
 30
0.0
 11
2.646685017554307
 21
6.465997700210815
 31
0.0
  0
LINE
  5
357A
330
1E
100
AcDbEntity
  8
7
100
AcDbLine
 10
2.646685017554307
 20
6.465997700210815
 30
0.0
 11
2.64963747818098
 21
6.45123539707745
 31
0.0
  0
LINE
  5
357B
330
1E
100
AcDbEntity
  8
7
100
AcDbLine
 10
2.64963747818098
 20
6.45123539707745
 30
0.0
 11
2.64963747818098
 21
6.40694848767735
 31
0.0
  0
LINE
  5
357C
330
1E
100
AcDbEntity
  8
7
100
AcDbLine
 10
2.64963747818098
 20
6.40694848767735
 30
0.0
 11
2.646685017554307
 21
6.347899275143886
 31
0.0
  0
LINE
  5
357D
330
1E
100
AcDbEntity
  8
7
100
AcDbLine
 10
2.646685017554307
 20
3.590301049831091
 30
0.0
 11
2.705734230087772
 21
3.608015813591129
 31
0.0
  0
LINE
  5
357E
330
1E
100
AcDbEntity
  8
7
100
AcDbLine
 10
2.705734230087772
 20
3.608015813591129
 30
0.0
 11
2.747068678861197
 21
3.649350262364555
 31
0.0
  0
LINE
  5
357F
330
1E
100
AcDbEntity
  8
7
100
AcDbLine
 10
2.747068678861197
 20
3.649350262364555
 30
0.0
 11
2.761830981994562
 21
3.70839947489802
 31
0.0
  0
LINE
  5
3580
330
1E
100
AcDbEntity
  8
7
100
AcDbLine
 10
2.64963747818098
 20
3.602110892337784
 30
0.0
 11
2.64963747818098
 21
3.646397801737883
 31
0.0
  0
LINE
  5
3581
330
1E
100
AcDbEntity
  8
7
100
AcDbLine
 10
2.64963747818098
 20
3.646397801737883
 30
0.0
 11
2.646685017554307
 21
3.70839947489802
 31
0.0
  0
LINE
  5
3582
330
1E
100
AcDbEntity
  8
7
100
AcDbLine
 10
2.363248797393676
 20
3.578491207324399
 30
0.0
 11
2.646685017554307
 21
3.587348589204419
 31
0.0
  0
LINE
  5
3583
330
1E
100
AcDbEntity
  8
7
100
AcDbLine
 10
2.646685017554307
 20
3.587348589204419
 30
0.0
 11
2.64963747818098
 21
3.602110892337784
 31
0.0
  0
LINE
  5
3584
330
1E
100
AcDbEntity
  8
7
100
AcDbLine
 10
2.646685017554307
 20
3.70839947489802
 30
0.0
 11
2.705734230087772
 21
3.70839947489802
 31
0.0
  0
LINE
  5
3585
330
1E
100
AcDbEntity
  8
7
100
AcDbLine
 10
2.705734230087772
 20
3.70839947489802
 30
0.0
 11
2.747068678861197
 21
3.70839947489802
 31
0.0
  0
LINE
  5
3586
330
1E
100
AcDbEntity
  8
7
100
AcDbLine
 10
2.747068678861197
 20
3.70839947489802
 30
0.0
 11
2.761830981994562
 21
3.70839947489802
 31
0.0
  0
LINE
  5
3587
330
1E
100
AcDbEntity
  8
7
100
AcDbLine
 10
2.646685017554307
 20
6.347899275143886
 30
0.0
 11
2.705734230087772
 21
6.347899275143886
 31
0.0
  0
LINE
  5
3588
330
1E
100
AcDbEntity
  8
7
100
AcDbLine
 10
2.705734230087772
 20
6.347899275143886
 30
0.0
 11
2.747068678861197
 21
6.347899275143886
 31
0.0
  0
LINE
  5
3589
330
1E
100
AcDbEntity
  8
7
100
AcDbLine
 10
2.747068678861197
 20
6.347899275143886
 30
0.0
 11
2.761830981994562
 21
6.347899275143886
 31
0.0
  0
LINE
  5
358A
330
1E
100
AcDbEntity
  8
7
100
AcDbLine
 10
2.646685017554307
 20
3.70839947489802
 30
0.0
 11
2.646685017554307
 21
6.347899275143886
 31
0.0
  0
LINE
  5
358B
330
1E
100
AcDbEntity
  8
7
100
AcDbLine
 10
2.646685017554307
 20
6.347899275143886
 30
0.0
 11
2.363248797393676
 21
6.356756657023907
 31
0.0
  0
LINE
  5
358C
330
1E
100
AcDbEntity
  8
7
100
AcDbLine
 10
0.8486364959103113
 20
5.028149375020955
 30
0.0
 11
0.8486364959103113
 21
5.211201933874693
 31
0.0
  0
LINE
  5
358D
330
1E
100
AcDbEntity
  8
7
100
AcDbLine
 10
0.8486364959103113
 20
5.211201933874693
 30
0.0
 11
0.8486364959103113
 21
5.240726540141427
 31
0.0
  0
LINE
  5
358E
330
1E
100
AcDbEntity
  8
7
100
AcDbLine
 10
0.8486364959103113
 20
5.240726540141427
 30
0.0
 11
0.8486364959103113
 21
5.276156067661506
 31
0.0
  0
LINE
  5
358F
330
1E
100
AcDbEntity
  8
7
100
AcDbLine
 10
0.8486364959103113
 20
9.495222303177548
 30
0.0
 11
0.8486364959103113
 21
9.518841988190935
 31
0.0
  0
LINE
  5
3590
330
1E
100
AcDbEntity
  8
7
100
AcDbLine
 10
0.8486364959103113
 20
9.518841988190935
 30
0.0
 11
0.8486364959103113
 21
9.539509212577648
 31
0.0
  0
LINE
  5
3591
330
1E
100
AcDbEntity
  8
7
100
AcDbLine
 10
0.9726398422305866
 20
9.539509212577648
 30
0.0
 11
0.8486364959103113
 21
9.539509212577648
 31
0.0
  0
LINE
  5
3592
330
1E
100
AcDbEntity
  8
7
100
AcDbLine
 10
0.8486364959103113
 20
9.539509212577648
 30
0.0
 11
0.8486364959103113
 21
9.622178110124499
 31
0.0
  0
LINE
  5
3593
330
1E
100
AcDbEntity
  8
7
100
AcDbLine
 10
0.8486364959103113
 20
9.70484700767135
 30
0.0
 11
0.8486364959103113
 21
9.722561771431387
 31
0.0
  0
LINE
  5
3594
330
1E
100
AcDbEntity
  8
7
100
AcDbLine
 10
0.8486364959103113
 20
9.722561771431387
 30
0.0
 11
0.8486364959103113
 21
9.746181456444771
 31
0.0
  0
LINE
  5
3595
330
1E
100
AcDbEntity
  8
7
100
AcDbLine
 10
0.8486364959103113
 20
4.780142682380401
 30
0.0
 11
0.8486364959103113
 21
4.812619749273807
 31
0.0
  0
LINE
  5
3596
330
1E
100
AcDbEntity
  8
7
100
AcDbLine
 10
0.8486364959103113
 20
4.812619749273807
 30
0.0
 11
0.8486364959103113
 21
4.84214435554054
 31
0.0
  0
LINE
  5
3597
330
1E
100
AcDbEntity
  8
7
100
AcDbLine
 10
0.8486364959103113
 20
4.84214435554054
 30
0.0
 11
0.8486364959103113
 21
5.025196914394279
 31
0.0
  0
LINE
  5
3598
330
1E
100
AcDbEntity
  8
7
100
AcDbLine
 10
0.8486364959103113
 20
0.5138370768375884
 30
0.0
 11
0.8486364959103113
 21
0.5345043012242999
 31
0.0
  0
LINE
  5
3599
330
1E
100
AcDbEntity
  8
7
100
AcDbLine
 10
0.8486364959103113
 20
0.5345043012242999
 30
0.0
 11
0.8486364959103113
 21
0.5581239862376855
 31
0.0
  0
LINE
  5
359A
330
1E
100
AcDbEntity
  8
7
100
AcDbLine
 10
0.8486364959103113
 20
0.3071648329704617
 30
0.0
 11
0.8486364959103113
 21
0.3307845179838482
 31
0.0
  0
LINE
  5
359B
330
1E
100
AcDbEntity
  8
7
100
AcDbLine
 10
0.8486364959103113
 20
0.3307845179838482
 30
0.0
 11
0.8486364959103113
 21
0.3514517423705596
 31
0.0
  0
LINE
  5
359C
330
1E
100
AcDbEntity
  8
7
100
AcDbLine
 10
0.8486364959103113
 20
0.3514517423705596
 30
0.0
 11
0.8486364959103113
 21
0.4311681792907374
 31
0.0
  0
LINE
  5
359D
330
1E
100
AcDbEntity
  8
7
100
AcDbLine
 10
0.9106381690704484
 20
10.02371275535205
 30
0.0
 11
0.8693037202970232
 21
10.00599799159201
 31
0.0
  0
LINE
  5
359E
330
1E
100
AcDbEntity
  8
7
100
AcDbLine
 10
0.8693037202970232
 20
10.00599799159201
 30
0.0
 11
0.8515889565369842
 21
9.964663542818593
 31
0.0
  0
LINE
  5
359F
330
1E
100
AcDbEntity
  8
7
100
AcDbLine
 10
0.8515889565369842
 20
0.0886827465966418
 30
0.0
 11
0.8693037202970232
 21
0.0473482978232172
 31
0.0
  0
LINE
  5
35A0
330
1E
100
AcDbEntity
  8
7
100
AcDbLine
 10
0.8693037202970232
 20
0.0473482978232172
 30
0.0
 11
0.9106381690704484
 21
0.0296335340631773
 31
0.0
  0
LINE
  5
35A1
330
1E
100
AcDbEntity
  8
7
100
AcDbLine
 10
0.9726398422305866
 20
4.780142682380401
 30
0.0
 11
0.8486364959103113
 21
4.780142682380401
 31
0.0
  0
LINE
  5
35A2
330
1E
100
AcDbEntity
  8
7
100
AcDbLine
 10
0.8486364959103113
 20
4.780142682380401
 30
0.0
 11
0.8486364959103113
 21
0.5581239862376855
 31
0.0
  0
LINE
  5
35A3
330
1E
100
AcDbEntity
  8
7
100
AcDbLine
 10
0.8486364959103113
 20
9.495222303177548
 30
0.0
 11
0.8486364959103113
 21
5.276156067661506
 31
0.0
  0
LINE
  5
35A4
330
1E
100
AcDbEntity
  8
7
100
AcDbLine
 10
0.8486364959103113
 20
5.276156067661506
 30
0.0
 11
0.9726398422305866
 21
5.276156067661506
 31
0.0
  0
LINE
  5
35A5
330
1E
100
AcDbEntity
  8
7
100
AcDbLine
 10
2.363248797393676
 20
0.0266810734365048
 30
0.0
 11
2.351438954886984
 21
0.0266810734365048
 31
0.0
  0
LINE
  5
35A6
330
1E
100
AcDbEntity
  8
7
100
AcDbLine
 10
2.351438954886984
 20
0.0266810734365048
 30
0.0
 11
2.318961887993579
 21
0.0266810734365048
 31
0.0
  0
LINE
  5
35A7
330
1E
100
AcDbEntity
  8
7
100
AcDbLine
 10
2.318961887993579
 20
0.0266810734365048
 30
0.0
 11
2.271722517966807
 21
0.0266810734365048
 31
0.0
  0
LINE
  5
35A8
330
1E
100
AcDbEntity
  8
7
100
AcDbLine
 10
2.363248797393676
 20
10.02666521597872
 30
0.0
 11
2.351438954886984
 21
10.02666521597872
 31
0.0
  0
LINE
  5
35A9
330
1E
100
AcDbEntity
  8
7
100
AcDbLine
 10
2.351438954886984
 20
10.02666521597872
 30
0.0
 11
2.318961887993579
 21
10.02666521597872
 31
0.0
  0
LINE
  5
35AA
330
1E
100
AcDbEntity
  8
7
100
AcDbLine
 10
2.318961887993579
 20
10.02666521597872
 30
0.0
 11
2.271722517966807
 21
10.02666521597872
 31
0.0
  0
LINE
  5
35AB
330
1E
100
AcDbEntity
  8
7
100
AcDbLine
 10
2.363248797393676
 20
9.707799468298022
 30
0.0
 11
2.363248797393676
 21
9.713704389551367
 31
0.0
  0
LINE
  5
35AC
330
1E
100
AcDbEntity
  8
7
100
AcDbLine
 10
2.363248797393676
 20
9.713704389551367
 30
0.0
 11
2.363248797393676
 21
9.722561771431387
 31
0.0
  0
LINE
  5
35AD
330
1E
100
AcDbEntity
  8
7
100
AcDbLine
 10
2.363248797393676
 20
9.799325747724891
 30
0.0
 11
2.363248797393676
 21
9.808183129604913
 31
0.0
  0
LINE
  5
35AE
330
1E
100
AcDbEntity
  8
7
100
AcDbLine
 10
2.363248797393676
 20
9.808183129604913
 30
0.0
 11
2.363248797393676
 21
9.814088050858256
 31
0.0
  0
LINE
  5
35AF
330
1E
100
AcDbEntity
  8
7
100
AcDbLine
 10
2.363248797393676
 20
9.619225649497824
 30
0.0
 11
2.363248797393676
 21
9.622178110124499
 31
0.0
  0
LINE
  5
35B0
330
1E
100
AcDbEntity
  8
7
100
AcDbLine
 10
2.363248797393676
 20
9.622178110124499
 30
0.0
 11
2.363248797393676
 21
9.631035492004517
 31
0.0
  0
LINE
  5
35B1
330
1E
100
AcDbEntity
  8
7
100
AcDbLine
 10
2.363248797393676
 20
9.660560098271249
 30
0.0
 11
2.363248797393676
 21
9.675322401404613
 31
0.0
  0
LINE
  5
35B2
330
1E
100
AcDbEntity
  8
7
100
AcDbLine
 10
2.363248797393676
 20
9.675322401404613
 30
0.0
 11
2.363248797393676
 21
9.710751928924693
 31
0.0
  0
LINE
  5
35B3
330
1E
100
AcDbEntity
  8
7
100
AcDbLine
 10
2.363248797393676
 20
9.710751928924693
 30
0.0
 11
2.363248797393676
 21
9.763896220204813
 31
0.0
  0
LINE
  5
35B4
330
1E
100
AcDbEntity
  8
7
100
AcDbLine
 10
2.363248797393676
 20
9.763896220204813
 30
0.0
 11
2.363248797393676
 21
9.814088050858256
 31
0.0
  0
LINE
  5
35B5
330
1E
100
AcDbEntity
  8
7
100
AcDbLine
 10
2.363248797393676
 20
9.814088050858256
 30
0.0
 11
2.363248797393676
 21
9.852470039005009
 31
0.0
  0
LINE
  5
35B6
330
1E
100
AcDbEntity
  8
7
100
AcDbLine
 10
2.363248797393676
 20
9.852470039005009
 30
0.0
 11
2.363248797393676
 21
9.867232342138377
 31
0.0
  0
LINE
  5
35B7
330
1E
100
AcDbEntity
  8
7
100
AcDbLine
 10
2.363248797393676
 20
9.799325747724891
 30
0.0
 11
2.363248797393676
 21
9.808183129604913
 31
0.0
  0
LINE
  5
35B8
330
1E
100
AcDbEntity
  8
7
100
AcDbLine
 10
2.363248797393676
 20
9.808183129604913
 30
0.0
 11
2.363248797393676
 21
9.814088050858256
 31
0.0
  0
LINE
  5
35B9
330
1E
100
AcDbEntity
  8
7
100
AcDbLine
 10
2.363248797393676
 20
9.737324074564753
 30
0.0
 11
2.363248797393676
 21
9.746181456444771
 31
0.0
  0
LINE
  5
35BA
330
1E
100
AcDbEntity
  8
7
100
AcDbLine
 10
2.363248797393676
 20
9.746181456444771
 30
0.0
 11
2.363248797393676
 21
9.749133917071446
 31
0.0
  0
LINE
  5
35BB
330
1E
100
AcDbEntity
  8
7
100
AcDbLine
 10
2.363248797393676
 20
9.619225649497824
 30
0.0
 11
2.363248797393676
 21
9.622178110124499
 31
0.0
  0
LINE
  5
35BC
330
1E
100
AcDbEntity
  8
7
100
AcDbLine
 10
2.363248797393676
 20
9.622178110124499
 30
0.0
 11
2.363248797393676
 21
9.631035492004517
 31
0.0
  0
LINE
  5
35BD
330
1E
100
AcDbEntity
  8
7
100
AcDbLine
 10
2.363248797393676
 20
9.566081358217704
 30
0.0
 11
2.363248797393676
 21
9.577891200724398
 31
0.0
  0
LINE
  5
35BE
330
1E
100
AcDbEntity
  8
7
100
AcDbLine
 10
2.363248797393676
 20
9.577891200724398
 30
0.0
 11
2.363248797393676
 21
9.607415806991131
 31
0.0
  0
LINE
  5
35BF
330
1E
100
AcDbEntity
  8
7
100
AcDbLine
 10
2.363248797393676
 20
9.566081358217704
 30
0.0
 11
2.363248797393676
 21
9.577891200724398
 31
0.0
  0
LINE
  5
35C0
330
1E
100
AcDbEntity
  8
7
100
AcDbLine
 10
2.363248797393676
 20
9.577891200724398
 30
0.0
 11
2.363248797393676
 21
9.607415806991131
 31
0.0
  0
LINE
  5
35C1
330
1E
100
AcDbEntity
  8
7
100
AcDbLine
 10
2.363248797393676
 20
9.619225649497824
 30
0.0
 11
2.363248797393676
 21
9.622178110124499
 31
0.0
  0
LINE
  5
35C2
330
1E
100
AcDbEntity
  8
7
100
AcDbLine
 10
2.363248797393676
 20
9.622178110124499
 30
0.0
 11
2.363248797393676
 21
9.631035492004517
 31
0.0
  0
LINE
  5
35C3
330
1E
100
AcDbEntity
  8
7
100
AcDbLine
 10
2.363248797393676
 20
9.707799468298022
 30
0.0
 11
2.363248797393676
 21
9.713704389551367
 31
0.0
  0
LINE
  5
35C4
330
1E
100
AcDbEntity
  8
7
100
AcDbLine
 10
2.363248797393676
 20
9.713704389551367
 30
0.0
 11
2.363248797393676
 21
9.722561771431387
 31
0.0
  0
LINE
  5
35C5
330
1E
100
AcDbEntity
  8
7
100
AcDbLine
 10
2.363248797393676
 20
9.660560098271249
 30
0.0
 11
2.363248797393676
 21
9.675322401404613
 31
0.0
  0
LINE
  5
35C6
330
1E
100
AcDbEntity
  8
7
100
AcDbLine
 10
2.363248797393676
 20
9.675322401404613
 30
0.0
 11
2.363248797393676
 21
9.710751928924693
 31
0.0
  0
LINE
  5
35C7
330
1E
100
AcDbEntity
  8
7
100
AcDbLine
 10
2.363248797393676
 20
9.710751928924693
 30
0.0
 11
2.363248797393676
 21
9.763896220204813
 31
0.0
  0
LINE
  5
35C8
330
1E
100
AcDbEntity
  8
7
100
AcDbLine
 10
2.363248797393676
 20
9.763896220204813
 30
0.0
 11
2.363248797393676
 21
9.814088050858256
 31
0.0
  0
LINE
  5
35C9
330
1E
100
AcDbEntity
  8
7
100
AcDbLine
 10
2.363248797393676
 20
9.814088050858256
 30
0.0
 11
2.363248797393676
 21
9.852470039005009
 31
0.0
  0
LINE
  5
35CA
330
1E
100
AcDbEntity
  8
7
100
AcDbLine
 10
2.363248797393676
 20
9.852470039005009
 30
0.0
 11
2.363248797393676
 21
9.867232342138377
 31
0.0
  0
LINE
  5
35CB
330
1E
100
AcDbEntity
  8
7
100
AcDbLine
 10
2.363248797393676
 20
9.755038838324793
 30
0.0
 11
2.363248797393676
 21
9.784563444591526
 31
0.0
  0
LINE
  5
35CC
330
1E
100
AcDbEntity
  8
7
100
AcDbLine
 10
2.363248797393676
 20
9.784563444591526
 30
0.0
 11
2.363248797393676
 21
9.796373287098219
 31
0.0
  0
LINE
  5
35CD
330
1E
100
AcDbEntity
  8
7
100
AcDbLine
 10
2.363248797393676
 20
9.619225649497824
 30
0.0
 11
2.363248797393676
 21
9.622178110124499
 31
0.0
  0
LINE
  5
35CE
330
1E
100
AcDbEntity
  8
7
100
AcDbLine
 10
2.363248797393676
 20
9.622178110124499
 30
0.0
 11
2.363248797393676
 21
9.631035492004517
 31
0.0
  0
LINE
  5
35CF
330
1E
100
AcDbEntity
  8
7
100
AcDbLine
 10
2.363248797393676
 20
9.607415806991131
 30
0.0
 11
2.363248797393676
 21
9.577891200724398
 31
0.0
  0
LINE
  5
35D0
330
1E
100
AcDbEntity
  8
7
100
AcDbLine
 10
2.363248797393676
 20
9.577891200724398
 30
0.0
 11
2.363248797393676
 21
9.566081358217704
 31
0.0
  0
LINE
  5
35D1
330
1E
100
AcDbEntity
  8
7
100
AcDbLine
 10
2.363248797393676
 20
9.755038838324793
 30
0.0
 11
2.363248797393676
 21
9.784563444591526
 31
0.0
  0
LINE
  5
35D2
330
1E
100
AcDbEntity
  8
7
100
AcDbLine
 10
2.363248797393676
 20
9.784563444591526
 30
0.0
 11
2.363248797393676
 21
9.796373287098219
 31
0.0
  0
LINE
  5
35D3
330
1E
100
AcDbEntity
  8
7
100
AcDbLine
 10
2.363248797393676
 20
9.566081358217704
 30
0.0
 11
2.363248797393676
 21
9.577891200724398
 31
0.0
  0
LINE
  5
35D4
330
1E
100
AcDbEntity
  8
7
100
AcDbLine
 10
2.363248797393676
 20
9.577891200724398
 30
0.0
 11
2.363248797393676
 21
9.607415806991131
 31
0.0
  0
LINE
  5
35D5
330
1E
100
AcDbEntity
  8
7
100
AcDbLine
 10
2.363248797393676
 20
9.737324074564753
 30
0.0
 11
2.363248797393676
 21
9.746181456444771
 31
0.0
  0
LINE
  5
35D6
330
1E
100
AcDbEntity
  8
7
100
AcDbLine
 10
2.363248797393676
 20
9.746181456444771
 30
0.0
 11
2.363248797393676
 21
9.749133917071446
 31
0.0
  0
LINE
  5
35D7
330
1E
100
AcDbEntity
  8
7
100
AcDbLine
 10
2.363248797393676
 20
9.566081358217704
 30
0.0
 11
2.363248797393676
 21
9.749133917071446
 31
0.0
  0
LINE
  5
35D8
330
1E
100
AcDbEntity
  8
7
100
AcDbLine
 10
2.363248797393676
 20
9.749133917071446
 30
0.0
 11
2.363248797393676
 21
9.796373287098219
 31
0.0
  0
LINE
  5
35D9
330
1E
100
AcDbEntity
  8
7
100
AcDbLine
 10
2.363248797393676
 20
9.796373287098219
 30
0.0
 11
2.363248797393676
 21
9.749133917071446
 31
0.0
  0
LINE
  5
35DA
330
1E
100
AcDbEntity
  8
7
100
AcDbLine
 10
2.363248797393676
 20
9.710751928924693
 30
0.0
 11
2.363248797393676
 21
9.796373287098219
 31
0.0
  0
LINE
  5
35DB
330
1E
100
AcDbEntity
  8
7
100
AcDbLine
 10
2.363248797393676
 20
9.796373287098219
 30
0.0
 11
2.363248797393676
 21
9.631035492004517
 31
0.0
  0
LINE
  5
35DC
330
1E
100
AcDbEntity
  8
7
100
AcDbLine
 10
2.363248797393676
 20
9.598558425111113
 30
0.0
 11
2.363248797393676
 21
9.566081358217704
 31
0.0
  0
LINE
  5
35DD
330
1E
100
AcDbEntity
  8
7
100
AcDbLine
 10
2.363248797393676
 20
9.566081358217704
 30
0.0
 11
2.363248797393676
 21
9.66351255889792
 31
0.0
  0
LINE
  5
35DE
330
1E
100
AcDbEntity
  8
7
100
AcDbLine
 10
5.60505056548088
 20
3.486964927897528
 30
0.0
 11
5.60505056548088
 21
3.427915715364064
 31
0.0
  0
LINE
  5
35DF
330
1E
100
AcDbEntity
  8
7
100
AcDbLine
 10
5.60505056548088
 20
3.427915715364064
 30
0.0
 11
7.051756272550763
 21
3.427915715364064
 31
0.0
  0
LINE
  5
35E0
330
1E
100
AcDbEntity
  8
7
100
AcDbLine
 10
5.60505056548088
 20
3.546014140430992
 30
0.0
 11
5.60505056548088
 21
3.531251837297627
 31
0.0
  0
LINE
  5
35E1
330
1E
100
AcDbEntity
  8
7
100
AcDbLine
 10
5.60505056548088
 20
3.531251837297627
 30
0.0
 11
5.60505056548088
 21
3.486964927897528
 31
0.0
  0
LINE
  5
35E2
330
1E
100
AcDbEntity
  8
7
100
AcDbLine
 10
5.478094758533933
 20
3.436773097244083
 30
0.0
 11
5.486952140413952
 21
3.484012467270855
 31
0.0
  0
LINE
  5
35E3
330
1E
100
AcDbEntity
  8
7
100
AcDbLine
 10
5.486952140413952
 20
3.484012467270855
 30
0.0
 11
5.510571825427336
 21
3.522394455417606
 31
0.0
  0
LINE
  5
35E4
330
1E
100
AcDbEntity
  8
7
100
AcDbLine
 10
5.510571825427336
 20
3.522394455417606
 30
0.0
 11
5.551906274200764
 21
3.548966601057665
 31
0.0
  0
LINE
  5
35E5
330
1E
100
AcDbEntity
  8
7
100
AcDbLine
 10
5.551906274200764
 20
3.548966601057665
 30
0.0
 11
5.596193183600862
 21
3.557823982937685
 31
0.0
  0
LINE
  5
35E6
330
1E
100
AcDbEntity
  8
7
100
AcDbLine
 10
5.60505056548088
 20
3.546014140430992
 30
0.0
 11
5.546001352947415
 21
3.531251837297627
 31
0.0
  0
LINE
  5
35E7
330
1E
100
AcDbEntity
  8
7
100
AcDbLine
 10
5.546001352947415
 20
3.531251837297627
 30
0.0
 11
5.501714443547316
 21
3.486964927897528
 31
0.0
  0
LINE
  5
35E8
330
1E
100
AcDbEntity
  8
7
100
AcDbLine
 10
5.501714443547316
 20
3.486964927897528
 30
0.0
 11
5.486952140413952
 21
3.427915715364064
 31
0.0
  0
LINE
  5
35E9
330
1E
100
AcDbEntity
  8
7
100
AcDbLine
 10
5.60505056548088
 20
0.6673650294245955
 30
0.0
 11
5.60505056548088
 21
0.6850797931846345
 31
0.0
  0
LINE
  5
35EA
330
1E
100
AcDbEntity
  8
7
100
AcDbLine
 10
5.60505056548088
 20
0.6850797931846345
 30
0.0
 11
5.60505056548088
 21
0.7293667025847342
 31
0.0
  0
LINE
  5
35EB
330
1E
100
AcDbEntity
  8
7
100
AcDbLine
 10
5.60505056548088
 20
0.7293667025847342
 30
0.0
 11
5.60505056548088
 21
0.7884159151181987
 31
0.0
  0
LINE
  5
35EC
330
1E
100
AcDbEntity
  8
7
100
AcDbLine
 10
5.478094758533933
 20
0.7766060726115054
 30
0.0
 11
5.486952140413952
 21
0.7323191632114066
 31
0.0
  0
LINE
  5
35ED
330
1E
100
AcDbEntity
  8
7
100
AcDbLine
 10
5.486952140413952
 20
0.7323191632114066
 30
0.0
 11
5.510571825427336
 21
0.6939371750646553
 31
0.0
  0
LINE
  5
35EE
330
1E
100
AcDbEntity
  8
7
100
AcDbLine
 10
5.510571825427336
 20
0.6939371750646553
 30
0.0
 11
5.551906274200764
 21
0.6673650294245955
 31
0.0
  0
LINE
  5
35EF
330
1E
100
AcDbEntity
  8
7
100
AcDbLine
 10
5.551906274200764
 20
0.6673650294245955
 30
0.0
 11
5.596193183600862
 21
0.6585076475445764
 31
0.0
  0
LINE
  5
35F0
330
1E
100
AcDbEntity
  8
7
100
AcDbLine
 10
5.596193183600862
 20
0.6585076475445764
 30
0.0
 11
5.60505056548088
 21
0.6673650294245955
 31
0.0
  0
LINE
  5
35F1
330
1E
100
AcDbEntity
  8
7
100
AcDbLine
 10
5.60505056548088
 20
0.6673650294245955
 30
0.0
 11
5.546001352947415
 21
0.682127332557962
 31
0.0
  0
LINE
  5
35F2
330
1E
100
AcDbEntity
  8
7
100
AcDbLine
 10
5.546001352947415
 20
0.682127332557962
 30
0.0
 11
5.501714443547316
 21
0.72641424195806
 31
0.0
  0
LINE
  5
35F3
330
1E
100
AcDbEntity
  8
7
100
AcDbLine
 10
5.501714443547316
 20
0.72641424195806
 30
0.0
 11
5.486952140413952
 21
0.7884159151181987
 31
0.0
  0
LINE
  5
35F4
330
1E
100
AcDbEntity
  8
7
100
AcDbLine
 10
5.504666904173991
 20
0.7884159151181987
 30
0.0
 11
5.548953813574088
 21
0.7884159151181987
 31
0.0
  0
LINE
  5
35F5
330
1E
100
AcDbEntity
  8
7
100
AcDbLine
 10
5.548953813574088
 20
0.7884159151181987
 30
0.0
 11
5.60505056548088
 21
0.7884159151181987
 31
0.0
  0
LINE
  5
35F6
330
1E
100
AcDbEntity
  8
7
100
AcDbLine
 10
5.486952140413952
 20
3.427915715364064
 30
0.0
 11
5.504666904173991
 21
3.427915715364064
 31
0.0
  0
LINE
  5
35F7
330
1E
100
AcDbEntity
  8
7
100
AcDbLine
 10
5.504666904173991
 20
3.427915715364064
 30
0.0
 11
5.548953813574088
 21
3.427915715364064
 31
0.0
  0
LINE
  5
35F8
330
1E
100
AcDbEntity
  8
7
100
AcDbLine
 10
5.548953813574088
 20
3.427915715364064
 30
0.0
 11
5.60505056548088
 21
3.427915715364064
 31
0.0
  0
LINE
  5
35F9
330
1E
100
AcDbEntity
  8
7
100
AcDbLine
 10
5.486952140413952
 20
0.7884159151181987
 30
0.0
 11
5.486952140413952
 21
3.427915715364064
 31
0.0
  0
LINE
  5
35FA
330
1E
100
AcDbEntity
  8
7
100
AcDbLine
 10
5.486952140413952
 20
3.427915715364064
 30
0.0
 11
5.478094758533933
 21
3.436773097244083
 31
0.0
  0
LINE
  5
35FB
330
1E
100
AcDbEntity
  8
7
100
AcDbLine
 10
5.478094758533933
 20
3.436773097244083
 30
0.0
 11
5.478094758533933
 21
0.7766060726115054
 31
0.0
  0
LINE
  5
35FC
330
1E
100
AcDbEntity
  8
7
100
AcDbLine
 10
7.051756272550763
 20
3.546014140430992
 30
0.0
 11
7.051756272550763
 21
3.531251837297627
 31
0.0
  0
LINE
  5
35FD
330
1E
100
AcDbEntity
  8
7
100
AcDbLine
 10
7.051756272550763
 20
3.531251837297627
 30
0.0
 11
7.051756272550763
 21
3.486964927897528
 31
0.0
  0
LINE
  5
35FE
330
1E
100
AcDbEntity
  8
7
100
AcDbLine
 10
7.051756272550763
 20
3.486964927897528
 30
0.0
 11
7.051756272550763
 21
3.427915715364064
 31
0.0
  0
LINE
  5
35FF
330
1E
100
AcDbEntity
  8
7
100
AcDbLine
 10
7.060613654430781
 20
3.557823982937685
 30
0.0
 11
7.107853024457556
 21
3.548966601057665
 31
0.0
  0
LINE
  5
3600
330
1E
100
AcDbEntity
  8
7
100
AcDbLine
 10
7.107853024457556
 20
3.548966601057665
 30
0.0
 11
7.146235012604305
 21
3.522394455417606
 31
0.0
  0
LINE
  5
3601
330
1E
100
AcDbEntity
  8
7
100
AcDbLine
 10
7.146235012604305
 20
3.522394455417606
 30
0.0
 11
7.172807158244365
 21
3.484012467270855
 31
0.0
  0
LINE
  5
3602
330
1E
100
AcDbEntity
  8
7
100
AcDbLine
 10
7.172807158244365
 20
3.484012467270855
 30
0.0
 11
7.181664540124385
 21
3.436773097244083
 31
0.0
  0
LINE
  5
3603
330
1E
100
AcDbEntity
  8
7
100
AcDbLine
 10
7.051756272550763
 20
3.546014140430992
 30
0.0
 11
7.110805485084227
 21
3.531251837297627
 31
0.0
  0
LINE
  5
3604
330
1E
100
AcDbEntity
  8
7
100
AcDbLine
 10
7.110805485084227
 20
3.531251837297627
 30
0.0
 11
7.155092394484327
 21
3.486964927897528
 31
0.0
  0
LINE
  5
3605
330
1E
100
AcDbEntity
  8
7
100
AcDbLine
 10
7.155092394484327
 20
3.486964927897528
 30
0.0
 11
7.172807158244365
 21
3.427915715364064
 31
0.0
  0
LINE
  5
3606
330
1E
100
AcDbEntity
  8
7
100
AcDbLine
 10
7.051756272550763
 20
0.6673650294245955
 30
0.0
 11
7.051756272550763
 21
0.6850797931846345
 31
0.0
  0
LINE
  5
3607
330
1E
100
AcDbEntity
  8
7
100
AcDbLine
 10
7.051756272550763
 20
0.6850797931846345
 30
0.0
 11
7.051756272550763
 21
0.7293667025847342
 31
0.0
  0
LINE
  5
3608
330
1E
100
AcDbEntity
  8
7
100
AcDbLine
 10
7.051756272550763
 20
0.7293667025847342
 30
0.0
 11
7.051756272550763
 21
0.7884159151181987
 31
0.0
  0
LINE
  5
3609
330
1E
100
AcDbEntity
  8
7
100
AcDbLine
 10
7.051756272550763
 20
0.6673650294245955
 30
0.0
 11
7.110805485084227
 21
0.682127332557962
 31
0.0
  0
LINE
  5
360A
330
1E
100
AcDbEntity
  8
7
100
AcDbLine
 10
7.110805485084227
 20
0.682127332557962
 30
0.0
 11
7.155092394484327
 21
0.72641424195806
 31
0.0
  0
LINE
  5
360B
330
1E
100
AcDbEntity
  8
7
100
AcDbLine
 10
7.155092394484327
 20
0.72641424195806
 30
0.0
 11
7.172807158244365
 21
0.7884159151181987
 31
0.0
  0
LINE
  5
360C
330
1E
100
AcDbEntity
  8
7
100
AcDbLine
 10
7.060613654430781
 20
0.6585076475445764
 30
0.0
 11
7.107853024457556
 21
0.6673650294245955
 31
0.0
  0
LINE
  5
360D
330
1E
100
AcDbEntity
  8
7
100
AcDbLine
 10
7.107853024457556
 20
0.6673650294245955
 30
0.0
 11
7.146235012604305
 21
0.6939371750646553
 31
0.0
  0
LINE
  5
360E
330
1E
100
AcDbEntity
  8
7
100
AcDbLine
 10
7.146235012604305
 20
0.6939371750646553
 30
0.0
 11
7.172807158244365
 21
0.7323191632114066
 31
0.0
  0
LINE
  5
360F
330
1E
100
AcDbEntity
  8
7
100
AcDbLine
 10
7.172807158244365
 20
0.7323191632114066
 30
0.0
 11
7.181664540124385
 21
0.7766060726115054
 31
0.0
  0
LINE
  5
3610
330
1E
100
AcDbEntity
  8
7
100
AcDbLine
 10
7.051756272550763
 20
3.427915715364064
 30
0.0
 11
7.051756272550763
 21
0.7884159151181987
 31
0.0
  0
LINE
  5
3611
330
1E
100
AcDbEntity
  8
7
100
AcDbLine
 10
7.051756272550763
 20
0.7884159151181987
 30
0.0
 11
7.110805485084227
 21
0.7884159151181987
 31
0.0
  0
LINE
  5
3612
330
1E
100
AcDbEntity
  8
7
100
AcDbLine
 10
7.110805485084227
 20
0.7884159151181987
 30
0.0
 11
7.155092394484327
 21
0.7884159151181987
 31
0.0
  0
LINE
  5
3613
330
1E
100
AcDbEntity
  8
7
100
AcDbLine
 10
7.155092394484327
 20
0.7884159151181987
 30
0.0
 11
7.172807158244365
 21
0.7884159151181987
 31
0.0
  0
LINE
  5
3614
330
1E
100
AcDbEntity
  8
7
100
AcDbLine
 10
7.051756272550763
 20
3.427915715364064
 30
0.0
 11
7.110805485084227
 21
3.427915715364064
 31
0.0
  0
LINE
  5
3615
330
1E
100
AcDbEntity
  8
7
100
AcDbLine
 10
7.110805485084227
 20
3.427915715364064
 30
0.0
 11
7.155092394484327
 21
3.427915715364064
 31
0.0
  0
LINE
  5
3616
330
1E
100
AcDbEntity
  8
7
100
AcDbLine
 10
7.155092394484327
 20
3.427915715364064
 30
0.0
 11
7.172807158244365
 21
3.427915715364064
 31
0.0
  0
LINE
  5
3617
330
1E
100
AcDbEntity
  8
7
100
AcDbLine
 10
7.181664540124385
 20
3.436773097244083
 30
0.0
 11
7.172807158244365
 21
3.427915715364064
 31
0.0
  0
LINE
  5
3618
330
1E
100
AcDbEntity
  8
7
100
AcDbLine
 10
7.172807158244365
 20
3.427915715364064
 30
0.0
 11
7.172807158244365
 21
2.607131661148906
 31
0.0
  0
LINE
  5
3619
330
1E
100
AcDbEntity
  8
7
100
AcDbLine
 10
6.58231503290972
 20
2.072736287721052
 30
0.0
 11
6.58231503290972
 21
1.491101544266426
 31
0.0
  0
LINE
  5
361A
330
1E
100
AcDbEntity
  8
7
100
AcDbLine
 10
6.58231503290972
 20
1.491101544266426
 30
0.0
 11
5.935726155668281
 21
1.491101544266426
 31
0.0
  0
LINE
  5
361B
330
1E
100
AcDbEntity
  8
7
100
AcDbLine
 10
5.60505056548088
 20
9.385981259990639
 30
0.0
 11
5.60505056548088
 21
9.368266496230601
 31
0.0
  0
LINE
  5
361C
330
1E
100
AcDbEntity
  8
7
100
AcDbLine
 10
5.60505056548088
 20
9.368266496230601
 30
0.0
 11
5.60505056548088
 21
9.326932047457173
 31
0.0
  0
LINE
  5
361D
330
1E
100
AcDbEntity
  8
7
100
AcDbLine
 10
5.60505056548088
 20
9.326932047457173
 30
0.0
 11
5.60505056548088
 21
9.267882834923709
 31
0.0
  0
LINE
  5
361E
330
1E
100
AcDbEntity
  8
7
100
AcDbLine
 10
5.60505056548088
 20
9.267882834923709
 30
0.0
 11
7.051756272550763
 21
9.267882834923709
 31
0.0
  0
LINE
  5
361F
330
1E
100
AcDbEntity
  8
7
100
AcDbLine
 10
5.478094758533933
 20
9.27674021680373
 30
0.0
 11
5.486952140413952
 21
9.3239795868305
 31
0.0
  0
LINE
  5
3620
330
1E
100
AcDbEntity
  8
7
100
AcDbLine
 10
5.486952140413952
 20
9.3239795868305
 30
0.0
 11
5.510571825427336
 21
9.362361574977255
 31
0.0
  0
LINE
  5
3621
330
1E
100
AcDbEntity
  8
7
100
AcDbLine
 10
5.510571825427336
 20
9.362361574977255
 30
0.0
 11
5.551906274200764
 21
9.388933720617311
 31
0.0
  0
LINE
  5
3622
330
1E
100
AcDbEntity
  8
7
100
AcDbLine
 10
5.551906274200764
 20
9.388933720617311
 30
0.0
 11
5.596193183600862
 21
9.397791102497333
 31
0.0
  0
LINE
  5
3623
330
1E
100
AcDbEntity
  8
7
100
AcDbLine
 10
5.546001352947415
 20
9.371218956857273
 30
0.0
 11
5.501714443547316
 21
9.326932047457173
 31
0.0
  0
LINE
  5
3624
330
1E
100
AcDbEntity
  8
7
100
AcDbLine
 10
5.501714443547316
 20
9.326932047457173
 30
0.0
 11
5.486952140413952
 21
9.267882834923709
 31
0.0
  0
LINE
  5
3625
330
1E
100
AcDbEntity
  8
7
100
AcDbLine
 10
5.60505056548088
 20
6.507332148984241
 30
0.0
 11
5.60505056548088
 21
6.525046912744279
 31
0.0
  0
LINE
  5
3626
330
1E
100
AcDbEntity
  8
7
100
AcDbLine
 10
5.60505056548088
 20
6.525046912744279
 30
0.0
 11
5.60505056548088
 21
6.569333822144379
 31
0.0
  0
LINE
  5
3627
330
1E
100
AcDbEntity
  8
7
100
AcDbLine
 10
5.60505056548088
 20
6.569333822144379
 30
0.0
 11
5.60505056548088
 21
6.62543057405117
 31
0.0
  0
LINE
  5
3628
330
1E
100
AcDbEntity
  8
7
100
AcDbLine
 10
5.478094758533933
 20
6.616573192171149
 30
0.0
 11
5.486952140413952
 21
6.572286282771051
 31
0.0
  0
LINE
  5
3629
330
1E
100
AcDbEntity
  8
7
100
AcDbLine
 10
5.486952140413952
 20
6.572286282771051
 30
0.0
 11
5.510571825427336
 21
6.530951833997628
 31
0.0
  0
LINE
  5
362A
330
1E
100
AcDbEntity
  8
7
100
AcDbLine
 10
5.510571825427336
 20
6.530951833997628
 30
0.0
 11
5.551906274200764
 21
6.507332148984241
 31
0.0
  0
LINE
  5
362B
330
1E
100
AcDbEntity
  8
7
100
AcDbLine
 10
5.551906274200764
 20
6.507332148984241
 30
0.0
 11
5.596193183600862
 21
6.495522306477548
 31
0.0
  0
LINE
  5
362C
330
1E
100
AcDbEntity
  8
7
100
AcDbLine
 10
5.596193183600862
 20
6.495522306477548
 30
0.0
 11
5.60505056548088
 21
6.507332148984241
 31
0.0
  0
LINE
  5
362D
330
1E
100
AcDbEntity
  8
7
100
AcDbLine
 10
5.60505056548088
 20
6.507332148984241
 30
0.0
 11
5.546001352947415
 21
6.522094452117607
 31
0.0
  0
LINE
  5
362E
330
1E
100
AcDbEntity
  8
7
100
AcDbLine
 10
5.546001352947415
 20
6.522094452117607
 30
0.0
 11
5.501714443547316
 21
6.566381361517706
 31
0.0
  0
LINE
  5
362F
330
1E
100
AcDbEntity
  8
7
100
AcDbLine
 10
5.501714443547316
 20
6.566381361517706
 30
0.0
 11
5.486952140413952
 21
6.62543057405117
 31
0.0
  0
LINE
  5
3630
330
1E
100
AcDbEntity
  8
7
100
AcDbLine
 10
5.486952140413952
 20
6.62543057405117
 30
0.0
 11
5.504666904173991
 21
6.62543057405117
 31
0.0
  0
LINE
  5
3631
330
1E
100
AcDbEntity
  8
7
100
AcDbLine
 10
5.504666904173991
 20
6.62543057405117
 30
0.0
 11
5.548953813574088
 21
6.62543057405117
 31
0.0
  0
LINE
  5
3632
330
1E
100
AcDbEntity
  8
7
100
AcDbLine
 10
5.548953813574088
 20
6.62543057405117
 30
0.0
 11
5.60505056548088
 21
6.62543057405117
 31
0.0
  0
LINE
  5
3633
330
1E
100
AcDbEntity
  8
7
100
AcDbLine
 10
5.486952140413952
 20
9.267882834923709
 30
0.0
 11
5.504666904173991
 21
9.267882834923709
 31
0.0
  0
LINE
  5
3634
330
1E
100
AcDbEntity
  8
7
100
AcDbLine
 10
5.504666904173991
 20
9.267882834923709
 30
0.0
 11
5.548953813574088
 21
9.267882834923709
 31
0.0
  0
LINE
  5
3635
330
1E
100
AcDbEntity
  8
7
100
AcDbLine
 10
5.548953813574088
 20
9.267882834923709
 30
0.0
 11
5.60505056548088
 21
9.267882834923709
 31
0.0
  0
LINE
  5
3636
330
1E
100
AcDbEntity
  8
7
100
AcDbLine
 10
5.486952140413952
 20
6.62543057405117
 30
0.0
 11
5.486952140413952
 21
9.267882834923709
 31
0.0
  0
LINE
  5
3637
330
1E
100
AcDbEntity
  8
7
100
AcDbLine
 10
5.486952140413952
 20
9.267882834923709
 30
0.0
 11
5.478094758533933
 21
9.27674021680373
 31
0.0
  0
LINE
  5
3638
330
1E
100
AcDbEntity
  8
7
100
AcDbLine
 10
5.478094758533933
 20
9.27674021680373
 30
0.0
 11
5.478094758533933
 21
6.616573192171149
 31
0.0
  0
LINE
  5
3639
330
1E
100
AcDbEntity
  8
7
100
AcDbLine
 10
7.051756272550763
 20
9.385981259990639
 30
0.0
 11
7.051756272550763
 21
9.368266496230601
 31
0.0
  0
LINE
  5
363A
330
1E
100
AcDbEntity
  8
7
100
AcDbLine
 10
7.051756272550763
 20
9.368266496230601
 30
0.0
 11
7.051756272550763
 21
9.326932047457173
 31
0.0
  0
LINE
  5
363B
330
1E
100
AcDbEntity
  8
7
100
AcDbLine
 10
7.051756272550763
 20
9.326932047457173
 30
0.0
 11
7.051756272550763
 21
9.267882834923709
 31
0.0
  0
LINE
  5
363C
330
1E
100
AcDbEntity
  8
7
100
AcDbLine
 10
7.060613654430781
 20
9.397791102497333
 30
0.0
 11
7.107853024457556
 21
9.388933720617311
 31
0.0
  0
LINE
  5
363D
330
1E
100
AcDbEntity
  8
7
100
AcDbLine
 10
7.107853024457556
 20
9.388933720617311
 30
0.0
 11
7.146235012604305
 21
9.362361574977255
 31
0.0
  0
LINE
  5
363E
330
1E
100
AcDbEntity
  8
7
100
AcDbLine
 10
7.146235012604305
 20
9.362361574977255
 30
0.0
 11
7.172807158244365
 21
9.3239795868305
 31
0.0
  0
LINE
  5
363F
330
1E
100
AcDbEntity
  8
7
100
AcDbLine
 10
7.172807158244365
 20
9.3239795868305
 30
0.0
 11
7.181664540124385
 21
9.27674021680373
 31
0.0
  0
LINE
  5
3640
330
1E
100
AcDbEntity
  8
7
100
AcDbLine
 10
7.051756272550763
 20
9.385981259990639
 30
0.0
 11
7.110805485084227
 21
9.371218956857273
 31
0.0
  0
LINE
  5
3641
330
1E
100
AcDbEntity
  8
7
100
AcDbLine
 10
7.110805485084227
 20
9.371218956857273
 30
0.0
 11
7.155092394484327
 21
9.326932047457173
 31
0.0
  0
LINE
  5
3642
330
1E
100
AcDbEntity
  8
7
100
AcDbLine
 10
7.155092394484327
 20
9.326932047457173
 30
0.0
 11
7.172807158244365
 21
9.267882834923709
 31
0.0
  0
LINE
  5
3643
330
1E
100
AcDbEntity
  8
7
100
AcDbLine
 10
7.051756272550763
 20
6.507332148984241
 30
0.0
 11
7.051756272550763
 21
6.525046912744279
 31
0.0
  0
LINE
  5
3644
330
1E
100
AcDbEntity
  8
7
100
AcDbLine
 10
7.051756272550763
 20
6.525046912744279
 30
0.0
 11
7.051756272550763
 21
6.569333822144379
 31
0.0
  0
LINE
  5
3645
330
1E
100
AcDbEntity
  8
7
100
AcDbLine
 10
7.051756272550763
 20
6.569333822144379
 30
0.0
 11
7.051756272550763
 21
6.62543057405117
 31
0.0
  0
LINE
  5
3646
330
1E
100
AcDbEntity
  8
7
100
AcDbLine
 10
7.051756272550763
 20
6.507332148984241
 30
0.0
 11
7.110805485084227
 21
6.522094452117607
 31
0.0
  0
LINE
  5
3647
330
1E
100
AcDbEntity
  8
7
100
AcDbLine
 10
7.110805485084227
 20
6.522094452117607
 30
0.0
 11
7.155092394484327
 21
6.566381361517706
 31
0.0
  0
LINE
  5
3648
330
1E
100
AcDbEntity
  8
7
100
AcDbLine
 10
7.155092394484327
 20
6.566381361517706
 30
0.0
 11
7.172807158244365
 21
6.62543057405117
 31
0.0
  0
LINE
  5
3649
330
1E
100
AcDbEntity
  8
7
100
AcDbLine
 10
7.051756272550763
 20
6.507332148984241
 30
0.0
 11
7.060613654430781
 21
6.495522306477548
 31
0.0
  0
LINE
  5
364A
330
1E
100
AcDbEntity
  8
7
100
AcDbLine
 10
7.060613654430781
 20
6.495522306477548
 30
0.0
 11
7.107853024457556
 21
6.507332148984241
 31
0.0
  0
LINE
  5
364B
330
1E
100
AcDbEntity
  8
7
100
AcDbLine
 10
7.107853024457556
 20
6.507332148984241
 30
0.0
 11
7.146235012604305
 21
6.530951833997628
 31
0.0
  0
LINE
  5
364C
330
1E
100
AcDbEntity
  8
7
100
AcDbLine
 10
7.146235012604305
 20
6.530951833997628
 30
0.0
 11
7.172807158244365
 21
6.572286282771051
 31
0.0
  0
LINE
  5
364D
330
1E
100
AcDbEntity
  8
7
100
AcDbLine
 10
7.172807158244365
 20
6.572286282771051
 30
0.0
 11
7.181664540124385
 21
6.616573192171149
 31
0.0
  0
LINE
  5
364E
330
1E
100
AcDbEntity
  8
7
100
AcDbLine
 10
7.051756272550763
 20
9.267882834923709
 30
0.0
 11
7.051756272550763
 21
6.62543057405117
 31
0.0
  0
LINE
  5
364F
330
1E
100
AcDbEntity
  8
7
100
AcDbLine
 10
7.051756272550763
 20
6.62543057405117
 30
0.0
 11
7.110805485084227
 21
6.62543057405117
 31
0.0
  0
LINE
  5
3650
330
1E
100
AcDbEntity
  8
7
100
AcDbLine
 10
7.110805485084227
 20
6.62543057405117
 30
0.0
 11
7.155092394484327
 21
6.62543057405117
 31
0.0
  0
LINE
  5
3651
330
1E
100
AcDbEntity
  8
7
100
AcDbLine
 10
7.155092394484327
 20
6.62543057405117
 30
0.0
 11
7.172807158244365
 21
6.62543057405117
 31
0.0
  0
LINE
  5
3652
330
1E
100
AcDbEntity
  8
7
100
AcDbLine
 10
7.051756272550763
 20
9.267882834923709
 30
0.0
 11
7.110805485084227
 21
9.267882834923709
 31
0.0
  0
LINE
  5
3653
330
1E
100
AcDbEntity
  8
7
100
AcDbLine
 10
7.110805485084227
 20
9.267882834923709
 30
0.0
 11
7.155092394484327
 21
9.267882834923709
 31
0.0
  0
LINE
  5
3654
330
1E
100
AcDbEntity
  8
7
100
AcDbLine
 10
7.155092394484327
 20
9.267882834923709
 30
0.0
 11
7.172807158244365
 21
9.267882834923709
 31
0.0
  0
LINE
  5
3655
330
1E
100
AcDbEntity
  8
7
100
AcDbLine
 10
7.181664540124385
 20
9.27674021680373
 30
0.0
 11
7.172807158244365
 21
9.267882834923709
 31
0.0
  0
LINE
  5
3656
330
1E
100
AcDbEntity
  8
7
100
AcDbLine
 10
7.172807158244365
 20
9.267882834923709
 30
0.0
 11
7.172807158244365
 21
8.447098780708552
 31
0.0
  0
LINE
  5
3657
330
1E
100
AcDbEntity
  8
7
100
AcDbLine
 10
6.58231503290972
 20
7.912703407280699
 30
0.0
 11
6.58231503290972
 21
7.331068663826071
 31
0.0
  0
LINE
  5
3658
330
1E
100
AcDbEntity
  8
7
100
AcDbLine
 10
6.58231503290972
 20
7.331068663826071
 30
0.0
 11
5.935726155668281
 21
7.331068663826071
 31
0.0
  0
LINE
  5
3659
330
1E
100
AcDbEntity
  8
7
100
AcDbLine
 10
5.60505056548088
 20
6.465997700210815
 30
0.0
 11
5.60505056548088
 21
6.448282936450777
 31
0.0
  0
LINE
  5
365A
330
1E
100
AcDbEntity
  8
7
100
AcDbLine
 10
5.60505056548088
 20
6.448282936450777
 30
0.0
 11
5.60505056548088
 21
6.40694848767735
 31
0.0
  0
LINE
  5
365B
330
1E
100
AcDbEntity
  8
7
100
AcDbLine
 10
5.60505056548088
 20
6.40694848767735
 30
0.0
 11
5.60505056548088
 21
6.347899275143886
 31
0.0
  0
LINE
  5
365C
330
1E
100
AcDbEntity
  8
7
100
AcDbLine
 10
5.60505056548088
 20
6.347899275143886
 30
0.0
 11
7.051756272550763
 21
6.347899275143886
 31
0.0
  0
LINE
  5
365D
330
1E
100
AcDbEntity
  8
7
100
AcDbLine
 10
5.478094758533933
 20
6.356756657023907
 30
0.0
 11
5.486952140413952
 21
6.403996027050678
 31
0.0
  0
LINE
  5
365E
330
1E
100
AcDbEntity
  8
7
100
AcDbLine
 10
5.486952140413952
 20
6.403996027050678
 30
0.0
 11
5.510571825427336
 21
6.44237801519743
 31
0.0
  0
LINE
  5
365F
330
1E
100
AcDbEntity
  8
7
100
AcDbLine
 10
5.510571825427336
 20
6.44237801519743
 30
0.0
 11
5.551906274200764
 21
6.468950160837491
 31
0.0
  0
LINE
  5
3660
330
1E
100
AcDbEntity
  8
7
100
AcDbLine
 10
5.551906274200764
 20
6.468950160837491
 30
0.0
 11
5.596193183600862
 21
6.477807542717508
 31
0.0
  0
LINE
  5
3661
330
1E
100
AcDbEntity
  8
7
100
AcDbLine
 10
5.60505056548088
 20
6.465997700210815
 30
0.0
 11
5.546001352947415
 21
6.45123539707745
 31
0.0
  0
LINE
  5
3662
330
1E
100
AcDbEntity
  8
7
100
AcDbLine
 10
5.546001352947415
 20
6.45123539707745
 30
0.0
 11
5.501714443547316
 21
6.40694848767735
 31
0.0
  0
LINE
  5
3663
330
1E
100
AcDbEntity
  8
7
100
AcDbLine
 10
5.60505056548088
 20
3.587348589204419
 30
0.0
 11
5.60505056548088
 21
3.605063352964457
 31
0.0
  0
LINE
  5
3664
330
1E
100
AcDbEntity
  8
7
100
AcDbLine
 10
5.60505056548088
 20
3.605063352964457
 30
0.0
 11
5.60505056548088
 21
3.649350262364555
 31
0.0
  0
LINE
  5
3665
330
1E
100
AcDbEntity
  8
7
100
AcDbLine
 10
5.60505056548088
 20
3.649350262364555
 30
0.0
 11
5.60505056548088
 21
3.70839947489802
 31
0.0
  0
LINE
  5
3666
330
1E
100
AcDbEntity
  8
7
100
AcDbLine
 10
5.486952140413952
 20
3.652302722991229
 30
0.0
 11
5.510571825427336
 21
3.610968274217805
 31
0.0
  0
LINE
  5
3667
330
1E
100
AcDbEntity
  8
7
100
AcDbLine
 10
5.510571825427336
 20
3.610968274217805
 30
0.0
 11
5.551906274200764
 21
3.587348589204419
 31
0.0
  0
LINE
  5
3668
330
1E
100
AcDbEntity
  8
7
100
AcDbLine
 10
5.551906274200764
 20
3.587348589204419
 30
0.0
 11
5.596193183600862
 21
3.578491207324399
 31
0.0
  0
LINE
  5
3669
330
1E
100
AcDbEntity
  8
7
100
AcDbLine
 10
5.596193183600862
 20
3.578491207324399
 30
0.0
 11
5.60505056548088
 21
3.587348589204419
 31
0.0
  0
LINE
  5
366A
330
1E
100
AcDbEntity
  8
7
100
AcDbLine
 10
5.60505056548088
 20
3.587348589204419
 30
0.0
 11
5.546001352947415
 21
3.602110892337784
 31
0.0
  0
LINE
  5
366B
330
1E
100
AcDbEntity
  8
7
100
AcDbLine
 10
5.546001352947415
 20
3.602110892337784
 30
0.0
 11
5.501714443547316
 21
3.646397801737883
 31
0.0
  0
LINE
  5
366C
330
1E
100
AcDbEntity
  8
7
100
AcDbLine
 10
5.501714443547316
 20
3.646397801737883
 30
0.0
 11
5.486952140413952
 21
3.70839947489802
 31
0.0
  0
LINE
  5
366D
330
1E
100
AcDbEntity
  8
7
100
AcDbLine
 10
5.486952140413952
 20
3.70839947489802
 30
0.0
 11
5.504666904173991
 21
3.70839947489802
 31
0.0
  0
LINE
  5
366E
330
1E
100
AcDbEntity
  8
7
100
AcDbLine
 10
5.504666904173991
 20
3.70839947489802
 30
0.0
 11
5.548953813574088
 21
3.70839947489802
 31
0.0
  0
LINE
  5
366F
330
1E
100
AcDbEntity
  8
7
100
AcDbLine
 10
5.548953813574088
 20
3.70839947489802
 30
0.0
 11
5.60505056548088
 21
3.70839947489802
 31
0.0
  0
LINE
  5
3670
330
1E
100
AcDbEntity
  8
7
100
AcDbLine
 10
5.486952140413952
 20
6.347899275143886
 30
0.0
 11
5.504666904173991
 21
6.347899275143886
 31
0.0
  0
LINE
  5
3671
330
1E
100
AcDbEntity
  8
7
100
AcDbLine
 10
5.504666904173991
 20
6.347899275143886
 30
0.0
 11
5.548953813574088
 21
6.347899275143886
 31
0.0
  0
LINE
  5
3672
330
1E
100
AcDbEntity
  8
7
100
AcDbLine
 10
5.548953813574088
 20
6.347899275143886
 30
0.0
 11
5.60505056548088
 21
6.347899275143886
 31
0.0
  0
LINE
  5
3673
330
1E
100
AcDbEntity
  8
7
100
AcDbLine
 10
5.486952140413952
 20
3.70839947489802
 30
0.0
 11
5.486952140413952
 21
6.347899275143886
 31
0.0
  0
LINE
  5
3674
330
1E
100
AcDbEntity
  8
7
100
AcDbLine
 10
5.486952140413952
 20
6.347899275143886
 30
0.0
 11
5.478094758533933
 21
6.356756657023907
 31
0.0
  0
LINE
  5
3675
330
1E
100
AcDbEntity
  8
7
100
AcDbLine
 10
5.478094758533933
 20
6.356756657023907
 30
0.0
 11
5.478094758533933
 21
3.696589632391328
 31
0.0
  0
LINE
  5
3676
330
1E
100
AcDbEntity
  8
7
100
AcDbLine
 10
7.051756272550763
 20
6.465997700210815
 30
0.0
 11
7.051756272550763
 21
6.448282936450777
 31
0.0
  0
LINE
  5
3677
330
1E
100
AcDbEntity
  8
7
100
AcDbLine
 10
7.051756272550763
 20
6.448282936450777
 30
0.0
 11
7.051756272550763
 21
6.40694848767735
 31
0.0
  0
LINE
  5
3678
330
1E
100
AcDbEntity
  8
7
100
AcDbLine
 10
7.051756272550763
 20
6.40694848767735
 30
0.0
 11
7.051756272550763
 21
6.347899275143886
 31
0.0
  0
LINE
  5
3679
330
1E
100
AcDbEntity
  8
7
100
AcDbLine
 10
7.060613654430781
 20
6.477807542717508
 30
0.0
 11
7.107853024457556
 21
6.468950160837491
 31
0.0
  0
LINE
  5
367A
330
1E
100
AcDbEntity
  8
7
100
AcDbLine
 10
7.107853024457556
 20
6.468950160837491
 30
0.0
 11
7.146235012604305
 21
6.44237801519743
 31
0.0
  0
LINE
  5
367B
330
1E
100
AcDbEntity
  8
7
100
AcDbLine
 10
7.146235012604305
 20
6.44237801519743
 30
0.0
 11
7.172807158244365
 21
6.403996027050678
 31
0.0
  0
LINE
  5
367C
330
1E
100
AcDbEntity
  8
7
100
AcDbLine
 10
7.172807158244365
 20
6.403996027050678
 30
0.0
 11
7.181664540124385
 21
6.356756657023907
 31
0.0
  0
LINE
  5
367D
330
1E
100
AcDbEntity
  8
7
100
AcDbLine
 10
7.051756272550763
 20
6.465997700210815
 30
0.0
 11
7.110805485084227
 21
6.45123539707745
 31
0.0
  0
LINE
  5
367E
330
1E
100
AcDbEntity
  8
7
100
AcDbLine
 10
7.110805485084227
 20
6.45123539707745
 30
0.0
 11
7.155092394484327
 21
6.40694848767735
 31
0.0
  0
LINE
  5
367F
330
1E
100
AcDbEntity
  8
7
100
AcDbLine
 10
7.155092394484327
 20
6.40694848767735
 30
0.0
 11
7.172807158244365
 21
6.347899275143886
 31
0.0
  0
LINE
  5
3680
330
1E
100
AcDbEntity
  8
7
100
AcDbLine
 10
7.051756272550763
 20
3.587348589204419
 30
0.0
 11
7.051756272550763
 21
3.605063352964457
 31
0.0
  0
LINE
  5
3681
330
1E
100
AcDbEntity
  8
7
100
AcDbLine
 10
7.051756272550763
 20
3.605063352964457
 30
0.0
 11
7.051756272550763
 21
3.649350262364555
 31
0.0
  0
LINE
  5
3682
330
1E
100
AcDbEntity
  8
7
100
AcDbLine
 10
7.051756272550763
 20
3.649350262364555
 30
0.0
 11
7.051756272550763
 21
3.70839947489802
 31
0.0
  0
LINE
  5
3683
330
1E
100
AcDbEntity
  8
7
100
AcDbLine
 10
7.051756272550763
 20
3.587348589204419
 30
0.0
 11
7.110805485084227
 21
3.602110892337784
 31
0.0
  0
LINE
  5
3684
330
1E
100
AcDbEntity
  8
7
100
AcDbLine
 10
7.110805485084227
 20
3.602110892337784
 30
0.0
 11
7.155092394484327
 21
3.646397801737883
 31
0.0
  0
LINE
  5
3685
330
1E
100
AcDbEntity
  8
7
100
AcDbLine
 10
7.155092394484327
 20
3.646397801737883
 30
0.0
 11
7.172807158244365
 21
3.70839947489802
 31
0.0
  0
LINE
  5
3686
330
1E
100
AcDbEntity
  8
7
100
AcDbLine
 10
7.051756272550763
 20
3.587348589204419
 30
0.0
 11
7.060613654430781
 21
3.578491207324399
 31
0.0
  0
LINE
  5
3687
330
1E
100
AcDbEntity
  8
7
100
AcDbLine
 10
7.060613654430781
 20
3.578491207324399
 30
0.0
 11
7.107853024457556
 21
3.587348589204419
 31
0.0
  0
LINE
  5
3688
330
1E
100
AcDbEntity
  8
7
100
AcDbLine
 10
7.107853024457556
 20
3.587348589204419
 30
0.0
 11
7.146235012604305
 21
3.610968274217805
 31
0.0
  0
LINE
  5
3689
330
1E
100
AcDbEntity
  8
7
100
AcDbLine
 10
7.146235012604305
 20
3.610968274217805
 30
0.0
 11
7.172807158244365
 21
3.652302722991229
 31
0.0
  0
LINE
  5
368A
330
1E
100
AcDbEntity
  8
7
100
AcDbLine
 10
7.172807158244365
 20
3.652302722991229
 30
0.0
 11
7.181664540124385
 21
3.696589632391328
 31
0.0
  0
LINE
  5
368B
330
1E
100
AcDbEntity
  8
7
100
AcDbLine
 10
7.051756272550763
 20
6.347899275143886
 30
0.0
 11
7.051756272550763
 21
3.70839947489802
 31
0.0
  0
LINE
  5
368C
330
1E
100
AcDbEntity
  8
7
100
AcDbLine
 10
7.051756272550763
 20
3.70839947489802
 30
0.0
 11
7.110805485084227
 21
3.70839947489802
 31
0.0
  0
LINE
  5
368D
330
1E
100
AcDbEntity
  8
7
100
AcDbLine
 10
7.110805485084227
 20
3.70839947489802
 30
0.0
 11
7.155092394484327
 21
3.70839947489802
 31
0.0
  0
LINE
  5
368E
330
1E
100
AcDbEntity
  8
7
100
AcDbLine
 10
7.155092394484327
 20
3.70839947489802
 30
0.0
 11
7.172807158244365
 21
3.70839947489802
 31
0.0
  0
LINE
  5
368F
330
1E
100
AcDbEntity
  8
7
100
AcDbLine
 10
7.051756272550763
 20
6.347899275143886
 30
0.0
 11
7.110805485084227
 21
6.347899275143886
 31
0.0
  0
LINE
  5
3690
330
1E
100
AcDbEntity
  8
7
100
AcDbLine
 10
7.110805485084227
 20
6.347899275143886
 30
0.0
 11
7.155092394484327
 21
6.347899275143886
 31
0.0
  0
LINE
  5
3691
330
1E
100
AcDbEntity
  8
7
100
AcDbLine
 10
7.155092394484327
 20
6.347899275143886
 30
0.0
 11
7.172807158244365
 21
6.347899275143886
 31
0.0
  0
LINE
  5
3692
330
1E
100
AcDbEntity
  8
7
100
AcDbLine
 10
7.181664540124385
 20
6.356756657023907
 30
0.0
 11
7.172807158244365
 21
6.347899275143886
 31
0.0
  0
LINE
  5
3693
330
1E
100
AcDbEntity
  8
7
100
AcDbLine
 10
7.172807158244365
 20
6.347899275143886
 30
0.0
 11
7.172807158244365
 21
5.527115220928728
 31
0.0
  0
LINE
  5
3694
330
1E
100
AcDbEntity
  8
7
100
AcDbLine
 10
6.58231503290972
 20
4.992719847500875
 30
0.0
 11
6.58231503290972
 21
4.411085104046248
 31
0.0
  0
LINE
  5
3695
330
1E
100
AcDbEntity
  8
7
100
AcDbLine
 10
6.58231503290972
 20
4.411085104046248
 30
0.0
 11
5.935726155668281
 21
4.411085104046248
 31
0.0
  0
LINE
  5
3696
330
1E
100
AcDbEntity
  8
7
100
AcDbLine
 10
5.427902927880488
 20
0.0266810734365048
 30
0.0
 11
5.38361601848039
 21
0.0266810734365048
 31
0.0
  0
LINE
  5
3697
330
1E
100
AcDbEntity
  8
7
100
AcDbLine
 10
5.38361601848039
 20
0.0266810734365048
 30
0.0
 11
5.34818649096031
 21
0.0266810734365048
 31
0.0
  0
LINE
  5
3698
330
1E
100
AcDbEntity
  8
7
100
AcDbLine
 10
5.34818649096031
 20
0.0266810734365048
 30
0.0
 11
5.336376648453619
 21
0.0266810734365048
 31
0.0
  0
LINE
  5
3699
330
1E
100
AcDbEntity
  8
7
100
AcDbLine
 10
7.287953122684621
 20
10.02666521597872
 30
0.0
 11
7.287953122684621
 21
0.0266810734365048
 31
0.0
  0
LINE
  5
369A
330
1E
100
AcDbEntity
  8
7
100
AcDbLine
 10
7.287953122684621
 20
0.0266810734365048
 30
0.0
 11
7.332240032084721
 21
0.0266810734365048
 31
0.0
  0
LINE
  5
369B
330
1E
100
AcDbEntity
  8
7
100
AcDbLine
 10
7.332240032084721
 20
0.0266810734365048
 30
0.0
 11
7.364717098978124
 21
0.0266810734365048
 31
0.0
  0
LINE
  5
369C
330
1E
100
AcDbEntity
  8
7
100
AcDbLine
 10
7.364717098978124
 20
0.0266810734365048
 30
0.0
 11
7.376526941484817
 21
0.0266810734365048
 31
0.0
  0
LINE
  5
369D
330
1E
100
AcDbEntity
  8
7
100
AcDbLine
 10
7.376526941484817
 20
0.0266810734365048
 30
0.0
 11
7.376526941484817
 21
10.02666521597872
 31
0.0
  0
LINE
  5
369E
330
1E
100
AcDbEntity
  8
7
100
AcDbLine
 10
7.287953122684621
 20
10.02666521597872
 30
0.0
 11
7.332240032084721
 21
10.02666521597872
 31
0.0
  0
LINE
  5
369F
330
1E
100
AcDbEntity
  8
7
100
AcDbLine
 10
7.332240032084721
 20
10.02666521597872
 30
0.0
 11
7.364717098978124
 21
10.02666521597872
 31
0.0
  0
LINE
  5
36A0
330
1E
100
AcDbEntity
  8
7
100
AcDbLine
 10
7.364717098978124
 20
10.02666521597872
 30
0.0
 11
7.376526941484817
 21
10.02666521597872
 31
0.0
  0
LINE
  5
36A1
330
1E
100
AcDbEntity
  8
7
100
AcDbLine
 10
7.287953122684621
 20
10.02666521597872
 30
0.0
 11
5.427902927880488
 21
10.02666521597872
 31
0.0
  0
LINE
  5
36A2
330
1E
100
AcDbEntity
  8
7
100
AcDbLine
 10
5.427902927880488
 20
10.02666521597872
 30
0.0
 11
5.38361601848039
 21
10.02666521597872
 31
0.0
  0
LINE
  5
36A3
330
1E
100
AcDbEntity
  8
7
100
AcDbLine
 10
5.38361601848039
 20
10.02666521597872
 30
0.0
 11
5.34818649096031
 21
10.02666521597872
 31
0.0
  0
LINE
  5
36A4
330
1E
100
AcDbEntity
  8
7
100
AcDbLine
 10
5.34818649096031
 20
10.02666521597872
 30
0.0
 11
5.336376648453619
 21
10.02666521597872
 31
0.0
  0
LINE
  5
36A5
330
1E
100
AcDbEntity
  8
7
100
AcDbLine
 10
5.85305725812143
 20
9.710751928924693
 30
0.0
 11
5.861914640001451
 21
9.713704389551367
 31
0.0
  0
LINE
  5
36A6
330
1E
100
AcDbEntity
  8
7
100
AcDbLine
 10
5.861914640001451
 20
9.713704389551367
 30
0.0
 11
5.864867100628123
 21
9.722561771431387
 31
0.0
  0
LINE
  5
36A7
330
1E
100
AcDbEntity
  8
7
100
AcDbLine
 10
5.864867100628123
 20
9.799325747724891
 30
0.0
 11
5.861914640001451
 21
9.808183129604913
 31
0.0
  0
LINE
  5
36A8
330
1E
100
AcDbEntity
  8
7
100
AcDbLine
 10
5.861914640001451
 20
9.808183129604913
 30
0.0
 11
5.85305725812143
 21
9.811135590231584
 31
0.0
  0
LINE
  5
36A9
330
1E
100
AcDbEntity
  8
7
100
AcDbLine
 10
6.431739540949386
 20
9.622178110124499
 30
0.0
 11
6.43764446220273
 21
9.625130570751171
 31
0.0
  0
LINE
  5
36AA
330
1E
100
AcDbEntity
  8
7
100
AcDbLine
 10
6.43764446220273
 20
9.625130570751171
 30
0.0
 11
6.440596922829405
 21
9.631035492004517
 31
0.0
  0
LINE
  5
36AB
330
1E
100
AcDbEntity
  8
7
100
AcDbLine
 10
5.982965525695055
 20
9.713704389551367
 30
0.0
 11
5.997727828828422
 21
9.763896220204813
 31
0.0
  0
LINE
  5
36AC
330
1E
100
AcDbEntity
  8
7
100
AcDbLine
 10
5.997727828828422
 20
9.763896220204813
 30
0.0
 11
5.982965525695055
 21
9.814088050858256
 31
0.0
  0
LINE
  5
36AD
330
1E
100
AcDbEntity
  8
7
100
AcDbLine
 10
5.982965525695055
 20
9.814088050858256
 30
0.0
 11
5.947535998174977
 21
9.849517578378335
 31
0.0
  0
LINE
  5
36AE
330
1E
100
AcDbEntity
  8
7
100
AcDbLine
 10
5.947535998174977
 20
9.849517578378335
 30
0.0
 11
5.897344167521529
 21
9.864279881511702
 31
0.0
  0
LINE
  5
36AF
330
1E
100
AcDbEntity
  8
7
100
AcDbLine
 10
5.897344167521529
 20
9.66351255889792
 30
0.0
 11
5.947535998174977
 21
9.678274862031287
 31
0.0
  0
LINE
  5
36B0
330
1E
100
AcDbEntity
  8
7
100
AcDbLine
 10
5.947535998174977
 20
9.678274862031287
 30
0.0
 11
5.982965525695055
 21
9.713704389551367
 31
0.0
  0
LINE
  5
36B1
330
1E
100
AcDbEntity
  8
7
100
AcDbLine
 10
5.864867100628123
 20
9.799325747724891
 30
0.0
 11
5.861914640001451
 21
9.808183129604913
 31
0.0
  0
LINE
  5
36B2
330
1E
100
AcDbEntity
  8
7
100
AcDbLine
 10
5.861914640001451
 20
9.808183129604913
 30
0.0
 11
5.85305725812143
 21
9.811135590231584
 31
0.0
  0
LINE
  5
36B3
330
1E
100
AcDbEntity
  8
7
100
AcDbLine
 10
6.440596922829405
 20
9.737324074564753
 30
0.0
 11
6.43764446220273
 21
9.743228995818098
 31
0.0
  0
LINE
  5
36B4
330
1E
100
AcDbEntity
  8
7
100
AcDbLine
 10
6.43764446220273
 20
9.743228995818098
 30
0.0
 11
6.431739540949386
 21
9.746181456444771
 31
0.0
  0
LINE
  5
36B5
330
1E
100
AcDbEntity
  8
7
100
AcDbLine
 10
6.653174087949878
 20
9.622178110124499
 30
0.0
 11
6.659079009203223
 21
9.625130570751171
 31
0.0
  0
LINE
  5
36B6
330
1E
100
AcDbEntity
  8
7
100
AcDbLine
 10
6.659079009203223
 20
9.625130570751171
 30
0.0
 11
6.662031469829896
 21
9.631035492004517
 31
0.0
  0
LINE
  5
36B7
330
1E
100
AcDbEntity
  8
7
100
AcDbLine
 10
6.467169068469464
 20
9.569033818844378
 30
0.0
 11
6.493741214109522
 21
9.580843661351071
 31
0.0
  0
LINE
  5
36B8
330
1E
100
AcDbEntity
  8
7
100
AcDbLine
 10
6.493741214109522
 20
9.580843661351071
 30
0.0
 11
6.505551056616215
 21
9.607415806991131
 31
0.0
  0
LINE
  5
36B9
330
1E
100
AcDbEntity
  8
7
100
AcDbLine
 10
6.670888851709916
 20
9.569033818844378
 30
0.0
 11
6.697460997349974
 21
9.580843661351071
 31
0.0
  0
LINE
  5
36BA
330
1E
100
AcDbEntity
  8
7
100
AcDbLine
 10
6.697460997349974
 20
9.580843661351071
 30
0.0
 11
6.709270839856669
 21
9.607415806991131
 31
0.0
  0
LINE
  5
36BB
330
1E
100
AcDbEntity
  8
7
100
AcDbLine
 10
6.670888851709916
 20
9.569033818844378
 30
0.0
 11
6.697460997349974
 21
9.580843661351071
 31
0.0
  0
LINE
  5
36BC
330
1E
100
AcDbEntity
  8
7
100
AcDbLine
 10
6.697460997349974
 20
9.580843661351071
 30
0.0
 11
6.709270839856669
 21
9.607415806991131
 31
0.0
  0
LINE
  5
36BD
330
1E
100
AcDbEntity
  8
7
100
AcDbLine
 10
6.431739540949386
 20
9.622178110124499
 30
0.0
 11
6.43764446220273
 21
9.625130570751171
 31
0.0
  0
LINE
  5
36BE
330
1E
100
AcDbEntity
  8
7
100
AcDbLine
 10
6.43764446220273
 20
9.625130570751171
 30
0.0
 11
6.440596922829405
 21
9.631035492004517
 31
0.0
  0
LINE
  5
36BF
330
1E
100
AcDbEntity
  8
7
100
AcDbLine
 10
5.85305725812143
 20
9.710751928924693
 30
0.0
 11
5.861914640001451
 21
9.713704389551367
 31
0.0
  0
LINE
  5
36C0
330
1E
100
AcDbEntity
  8
7
100
AcDbLine
 10
5.861914640001451
 20
9.713704389551367
 30
0.0
 11
5.864867100628123
 21
9.722561771431387
 31
0.0
  0
LINE
  5
36C1
330
1E
100
AcDbEntity
  8
7
100
AcDbLine
 10
6.629554402936491
 20
9.631035492004517
 30
0.0
 11
6.632506863563164
 21
9.625130570751171
 31
0.0
  0
LINE
  5
36C2
330
1E
100
AcDbEntity
  8
7
100
AcDbLine
 10
6.632506863563164
 20
9.625130570751171
 30
0.0
 11
6.63841178481651
 21
9.622178110124499
 31
0.0
  0
LINE
  5
36C3
330
1E
100
AcDbEntity
  8
7
100
AcDbLine
 10
5.897344167521529
 20
9.66351255889792
 30
0.0
 11
5.947535998174977
 21
9.678274862031287
 31
0.0
  0
LINE
  5
36C4
330
1E
100
AcDbEntity
  8
7
100
AcDbLine
 10
5.947535998174977
 20
9.678274862031287
 30
0.0
 11
5.982965525695055
 21
9.713704389551367
 31
0.0
  0
LINE
  5
36C5
330
1E
100
AcDbEntity
  8
7
100
AcDbLine
 10
5.982965525695055
 20
9.713704389551367
 30
0.0
 11
5.997727828828422
 21
9.763896220204813
 31
0.0
  0
LINE
  5
36C6
330
1E
100
AcDbEntity
  8
7
100
AcDbLine
 10
5.997727828828422
 20
9.763896220204813
 30
0.0
 11
5.982965525695055
 21
9.814088050858256
 31
0.0
  0
LINE
  5
36C7
330
1E
100
AcDbEntity
  8
7
100
AcDbLine
 10
5.982965525695055
 20
9.814088050858256
 30
0.0
 11
5.947535998174977
 21
9.849517578378335
 31
0.0
  0
LINE
  5
36C8
330
1E
100
AcDbEntity
  8
7
100
AcDbLine
 10
5.947535998174977
 20
9.849517578378335
 30
0.0
 11
5.897344167521529
 21
9.864279881511702
 31
0.0
  0
LINE
  5
36C9
330
1E
100
AcDbEntity
  8
7
100
AcDbLine
 10
6.505551056616215
 20
9.755038838324793
 30
0.0
 11
6.493741214109522
 21
9.781610983964851
 31
0.0
  0
LINE
  5
36CA
330
1E
100
AcDbEntity
  8
7
100
AcDbLine
 10
6.493741214109522
 20
9.781610983964851
 30
0.0
 11
6.467169068469464
 21
9.793420826471544
 31
0.0
  0
LINE
  5
36CB
330
1E
100
AcDbEntity
  8
7
100
AcDbLine
 10
6.653174087949878
 20
9.622178110124499
 30
0.0
 11
6.659079009203223
 21
9.625130570751171
 31
0.0
  0
LINE
  5
36CC
330
1E
100
AcDbEntity
  8
7
100
AcDbLine
 10
6.659079009203223
 20
9.625130570751171
 30
0.0
 11
6.662031469829896
 21
9.631035492004517
 31
0.0
  0
LINE
  5
36CD
330
1E
100
AcDbEntity
  8
7
100
AcDbLine
 10
6.552790426642987
 20
9.607415806991131
 30
0.0
 11
6.56460026914968
 21
9.580843661351071
 31
0.0
  0
LINE
  5
36CE
330
1E
100
AcDbEntity
  8
7
100
AcDbLine
 10
6.56460026914968
 20
9.580843661351071
 30
0.0
 11
6.591172414789737
 21
9.569033818844378
 31
0.0
  0
LINE
  5
36CF
330
1E
100
AcDbEntity
  8
7
100
AcDbLine
 10
6.552790426642987
 20
9.607415806991131
 30
0.0
 11
6.56460026914968
 21
9.580843661351071
 31
0.0
  0
LINE
  5
36D0
330
1E
100
AcDbEntity
  8
7
100
AcDbLine
 10
6.56460026914968
 20
9.580843661351071
 30
0.0
 11
6.591172414789737
 21
9.569033818844378
 31
0.0
  0
LINE
  5
36D1
330
1E
100
AcDbEntity
  8
7
100
AcDbLine
 10
6.467169068469464
 20
9.569033818844378
 30
0.0
 11
6.493741214109522
 21
9.580843661351071
 31
0.0
  0
LINE
  5
36D2
330
1E
100
AcDbEntity
  8
7
100
AcDbLine
 10
6.493741214109522
 20
9.580843661351071
 30
0.0
 11
6.505551056616215
 21
9.607415806991131
 31
0.0
  0
LINE
  5
36D3
330
1E
100
AcDbEntity
  8
7
100
AcDbLine
 10
6.440596922829405
 20
9.737324074564753
 30
0.0
 11
6.43764446220273
 21
9.743228995818098
 31
0.0
  0
LINE
  5
36D4
330
1E
100
AcDbEntity
  8
7
100
AcDbLine
 10
6.43764446220273
 20
9.743228995818098
 30
0.0
 11
6.431739540949386
 21
9.746181456444771
 31
0.0
  0
LINE
  5
36D5
330
1E
100
AcDbEntity
  8
7
100
AcDbLine
 10
6.629554402936491
 20
9.631035492004517
 30
0.0
 11
6.632506863563164
 21
9.625130570751171
 31
0.0
  0
LINE
  5
36D6
330
1E
100
AcDbEntity
  8
7
100
AcDbLine
 10
6.632506863563164
 20
9.625130570751171
 30
0.0
 11
6.63841178481651
 21
9.622178110124499
 31
0.0
  0
LINE
  5
36D7
330
1E
100
AcDbEntity
  8
7
100
AcDbLine
 10
7.036993969417395
 20
0.4577403249307963
 30
0.0
 11
5.678862081147713
 21
0.4577403249307963
 31
0.0
  0
LINE
  5
36D8
330
1E
100
AcDbEntity
  8
7
100
AcDbLine
 10
5.678862081147713
 20
0.4577403249307963
 30
0.0
 11
5.678862081147713
 21
0.1565893410101271
 31
0.0
  0
LINE
  5
36D9
330
1E
100
AcDbEntity
  8
7
100
AcDbLine
 10
6.753557749256765
 20
9.566081358217704
 30
0.0
 11
6.753557749256765
 21
9.796373287098219
 31
0.0
  0
LINE
  5
36DA
330
1E
100
AcDbEntity
  8
7
100
AcDbLine
 10
6.753557749256765
 20
9.796373287098219
 30
0.0
 11
6.815559422416906
 21
9.796373287098219
 31
0.0
  0
ENDSEC
  0
SECTION
  2
OBJECTS
  0
DICTIONARY
  5
C
330
0
100
AcDbDictionary
  3
ACAD_GROUP
350
D
  3
ACAD_LAYOUT
350
19
  3
ACAD_MLINESTYLE
350
16
  3
ACAD_PLOTSETTINGS
350
18
1001
ACAD
1000
TREAT_AS_HARD
1070
     0
  0
DICTIONARY
  5
48A3
330
1E
100
AcDbDictionary
  3
ACAD_LAYOUTSELFREF
350
48DD
1001
ACAD
1000
TREAT_AS_HARD
1070
     1
  0
DICTIONARY
  5
48A5
330
1A
100
AcDbDictionary
  3
ACAD_LAYOUTSELFREF
350
48DC
1001
ACAD
1000
TREAT_AS_HARD
1070
     1
  0
DICTIONARY
  5
D
102
{ACAD_REACTORS
330
C
102
}
330
C
100
AcDbDictionary
1001
ACAD
1000
TREAT_AS_HARD
1070
     0
  0
DICTIONARY
  5
19
102
{ACAD_REACTORS
330
C
102
}
330
C
100
AcDbDictionary
1001
ACAD
1000
TREAT_AS_HARD
1070
     0
  0
DICTIONARY
  5
16
102
{ACAD_REACTORS
330
C
102
}
330
C
100
AcDbDictionary
  3
STANDARD
350
17
1001
ACAD
1000
TREAT_AS_HARD
1070
     0
  0
DICTIONARY
  5
18
102
{ACAD_REACTORS
330
C
102
}
330
C
100
AcDbDictionary
1001
ACAD
1000
TREAT_AS_HARD
1070
     0
  0
XRECORD
  5
48DD
102
{ACAD_REACTORS
330
48A3
102
}
330
48A3
100
AcDbXrecord
340
1E
  0
XRECORD
  5
48DC
102
{ACAD_REACTORS
330
48A5
102
}
330
48A5
100
AcDbXrecord
340
1A
  0
MLINESTYLE
  5
17
102
{ACAD_REACTORS
330
16
102
}
330
16
100
AcDbMlineStyle
  2
STANDARD
 70
     0
  3

 62
   256
 51
90.0
 52
90.0
 71
     2
 49
0.5
 62
   256
  6
BYLAYER
 49
-0.5
 62
   256
  6
BYLAYER
  0
ENDSEC
  0
EOF
