999
DXF file: C:\Users\sesa63760\Dev\_Creo\CAD\MCADID0002452_3D-CAD\drw0001_1.dxf
999
Pro/ENGINEER 2019471 by Parametric Technology Corporation
  0
SECTION
  2
HEADER
  9
$ACADVER
  1
AC1024
  9
$DWGCODEPAGE
  3
ANSI_1252
  9
$EXTMAX
 10
53.5341823351
 20
75.7126293026
 30
0.0
  9
$EXTMIN
 10
0.0
 20
0.0
 30
0.0
  9
$LIMMIN
 10
0.0
 20
0.0
  9
$LIMMAX
 10
53.5341823351
 20
75.7126293026
  9
$VIEWCTR
 10
26.7670911676
 20
37.8563146513
  9
$VIEWSIZE
 40
75.7126293026
  9
$CLAYER
  8
0
  9
$LTSCALE
 40
4.9353417619
  9
$CELTYPE
  6
BYLAYER
  9
$DIMSCALE
 40
1.0
  9
$DIMASZ
 40
0.6373116945
  9
$DIMEXO
 40
1.0
  9
$DIMDLI
 40
3.4098724901
  9
$DIMEXE
 40
1.0
  9
$DIMCEN
 40
0.8076013792
  9
$DIMLFAC
 40
1.0
  9
$DIMBLK
  1
_FILLED
  9
$DIMALT
 70
0
  9
$DIMALTF
 40
0.0393700787
  9
$DIMTXT
 40
0.8922363723
  9
$DIMTOL
 70
1
  9
$DIMLIM
 70
0
  9
$DIMTFAC
 40
1.0
  9
$DIMTP
 40
0.01
  9
$DIMTM
 40
0.01
  9
$DIMGAP
 40
0.625
  9
$DIMDSEP
 70
46
  9
$AUNITS
 70
0
  9
$PDMODE
 70
3
  9
$PDSIZE
 40
0.3125
  9
$HANDSEED
  5
3E9
  9
$TILEMODE
 70
1
  9
$MEASUREMENT
 70
1
  9
$INSUNITS
 70
4
  0
ENDSEC
  0
SECTION
  2
CLASSES
  0
CLASS
  1
ACDBDICTIONARYWDFLT
  2
AcDbDictionaryWithDefault
  3
AutoCAD 2000
 90
0
 91
1
280
0
281
0
  0
CLASS
  1
ACDBPLACEHOLDER
  2
AcDbPlaceHolder
  3
AutoCAD 2000
 90
0
 91
1
280
0
281
0
  0
CLASS
  1
LAYOUT
  2
AcDbLayout
  3
AutoCAD 2000
 90
0
 91
0
280
0
281
0
  0
ENDSEC
  0
SECTION
  2
TABLES
  0
TABLE
  2
VPORT
  5
8
100
AcDbSymbolTable
 70
2
  0
VPORT
  5
1F4
100
AcDbSymbolTableRecord
100
AcDbViewportTableRecord
  2
*ACTIVE
 70
0
 10
0.0
 20
0.0
 11
1.0
 21
1.0
 12
26.7670911676
 22
37.8563146513
 13
0.0
 23
0.0
 14
1.0
 24
1.0
 15
0.0
 25
0.0
 16
0.0
 26
0.0
 36
1.0
 17
0.0
 27
0.0
 37
0.0
 40
75.7126293026
 41
0.7070707071
 42
50.0
 43
0.0
 44
0.0
 50
0.0
 51
0.0
 71
0
 72
100
 73
1
 74
1
 75
0
 76
0
 77
0
 78
0
  0
ENDTAB
  0
TABLE
  2
LTYPE
  5
5
100
AcDbSymbolTable
 70
6
  0
LTYPE
  5
14
100
AcDbSymbolTableRecord
100
AcDbLinetypeTableRecord
  2
BYBLOCK
 70
0
  3

 72
65
 73
0
 40
0.0
  0
LTYPE
  5
15
100
AcDbSymbolTableRecord
100
AcDbLinetypeTableRecord
  2
BYLAYER
 70
0
  3

 72
65
 73
0
 40
0.0
  0
LTYPE
  5
16
100
AcDbSymbolTableRecord
100
AcDbLinetypeTableRecord
  2
CONTINUOUS
 70
64
  3
Solid line
 72
65
 73
0
 40
0.0
  0
LTYPE
  5
1F5
100
AcDbSymbolTableRecord
100
AcDbLinetypeTableRecord
  2
CENTER
 70
64
  3
____ _ ____ _ ____ _ ____ _ ____ _ ____ _ ____
 72
65
 73
4
 40
0.6
 49
0.375
 74
0
 49
-0.075
 74
0
 49
0.075
 74
0
 49
-0.075
 74
0
  0
LTYPE
  5
1F6
100
AcDbSymbolTableRecord
100
AcDbLinetypeTableRecord
  2
HIDDEN
 70
64
  3
- - - - - - - - - - - - - - - - - - - -
 72
65
 73
2
 40
0.2
 49
0.1
 74
0
 49
-0.1
 74
0
  0
LTYPE
  5
1F7
100
AcDbSymbolTableRecord
100
AcDbLinetypeTableRecord
  2
PHANTOM
 70
64
  3
_____ _ _ _____ _ _ _____ _ _ _____
 72
65
 73
6
 40
0.8
 49
0.45
 74
0
 49
-0.05
 74
0
 49
0.1
 74
0
 49
-0.05
 74
0
 49
0.1
 74
0
 49
-0.05
 74
0
  0
LTYPE
  5
1F8
100
AcDbSymbolTableRecord
100
AcDbLinetypeTableRecord
  2
DOT
 70
64
  3
. . . . . . . . . . . . . . . . . . . .
 72
65
 73
2
 40
0.2
 49
0.1
 74
0
 49
-0.1
 74
0
  0
LTYPE
  5
1F9
100
AcDbSymbolTableRecord
100
AcDbLinetypeTableRecord
  2
DASHED
 70
64
  3
- - - - - - - - - - - - - - - - - - - -
 72
65
 73
2
 40
0.2
 49
0.1
 74
0
 49
-0.1
 74
0
  0
ENDTAB
  0
TABLE
  2
LAYER
  5
2
100
AcDbSymbolTable
 70
36
  0
LAYER
  5
10
100
AcDbSymbolTableRecord
100
AcDbLayerTableRecord
  2
0
 70
0
 62
7
  6
CONTINUOUS
370
-3
390
F
  0
LAYER
  5
1FA
100
AcDbSymbolTableRecord
100
AcDbLayerTableRecord
  2
DEFAULT_1
 70
0
 62
7
  6
CENTER
370
-3
390
F
  0
LAYER
  5
1FB
100
AcDbSymbolTableRecord
100
AcDbLayerTableRecord
  2
DEFAULT_2
 70
0
 62
8
  6
HIDDEN
370
-3
390
F
  0
LAYER
  5
1FC
100
AcDbSymbolTableRecord
100
AcDbLayerTableRecord
  2
DEFAULT_3
 70
0
 62
7
  6
PHANTOM
370
-3
390
F
  0
LAYER
  5
1FD
100
AcDbSymbolTableRecord
100
AcDbLayerTableRecord
  2
00_COMPONENTS
 70
0
 62
7
  6
CONTINUOUS
370
-3
390
F
  0
LAYER
  5
1FE
100
AcDbSymbolTableRecord
100
AcDbLayerTableRecord
  2
01_1_DEFAULT_DATUMS
 70
0
 62
7
  6
CONTINUOUS
370
-3
390
F
  0
LAYER
  5
1FF
100
AcDbSymbolTableRecord
100
AcDbLayerTableRecord
  2
01_PLANES
 70
0
 62
7
  6
CONTINUOUS
370
-3
390
F
  0
LAYER
  5
200
100
AcDbSymbolTableRecord
100
AcDbLayerTableRecord
  2
02_COORD_SYS
 70
0
 62
7
  6
CONTINUOUS
370
-3
390
F
  0
LAYER
  5
201
100
AcDbSymbolTableRecord
100
AcDbLayerTableRecord
  2
03_AXES
 70
0
 62
7
  6
CONTINUOUS
370
-3
390
F
  0
LAYER
  5
202
100
AcDbSymbolTableRecord
100
AcDbLayerTableRecord
  2
04_POINTS
 70
0
 62
7
  6
CONTINUOUS
370
-3
390
F
  0
LAYER
  5
203
100
AcDbSymbolTableRecord
100
AcDbLayerTableRecord
  2
05_CURVES
 70
0
 62
7
  6
CONTINUOUS
370
-3
390
F
  0
LAYER
  5
204
100
AcDbSymbolTableRecord
100
AcDbLayerTableRecord
  2
06_SURFS
 70
0
 62
7
  6
CONTINUOUS
370
-3
390
F
  0
LAYER
  5
205
100
AcDbSymbolTableRecord
100
AcDbLayerTableRecord
  2
07_COSMETICS
 70
0
 62
7
  6
CONTINUOUS
370
-3
390
F
  0
LAYER
  5
206
100
AcDbSymbolTableRecord
100
AcDbLayerTableRecord
  2
10_NOTES
 70
0
 62
7
  6
CONTINUOUS
370
-3
390
F
  0
LAYER
  5
207
100
AcDbSymbolTableRecord
100
AcDbLayerTableRecord
  2
11_NOTES_PUB
 70
0
 62
7
  6
CONTINUOUS
370
-3
390
F
  0
LAYER
  5
208
100
AcDbSymbolTableRecord
100
AcDbLayerTableRecord
  2
13_REF_GTOL
 70
0
 62
7
  6
CONTINUOUS
370
-3
390
F
  0
LAYER
  5
209
100
AcDbSymbolTableRecord
100
AcDbLayerTableRecord
  2
16_MISC
 70
0
 62
7
  6
CONTINUOUS
370
-3
390
F
  0
LAYER
  5
20A
100
AcDbSymbolTableRecord
100
AcDbLayerTableRecord
  2
17_NO_PRINT
 70
0
 62
7
  6
CONTINUOUS
370
-3
390
F
  0
LAYER
  5
20B
100
AcDbSymbolTableRecord
100
AcDbLayerTableRecord
  2
18_DATUM_CAMS_JOINTS
 70
0
 62
7
  6
CONTINUOUS
370
-3
390
F
  0
LAYER
  5
20C
100
AcDbSymbolTableRecord
100
AcDbLayerTableRecord
  2
19_DATUM_FUNCTIONAL
 70
0
 62
7
  6
CONTINUOUS
370
-3
390
F
  0
LAYER
  5
20D
100
AcDbSymbolTableRecord
100
AcDbLayerTableRecord
  2
20_DATUM_KINEMATIC_SCHEME
 70
0
 62
7
  6
CONTINUOUS
370
-3
390
F
  0
LAYER
  5
20E
100
AcDbSymbolTableRecord
100
AcDbLayerTableRecord
  2
_1
 70
0
 62
7
  6
CONTINUOUS
370
-3
390
F
  0
ENDTAB
  0
TABLE
  2
STYLE
  5
3
100
AcDbSymbolTable
 70
1
  0
STYLE
  5
11
100
AcDbSymbolTableRecord
100
AcDbTextStyleTableRecord
  2
STANDARD
 70
0
 40
0.0
 41
0.8
 50
0.0
 71
0
 42
0.2
  3
txt
  4

  0
STYLE
  5
20F
100
AcDbSymbolTableRecord
100
AcDbTextStyleTableRecord
  2
TEXTSTYLE_1
 70
0
 40
0.0
 41
0.8
 50
0.0
 71
0
 42
0.2
  3
gdt
  4

  0
ENDTAB
  0
TABLE
  2
VIEW
  5
6
100
AcDbSymbolTable
 70
0
  0
ENDTAB
  0
TABLE
  2
UCS
  5
7
100
AcDbSymbolTable
 70
0
  0
ENDTAB
  0
TABLE
  2
APPID
  5
9
100
AcDbSymbolTable
 70
1
  0
APPID
  5
210
100
AcDbSymbolTableRecord
100
AcDbRegAppTableRecord
  2
ACAD
 70
0
  0
ENDTAB
  0
TABLE
  2
BLOCK_RECORD
  5
1
100
AcDbSymbolTable
 70
0
  0
BLOCK_RECORD
  5
211
100
AcDbSymbolTableRecord
100
AcDbBlockTableRecord
  2
*Model_Space
  0
BLOCK_RECORD
  5
212
100
AcDbSymbolTableRecord
100
AcDbBlockTableRecord
  2
*Paper_Space
  0
BLOCK_RECORD
  5
213
100
AcDbSymbolTableRecord
100
AcDbBlockTableRecord
  2
_FILLED
  0
ENDTAB
  0
TABLE
  2
DIMSTYLE
  5
A
100
AcDbSymbolTable
 70
1
100
AcDbDimStyleTable
 71
0
  0
DIMSTYLE
105
214
100
AcDbSymbolTableRecord
100
AcDbDimStyleTableRecord
  2
STANDARD
 70
0
  3

  4

 40
1.0
 41
0.6373116945
 42
1.0
 43
0.38
 44
1.0
 45
0.0
 46
0.0
 47
0.01
 48
0.01
140
0.8922363723
141
0.09
142
0.0
143
25.4
144
1.0
145
0.0
146
1.0
147
0.625
 71
1
 72
0
 73
0
 74
0
 75
0
 76
0
 77
1
 78
8
 79
2
170
0
171
1
172
0
173
0
174
0
175
0
176
0
177
0
178
0
270
2
179
2
271
2
272
2
273
2
274
2
275
0
280
0
281
0
282
0
283
1
284
8
285
0
286
0
287
3
288
0
340
11
278
46
341
213
342
213
343
213
344
213
  0
ENDTAB
  0
ENDSEC
  0
SECTION
  2
BLOCKS
  0
BLOCK
  5
20
100
AcDbEntity
  8
0
100
AcDbBlockBegin
  2
*Model_Space
 70
0
 10
0.0
 20
0.0
 30
0.0
  3
*Model_Space
  1

  0
ENDBLK
  5
21
100
AcDbEntity
  8
0
100
AcDbBlockEnd
  0
BLOCK
  5
1C
100
AcDbEntity
  8
0
100
AcDbBlockBegin
  2
*Paper_Space
 70
0
 10
0.0
 20
0.0
 30
0.0
  3
*Paper_Space
  1

  0
ENDBLK
  5
1D
100
AcDbEntity
  8
0
100
AcDbBlockEnd
  0
BLOCK
  5
215
100
AcDbEntity
  8
0
100
AcDbBlockBegin
  2
_FILLED
 70
64
 10
0.0
 20
0.0
  3
_FILLED
  1

  0
SOLID
  5
216
100
AcDbEntity
  8
0
  6
BYBLOCK
 62
0
100
AcDbTrace
 10
0.0
 20
0.0
 11
-1.0
 21
0.25
 12
-1.0
 22
-0.25
 13
-1.0
 23
-0.25
  0
ENDBLK
  5
217
100
AcDbEntity
  8
0
  6
BYBLOCK
 62
0
100
AcDbBlockEnd
  0
ENDSEC
  0
SECTION
  2
ENTITIES
  0
LINE
  5
218
100
AcDbEntity
  8
_1
100
AcDbLine
 62
7
  6
CONTINUOUS
 10
6.3836026673
 20
57.2787619094
 11
6.8564075816
 21
57.7748761223
  0
LINE
  5
219
100
AcDbEntity
  8
_1
100
AcDbLine
 62
7
  6
CONTINUOUS
 10
7.3489393865
 20
57.4109159328
 11
6.8761344722
 21
56.9148017199
  0
LINE
  5
21A
100
AcDbEntity
  8
_1
100
AcDbLine
 62
7
  6
CONTINUOUS
 10
6.2105810763
 20
56.8429528441
 11
6.3836026673
 21
57.2787619094
  0
LINE
  5
21B
100
AcDbEntity
  8
_1
100
AcDbLine
 62
7
  6
CONTINUOUS
 10
6.2105810763
 20
53.883131582
 11
6.3836026673
 21
54.3189406473
  0
LINE
  5
21C
100
AcDbEntity
  8
_1
100
AcDbLine
 62
7
  6
CONTINUOUS
 10
6.3836026673
 20
54.3189406473
 11
6.8564075816
 21
54.8150548602
  0
LINE
  5
21D
100
AcDbEntity
  8
_1
100
AcDbLine
 62
7
  6
CONTINUOUS
 10
7.3489393865
 20
54.4510946707
 11
6.8761344722
 21
53.9549804578
  0
LINE
  5
21E
100
AcDbEntity
  8
_1
100
AcDbLine
 62
7
  6
CONTINUOUS
 10
15.9463232182
 20
60.7084925242
 11
16.512006288
 21
61.0350878473
  0
LINE
  5
21F
100
AcDbEntity
  8
_1
100
AcDbLine
 62
7
  6
CONTINUOUS
 10
16.512006288
 20
60.9287644373
 11
15.9463232182
 21
60.6021691142
  0
LINE
  5
220
100
AcDbEntity
  8
_1
100
AcDbLine
 62
7
  6
CONTINUOUS
 10
6.8761344722
 20
56.9148017199
 11
6.418749511
 21
56.689125168
  0
LINE
  5
221
100
AcDbEntity
  8
_1
100
AcDbLine
 62
7
  6
CONTINUOUS
 10
14.3316202763
 20
61.14674191
 11
6.8564075816
 21
57.7748761223
  0
LINE
  5
222
100
AcDbEntity
  8
_1
100
AcDbLine
 62
7
  6
CONTINUOUS
 10
7.3489393865
 20
57.4109159328
 11
14.8241520812
 21
60.7827817206
  0
LINE
  5
223
100
AcDbEntity
  8
_1
100
AcDbLine
 62
7
  6
CONTINUOUS
 10
17.4469174694
 20
61.7752974817
 11
21.395735513
 21
64.8591426708
  0
LINE
  5
224
100
AcDbEntity
  8
_1
100
AcDbLine
 62
7
  6
CONTINUOUS
 10
16.5114306621
 20
60.2752358116
 11
16.2291671083
 21
60.1122718455
  0
LINE
  5
225
100
AcDbEntity
  8
_1
100
AcDbLine
 62
7
  6
CONTINUOUS
 10
6.8761344722
 20
53.9549804579
 11
6.418749511
 21
53.7293039059
  0
LINE
  5
226
100
AcDbEntity
  8
_1
100
AcDbLine
 62
7
  6
CONTINUOUS
 10
8.1898856586
 20
55.6469251525
 11
7.3489393865
 21
55.2675970879
  0
LINE
  5
227
100
AcDbEntity
  8
_1
100
AcDbLine
 62
7
  6
CONTINUOUS
 10
7.6973538537
 20
55.1943829249
 11
6.8564075816
 21
54.8150548602
  0
LINE
  5
228
100
AcDbEntity
  8
_1
100
AcDbLine
 62
7
  6
CONTINUOUS
 10
7.3489393865
 20
54.4510946707
 11
8.1898856586
 21
54.8304227354
  0
LINE
  5
229
100
AcDbEntity
  8
_1
100
AcDbLine
 62
7
  6
CONTINUOUS
 10
6.2105810763
 20
52.6826285177
 11
6.2105810763
 21
53.883131582
  0
LINE
  5
22A
100
AcDbEntity
  8
_1
100
AcDbLine
 62
7
  6
CONTINUOUS
 10
6.2105810763
 20
55.6424497798
 11
6.2105810763
 21
56.8429528441
  0
LINE
  5
22B
100
AcDbEntity
  8
_1
100
AcDbLine
 62
7
  6
CONTINUOUS
 10
6.418749511
 20
56.689125168
 11
6.418749511
 21
55.4886221037
  0
LINE
  5
22C
100
AcDbEntity
  8
_1
100
AcDbLine
 62
7
  6
CONTINUOUS
 10
6.418749511
 20
53.7293039059
 11
6.418749511
 21
52.5288008416
  0
LINE
  5
22D
100
AcDbEntity
  8
_1
100
AcDbLine
 62
7
  6
CONTINUOUS
 10
17.4666085385
 20
57.77318706
 11
17.3958981548
 21
57.7323626446
  0
LINE
  5
22E
100
AcDbEntity
  8
_1
100
AcDbLine
 62
7
  6
CONTINUOUS
 10
17.1130536759
 20
57.4139207694
 11
17.0423432922
 21
57.373096354
  0
LINE
  5
22F
100
AcDbEntity
  8
_1
100
AcDbLine
 62
7
  6
CONTINUOUS
 10
16.7594988133
 20
57.0546544788
 11
16.6887884296
 21
57.0138300635
  0
LINE
  5
230
100
AcDbEntity
  8
_1
100
AcDbLine
 62
7
  6
CONTINUOUS
 10
17.7706657203
 20
56.4708701999
 11
17.6999553366
 21
56.4300457845
  0
LINE
  5
231
100
AcDbEntity
  8
_1
100
AcDbLine
 62
7
  6
CONTINUOUS
 10
18.0464385131
 20
56.3116563056
 11
17.9757281294
 21
56.2708318902
  0
LINE
  5
232
100
AcDbEntity
  8
_1
100
AcDbLine
 62
7
  6
CONTINUOUS
 10
11.9193868905
 20
54.3693807864
 11
7.3489393865
 21
52.3077758258
  0
LINE
  5
233
100
AcDbEntity
  8
_1
100
AcDbLine
 62
7
  6
CONTINUOUS
 10
34.5196307818
 20
10.9158642944
 11
35.1500414353
 21
10.6315080202
  0
LINE
  5
234
100
AcDbEntity
  8
_1
100
AcDbLine
 62
7
  6
CONTINUOUS
 10
34.6575148797
 20
10.9207473966
 11
34.0271042262
 21
11.2051036709
  0
LINE
  5
235
100
AcDbEntity
  8
_1
100
AcDbLine
 62
7
  6
CONTINUOUS
 10
10.1069680527
 20
25.0150883061
 11
9.6144362478
 21
25.3790484956
  0
LINE
  5
236
100
AcDbEntity
  8
_1
100
AcDbLine
 62
7
  6
CONTINUOUS
 10
6.8761344722
 20
56.9148017199
 11
6.8761344722
 21
55.3371723434
  0
LINE
  5
237
100
AcDbEntity
  8
_1
100
AcDbLine
 62
7
  6
CONTINUOUS
 10
6.8761344722
 20
53.9549804578
 11
6.8761344722
 21
52.3773510813
  0
LINE
  5
238
100
AcDbEntity
  8
_1
100
AcDbLine
 62
7
  6
CONTINUOUS
 10
9.9716476678
 20
47.8944144876
 11
11.857651856
 21
51.8837062801
  0
LINE
  5
239
100
AcDbEntity
  8
_1
100
AcDbLine
 62
7
  6
CONTINUOUS
 10
10.4641794727
 20
47.5304542982
 11
12.3501836609
 21
51.5197460907
  0
LINE
  5
23A
100
AcDbEntity
  8
_1
100
AcDbLine
 62
7
  6
CONTINUOUS
 10
25.6383938639
 20
62.4096981437
 11
21.6895758203
 21
59.3258529546
  0
LINE
  5
23B
100
AcDbEntity
  8
_1
100
AcDbLine
 62
7
  6
CONTINUOUS
 10
21.7878056545
 20
58.7392873087
 11
25.7366236981
 21
61.8231324978
  0
LINE
  5
23C
100
AcDbEntity
  8
_1
100
AcDbLine
 62
7
  6
CONTINUOUS
 10
21.3203571293
 20
57.6058627899
 11
21.8860401991
 21
57.932458113
  0
LINE
  5
23D
100
AcDbEntity
  8
_1
100
AcDbLine
 62
7
  6
CONTINUOUS
 10
21.0375132393
 20
57.3362347148
 11
21.3203595731
 21
57.499535147
  0
LINE
  5
23E
100
AcDbEntity
  8
_1
100
AcDbLine
 62
7
  6
CONTINUOUS
 10
17.7706657203
 20
55.2461165742
 11
17.6999553366
 21
55.2052921588
  0
LINE
  5
23F
100
AcDbEntity
  8
_1
100
AcDbLine
 62
7
  6
CONTINUOUS
 10
10.737374605
 20
24.6462456773
 11
10.1069680527
 21
25.0150883061
  0
LINE
  5
240
100
AcDbEntity
  8
_1
100
AcDbLine
 62
7
  6
CONTINUOUS
 10
34.0271042262
 20
11.2051036709
 11
34.5196307818
 21
10.9158642944
  0
LINE
  5
241
100
AcDbEntity
  8
_1
100
AcDbLine
 62
7
  6
CONTINUOUS
 10
35.1500414353
 20
10.6315080202
 11
34.6575148797
 21
10.9207473966
  0
LINE
  5
242
100
AcDbEntity
  8
_1
100
AcDbLine
 62
7
  6
CONTINUOUS
 10
9.6144362478
 20
46.4385783376
 11
9.6144362478
 21
25.3790484956
  0
LINE
  5
243
100
AcDbEntity
  8
_1
100
AcDbLine
 62
7
  6
CONTINUOUS
 10
10.1069680527
 20
46.0746181481
 11
10.1069680527
 21
25.0150883061
  0
LINE
  5
244
100
AcDbEntity
  8
_1
100
AcDbLine
 62
7
  6
CONTINUOUS
 10
24.4316352096
 20
56.4627913967
 11
23.8659521399
 21
56.1361960736
  0
LINE
  5
245
100
AcDbEntity
  8
_1
100
AcDbLine
 62
7
  6
CONTINUOUS
 10
25.4182850738
 20
56.7950287004
 11
26.1253889111
 21
57.2032728543
  0
LINE
  5
246
100
AcDbEntity
  8
_1
100
AcDbLine
 62
7
  6
CONTINUOUS
 10
24.9973229897
 20
55.4829968594
 11
24.43163992
 21
55.1564015363
  0
LINE
  5
247
100
AcDbEntity
  8
_1
100
AcDbLine
 62
7
  6
CONTINUOUS
 10
21.1789669791
 20
53.115191952
 11
24.4316446303
 21
54.9931150598
  0
LINE
  5
248
100
AcDbEntity
  8
_1
100
AcDbLine
 62
7
  6
CONTINUOUS
 10
24.9377979343
 20
55.5860967075
 11
24.9428101517
 21
55.5886820295
  0
LINE
  5
249
100
AcDbEntity
  8
_1
100
AcDbLine
 62
7
  6
CONTINUOUS
 10
27.9959070727
 20
56.8157801946
 11
25.6060698264
 21
55.6691987044
  0
LWPOLYLINE
  5
24A
100
AcDbEntity
  8
_1
100
AcDbPolyline
 62
7
  6
CONTINUOUS
 90
3
 70
0
 10
17.0778980184
 20
51.4988607428
 10
19.8203287715
 20
52.7277826608
 10
21.1789701647
 20
52.6734429502
  0
LINE
  5
24B
100
AcDbEntity
  8
_1
100
AcDbLine
 62
7
  6
CONTINUOUS
 10
31.339140077
 20
16.7190041815
 11
29.7396311912
 21
17.642460176
  0
LINE
  5
24C
100
AcDbEntity
  8
_1
100
AcDbLine
 62
7
  6
CONTINUOUS
 10
28.5545686669
 20
18.3266408651
 11
25.6383947853
 21
20.0102565522
  0
LINE
  5
24D
100
AcDbEntity
  8
_1
100
AcDbLine
 62
7
  6
CONTINUOUS
 10
24.4533322611
 20
20.6944372413
 11
22.8538233752
 21
21.6178932358
  0
LINE
  5
24E
100
AcDbEntity
  8
_1
100
AcDbLine
 62
7
  6
CONTINUOUS
 10
31.1288739089
 20
17.381538662
 11
29.2296337081
 21
18.4780406971
  0
LINE
  5
24F
100
AcDbEntity
  8
_1
100
AcDbLine
 62
7
  6
CONTINUOUS
 10
28.4018067237
 20
18.955976017
 11
25.1283973022
 21
20.8458370733
  0
LINE
  5
250
100
AcDbEntity
  8
_1
100
AcDbLine
 62
7
  6
CONTINUOUS
 10
24.3005703178
 20
21.3237723932
 11
22.401330117
 21
22.4202744282
  0
LINE
  5
251
100
AcDbEntity
  8
_1
100
AcDbLine
 62
7
  6
CONTINUOUS
 10
12.214863276
 20
53.3395424302
 11
12.214863276
 21
54.2722876899
  0
LINE
  5
252
100
AcDbEntity
  8
_1
100
AcDbLine
 62
7
  6
CONTINUOUS
 10
12.7073950809
 20
52.9755822407
 11
12.7073950809
 21
53.9083275005
  0
LINE
  5
253
100
AcDbEntity
  8
_1
100
AcDbLine
 62
7
  6
CONTINUOUS
 10
24.9757414591
 20
55.5035757065
 11
24.9818178993
 21
55.5087892014
  0
LINE
  5
254
100
AcDbEntity
  8
_1
100
AcDbLine
 62
7
  6
CONTINUOUS
 10
24.9273254971
 20
55.6020104161
 11
24.9316597126
 21
55.6056378778
  0
LINE
  5
255
100
AcDbEntity
  8
_1
100
AcDbLine
 62
7
  6
CONTINUOUS
 10
34.0271042262
 20
15.9766833778
 11
31.3613152264
 21
17.5157425562
  0
LINE
  5
256
100
AcDbEntity
  8
_1
100
AcDbLine
 62
7
  6
CONTINUOUS
 10
22.1688887995
 20
22.822872365
 11
15.8823669558
 21
26.4523153347
  0
LINE
  5
257
100
AcDbEntity
  8
_1
100
AcDbLine
 62
7
  6
CONTINUOUS
 10
14.8241520812
 20
60.7827817205
 11
14.8241520812
 21
26.4896802011
  0
LINE
  5
258
100
AcDbEntity
  8
_1
100
AcDbLine
 62
7
  6
CONTINUOUS
 10
15.8823669558
 20
26.4523153347
 11
15.8823669558
 21
60.7454168542
  0
LINE
  5
259
100
AcDbEntity
  8
_1
100
AcDbLine
 62
7
  6
CONTINUOUS
 10
15.9463232182
 20
60.6021691142
 11
15.9463232182
 21
60.7084925242
  0
LINE
  5
25A
100
AcDbEntity
  8
_1
100
AcDbLine
 62
7
  6
CONTINUOUS
 10
24.4577723684
 20
55.0001062519
 11
24.8634720826
 21
55.5477591327
  0
LINE
  5
25B
100
AcDbEntity
  8
_1
100
AcDbLine
 62
7
  6
CONTINUOUS
 10
24.6464904967
 20
55.050602957
 11
24.9865427049
 21
55.5016687568
  0
LINE
  5
25C
100
AcDbEntity
  8
_1
100
AcDbLine
 62
7
  6
CONTINUOUS
 10
25.5889040386
 20
54.8660926892
 11
25.1598186382
 21
54.2981847026
  0
LINE
  5
25D
100
AcDbEntity
  8
_1
100
AcDbLine
 62
7
  6
CONTINUOUS
 10
25.6060698264
 20
55.6691987044
 11
24.9973229897
 21
54.8647442659
  0
LINE
  5
25E
100
AcDbEntity
  8
_1
100
AcDbLine
 62
7
  6
CONTINUOUS
 10
24.7145156049
 20
51.0739881794
 11
27.9671932561
 21
52.9519112872
  0
LINE
  5
25F
100
AcDbEntity
  8
_1
100
AcDbLine
 62
7
  6
CONTINUOUS
 10
24.7145156049
 20
50.4207862457
 11
27.9671932561
 21
52.2987093535
  0
LINE
  5
260
100
AcDbEntity
  8
_1
100
AcDbLine
 62
7
  6
CONTINUOUS
 10
30.2299349558
 20
53.1152172096
 11
29.0985641059
 21
52.4620125564
  0
LINE
  5
261
100
AcDbEntity
  8
_1
100
AcDbLine
 62
7
  6
CONTINUOUS
 10
29.0985593956
 20
52.298698066
 11
28.5328763258
 21
51.9721027429
  0
LINE
  5
262
100
AcDbEntity
  8
_1
100
AcDbLine
 62
7
  6
CONTINUOUS
 10
32.0902554249
 20
27.1474232716
 11
33.6885535866
 21
27.5843888152
  0
LINE
  5
263
100
AcDbEntity
  8
_1
100
AcDbLine
 62
7
  6
CONTINUOUS
 10
22.1688887995
 20
22.822872365
 11
22.401330117
 21
22.4202744282
  0
LINE
  5
264
100
AcDbEntity
  8
_1
100
AcDbLine
 62
7
  6
CONTINUOUS
 10
16.512006288
 20
60.9287644373
 11
16.512006288
 21
61.0350878473
  0
LINE
  5
265
100
AcDbEntity
  8
_1
100
AcDbLine
 62
7
  6
CONTINUOUS
 10
16.6887884296
 20
57.0138300635
 11
16.6887884296
 21
57.3322660061
  0
LINE
  5
266
100
AcDbEntity
  8
_1
100
AcDbLine
 62
7
  6
CONTINUOUS
 10
16.7594988133
 20
57.2914422706
 11
16.7594988133
 21
57.0546544788
  0
LINE
  5
267
100
AcDbEntity
  8
_1
100
AcDbLine
 62
7
  6
CONTINUOUS
 10
17.0423432922
 20
57.373096354
 11
17.0423432922
 21
57.6915322967
  0
LINE
  5
268
100
AcDbEntity
  8
_1
100
AcDbLine
 62
7
  6
CONTINUOUS
 10
17.1130536759
 20
57.6507085612
 11
17.1130536759
 21
57.4139207694
  0
LINE
  5
269
100
AcDbEntity
  8
_1
100
AcDbLine
 62
7
  6
CONTINUOUS
 10
17.3958981548
 20
57.7323626446
 11
17.3958981548
 21
58.0507985873
  0
LINE
  5
26A
100
AcDbEntity
  8
_1
100
AcDbLine
 62
7
  6
CONTINUOUS
 10
17.4666085385
 20
58.0099748517
 11
17.4666085385
 21
57.77318706
  0
LINE
  5
26B
100
AcDbEntity
  8
_1
100
AcDbLine
 62
7
  6
CONTINUOUS
 10
17.6999553366
 20
55.2052921588
 11
17.6999553366
 21
56.4300457845
  0
LINE
  5
26C
100
AcDbEntity
  8
_1
100
AcDbLine
 62
7
  6
CONTINUOUS
 10
17.7706657203
 20
56.4708701999
 11
17.7706657203
 21
55.2461165742
  0
LINE
  5
26D
100
AcDbEntity
  8
_1
100
AcDbLine
 62
7
  6
CONTINUOUS
 10
17.9757281294
 20
56.2708318902
 11
17.9757281294
 21
55.0460782645
  0
LINE
  5
26E
100
AcDbEntity
  8
_1
100
AcDbLine
 62
7
  6
CONTINUOUS
 10
18.2797853112
 20
57.5404976441
 11
18.2797853112
 21
57.2220617014
  0
LINE
  5
26F
100
AcDbEntity
  8
_1
100
AcDbLine
 62
7
  6
CONTINUOUS
 10
32.2098468966
 20
51.3189551703
 11
32.7755299664
 21
51.6455504934
  0
LINE
  5
270
100
AcDbEntity
  8
_1
100
AcDbLine
 62
7
  6
CONTINUOUS
 10
32.7755299664
 20
51.5392270833
 11
32.2098468966
 21
51.2126317602
  0
LWPOLYLINE
  5
271
100
AcDbEntity
  8
_1
100
AcDbPolyline
 62
7
  6
CONTINUOUS
 90
3
 70
0
 10
31.7228408888
 20
27.2107445994
 10
33.2929535417
 20
27.3566269384
 10
33.5020913339
 20
27.452125416
  0
LWPOLYLINE
  5
272
100
AcDbEntity
  8
_1
100
AcDbPolyline
 62
7
  6
CONTINUOUS
 90
6
 70
0
 10
21.857841179
 20
27.4707870607
 10
23.5063141219
 20
25.7851688545
 10
26.7650633113
 20
23.3536965111
 10
30.0238239882
 20
22.0223451676
 10
33.0114822352
 20
21.9028313078
 10
34.0271042262
 20
22.3579418928
  0
LINE
  5
273
100
AcDbEntity
  8
_1
100
AcDbLine
 62
7
  6
CONTINUOUS
 10
17.8392194821
 20
33.3818288762
 11
18.0520302637
 21
33.0689420042
  0
LINE
  5
274
100
AcDbEntity
  8
_1
100
AcDbLine
 62
7
  6
CONTINUOUS
 10
18.6333401738
 20
56.772990599
 11
18.6333401738
 21
56.4545546563
  0
LINE
  5
275
100
AcDbEntity
  8
_1
100
AcDbLine
 62
7
  6
CONTINUOUS
 10
18.9868950363
 20
56.005483554
 11
18.9868950363
 21
55.6870476113
  0
LWPOLYLINE
  5
276
100
AcDbEntity
  8
_1
100
AcDbPolyline
 62
7
  6
CONTINUOUS
 90
4
 70
0
 10
19.6586410321
 20
41.7452542579
 10
20.0188945004
 20
44.2949847599
 10
21.0650063306
 20
46.1989490489
 10
22.189285634
 20
46.9491721571
  0
LINE
  5
277
100
AcDbEntity
  8
_1
100
AcDbLine
 62
7
  6
CONTINUOUS
 10
33.7104411478
 20
52.3857601277
 11
37.6592591914
 21
55.4696053168
  0
LINE
  5
278
100
AcDbEntity
  8
_1
100
AcDbLine
 62
7
  6
CONTINUOUS
 10
32.7749543405
 20
50.8856984576
 11
32.4926907867
 21
50.7227344916
  0
LINE
  5
279
100
AcDbEntity
  8
_1
100
AcDbLine
 62
7
  6
CONTINUOUS
 10
21.1789669791
 20
53.115191952
 11
21.1789716895
 21
51.8088020916
  0
LINE
  5
27A
100
AcDbEntity
  8
_1
100
AcDbLine
 62
7
  6
CONTINUOUS
 10
21.3203571293
 20
57.4995393798
 11
21.3203571293
 21
57.6058627899
  0
LWPOLYLINE
  5
27B
100
AcDbEntity
  8
_1
100
AcDbPolyline
 62
7
  6
CONTINUOUS
 90
8
 70
0
 10
20.4245170131
 20
42.0077998692
 10
20.7785922804
 20
39.1548435356
 10
21.7825731081
 20
36.1460192987
 10
23.3533035564
 20
33.2432212799
 10
25.3544063598
 20
30.7004363785
 10
27.609187696
 20
28.7382119708
 10
29.9191620593
 20
27.5215960415
 10
32.0902554249
 20
27.1474232716
  0
LINE
  5
27C
100
AcDbEntity
  8
_1
100
AcDbLine
 62
7
  6
CONTINUOUS
 10
23.583144755
 20
51.07398546
 11
23.583144755
 21
50.4207835262
  0
LINE
  5
27D
100
AcDbEntity
  8
_1
100
AcDbLine
 62
7
  6
CONTINUOUS
 10
24.43163992
 20
54.9931150598
 11
24.43163992
 21
55.1564015363
  0
LINE
  5
27E
100
AcDbEntity
  8
_1
100
AcDbLine
 62
7
  6
CONTINUOUS
 10
24.7145156049
 20
51.0739881794
 11
24.7145156049
 21
50.4207862457
  0
LINE
  5
27F
100
AcDbEntity
  8
_1
100
AcDbLine
 62
7
  6
CONTINUOUS
 10
24.9973229897
 20
55.1444778014
 11
24.9973229897
 21
55.4829968594
  0
LINE
  5
280
100
AcDbEntity
  8
_1
100
AcDbLine
 62
7
  6
CONTINUOUS
 10
41.9019175423
 20
53.0201607897
 11
37.9530994987
 21
49.9363156006
  0
LINE
  5
281
100
AcDbEntity
  8
_1
100
AcDbLine
 62
7
  6
CONTINUOUS
 10
38.0513293329
 20
49.3497499547
 11
42.0001473765
 21
52.4335951438
  0
LINE
  5
282
100
AcDbEntity
  8
_1
100
AcDbLine
 62
7
  6
CONTINUOUS
 10
35.3211290984
 20
47.4651080083
 11
35.2504187147
 21
47.4242835929
  0
LINE
  5
283
100
AcDbEntity
  8
_1
100
AcDbLine
 62
7
  6
CONTINUOUS
 10
34.9675742359
 20
47.1058417178
 11
34.8968638522
 21
47.0650173024
  0
LINE
  5
284
100
AcDbEntity
  8
_1
100
AcDbLine
 62
7
  6
CONTINUOUS
 10
34.6140193733
 20
46.7465754272
 11
34.5433089896
 21
46.7057510118
  0
LINE
  5
285
100
AcDbEntity
  8
_1
100
AcDbLine
 62
7
  6
CONTINUOUS
 10
37.5838808077
 20
48.2163254359
 11
38.1495638775
 21
48.542920759
  0
LINE
  5
286
100
AcDbEntity
  8
_1
100
AcDbLine
 62
7
  6
CONTINUOUS
 10
37.3010369177
 20
47.9466973608
 11
37.5838832515
 21
48.109997793
  0
LINE
  5
287
100
AcDbEntity
  8
_1
100
AcDbLine
 62
7
  6
CONTINUOUS
 10
35.6251862803
 20
46.1627911482
 11
35.5544758965
 21
46.1219667329
  0
LINE
  5
288
100
AcDbEntity
  8
_1
100
AcDbLine
 62
7
  6
CONTINUOUS
 10
34.0271042262
 20
32.2646335129
 11
34.6575148797
 21
31.9802772386
  0
LINE
  5
289
100
AcDbEntity
  8
_1
100
AcDbLine
 62
7
  6
CONTINUOUS
 10
9.6144362478
 20
46.4385783376
 11
10.1069680527
 21
46.0746181481
  0
LINE
  5
28A
100
AcDbEntity
  8
_1
100
AcDbLine
 62
7
  6
CONTINUOUS
 10
9.9716476678
 20
47.8944144876
 11
10.4641794727
 21
47.5304542982
  0
LWPOLYLINE
  5
28B
100
AcDbEntity
  8
_1
100
AcDbPolyline
 62
7
  6
CONTINUOUS
 90
7
 70
0
 10
25.8286552488
 20
46.3393080703
 10
25.829582117
 20
46.3237929039
 10
26.6776008623
 20
42.4964435851
 10
28.3032085931
 20
38.6337111893
 10
30.576966863
 20
35.0418582845
 10
33.3189570248
 20
32.009218462
 10
34.0271042262
 20
31.4824498478
  0
LINE
  5
28C
100
AcDbEntity
  8
_1
100
AcDbLine
 62
7
  6
CONTINUOUS
 10
25.6061487117
 20
65.2658989012
 11
25.6383938639
 21
62.4096981437
  0
LINE
  5
28D
100
AcDbEntity
  8
_1
100
AcDbLine
 62
7
  6
CONTINUOUS
 10
25.7366236981
 20
61.8231324978
 11
25.7043785459
 21
64.6793332553
  0
LINE
  5
28E
100
AcDbEntity
  8
_1
100
AcDbLine
 62
7
  6
CONTINUOUS
 10
37.7125646538
 20
47.5684495086
 11
31.8723005454
 21
43.2526670687
  0
LINE
  5
28F
100
AcDbEntity
  8
_1
100
AcDbLine
 62
7
  6
CONTINUOUS
 10
32.5027111989
 20
42.9683107944
 11
38.3429753073
 21
47.2840932343
  0
LINE
  5
290
100
AcDbEntity
  8
_1
100
AcDbLine
 62
7
  6
CONTINUOUS
 10
32.1333162821
 20
42.4124941423
 11
31.7050691241
 21
42.1240362933
  0
LINE
  5
291
100
AcDbEntity
  8
_1
100
AcDbLine
 62
7
  6
CONTINUOUS
 10
32.5027111989
 20
37.8651706873
 11
32.1333162821
 21
37.8750435036
  0
LINE
  5
292
100
AcDbEntity
  8
_1
100
AcDbLine
 62
7
  6
CONTINUOUS
 10
34.3061877949
 20
33.7655757785
 11
34.9365984483
 21
33.4812195042
  0
LINE
  5
293
100
AcDbEntity
  8
_1
100
AcDbLine
 62
7
  6
CONTINUOUS
 10
6.418749511
 20
52.5288008416
 11
6.2105810763
 21
52.6826285177
  0
LINE
  5
294
100
AcDbEntity
  8
_1
100
AcDbLine
 62
7
  6
CONTINUOUS
 10
29.0985641059
 20
51.6455101393
 11
29.0985641059
 21
52.4620125564
  0
LINE
  5
295
100
AcDbEntity
  8
_1
100
AcDbLine
 62
7
  6
CONTINUOUS
 10
31.5029056287
 20
42.6968504166
 11
31.8723005454
 21
43.2526670687
  0
LINE
  5
296
100
AcDbEntity
  8
_1
100
AcDbLine
 62
7
  6
CONTINUOUS
 10
32.5027111989
 20
42.9683107944
 11
32.1333162821
 21
42.4124941423
  0
LINE
  5
297
100
AcDbEntity
  8
_1
100
AcDbLine
 62
7
  6
CONTINUOUS
 10
33.1647314866
 20
41.3958556033
 11
32.5027111989
 21
40.9066421911
  0
LINE
  5
298
100
AcDbEntity
  8
_1
100
AcDbLine
 62
7
  6
CONTINUOUS
 10
32.5343208331
 20
40.700408977
 11
31.8723005454
 21
40.2111955649
  0
LINE
  5
299
100
AcDbEntity
  8
_1
100
AcDbLine
 62
7
  6
CONTINUOUS
 10
32.5027111989
 20
39.9268392906
 11
33.1647314866
 21
40.4160527028
  0
LINE
  5
29A
100
AcDbEntity
  8
_1
100
AcDbLine
 62
7
  6
CONTINUOUS
 10
32.1333162821
 20
39.3710226384
 11
31.7050691241
 21
39.0825647895
  0
LINE
  5
29B
100
AcDbEntity
  8
_1
100
AcDbLine
 62
7
  6
CONTINUOUS
 10
31.7050691241
 20
37.9637119668
 11
32.1333162821
 21
37.8750435036
  0
LINE
  5
29C
100
AcDbEntity
  8
_1
100
AcDbLine
 62
7
  6
CONTINUOUS
 10
31.7050691241
 20
37.9637119669
 11
31.4386262311
 21
38.0838950696
  0
LINE
  5
29D
100
AcDbEntity
  8
_1
100
AcDbLine
 62
7
  6
CONTINUOUS
 10
6.418749511
 20
53.7293039059
 11
6.2105810763
 21
53.883131582
  0
LINE
  5
29E
100
AcDbEntity
  8
_1
100
AcDbLine
 62
7
  6
CONTINUOUS
 10
6.8564075816
 20
54.8150548602
 11
7.3489393865
 21
54.4510946707
  0
LINE
  5
29F
100
AcDbEntity
  8
_1
100
AcDbLine
 62
7
  6
CONTINUOUS
 10
6.418749511
 20
55.4886221037
 11
6.2105810763
 21
55.6424497798
  0
LINE
  5
2A0
100
AcDbEntity
  8
_1
100
AcDbLine
 62
7
  6
CONTINUOUS
 10
12.3501836609
 20
51.5197460907
 11
11.857651856
 21
51.8837062801
  0
LINE
  5
2A1
100
AcDbEntity
  8
_1
100
AcDbLine
 62
7
  6
CONTINUOUS
 10
8.1898856586
 20
54.8304227354
 11
7.6973538537
 21
55.1943829249
  0
LINE
  5
2A2
100
AcDbEntity
  8
_1
100
AcDbLine
 62
7
  6
CONTINUOUS
 10
25.6383938639
 20
62.4096981437
 11
25.7366236981
 21
61.8231324978
  0
LINE
  5
2A3
100
AcDbEntity
  8
_1
100
AcDbLine
 62
7
  6
CONTINUOUS
 10
31.4386262311
 20
38.0838950696
 11
31.4386262311
 21
39.2027478922
  0
LINE
  5
2A4
100
AcDbEntity
  8
_1
100
AcDbLine
 62
7
  6
CONTINUOUS
 10
31.4386262311
 20
41.1253665734
 11
31.4386262311
 21
42.244219396
  0
LINE
  5
2A5
100
AcDbEntity
  8
_1
100
AcDbLine
 62
7
  6
CONTINUOUS
 10
31.7050691241
 20
42.1240362933
 11
31.7050691241
 21
41.0051834706
  0
LINE
  5
2A6
100
AcDbEntity
  8
_1
100
AcDbLine
 62
7
  6
CONTINUOUS
 10
31.7050691241
 20
39.0825647895
 11
31.7050691241
 21
37.9637119668
  0
LINE
  5
2A7
100
AcDbEntity
  8
_1
100
AcDbLine
 62
7
  6
CONTINUOUS
 10
31.4386262311
 20
42.244219396
 11
31.5029056287
 21
42.6968504166
  0
LINE
  5
2A8
100
AcDbEntity
  8
_1
100
AcDbLine
 62
7
  6
CONTINUOUS
 10
31.4386262311
 20
39.2027478922
 11
31.5029056287
 21
39.6553789127
  0
LINE
  5
2A9
100
AcDbEntity
  8
_1
100
AcDbLine
 62
7
  6
CONTINUOUS
 10
31.5029056287
 20
39.6553789127
 11
31.8723005454
 21
40.2111955649
  0
LINE
  5
2AA
100
AcDbEntity
  8
_1
100
AcDbLine
 62
7
  6
CONTINUOUS
 10
32.5027111989
 20
39.9268392906
 11
32.1333162821
 21
39.3710226384
  0
LINE
  5
2AB
100
AcDbEntity
  8
_1
100
AcDbLine
 62
7
  6
CONTINUOUS
 10
36.0735287271
 20
40.5038992274
 11
32.5027111989
 21
37.8651706873
  0
LINE
  5
2AC
100
AcDbEntity
  8
_1
100
AcDbLine
 62
7
  6
CONTINUOUS
 10
32.5027111989
 20
40.9066421911
 11
32.1333162821
 21
40.9165150074
  0
LINE
  5
2AD
100
AcDbEntity
  8
_1
100
AcDbLine
 62
7
  6
CONTINUOUS
 10
31.7050691241
 20
41.0051834706
 11
32.1333162821
 21
40.9165150074
  0
LINE
  5
2AE
100
AcDbEntity
  8
_1
100
AcDbLine
 62
7
  6
CONTINUOUS
 10
31.4386262311
 20
39.2027478922
 11
31.7050691241
 21
39.0825647895
  0
LINE
  5
2AF
100
AcDbEntity
  8
_1
100
AcDbLine
 62
7
  6
CONTINUOUS
 10
36.4101033529
 20
37.7086624814
 11
35.7796926994
 21
37.9930187557
  0
LINE
  5
2B0
100
AcDbEntity
  8
_1
100
AcDbLine
 62
7
  6
CONTINUOUS
 10
31.8723005454
 20
40.2111955649
 11
32.5027111989
 21
39.9268392906
  0
LINE
  5
2B1
100
AcDbEntity
  8
_1
100
AcDbLine
 62
7
  6
CONTINUOUS
 10
31.7050691241
 20
41.0051834707
 11
31.4386262311
 21
41.1253665734
  0
LINE
  5
2B2
100
AcDbEntity
  8
_1
100
AcDbLine
 62
7
  6
CONTINUOUS
 10
33.1647314866
 20
40.4160527028
 11
32.5343208331
 21
40.700408977
  0
LINE
  5
2B3
100
AcDbEntity
  8
_1
100
AcDbLine
 62
7
  6
CONTINUOUS
 10
8.1585816035
 20
55.2479568283
 11
8.6511134084
 21
54.8839966388
  0
LINE
  5
2B4
100
AcDbEntity
  8
_1
100
AcDbLine
 62
7
  6
CONTINUOUS
 10
6.2105810763
 20
56.8429528441
 11
6.418749511
 21
56.689125168
  0
LINE
  5
2B5
100
AcDbEntity
  8
_1
100
AcDbLine
 62
7
  6
CONTINUOUS
 10
12.7073950809
 20
52.9755822407
 11
12.214863276
 21
53.3395424302
  0
LINE
  5
2B6
100
AcDbEntity
  8
_1
100
AcDbLine
 62
7
  6
CONTINUOUS
 10
6.8564075816
 20
57.7748761223
 11
7.3489393865
 21
57.4109159328
  0
LINE
  5
2B7
100
AcDbEntity
  8
_1
100
AcDbLine
 62
7
  6
CONTINUOUS
 10
12.214863276
 20
54.2722876899
 11
12.7073950809
 21
53.9083275005
  0
LINE
  5
2B8
100
AcDbEntity
  8
_1
100
AcDbLine
 62
7
  6
CONTINUOUS
 10
25.7043785459
 20
64.6793332553
 11
25.6061487117
 21
65.2658989012
  0
LINE
  5
2B9
100
AcDbEntity
  8
_1
100
AcDbLine
 62
7
  6
CONTINUOUS
 10
32.1333162821
 20
42.4124941423
 11
32.1333162821
 21
40.9165150074
  0
LINE
  5
2BA
100
AcDbEntity
  8
_1
100
AcDbLine
 62
7
  6
CONTINUOUS
 10
32.1333162821
 20
39.3710226384
 11
32.1333162821
 21
37.8750435036
  0
LINE
  5
2BB
100
AcDbEntity
  8
_1
100
AcDbLine
 62
7
  6
CONTINUOUS
 10
32.2098468966
 20
51.2126317602
 11
32.2098468966
 21
51.3189551703
  0
LINE
  5
2BC
100
AcDbEntity
  8
_1
100
AcDbLine
 62
7
  6
CONTINUOUS
 10
32.7755299664
 20
51.5392270833
 11
32.7755299664
 21
51.6455504934
  0
LINE
  5
2BD
100
AcDbEntity
  8
_1
100
AcDbLine
 62
7
  6
CONTINUOUS
 10
34.0271042262
 20
32.2646335129
 11
34.0271042262
 21
11.2051036709
  0
LINE
  5
2BE
100
AcDbEntity
  8
_1
100
AcDbLine
 62
7
  6
CONTINUOUS
 10
14.8241520812
 20
26.4896802011
 11
10.737374605
 21
24.6462456773
  0
LINE
  5
2BF
100
AcDbEntity
  8
_1
100
AcDbLine
 62
7
  6
CONTINUOUS
 10
34.0944227382
 20
42.2117913753
 11
34.1655775939
 21
42.1923876382
  0
LINE
  5
2C0
100
AcDbEntity
  8
_1
100
AcDbLine
 62
7
  6
CONTINUOUS
 10
33.4967640764
 20
40.532493532
 11
32.866353423
 21
40.8168498062
  0
LINE
  5
2C1
100
AcDbEntity
  8
_1
100
AcDbLine
 62
7
  6
CONTINUOUS
 10
36.6891869216
 20
39.2096047471
 11
36.0587762681
 21
39.4939610214
  0
LINE
  5
2C2
100
AcDbEntity
  8
_1
100
AcDbLine
 62
7
  6
CONTINUOUS
 10
31.7050691241
 20
42.1240362933
 11
31.4386262311
 21
42.244219396
  0
LINE
  5
2C3
100
AcDbEntity
  8
_1
100
AcDbLine
 62
7
  6
CONTINUOUS
 10
36.0587762681
 20
40.4267062811
 11
36.6891869216
 21
40.1423500068
  0
LINE
  5
2C4
100
AcDbEntity
  8
_1
100
AcDbLine
 62
7
  6
CONTINUOUS
 10
31.8723005454
 20
43.2526670687
 11
32.5027111989
 21
42.9683107944
  0
LINE
  5
2C5
100
AcDbEntity
  8
_1
100
AcDbLine
 62
7
  6
CONTINUOUS
 10
24.43163992
 20
55.1564015363
 11
23.8659521399
 21
56.1361960736
  0
LINE
  5
2C6
100
AcDbEntity
  8
_1
100
AcDbLine
 62
7
  6
CONTINUOUS
 10
24.4316352096
 20
56.4627913967
 11
24.9973229897
 21
55.4829968594
  0
LINE
  5
2C7
100
AcDbEntity
  8
_1
100
AcDbLine
 62
7
  6
CONTINUOUS
 10
31.8156249006
 20
40.9822929257
 11
32.1444782705
 21
40.4123268536
  0
LINE
  5
2C8
100
AcDbEntity
  8
_1
100
AcDbLine
 62
7
  6
CONTINUOUS
 10
34.5433089896
 20
47.0241869545
 11
34.5433089896
 21
46.7057510118
  0
LINE
  5
2C9
100
AcDbEntity
  8
_1
100
AcDbLine
 62
7
  6
CONTINUOUS
 10
34.6140193733
 20
46.983363219
 11
34.6140193733
 21
46.7465754272
  0
LINE
  5
2CA
100
AcDbEntity
  8
_1
100
AcDbLine
 62
7
  6
CONTINUOUS
 10
34.6575148797
 20
31.9802772386
 11
34.6575148797
 21
10.9207473966
  0
LINE
  5
2CB
100
AcDbEntity
  8
_1
100
AcDbLine
 62
7
  6
CONTINUOUS
 10
34.8968638522
 20
47.3834532451
 11
34.8968638522
 21
47.0650173024
  0
LINE
  5
2CC
100
AcDbEntity
  8
_1
100
AcDbLine
 62
7
  6
CONTINUOUS
 10
34.9675742359
 20
47.3426295095
 11
34.9675742359
 21
47.1058417178
  0
LINE
  5
2CD
100
AcDbEntity
  8
_1
100
AcDbLine
 62
7
  6
CONTINUOUS
 10
35.2504187147
 20
47.7427195356
 11
35.2504187147
 21
47.4242835929
  0
LINE
  5
2CE
100
AcDbEntity
  8
_1
100
AcDbLine
 62
7
  6
CONTINUOUS
 10
35.3211290984
 20
47.7018958001
 11
35.3211290984
 21
47.4651080083
  0
LINE
  5
2CF
100
AcDbEntity
  8
_1
100
AcDbLine
 62
7
  6
CONTINUOUS
 10
35.5544758965
 20
46.1219667329
 11
35.5544758965
 21
45.9736857463
  0
LINE
  5
2D0
100
AcDbEntity
  8
_1
100
AcDbLine
 62
7
  6
CONTINUOUS
 10
35.6251862803
 20
46.1627911482
 11
35.6251862803
 21
46.0259386285
  0
LINE
  5
2D1
100
AcDbEntity
  8
_1
100
AcDbLine
 62
7
  6
CONTINUOUS
 10
36.0587762681
 20
40.4267062811
 11
36.0587762681
 21
39.4939610214
  0
LINE
  5
2D2
100
AcDbEntity
  8
_1
100
AcDbLine
 62
7
  6
CONTINUOUS
 10
36.1343058712
 20
46.9139826498
 11
36.1343058712
 21
47.2324185925
  0
LINE
  5
2D3
100
AcDbEntity
  8
_1
100
AcDbLine
 62
7
  6
CONTINUOUS
 10
35.7796926994
 20
37.9930187557
 11
34.3061877949
 21
33.7655757785
  0
LINE
  5
2D4
100
AcDbEntity
  8
_1
100
AcDbLine
 62
7
  6
CONTINUOUS
 10
36.4101033529
 20
37.7086624814
 11
34.9365984483
 21
33.4812195042
  0
LINE
  5
2D5
100
AcDbEntity
  8
_1
100
AcDbLine
 62
7
  6
CONTINUOUS
 10
37.0985948458
 20
48.6401038028
 11
37.6240770065
 21
48.7016440558
  0
LINE
  5
2D6
100
AcDbEntity
  8
_1
100
AcDbLine
 62
7
  6
CONTINUOUS
 10
6.418749511
 20
52.5288008416
 11
6.8761344722
 21
52.3773510813
  0
LINE
  5
2D7
100
AcDbEntity
  8
_1
100
AcDbLine
 62
7
  6
CONTINUOUS
 10
21.1789716895
 20
51.8088020916
 11
23.583144755
 21
50.4207835262
  0
LWPOLYLINE
  5
2D8
100
AcDbEntity
  8
_1
100
AcDbPolyline
 62
7
  6
CONTINUOUS
 90
4
 70
0
 10
32.8975708754
 20
44.0103115184
 10
30.023889904
 20
47.2135427519
 10
26.7651407147
 20
49.6450150954
 10
24.7774049309
 20
50.4570951983
  0
LINE
  5
2D9
100
AcDbEntity
  8
_1
100
AcDbLine
 62
7
  6
CONTINUOUS
 10
36.6891869216
 20
40.1423500068
 11
36.6891869216
 21
39.2096047471
  0
LINE
  5
2DA
100
AcDbEntity
  8
_1
100
AcDbLine
 62
7
  6
CONTINUOUS
 10
37.5838808077
 20
48.1100020259
 11
37.5838808077
 21
48.2163254359
  0
LINE
  5
2DB
100
AcDbEntity
  8
_1
100
AcDbLine
 62
7
  6
CONTINUOUS
 10
37.6478370701
 20
48.1794011059
 11
37.6478370701
 21
47.5206177386
  0
LINE
  5
2DC
100
AcDbEntity
  8
_1
100
AcDbLine
 62
7
  6
CONTINUOUS
 10
38.3429753073
 20
47.2840932343
 11
38.3429753073
 21
12.9909917148
  0
LINE
  5
2DD
100
AcDbEntity
  8
_1
100
AcDbLine
 62
7
  6
CONTINUOUS
 10
38.6821540003
 20
13.5597042634
 11
38.6821540003
 21
47.8528057828
  0
LINE
  5
2DE
100
AcDbEntity
  8
_1
100
AcDbLine
 62
7
  6
CONTINUOUS
 10
34.0271042262
 20
28.1574091993
 11
33.5688302877
 21
27.3817488473
  0
LINE
  5
2DF
100
AcDbEntity
  8
_1
100
AcDbLine
 62
7
  6
CONTINUOUS
 10
7.3489393865
 20
52.3077758258
 11
6.8761344722
 21
52.3773510813
  0
LINE
  5
2E0
100
AcDbEntity
  8
_1
100
AcDbLine
 62
7
  6
CONTINUOUS
 10
6.418749511
 20
55.4886221037
 11
6.8761344722
 21
55.3371723434
  0
LINE
  5
2E1
100
AcDbEntity
  8
_1
100
AcDbLine
 62
7
  6
CONTINUOUS
 10
21.1789716895
 20
52.4620040253
 11
23.583144755
 21
51.07398546
  0
LINE
  5
2E2
100
AcDbEntity
  8
_1
100
AcDbLine
 62
7
  6
CONTINUOUS
 10
17.9757281294
 20
55.0460782645
 11
17.6999553366
 21
55.2052921588
  0
LINE
  5
2E3
100
AcDbEntity
  8
_1
100
AcDbLine
 62
7
  6
CONTINUOUS
 10
17.7706657203
 20
55.2461165742
 11
17.9757281294
 21
55.1277264154
  0
LINE
  5
2E4
100
AcDbEntity
  8
_1
100
AcDbLine
 62
7
  6
CONTINUOUS
 10
18.9868950363
 20
55.6870476113
 11
17.9757281294
 21
56.2708318902
  0
LINE
  5
2E5
100
AcDbEntity
  8
_1
100
AcDbLine
 62
7
  6
CONTINUOUS
 10
17.6999553366
 20
56.4300457845
 11
16.6887884296
 21
57.0138300635
  0
LINE
  5
2E6
100
AcDbEntity
  8
_1
100
AcDbLine
 62
7
  6
CONTINUOUS
 10
34.5433089896
 20
46.7057510118
 11
35.5544758965
 21
46.1219667329
  0
LINE
  5
2E7
100
AcDbEntity
  8
_1
100
AcDbLine
 62
7
  6
CONTINUOUS
 10
16.7594988133
 20
57.0546544788
 11
17.7706657203
 21
56.4708701999
  0
LINE
  5
2E8
100
AcDbEntity
  8
_1
100
AcDbLine
 62
7
  6
CONTINUOUS
 10
18.0464385131
 20
56.3116563056
 11
18.9868950363
 21
55.7686957622
  0
LINE
  5
2E9
100
AcDbEntity
  8
_1
100
AcDbLine
 62
7
  6
CONTINUOUS
 10
34.6140193733
 20
46.7465754272
 11
35.6251862803
 21
46.1627911482
  0
LINE
  5
2EA
100
AcDbEntity
  8
_1
100
AcDbLine
 62
7
  6
CONTINUOUS
 10
35.9090411351
 20
46.2356989706
 11
34.5433089896
 21
47.0241869545
  0
LINE
  5
2EB
100
AcDbEntity
  8
_1
100
AcDbLine
 62
7
  6
CONTINUOUS
 10
16.6887884296
 20
57.3322660061
 11
18.9868950363
 21
56.005483554
  0
LINE
  5
2EC
100
AcDbEntity
  8
_1
100
AcDbLine
 62
7
  6
CONTINUOUS
 10
18.6333401738
 20
56.4545546563
 11
17.0423432922
 21
57.373096354
  0
LINE
  5
2ED
100
AcDbEntity
  8
_1
100
AcDbLine
 62
7
  6
CONTINUOUS
 10
34.8968638522
 20
47.0650173024
 11
36.0951304043
 21
46.3732134367
  0
LINE
  5
2EE
100
AcDbEntity
  8
_1
100
AcDbLine
 62
7
  6
CONTINUOUS
 10
38.838846232
 20
31.1440501993
 11
38.6821540003
 21
32.450344951
  0
LINE
  5
2EF
100
AcDbEntity
  8
_1
100
AcDbLine
 62
7
  6
CONTINUOUS
 10
38.6821540003
 20
29.9088429842
 11
38.8389893828
 21
31.0799662457
  0
LWPOLYLINE
  5
2F0
100
AcDbEntity
  8
_1
100
AcDbPolyline
 62
7
  6
CONTINUOUS
 90
10
 70
0
 10
33.5457895605
 20
27.3427508222
 10
32.8032016289
 20
26.8472274905
 10
30.7156249374
 20
26.6601489865
 10
28.3644983908
 20
27.396616621
 10
27.1545014416
 20
28.0944223938
 10
24.8025452411
 20
30.0703324143
 10
22.7141099475
 20
32.6653977751
 10
21.0716058499
 20
35.6526935813
 10
20.0207669163
 20
38.771473968
 10
19.6586410321
 20
41.7452542579
  0
LINE
  5
2F1
100
AcDbEntity
  8
_1
100
AcDbLine
 62
7
  6
CONTINUOUS
 10
24.7145156049
 20
50.4207862457
 11
23.583144755
 21
50.4207835262
  0
LINE
  5
2F2
100
AcDbEntity
  8
_1
100
AcDbLine
 62
7
  6
CONTINUOUS
 10
23.583144755
 20
51.07398546
 11
24.7145156049
 21
51.0739881794
  0
LWPOLYLINE
  5
2F3
100
AcDbEntity
  8
_1
100
AcDbPolyline
 62
7
  6
CONTINUOUS
 90
3
 70
0
 10
22.5548989652
 20
51.0144280798
 10
20.5187217907
 20
51.0958802986
 10
18.0520302637
 20
49.9905306371
  0
LINE
  5
2F4
100
AcDbEntity
  8
_1
100
AcDbLine
 62
7
  6
CONTINUOUS
 10
32.643639231
 20
50.7119699385
 11
32.4926907867
 21
50.7227344916
  0
LINE
  5
2F5
100
AcDbEntity
  8
_1
100
AcDbLine
 62
7
  6
CONTINUOUS
 10
17.1130536759
 20
57.4139207694
 11
18.6333401738
 21
56.5362028073
  0
LINE
  5
2F6
100
AcDbEntity
  8
_1
100
AcDbLine
 62
7
  6
CONTINUOUS
 10
34.9675742359
 20
47.1058417178
 11
36.1571585723
 21
46.4190504182
  0
LINE
  5
2F7
100
AcDbEntity
  8
_1
100
AcDbLine
 62
7
  6
CONTINUOUS
 10
36.3370464542
 20
46.5519822425
 11
34.8968638522
 21
47.3834532451
  0
LINE
  5
2F8
100
AcDbEntity
  8
_1
100
AcDbLine
 62
7
  6
CONTINUOUS
 10
17.0423432922
 20
57.6915322967
 11
18.6333401738
 21
56.772990599
  0
LINE
  5
2F9
100
AcDbEntity
  8
_1
100
AcDbLine
 62
7
  6
CONTINUOUS
 10
18.2797853112
 20
57.2220617014
 11
17.3958981548
 21
57.7323626446
  0
LINE
  5
2FA
100
AcDbEntity
  8
_1
100
AcDbLine
 62
7
  6
CONTINUOUS
 10
35.2504187147
 20
47.4242835929
 11
36.1343058712
 21
46.9139826498
  0
LINE
  5
2FB
100
AcDbEntity
  8
_1
100
AcDbLine
 62
7
  6
CONTINUOUS
 10
17.4666085385
 20
57.77318706
 11
18.2797853112
 21
57.3037098523
  0
LINE
  5
2FC
100
AcDbEntity
  8
_1
100
AcDbLine
 62
7
  6
CONTINUOUS
 10
35.3211290984
 20
47.4651080083
 11
36.1343058712
 21
46.9956308007
  0
LINE
  5
2FD
100
AcDbEntity
  8
_1
100
AcDbLine
 62
7
  6
CONTINUOUS
 10
36.1343058712
 20
47.2324185925
 11
35.2504187147
 21
47.7427195356
  0
LINE
  5
2FE
100
AcDbEntity
  8
_1
100
AcDbLine
 62
7
  6
CONTINUOUS
 10
17.3958981548
 20
58.0507985873
 11
18.2797853112
 21
57.5404976441
  0
LINE
  5
2FF
100
AcDbEntity
  8
_1
100
AcDbLine
 62
7
  6
CONTINUOUS
 10
27.9671860134
 20
52.2986968086
 11
28.5328763258
 21
51.9721027429
  0
LINE
  5
300
100
AcDbEntity
  8
_1
100
AcDbLine
 62
7
  6
CONTINUOUS
 10
24.4316446303
 20
54.9931150598
 11
27.9671932561
 21
52.9519112872
  0
LINE
  5
301
100
AcDbEntity
  8
_1
100
AcDbLine
 62
7
  6
CONTINUOUS
 10
16.2291671083
 20
60.1122718455
 11
17.9731880453
 21
59.1053836669
  0
LINE
  5
302
100
AcDbEntity
  8
_1
100
AcDbLine
 62
7
  6
CONTINUOUS
 10
18.9399374397
 20
58.5472432707
 11
21.0375132393
 21
57.3362347148
  0
LINE
  5
303
100
AcDbEntity
  8
_1
100
AcDbLine
 62
7
  6
CONTINUOUS
 10
32.4926907867
 20
50.7227344916
 11
34.4134891549
 21
49.6137861243
  0
LINE
  5
304
100
AcDbEntity
  8
_1
100
AcDbLine
 62
7
  6
CONTINUOUS
 10
35.3802385494
 20
49.0556457281
 11
37.3010369177
 21
47.9466973608
  0
LINE
  5
305
100
AcDbEntity
  8
_1
100
AcDbLine
 62
7
  6
CONTINUOUS
 10
25.2316310567
 20
55.0723596751
 11
28.7671796824
 21
53.0311559025
  0
LINE
  5
306
100
AcDbEntity
  8
_1
100
AcDbLine
 62
7
  6
CONTINUOUS
 10
41.8696723901
 20
55.8763615472
 11
41.9019175423
 21
53.0201607897
  0
LINE
  5
307
100
AcDbEntity
  8
_1
100
AcDbLine
 62
7
  6
CONTINUOUS
 10
42.0001473765
 20
52.4335951438
 11
41.9679022243
 21
55.2897959013
  0
LINE
  5
308
100
AcDbEntity
  8
_1
100
AcDbLine
 62
7
  6
CONTINUOUS
 10
38.6821540003
 20
25.8570733852
 11
42.9792348586
 21
28.3379793665
  0
LINE
  5
309
100
AcDbEntity
  8
_1
100
AcDbLine
 62
7
  6
CONTINUOUS
 10
7.3489393865
 20
55.2675970879
 11
6.8761344722
 21
55.3371723434
  0
LINE
  5
30A
100
AcDbEntity
  8
_1
100
AcDbLine
 62
7
  6
CONTINUOUS
 10
15.8823669558
 20
60.7454168542
 11
15.9463232182
 21
60.7084925242
  0
LINE
  5
30B
100
AcDbEntity
  8
_1
100
AcDbLine
 62
7
  6
CONTINUOUS
 10
21.3203571293
 20
57.6058627899
 11
23.8659521399
 21
56.1361960736
  0
LINE
  5
30C
100
AcDbEntity
  8
_1
100
AcDbLine
 62
7
  6
CONTINUOUS
 10
29.6642518861
 20
52.7886218865
 11
32.2098468966
 21
51.3189551703
  0
LINE
  5
30D
100
AcDbEntity
  8
_1
100
AcDbLine
 62
7
  6
CONTINUOUS
 10
37.5838808077
 20
48.2163254359
 11
37.6478370701
 21
48.1794011059
  0
LINE
  5
30E
100
AcDbEntity
  8
_1
100
AcDbLine
 62
7
  6
CONTINUOUS
 10
16.4480500256
 20
61.0720121773
 11
16.512006288
 21
61.0350878473
  0
LINE
  5
30F
100
AcDbEntity
  8
_1
100
AcDbLine
 62
7
  6
CONTINUOUS
 10
21.8860401991
 20
57.932458113
 11
24.4316352096
 21
56.4627913967
  0
LINE
  5
310
100
AcDbEntity
  8
_1
100
AcDbLine
 62
7
  6
CONTINUOUS
 10
30.2299349558
 20
53.1152172096
 11
32.7755299664
 21
51.6455504934
  0
LINE
  5
311
100
AcDbEntity
  8
_1
100
AcDbLine
 62
7
  6
CONTINUOUS
 10
38.1495638775
 20
48.542920759
 11
38.2135201399
 21
48.505996429
  0
LINE
  5
312
100
AcDbEntity
  8
_1
100
AcDbLine
 62
7
  6
CONTINUOUS
 10
37.9530994987
 20
49.9363156006
 11
36.1262801852
 21
50.9910063627
  0
LINE
  5
313
100
AcDbEntity
  8
_1
100
AcDbLine
 62
7
  6
CONTINUOUS
 10
35.5372604613
 20
51.3310693656
 11
33.7104411478
 21
52.3857601277
  0
LINE
  5
314
100
AcDbEntity
  8
_1
100
AcDbLine
 62
7
  6
CONTINUOUS
 10
21.6895758203
 20
59.3258529546
 11
19.6859790756
 21
60.4826039053
  0
LINE
  5
315
100
AcDbEntity
  8
_1
100
AcDbLine
 62
7
  6
CONTINUOUS
 10
19.0969593517
 20
60.8226669082
 11
17.4469174695
 21
61.7752974817
  0
LINE
  5
316
100
AcDbEntity
  8
_1
100
AcDbLine
 62
7
  6
CONTINUOUS
 10
41.8696723901
 20
55.8763615472
 11
37.6592591914
 21
55.4696053168
  0
LWPOLYLINE
  5
317
100
AcDbEntity
  8
_1
100
AcDbPolyline
 62
7
  6
CONTINUOUS
 90
4
 70
0
 10
36.0377960813
 20
54.2033172387
 10
33.9002437745
 20
55.6378450725
 10
30.64703556
 20
56.7986130611
 10
27.6798621818
 20
56.8178267136
  0
LINE
  5
318
100
AcDbEntity
  8
_1
100
AcDbLine
 62
7
  6
CONTINUOUS
 10
39.8420512679
 20
50.7482213867
 11
41.6289221904
 21
48.6650775936
  0
LINE
  5
319
100
AcDbEntity
  8
_1
100
AcDbLine
 62
7
  6
CONTINUOUS
 10
41.6289221904
 20
48.6650775936
 11
44.11131553
 21
44.5936703173
  0
LINE
  5
31A
100
AcDbEntity
  8
_1
100
AcDbLine
 62
7
  6
CONTINUOUS
 10
44.11131553
 20
44.5936703173
 11
45.8878961154
 21
40.2520562678
  0
LINE
  5
31B
100
AcDbEntity
  8
_1
100
AcDbLine
 62
7
  6
CONTINUOUS
 10
41.9019175423
 20
53.0201607897
 11
42.0001473765
 21
52.4335951438
  0
LINE
  5
31C
100
AcDbEntity
  8
_1
100
AcDbLine
 62
7
  6
CONTINUOUS
 10
41.9679022243
 20
55.2897959013
 11
41.8696723901
 21
55.8763615472
  0
LINE
  5
31D
100
AcDbEntity
  8
_1
100
AcDbLine
 62
7
  6
CONTINUOUS
 10
47.7153817656
 20
38.0584642518
 11
48.155100543
 21
33.9480159621
  0
LWPOLYLINE
  5
31E
100
AcDbEntity
  8
_1
100
AcDbPolyline
 62
7
  6
CONTINUOUS
 90
6
 70
0
 10
47.4479967062
 20
33.5396477258
 10
47.3277294318
 20
35.6387256887
 10
46.3786631928
 20
40.0962189854
 10
44.5544937257
 20
44.6128582789
 10
41.986348184
 20
48.8656933588
 10
40.1685441598
 20
51.0031973119
  0
LINE
  5
31F
100
AcDbEntity
  8
_1
100
AcDbLine
 62
7
  6
CONTINUOUS
 10
46.9542451068
 20
33.8247088957
 11
46.8391154223
 21
31.943698021
  0
LINE
  5
320
100
AcDbEntity
  8
_1
100
AcDbLine
 62
7
  6
CONTINUOUS
 10
46.8391154223
 20
31.943698021
 11
45.9297324486
 21
28.7146260641
  0
LINE
  5
321
100
AcDbEntity
  8
_1
100
AcDbLine
 62
7
  6
CONTINUOUS
 10
46.2372415477
 20
30.624739854
 11
46.6625253501
 21
31.4516174303
  0
LWPOLYLINE
  5
322
100
AcDbEntity
  8
_1
100
AcDbPolyline
 62
7
  6
CONTINUOUS
 90
5
 70
0
 10
45.9297324486
 20
28.7146260641
 10
44.1821821029
 20
26.3974540749
 10
41.7224570085
 20
25.1551987563
 10
38.7338915095
 20
25.0812659043
 10
38.6821540003
 20
25.0985327175
  0
LINE
  5
323
100
AcDbEntity
  8
_1
100
AcDbLine
 62
7
  6
CONTINUOUS
 10
43.6682033708
 20
25.1850542912
 11
44.375307208
 21
25.593298445
  0
LINE
  5
324
100
AcDbEntity
  8
_1
100
AcDbLine
 62
7
  6
CONTINUOUS
 10
31.0142615803
 20
17.3153651816
 11
31.3613152264
 21
17.5157425562
  0
LINE
  5
325
100
AcDbEntity
  8
_1
100
AcDbLine
 62
7
  6
CONTINUOUS
 10
20.8350711675
 20
58.0296411568
 11
21.3605533281
 21
58.0911814098
  0
LINE
  5
326
100
AcDbEntity
  8
_1
100
AcDbLine
 62
7
  6
CONTINUOUS
 10
33.0130927394
 20
55.9543869151
 11
30.8723357003
 21
56.4652364709
  0
LWPOLYLINE
  5
327
100
AcDbEntity
  8
_1
100
AcDbPolyline
 62
7
  6
CONTINUOUS
 90
4
 70
0
 10
30.8165561747
 20
56.7381268917
 10
33.6150780867
 20
55.8167995363
 10
35.3102401785
 20
54.850858956
 10
36.0746237547
 20
54.232077957
  0
LINE
  5
328
100
AcDbEntity
  8
_1
100
AcDbLine
 62
7
  6
CONTINUOUS
 10
35.2503480595
 20
56.2994547623
 11
36.3110038153
 21
55.6870673674
  0
LINE
  5
329
100
AcDbEntity
  8
_1
100
AcDbLine
 62
7
  6
CONTINUOUS
 10
35.2503480595
 20
56.2994547623
 11
37.0454077864
 21
54.9902156156
  0
LINE
  5
32A
100
AcDbEntity
  8
_1
100
AcDbLine
 62
7
  6
CONTINUOUS
 10
36.3110038153
 20
55.6870673674
 11
37.1520817464
 21
55.0735230698
  0
LWPOLYLINE
  5
32B
100
AcDbEntity
  8
_1
100
AcDbPolyline
 62
7
  6
CONTINUOUS
 90
6
 70
0
 10
36.4398322658
 20
54.5172889993
 10
35.4210705865
 20
55.3498865324
 10
33.6590468994
 20
56.3666649763
 10
30.2193696726
 20
57.5261988648
 10
27.1051008261
 20
57.4612332058
 10
26.1694797002
 20
57.0916534467
  0
LWPOLYLINE
  5
32C
100
AcDbEntity
  8
_1
100
AcDbPolyline
 62
7
  6
CONTINUOUS
 90
5
 70
0
 10
40.8187785927
 20
51.5110004838
 10
41.7027243015
 20
50.5778797623
 10
44.3753860504
 20
46.6667794195
 10
46.4261915402
 20
42.396639933
 10
47.7153817656
 20
38.0584642518
  0
LWPOLYLINE
  5
32D
100
AcDbEntity
  8
_1
100
AcDbPolyline
 62
7
  6
CONTINUOUS
 90
6
 70
0
 10
41.046201374
 20
51.6886072112
 10
42.2346793565
 20
50.4337243029
 10
44.6860146402
 20
46.8461533468
 10
46.5673122825
 20
42.9294478848
 10
47.7508966682
 20
38.9483468822
 10
48.1550917116
 20
35.1726192423
  0
LWPOLYLINE
  5
32E
100
AcDbEntity
  8
_1
100
AcDbPolyline
 62
7
  6
CONTINUOUS
 90
3
 70
0
 10
45.8878961154
 20
40.2520562678
 10
46.8265783713
 20
35.9486706437
 10
46.9513362945
 20
33.9623172111
  0
LINE
  5
32F
100
AcDbEntity
  8
_1
100
AcDbLine
 62
7
  6
CONTINUOUS
 10
48.1550917112
 20
35.1727331261
 11
48.155100543
 21
33.9480159621
  0
LINE
  5
330
100
AcDbEntity
  8
_1
100
AcDbLine
 62
7
  6
CONTINUOUS
 10
31.942666835
 20
16.7046706417
 11
32.4425591316
 21
16.8915002188
  0
LINE
  5
331
100
AcDbEntity
  8
_1
100
AcDbLine
 62
7
  6
CONTINUOUS
 10
16.3801155526
 20
60.1015072924
 11
16.2291671083
 21
60.1122718455
  0
LINE
  5
332
100
AcDbEntity
  8
_1
100
AcDbLine
 62
7
  6
CONTINUOUS
 10
38.3429753073
 20
12.9909917149
 11
35.1500414353
 21
10.6315080202
  0
LINE
  5
333
100
AcDbEntity
  8
_1
100
AcDbLine
 62
7
  6
CONTINUOUS
 10
25.6061487117
 20
65.2658989012
 11
21.395735513
 21
64.8591426708
  0
ARC
  5
334
100
AcDbEntity
  8
_1
100
AcDbCircle
 62
7
  6
CONTINUOUS
 10
10.7814300089
 20
27.5588054547
 40
28.632849428
100
AcDbArc
 50
36.6406848458
 51
41.514503129
  0
ARC
  5
335
100
AcDbEntity
  8
_1
100
AcDbCircle
 62
7
  6
CONTINUOUS
 10
10.9097233085
 20
27.3333546198
 40
27.6093902161
100
AcDbArc
 50
27.1445290571
 51
27.3667607008
  0
ARC
  5
336
100
AcDbEntity
  8
_1
100
AcDbCircle
 62
7
  6
CONTINUOUS
 10
30.2544270063
 20
33.8242965013
 40
16.6998188741
100
AcDbArc
 50
0.3297049228
 51
0.4689767551
  0
ARC
  5
337
100
AcDbEntity
  8
_1
100
AcDbCircle
 62
7
  6
CONTINUOUS
 10
24.4762740567
 20
31.0799249364
 40
14.3627153261
100
AcDbArc
 50
0.0001647911
 51
0.2558095072
  0
ARC
  5
338
100
AcDbEntity
  8
_1
100
AcDbCircle
 62
7
  6
CONTINUOUS
 10
31.0279042354
 20
41.9902571448
 40
10.6621581886
100
AcDbArc
 50
180.0002993968
 51
180.3448263602
  0
ARC
  5
339
100
AcDbEntity
  8
_1
100
AcDbCircle
 62
7
  6
CONTINUOUS
 10
30.9115447315
 20
41.9902107867
 40
10.5457986845
100
AcDbArc
 50
179.8510422878
 51
180.0000508348
  0
ARC
  5
33A
100
AcDbEntity
  8
_1
100
AcDbCircle
 62
7
  6
CONTINUOUS
 10
28.7661446532
 20
47.2279242972
 40
9.8002509904
100
AcDbArc
 50
78.0323004614
 51
79.0988014778
  0
ARC
  5
33B
100
AcDbEntity
  8
_1
100
AcDbCircle
 62
7
  6
CONTINUOUS
 10
40.0546794504
 20
34.9679494897
 40
9.0282897115
100
AcDbArc
 50
261.3093982265
 51
262.9646108318
  0
ARC
  5
33C
100
AcDbEntity
  8
_1
100
AcDbCircle
 62
7
  6
CONTINUOUS
 10
29.7564837872
 20
50.2848798689
 40
6.2270432317
100
AcDbArc
 50
120.0505114124
 51
132.2677695734
  0
ARC
  5
33D
100
AcDbEntity
  8
_1
100
AcDbCircle
 62
7
  6
CONTINUOUS
 10
28.4881394989
 20
51.4818085537
 40
6.1362967819
100
AcDbArc
 50
120.0183180413
 51
129.5946119654
  0
ARC
  5
33E
100
AcDbEntity
  8
_1
100
AcDbCircle
 62
7
  6
CONTINUOUS
 10
28.4773568156
 20
51.4939336636
 40
6.1204046144
100
AcDbArc
 50
112.4602859708
 51
119.9877020075
  0
ARC
  5
33F
100
AcDbEntity
  8
_1
100
AcDbCircle
 62
7
  6
CONTINUOUS
 10
40.6121790939
 20
30.477071937
 40
6.1110195179
100
AcDbArc
 50
300.0054926047
 51
307.6315817431
  0
ARC
  5
340
100
AcDbEntity
  8
_1
100
AcDbCircle
 62
7
  6
CONTINUOUS
 10
40.6165563986
 20
31.5970851531
 40
6.1056446619
100
AcDbArc
 50
313.2346653024
 51
314.692649055
  0
ARC
  5
341
100
AcDbEntity
  8
_1
100
AcDbCircle
 62
7
  6
CONTINUOUS
 10
28.8042146338
 20
50.9742334604
 40
6.0371010369
100
AcDbArc
 50
129.9543662152
 51
130.7495737156
  0
ARC
  5
342
100
AcDbEntity
  8
_1
100
AcDbCircle
 62
7
  6
CONTINUOUS
 10
28.8892035376
 20
50.9485200364
 40
6.0053074346
100
AcDbArc
 50
130.2378184927
 51
130.5910335544
  0
ARC
  5
343
100
AcDbEntity
  8
_1
100
AcDbCircle
 62
7
  6
CONTINUOUS
 10
31.1665254717
 20
30.1949575809
 40
3.9397974504
100
AcDbArc
 50
290.5094946236
 51
295.1149063585
  0
ARC
  5
344
100
AcDbEntity
  8
_1
100
AcDbCircle
 62
7
  6
CONTINUOUS
 10
23.4980070682
 20
43.4739591157
 40
3.9264488358
100
AcDbArc
 50
124.8609980219
 51
129.49627621
  0
ARC
  5
345
100
AcDbEntity
  8
_1
100
AcDbCircle
 62
7
  6
CONTINUOUS
 10
24.5900884351
 20
43.8637496827
 40
3.784819775
100
AcDbArc
 50
124.5059199633
 51
127.3076900641
  0
ARC
  5
346
100
AcDbEntity
  8
_1
100
AcDbCircle
 62
7
  6
CONTINUOUS
 10
24.1483186601
 20
43.6441801879
 40
3.7539974648
100
AcDbArc
 50
117.9533711704
 51
119.9968729009
  0
ARC
  5
347
100
AcDbEntity
  8
_1
100
AcDbCircle
 62
7
  6
CONTINUOUS
 10
31.645861243
 20
30.6586747875
 40
3.7514375652
100
AcDbArc
 50
299.9975118389
 51
302.4060895225
  0
ARC
  5
348
100
AcDbEntity
  8
_1
100
AcDbCircle
 62
7
  6
CONTINUOUS
 10
24.5274202885
 20
43.9736249841
 40
3.6583437497
100
AcDbArc
 50
124.2568992751
 51
127.3714716567
  0
ARC
  5
349
100
AcDbEntity
  8
_1
100
AcDbCircle
 62
7
  6
CONTINUOUS
 10
18.4384060654
 20
33.3832023433
 40
1.52901467
100
AcDbArc
 50
204.1904706897
 51
207.1526302242
  0
ARC
  5
34A
100
AcDbEntity
  8
_1
100
AcDbCircle
 62
7
  6
CONTINUOUS
 10
35.0431250007
 20
40.4270550237
 40
1.0156513273
100
AcDbArc
 50
359.9803264363
 51
3.7044561197
  0
ARC
  5
34B
100
AcDbEntity
  8
_1
100
AcDbCircle
 62
7
  6
CONTINUOUS
 10
37.2789002927
 20
47.5403495881
 40
0.7379032376
100
AcDbArc
 50
59.3932820121
 51
60.0013306582
  0
ARC
  5
34C
100
AcDbEntity
  8
_1
100
AcDbCircle
 62
7
  6
CONTINUOUS
 10
36.3262977091
 20
39.9991113424
 40
0.7107099901
100
AcDbArc
 50
243.6009391076
 51
247.5216405234
  0
ARC
  5
34D
100
AcDbEntity
  8
_1
100
AcDbCircle
 62
7
  6
CONTINUOUS
 10
17.2758362627
 20
51.2507188725
 40
0.3174176056
100
AcDbArc
 50
128.5787256106
 51
137.0092431657
  0
SPLINE
  5
34E
100
AcDbEntity
  8
_1
100
AcDbSpline
 62
7
  6
CONTINUOUS
 70
0
 71
3
 72
17
 73
13
 74
0
 42
0.0000001
 43
0.0000001
 44
0.0000000001
 40
0.0
 40
0.0
 40
0.0
 40
0.0
 40
0.0537954787
 40
0.109698223
 40
0.1675353985
 40
0.2271369122
 40
0.3508287155
 40
0.4791114624
 40
0.6101262172
 40
0.7419228962
 40
0.8725263495
 40
1.0
 40
1.0
 40
1.0
 40
1.0
 10
45.2427690258
 20
34.7970313233
 30
0.0
 10
45.2427690258
 20
35.0983668418
 30
0.0
 10
45.222906965
 20
35.7129763937
 30
0.0
 10
45.1375795569
 20
36.6480112185
 30
0.0
 10
44.9960870808
 20
37.6091103688
 30
0.0
 10
44.7301405312
 20
38.933872323
 30
0.0
 10
44.2591557062
 20
40.6174032864
 30
0.0
 10
43.4962110486
 20
42.6253018487
 30
0.0
 10
42.5446168853
 20
44.6014531215
 30
0.0
 10
41.4248908429
 20
46.5025041194
 30
0.0
 10
40.1616017824
 20
48.2869381294
 30
0.0
 10
39.2260947303
 20
49.3920386965
 30
0.0
 10
38.7397808012
 20
49.9148748
 30
0.0
  0
SPLINE
  5
34F
100
AcDbEntity
  8
_1
100
AcDbSpline
 62
7
  6
CONTINUOUS
 70
0
 71
3
 72
14
 73
10
 74
0
 42
0.0000001
 43
0.0000001
 44
0.0000000001
 40
0.0
 40
0.0
 40
0.0
 40
0.0
 40
0.2606311484
 40
0.3874508539
 40
0.512337144
 40
0.6356412525
 40
0.7577619426
 40
0.8790840369
 40
1.0
 40
1.0
 40
1.0
 40
1.0
 10
38.9488730961
 20
26.007636581
 30
0.0
 10
39.3378856428
 20
25.9596770104
 30
0.0
 10
39.9222990934
 20
25.9267602896
 30
0.0
 10
40.6920823553
 20
25.9713904094
 30
0.0
 10
41.2514176691
 20
26.0484222811
 30
0.0
 10
41.7956531561
 20
26.1695070938
 30
0.0
 10
42.3225461545
 20
26.3348862033
 30
0.0
 10
42.8297591047
 20
26.5439697257
 30
0.0
 10
43.1534973925
 20
26.7122532616
 30
0.0
 10
43.3109459655
 20
26.8032303076
 30
0.0
  0
SPLINE
  5
350
100
AcDbEntity
  8
_1
100
AcDbSpline
 62
7
  6
CONTINUOUS
 70
0
 71
3
 72
15
 73
11
 74
0
 42
0.0000001
 43
0.0000001
 44
0.0000000001
 40
0.0
 40
0.0
 40
0.0
 40
0.0
 40
0.1397036801
 40
0.2740730358
 40
0.4034746646
 40
0.5284602538
 40
0.6497297769
 40
0.7681209022
 40
0.8845563211
 40
1.0
 40
1.0
 40
1.0
 40
1.0
 10
33.9647515081
 20
55.6308306457
 30
0.0
 10
33.6401723978
 20
55.7720290944
 30
0.0
 10
32.9918284809
 20
56.023516108
 30
0.0
 10
32.0079104026
 20
56.3062350119
 30
0.0
 10
31.0372191029
 20
56.4835728006
 30
0.0
 10
30.0858469447
 20
56.5520939174
 30
0.0
 10
29.1606377195
 20
56.5087558074
 30
0.0
 10
28.2695324314
 20
56.3513463275
 30
0.0
 10
27.4220538631
 20
56.0789411003
 30
0.0
 10
26.8914654482
 20
55.8212472792
 30
0.0
 10
26.6382091605
 20
55.6749105518
 30
0.0
  0
SPLINE
  5
351
100
AcDbEntity
  8
_1
100
AcDbSpline
 62
7
  6
CONTINUOUS
 70
0
 71
3
 72
15
 73
11
 74
0
 42
0.0000001
 43
0.0000001
 44
0.0000000001
 40
0.0
 40
0.0
 40
0.0
 40
0.0
 40
0.1168031179
 40
0.2344374596
 40
0.3537351495
 40
0.4754717257
 40
0.6003912801
 40
0.7291232619
 40
0.8621923369
 40
1.0
 40
1.0
 40
1.0
 40
1.0
 10
43.3109459655
 20
26.8032303076
 30
0.0
 10
43.5420938432
 20
26.9367923379
 30
0.0
 10
43.9890737298
 20
27.2355086523
 30
0.0
 10
44.5993227897
 20
27.7690023603
 30
0.0
 10
45.1457602711
 20
28.3828524626
 30
0.0
 10
45.6248639133
 20
29.0706978008
 30
0.0
 10
46.0347795885
 20
29.8262857544
 30
0.0
 10
46.3744818155
 20
30.6438505819
 30
0.0
 10
46.6437708936
 20
31.517846995
 30
0.0
 10
46.7740037681
 20
32.1239629835
 30
0.0
 10
46.8280149223
 20
32.4342656698
 30
0.0
  0
SPLINE
  5
352
100
AcDbEntity
  8
_1
100
AcDbSpline
 62
7
  6
CONTINUOUS
 70
0
 71
3
 72
17
 73
13
 74
0
 42
0.0000001
 43
0.0000001
 44
0.0000000001
 40
0.0
 40
0.0
 40
0.0
 40
0.0
 40
0.054614528
 40
0.1110570916
 40
0.1691836744
 40
0.2288647252
 40
0.3522595354
 40
0.479880795
 40
0.6101562433
 40
0.7414071621
 40
0.8719176012
 40
1.0
 40
1.0
 40
1.0
 40
1.0
 10
46.924681425
 20
33.9606430849
 30
0.0
 10
46.9227312988
 20
34.2995847089
 30
0.0
 10
46.8976549731
 20
34.9888316106
 30
0.0
 10
46.8007107379
 20
36.0348139567
 30
0.0
 10
46.6440510449
 20
37.1053383238
 30
0.0
 10
46.3534913231
 20
38.5743346444
 30
0.0
 10
45.8435978358
 20
40.4370076944
 30
0.0
 10
45.0210058799
 20
42.6587108352
 30
0.0
 10
43.9967047934
 20
44.8488302928
 30
0.0
 10
42.7904927202
 20
46.9648848726
 30
0.0
 10
41.4258511292
 20
48.9657795076
 30
0.0
 10
40.4140494527
 20
50.2144568898
 30
0.0
 10
39.8869086694
 20
50.80942842
 30
0.0
  0
SPLINE
  5
353
100
AcDbEntity
  8
_1
100
AcDbSpline
 62
7
  6
CONTINUOUS
 70
0
 71
3
 72
14
 73
10
 74
0
 42
0.0000001
 43
0.0000001
 44
0.0000000001
 40
0.0
 40
0.0
 40
0.0
 40
0.0
 40
0.2684737042
 40
0.396837227
 40
0.5218140215
 40
0.6439587691
 40
0.7638995017
 40
0.8823331231
 40
1.0
 40
1.0
 40
1.0
 40
1.0
 10
38.68998
 20
24.485086069
 30
0.0
 10
39.1416217416
 20
24.4012920251
 30
0.0
 10
39.8196433507
 20
24.3233256398
 30
0.0
 10
40.7132208552
 20
24.3309504776
 30
0.0
 10
41.3536813369
 20
24.3914493744
 30
0.0
 10
41.9719528611
 20
24.5066050801
 30
0.0
 10
42.5659931721
 20
24.6762537216
 30
0.0
 10
43.1337021517
 20
24.8996998474
 30
0.0
 10
43.4938475783
 20
25.0843994555
 30
0.0
 10
43.6681961799
 20
25.1850667293
 30
0.0
  0
SPLINE
  5
354
100
AcDbEntity
  8
_1
100
AcDbSpline
 62
7
  6
CONTINUOUS
 70
0
 71
3
 72
18
 73
14
 74
0
 42
0.0000001
 43
0.0000001
 44
0.0000000001
 40
0.0
 40
0.0
 40
0.0
 40
0.0
 40
0.1485525388
 40
0.2894264512
 40
0.4226059668
 40
0.5484937069
 40
0.6678196438
 40
0.7254032507
 40
0.7818086554
 40
0.8372398788
 40
0.8919196933
 40
0.9460890269
 40
1.0
 40
1.0
 40
1.0
 40
1.0
 10
48.1551005435
 20
33.9478918797
 30
0.0
 10
48.1551005435
 20
33.4725773454
 30
0.0
 10
48.116789922
 20
32.5458759407
 30
0.0
 10
47.9343693892
 20
31.2039108933
 30
0.0
 10
47.6296022086
 20
29.9583168635
 30
0.0
 10
47.20509044
 20
28.8212658626
 30
0.0
 10
46.7484195601
 20
27.9628840438
 30
0.0
 10
46.3269225168
 20
27.3459977995
 30
0.0
 10
45.9875909085
 20
26.922540104
 30
0.0
 10
45.6222521728
 20
26.5339515447
 30
0.0
 10
45.2316959585
 20
26.1812449595
 30
0.0
 10
44.8169536169
 20
25.8653281288
 30
0.0
 10
44.5246930612
 20
25.6795458886
 30
0.0
 10
44.375307208
 20
25.593298445
 30
0.0
  0
SPLINE
  5
355
100
AcDbEntity
  8
_1
100
AcDbSpline
 62
7
  6
CONTINUOUS
 70
0
 71
3
 72
15
 73
11
 74
0
 42
0.0000001
 43
0.0000001
 44
0.0000000001
 40
0.0
 40
0.0
 40
0.0
 40
0.0
 40
0.1058730352
 40
0.2150383973
 40
0.3290468093
 40
0.4490462732
 40
0.5758176968
 40
0.7098210735
 40
0.8512594729
 40
1.0
 40
1.0
 40
1.0
 40
1.0
 10
22.306878014
 20
46.8809727442
 30
0.0
 10
22.1551684594
 20
46.7651226557
 30
0.0
 10
21.8649772258
 20
46.5053507873
 30
0.0
 10
21.485290442
 20
46.046985954
 30
0.0
 10
21.1591634029
 20
45.5190200721
 30
0.0
 10
20.8893327834
 20
44.9254328833
 30
0.0
 10
20.6782059742
 20
44.2707598482
 30
0.0
 10
20.5277209026
 20
43.5601782529
 30
0.0
 10
20.4393861099
 20
42.799547844
 30
0.0
 10
20.4229044586
 20
42.275968267
 30
0.0
 10
20.4245170131
 20
42.0077998692
 30
0.0
  0
SPLINE
  5
356
100
AcDbEntity
  8
_1
100
AcDbSpline
 62
7
  6
CONTINUOUS
 70
0
 71
3
 72
18
 73
14
 74
0
 42
0.0000001
 43
0.0000001
 44
0.0000000001
 40
0.0
 40
0.0
 40
0.0
 40
0.0
 40
0.0539112308
 40
0.108080812
 40
0.1627608545
 40
0.2181922775
 40
0.2745978463
 40
0.3321815761
 40
0.4515076217
 40
0.5773952755
 40
0.71057452
 40
0.8514480057
 40
1.0
 40
1.0
 40
1.0
 40
1.0
 10
26.1253889111
 20
57.2032728543
 30
0.0
 10
26.2747714744
 20
57.2895183984
 30
0.0
 10
26.5817877546
 20
57.4497274912
 30
0.0
 10
27.0627406505
 20
57.650940857
 30
0.0
 10
27.5634603364
 20
57.8128151681
 30
0.0
 10
28.0826450438
 20
57.9349112267
 30
0.0
 10
28.6190229032
 20
58.017051579
 30
0.0
 10
29.3639916388
 20
58.0736370587
 30
0.0
 10
30.335682052
 20
58.0399411392
 30
0.0
 10
31.5326215237
 20
57.8390678707
 30
0.0
 10
32.7636887419
 20
57.4802276295
 30
0.0
 10
34.0170422001
 20
56.9672526054
 30
0.0
 10
34.8387238119
 20
56.5371007562
 30
0.0
 10
35.2503480595
 20
56.2994547623
 30
0.0
  0
SPLINE
  5
357
100
AcDbEntity
  8
_1
100
AcDbSpline
 62
7
  6
CONTINUOUS
 70
0
 71
3
 72
15
 73
11
 74
0
 42
0.0000001
 43
0.0000001
 44
0.0000000001
 40
0.0
 40
0.0
 40
0.0
 40
0.0
 40
0.1079746503
 40
0.2197913808
 40
0.3361419345
 40
0.4576139956
 40
0.5845871401
 40
0.7172807096
 40
0.8557935437
 40
1.0
 40
1.0
 40
1.0
 40
1.0
 10
44.8187456492
 20
27.132232565
 30
0.0
 10
44.9929350337
 20
27.3289848651
 30
0.0
 10
45.3230049844
 20
27.7518035153
 30
0.0
 10
45.7501741317
 20
28.4513356472
 30
0.0
 10
46.114553355
 20
29.2219684511
 30
0.0
 10
46.4140337903
 20
30.0591205067
 30
0.0
 10
46.6471054697
 20
30.9581285236
 30
0.0
 10
46.8123688079
 20
31.9140204494
 30
0.0
 10
46.908863054
 20
32.9212590945
 30
0.0
 10
46.9267006563
 20
33.6096906394
 30
0.0
 10
46.924681425
 20
33.9606430849
 30
0.0
  0
SPLINE
  5
358
100
AcDbEntity
  8
_1
100
AcDbSpline
 62
7
  6
CONTINUOUS
 70
0
 71
3
 72
30
 73
26
 74
0
 42
0.0000001
 43
0.0000001
 44
0.0000000001
 40
0.0
 40
0.0
 40
0.0
 40
0.0
 40
0.0213279117
 40
0.0428841083
 40
0.0648852004
 40
0.0875254045
 40
0.1109703542
 40
0.135352281
 40
0.1607704187
 40
0.1872905136
 40
0.2149490163
 40
0.2437538323
 40
0.2736897317
 40
0.3047187347
 40
0.369793127
 40
0.4383763657
 40
0.5096482737
 40
0.5826576276
 40
0.6563740945
 40
0.7297361893
 40
0.8016981026
 40
0.8712763641
 40
0.9376017816
 40
0.9693386114
 40
1.0
 40
1.0
 40
1.0
 40
1.0
 10
33.5214389377
 20
27.4097531023
 30
0.0
 10
33.3832200164
 20
27.3299611591
 30
0.0
 10
33.0946962977
 20
27.1871562105
 30
0.0
 10
32.6346643233
 20
27.0281389655
 30
0.0
 10
32.1490297284
 20
26.9245536728
 30
0.0
 10
31.6406898144
 20
26.8768738668
 30
0.0
 10
31.1124743462
 20
26.8852021913
 30
0.0
 10
30.5672729041
 20
26.9493018322
 30
0.0
 10
30.0080163341
 20
27.0687262147
 30
0.0
 10
29.4376645706
 20
27.2426881246
 30
0.0
 10
28.8592547225
 20
27.4702261613
 30
0.0
 10
28.2758341254
 20
27.7500241989
 30
0.0
 10
27.6905101692
 20
28.0806008837
 30
0.0
 10
26.8992233809
 20
28.5947554974
 30
0.0
 10
25.9267433328
 20
29.3561371478
 30
0.0
 10
24.8205361152
 20
30.4215074259
 30
0.0
 10
23.7800226815
 20
31.6304657105
 30
0.0
 10
22.8274101081
 20
32.9571813916
 30
0.0
 10
21.982953334
 20
34.3734210503
 30
0.0
 10
21.2646791763
 20
35.8489496406
 30
0.0
 10
20.687888916
 20
37.3523597449
 30
0.0
 10
20.2649241236
 20
38.8515160464
 30
0.0
 10
20.0448278289
 20
40.0891396016
 30
0.0
 10
19.9566515465
 20
41.0487751246
 30
0.0
 10
19.9414837446
 20
41.5158153277
 30
0.0
 10
19.9414837446
 20
41.7452549378
 30
0.0
  0
SPLINE
  5
359
100
AcDbEntity
  8
_1
100
AcDbSpline
 62
7
  6
CONTINUOUS
 70
0
 71
3
 72
15
 73
11
 74
0
 42
0.0000001
 43
0.0000001
 44
0.0000000001
 40
0.0
 40
0.0
 40
0.0
 40
0.0
 40
0.1077935012
 40
0.2185075911
 40
0.3334856457
 40
0.4538061524
 40
0.5802384233
 40
0.713294574
 40
0.8532507537
 40
1.0
 40
1.0
 40
1.0
 40
1.0
 10
22.2961274848
 20
46.8741655822
 30
0.0
 10
22.1415355554
 20
46.7563830015
 30
0.0
 10
21.8460675335
 20
46.4931631847
 30
0.0
 10
21.4591614823
 20
46.030424196
 30
0.0
 10
21.1270214062
 20
45.500187739
 30
0.0
 10
20.8522266486
 20
44.9070054798
 30
0.0
 10
20.6364071181
 20
44.255714072
 30
0.0
 10
20.4810562355
 20
43.5512984753
 30
0.0
 10
20.3872405051
 20
42.7993649285
 30
0.0
 10
20.3664697887
 20
42.2822116288
 30
0.0
 10
20.3657816863
 20
42.0176277498
 30
0.0
  0
LINE
  5
35A
100
AcDbEntity
  8
_1
100
AcDbLine
 62
7
  6
CONTINUOUS
 10
46.9542451068
 20
33.8247088957
 11
46.9541685176
 21
33.8565953025
  0
LINE
  5
35B
100
AcDbEntity
  8
_1
100
AcDbLine
 62
7
  6
CONTINUOUS
 10
46.9541685176
 20
33.8565953025
 11
46.9539693862
 21
33.9203940176
  0
SPLINE
  5
35C
100
AcDbEntity
  8
_1
100
AcDbSpline
 62
7
  6
CONTINUOUS
 70
0
 71
3
 72
23
 73
19
 74
0
 42
0.0000001
 43
0.0000001
 44
0.0000000001
 40
0.0
 40
0.0
 40
0.0
 40
0.0
 40
0.0593214979
 40
0.1219141187
 40
0.1873000573
 40
0.2549193693
 40
0.3241176402
 40
0.3941933999
 40
0.4644151049
 40
0.534046877
 40
0.6023717763
 40
0.6687158614
 40
0.7324737092
 40
0.7931364947
 40
0.8503241038
 40
0.9038229427
 40
0.9536299205
 40
1.0
 40
1.0
 40
1.0
 40
1.0
 10
20.3659391411
 20
41.9260888755
 30
0.0
 10
20.3683288837
 20
41.5286738157
 30
0.0
 10
20.4185146505
 20
40.7117705267
 30
0.0
 10
20.614846037
 20
39.4707967507
 30
0.0
 10
20.9313697246
 20
38.1976019553
 30
0.0
 10
21.3630086668
 20
36.9121197071
 30
0.0
 10
21.9031305218
 20
35.6342192607
 30
0.0
 10
22.5432824814
 20
34.3838176881
 30
0.0
 10
23.2735094138
 20
33.1803985137
 30
0.0
 10
24.0824214903
 20
32.0427210477
 30
0.0
 10
24.9574182613
 20
30.9885034451
 30
0.0
 10
25.8849044822
 20
30.0341413942
 30
0.0
 10
26.850526061
 20
29.1944505401
 30
0.0
 10
27.8394550674
 20
28.4824515993
 30
0.0
 10
28.8366111357
 20
27.9092137951
 30
0.0
 10
29.8271704934
 20
27.4837896017
 30
0.0
 10
30.7960321965
 20
27.2132519515
 30
0.0
 10
31.4394758347
 20
27.137307588
 30
0.0
 10
31.7500283167
 20
27.1293396912
 30
0.0
  0
SPLINE
  5
35D
100
AcDbEntity
  8
_1
100
AcDbSpline
 62
7
  6
CONTINUOUS
 70
0
 71
3
 72
15
 73
11
 74
0
 42
0.0000001
 43
0.0000001
 44
0.0000000001
 40
0.0
 40
0.0
 40
0.0
 40
0.0
 40
0.1485792388
 40
0.2895078844
 40
0.4227228411
 40
0.5486397157
 40
0.6680003259
 40
0.7819383288
 40
0.8919870591
 40
1.0
 40
1.0
 40
1.0
 40
1.0
 10
19.9414837446
 20
41.7452549378
 30
0.0
 10
19.9414837446
 20
42.0382302866
 30
0.0
 10
19.9651188667
 20
42.6094879584
 30
0.0
 10
20.0775465421
 20
43.436738935
 30
0.0
 10
20.2653941895
 20
44.2045798224
 30
0.0
 10
20.527173607
 20
44.9055390729
 30
0.0
 10
20.8608351979
 20
45.5329014549
 30
0.0
 10
21.2638258621
 20
46.0802443524
 30
0.0
 10
21.7324271385
 20
46.5413746652
 30
0.0
 10
22.087041986
 20
46.7888561604
 30
0.0
 10
22.2714973673
 20
46.8953397965
 30
0.0
  0
SPLINE
  5
35E
100
AcDbEntity
  8
_1
100
AcDbSpline
 62
7
  6
CONTINUOUS
 70
0
 71
3
 72
11
 73
7
 74
0
 42
0.0000001
 43
0.0000001
 44
0.0000000001
 40
0.0
 40
0.0
 40
0.0
 40
0.0
 40
0.2487412178
 40
0.4965230772
 40
0.7460677327
 40
1.0
 40
1.0
 40
1.0
 40
1.0
 10
24.9316597126
 20
55.6056378778
 30
0.0
 10
25.1249239737
 20
55.7672335812
 30
0.0
 10
25.5315112633
 20
56.0658806898
 30
0.0
 10
26.1947869195
 20
56.4320516349
 30
0.0
 10
26.9044262914
 20
56.7119931662
 30
0.0
 10
27.399899487
 20
56.8386785582
 30
0.0
 10
27.6523955428
 20
56.8875307232
 30
0.0
  0
SPLINE
  5
35F
100
AcDbEntity
  8
_1
100
AcDbSpline
 62
7
  6
CONTINUOUS
 70
0
 71
3
 72
11
 73
7
 74
0
 42
0.0000001
 43
0.0000001
 44
0.0000000001
 40
0.0
 40
0.0
 40
0.0
 40
0.0
 40
0.2380819748
 40
0.4832893245
 40
0.7369198044
 40
1.0
 40
1.0
 40
1.0
 40
1.0
 10
27.6523955428
 20
56.8875307232
 30
0.0
 10
27.8849198474
 20
56.9325188149
 30
0.0
 10
28.3622281943
 20
56.9981957862
 30
0.0
 10
29.0959844626
 20
57.0237090307
 30
0.0
 10
29.8535655054
 20
56.9776004051
 30
0.0
 10
30.3625464104
 20
56.9008144538
 30
0.0
 10
30.6195287599
 20
56.8513273765
 30
0.0
  0
SPLINE
  5
360
100
AcDbEntity
  8
_1
100
AcDbSpline
 62
7
  6
CONTINUOUS
 70
0
 71
3
 72
14
 73
10
 74
0
 42
0.0000001
 43
0.0000001
 44
0.0000000001
 40
0.0
 40
0.0
 40
0.0
 40
0.0
 40
0.2712285789
 40
0.3990173072
 40
0.5226368341
 40
0.6432128876
 40
0.7620361081
 40
0.8804951063
 40
1.0
 40
1.0
 40
1.0
 40
1.0
 10
38.6992772252
 20
25.7413579998
 30
0.0
 10
39.2749852352
 20
25.6152481374
 30
0.0
 10
40.1431787536
 20
25.5048450641
 30
0.0
 10
41.279809086
 20
25.5539152281
 30
0.0
 10
42.0795691626
 20
25.6850038027
 30
0.0
 10
42.8376546478
 20
25.910809191
 30
0.0
 10
43.5493080637
 20
26.2299871137
 30
0.0
 10
44.209563004
 20
26.6405824264
 30
0.0
 10
44.6096602983
 20
26.9709197404
 30
0.0
 10
44.79884987
 20
27.1487913166
 30
0.0
  0
SPLINE
  5
361
100
AcDbEntity
  8
_1
100
AcDbSpline
 62
7
  6
CONTINUOUS
 70
0
 71
3
 72
11
 73
7
 74
0
 42
0.0000001
 43
0.0000001
 44
0.0000000001
 40
0.0
 40
0.0
 40
0.0
 40
0.0
 40
0.2489967081
 40
0.4968927521
 40
0.7463638881
 40
1.0
 40
1.0
 40
1.0
 40
1.0
 10
25.0100049612
 20
55.5327905115
 30
0.0
 10
25.1996267995
 20
55.6932476343
 30
0.0
 10
25.5984672144
 20
55.9902239884
 30
0.0
 10
26.2491992334
 20
56.3561171851
 30
0.0
 10
26.9454844336
 20
56.6379020548
 30
0.0
 10
27.4319296694
 20
56.7673025985
 30
0.0
 10
27.6798639936
 20
56.8178225749
 30
0.0
  0
SPLINE
  5
362
100
AcDbEntity
  8
_1
100
AcDbSpline
 62
7
  6
CONTINUOUS
 70
0
 71
3
 72
15
 73
11
 74
0
 42
0.0000001
 43
0.0000001
 44
0.0000000001
 40
0.0
 40
0.0
 40
0.0
 40
0.0
 40
0.122184438
 40
0.2423021244
 40
0.3618300602
 40
0.4822814204
 40
0.6051113916
 40
0.7316360071
 40
0.86297176
 40
1.0
 40
1.0
 40
1.0
 40
1.0
 10
44.8187372116
 20
27.1322440278
 30
0.0
 10
44.6371608702
 20
26.927156962
 30
0.0
 10
44.250600324
 20
26.5428746858
 30
0.0
 10
43.6013104787
 20
26.0525782862
 30
0.0
 10
42.8937849041
 20
25.6584380388
 30
0.0
 10
42.1330853485
 20
25.3634618526
 30
0.0
 10
41.324628484
 20
25.1694020612
 30
0.0
 10
40.4739704973
 20
25.0772505668
 30
0.0
 10
39.5868918361
 20
25.0872628706
 30
0.0
 10
38.9883803204
 20
25.1600516031
 30
0.0
 10
38.6856214424
 20
25.2120669398
 30
0.0
  0
SPLINE
  5
363
100
AcDbEntity
  8
_1
100
AcDbSpline
 62
7
  6
CONTINUOUS
 70
0
 71
3
 72
15
 73
11
 74
0
 42
0.0000001
 43
0.0000001
 44
0.0000000001
 40
0.0
 40
0.0
 40
0.0
 40
0.0
 40
0.1077105268
 40
0.2183880777
 40
0.3333650492
 40
0.45370652
 40
0.5801765947
 40
0.7132649384
 40
0.8532366181
 40
1.0
 40
1.0
 40
1.0
 40
1.0
 10
44.3434563025
 20
25.6374304275
 30
0.0
 10
44.5933094339
 20
25.8299364718
 30
0.0
 10
45.0705642732
 20
26.2598530828
 30
0.0
 10
45.6949692655
 20
27.0142578759
 30
0.0
 10
46.2303265458
 20
27.8779279748
 30
0.0
 10
46.6726934578
 20
28.8433388539
 30
0.0
 10
47.0192959163
 20
29.9027071747
 30
0.0
 10
47.267807871
 20
31.0478713935
 30
0.0
 10
47.4165534549
 20
32.2697597258
 30
0.0
 10
47.4479967062
 20
33.1098751281
 30
0.0
 10
47.4479967062
 20
33.5396477258
 30
0.0
  0
SPLINE
  5
364
100
AcDbEntity
  8
_1
100
AcDbSpline
 62
7
  6
CONTINUOUS
 70
0
 71
3
 72
18
 73
14
 74
0
 42
0.0000001
 43
0.0000001
 44
0.0000000001
 40
0.0
 40
0.0
 40
0.0
 40
0.0
 40
0.0571955629
 40
0.1161770854
 40
0.1767745278
 40
0.2387796244
 40
0.3019607861
 40
0.3660722808
 40
0.4960157554
 40
0.6265008053
 40
0.7553536949
 40
0.8804861342
 40
1.0
 40
1.0
 40
1.0
 40
1.0
 10
25.78625777
 20
46.3570250728
 30
0.0
 10
25.8169928353
 20
46.0237775735
 30
0.0
 10
25.9006879863
 20
45.3486903379
 30
0.0
 10
26.0870190229
 20
44.3307557396
 30
0.0
 10
26.3350684723
 20
43.2971117862
 30
0.0
 10
26.6431911089
 20
42.2541618033
 30
0.0
 10
27.0095882109
 20
41.208415922
 30
0.0
 10
27.5750977134
 20
39.813047
 30
0.0
 10
28.4117506099
 20
38.1050561498
 30
0.0
 10
29.596950157
 20
36.1563838775
 30
0.0
 10
30.9390786909
 20
34.3468115533
 30
0.0
 10
32.4047480944
 20
32.7213040701
 30
0.0
 10
33.4700555559
 20
31.7600731889
 30
0.0
 10
34.0160031673
 20
31.3230851326
 30
0.0
  0
SPLINE
  5
365
100
AcDbEntity
  8
_1
100
AcDbSpline
 62
7
  6
CONTINUOUS
 70
0
 71
3
 72
12
 73
8
 74
0
 42
0.0000001
 43
0.0000001
 44
0.0000000001
 40
0.0
 40
0.0
 40
0.0
 40
0.0
 40
0.2835885771
 40
0.5414918523
 40
0.7769500164
 40
0.8893511033
 40
1.0
 40
1.0
 40
1.0
 40
1.0
 10
11.9193868905
 20
54.3693807864
 30
0.0
 10
11.9729845071
 20
54.3935572182
 30
0.0
 10
12.0797684832
 20
54.4309277599
 30
0.0
 10
12.2411546202
 20
54.450294676
 30
0.0
 10
12.3673428963
 20
54.431309462
 30
0.0
 10
12.4556572836
 20
54.3951680218
 30
0.0
 10
12.4952329942
 20
54.3707488087
 30
0.0
 10
12.5136798894
 20
54.3571098123
 30
0.0
  0
SPLINE
  5
366
100
AcDbEntity
  8
_1
100
AcDbSpline
 62
7
  6
CONTINUOUS
 70
0
 71
3
 72
15
 73
11
 74
0
 42
0.0000001
 43
0.0000001
 44
0.0000000001
 40
0.0
 40
0.0
 40
0.0
 40
0.0
 40
0.1506658986
 40
0.2971413524
 40
0.4364945113
 40
0.566953289
 40
0.6875233689
 40
0.7984243382
 40
0.9014504231
 40
1.0
 40
1.0
 40
1.0
 40
1.0
 10
8.6511134084
 20
56.0094459165
 30
0.0
 10
8.6842808019
 20
56.0492154854
 30
0.0
 10
8.7544264868
 20
56.1238461774
 30
0.0
 10
8.8700807859
 20
56.2200178247
 30
0.0
 10
8.9917131368
 20
56.2962734227
 30
0.0
 10
9.1152801146
 20
56.3500202333
 30
0.0
 10
9.2368929578
 20
56.3794509731
 30
0.0
 10
9.3527796668
 20
56.3831701248
 30
0.0
 10
9.4589319382
 20
56.3603991591
 30
0.0
 10
9.5210700076
 20
56.3272960089
 30
0.0
 10
9.548305837
 20
56.3071579581
 30
0.0
  0
SPLINE
  5
367
100
AcDbEntity
  8
_1
100
AcDbSpline
 62
7
  6
CONTINUOUS
 70
0
 71
3
 72
9
 73
5
 74
0
 42
0.0000001
 43
0.0000001
 44
0.0000000001
 40
0.0
 40
0.0
 40
0.0
 40
0.0
 40
0.4818813103
 40
1.0
 40
1.0
 40
1.0
 40
1.0
 10
8.1898856586
 20
55.6469251525
 30
0.0
 10
8.2763154332
 20
55.6859112807
 30
0.0
 10
8.4446623975
 20
55.7919792162
 30
0.0
 10
8.5858189553
 20
55.9311541975
 30
0.0
 10
8.6511134084
 20
56.0094459165
 30
0.0
  0
SPLINE
  5
368
100
AcDbEntity
  8
_1
100
AcDbSpline
 62
7
  6
CONTINUOUS
 70
0
 71
3
 72
11
 73
7
 74
0
 42
0.0000001
 43
0.0000001
 44
0.0000000001
 40
0.0
 40
0.0
 40
0.0
 40
0.0
 40
0.2323845802
 40
0.4777002238
 40
0.7343334232
 40
1.0
 40
1.0
 40
1.0
 40
1.0
 10
9.6144362478
 20
46.4385783376
 30
0.0
 10
9.6144362478
 20
46.5555622206
 30
0.0
 10
9.631054625
 20
46.7962331297
 30
0.0
 10
9.700218579
 20
47.1601242359
 30
0.0
 10
9.8130805949
 20
47.5304051202
 30
0.0
 10
9.9144867714
 20
47.7735072827
 30
0.0
 10
9.9716476678
 20
47.8944144876
 30
0.0
  0
SPLINE
  5
369
100
AcDbEntity
  8
_1
100
AcDbSpline
 62
7
  6
CONTINUOUS
 70
0
 71
3
 72
11
 73
7
 74
0
 42
0.0000001
 43
0.0000001
 44
0.0000000001
 40
0.0
 40
0.0
 40
0.0
 40
0.0
 40
0.2705083787
 40
0.5335401478
 40
0.7789228606
 40
1.0
 40
1.0
 40
1.0
 40
1.0
 10
8.9426687781
 20
55.6016372955
 30
0.0
 10
8.9914704311
 20
55.6601532202
 30
0.0
 10
9.0779251453
 20
55.7841473891
 30
0.0
 10
9.1708597593
 20
55.9841967354
 30
0.0
 10
9.2208642855
 20
56.1848606219
 30
0.0
 10
9.2229332882
 20
56.3180160327
 30
0.0
 10
9.2144138578
 20
56.3797022405
 30
0.0
  0
SPLINE
  5
36A
100
AcDbEntity
  8
_1
100
AcDbSpline
 62
7
  6
CONTINUOUS
 70
0
 71
3
 72
13
 73
9
 74
0
 42
0.0000001
 43
0.0000001
 44
0.0000000001
 40
0.0
 40
0.0
 40
0.0
 40
0.0
 40
0.1002599097
 40
0.2073595705
 40
0.3222195189
 40
0.4451212571
 40
0.7124971582
 40
1.0
 40
1.0
 40
1.0
 40
1.0
 10
8.1585816035
 20
55.2479568283
 30
0.0
 10
8.1875509863
 20
55.2393555165
 30
0.0
 10
8.2497060265
 20
55.2286202208
 30
0.0
 10
8.3473172407
 20
55.2315372616
 30
0.0
 10
8.4495155531
 20
55.2530061806
 30
0.0
 10
8.5925057088
 20
55.3066741891
 30
0.0
 10
8.7671344473
 20
55.4167928588
 30
0.0
 10
8.8871670763
 20
55.5350876356
 30
0.0
 10
8.9426687781
 20
55.6016372955
 30
0.0
  0
SPLINE
  5
36B
100
AcDbEntity
  8
_1
100
AcDbSpline
 62
7
  6
CONTINUOUS
 70
0
 71
3
 72
11
 73
7
 74
0
 42
0.0000001
 43
0.0000001
 44
0.0000000001
 40
0.0
 40
0.0
 40
0.0
 40
0.0
 40
0.276170505
 40
0.5341627566
 40
0.7745357442
 40
1.0
 40
1.0
 40
1.0
 40
1.0
 10
7.6973538537
 20
55.1943829249
 30
0.0
 10
7.7370899213
 20
55.2123067877
 30
0.0
 10
7.8163402688
 20
55.2420340919
 30
0.0
 10
7.9365160344
 20
55.2672550446
 30
0.0
 10
8.0513523131
 20
55.2707839149
 30
0.0
 10
8.1244657061
 20
55.2580861939
 30
0.0
 10
8.1585816035
 20
55.2479568283
 30
0.0
  0
SPLINE
  5
36C
100
AcDbEntity
  8
_1
100
AcDbSpline
 62
7
  6
CONTINUOUS
 70
0
 71
3
 72
13
 73
9
 74
0
 42
0.0000001
 43
0.0000001
 44
0.0000000001
 40
0.0
 40
0.0
 40
0.0
 40
0.0
 40
0.1080963359
 40
0.2182388361
 40
0.3322536668
 40
0.4516812626
 40
0.7106595514
 40
1.0
 40
1.0
 40
1.0
 40
1.0
 10
34.6423732613
 20
48.0161404558
 30
0.0
 10
34.6079393122
 20
47.9962682384
 30
0.0
 10
34.5417411866
 20
47.9500672558
 30
0.0
 10
34.4543009563
 20
47.8639653943
 30
0.0
 10
34.3790380642
 20
47.7618331093
 30
0.0
 10
34.293746406
 20
47.6014369602
 30
0.0
 10
34.2234866016
 20
47.3634875059
 30
0.0
 10
34.2074318701
 20
47.1612174404
 30
0.0
 10
34.2074318701
 20
47.0548008295
 30
0.0
  0
SPLINE
  5
36D
100
AcDbEntity
  8
_1
100
AcDbSpline
 62
7
  6
CONTINUOUS
 70
0
 71
3
 72
9
 73
5
 74
0
 42
0.0000001
 43
0.0000001
 44
0.0000000001
 40
0.0
 40
0.0
 40
0.0
 40
0.0
 40
0.2583996431
 40
1.0
 40
1.0
 40
1.0
 40
1.0
 10
12.214863276
 20
54.2722876899
 30
0.0
 10
12.214863276
 20
54.285961398
 30
0.0
 10
12.2135670204
 20
54.3388625789
 30
0.0
 10
12.2069523324
 20
54.3916935965
 30
0.0
 10
12.1985724217
 20
54.4300316351
 30
0.0
  0
SPLINE
  5
36E
100
AcDbEntity
  8
_1
100
AcDbSpline
 62
7
  6
CONTINUOUS
 70
0
 71
3
 72
11
 73
7
 74
0
 42
0.0000001
 43
0.0000001
 44
0.0000000001
 40
0.0
 40
0.0
 40
0.0
 40
0.0
 40
0.2656665768
 40
0.5222997762
 40
0.7676154198
 40
1.0
 40
1.0
 40
1.0
 40
1.0
 10
11.857651856
 20
51.8837062801
 30
0.0
 10
11.9148127524
 20
52.004613485
 30
0.0
 10
12.0162189289
 20
52.2477156475
 30
0.0
 10
12.1290809448
 20
52.6179965319
 30
0.0
 10
12.1982448988
 20
52.981887638
 30
0.0
 10
12.214863276
 20
53.2225585472
 30
0.0
 10
12.214863276
 20
53.3395424302
 30
0.0
  0
SPLINE
  5
36F
100
AcDbEntity
  8
_1
100
AcDbSpline
 62
7
  6
CONTINUOUS
 70
0
 71
3
 72
18
 73
14
 74
0
 42
0.0000001
 43
0.0000001
 44
0.0000000001
 40
0.0
 40
0.0
 40
0.0
 40
0.0
 40
0.0452471255
 40
0.0913224061
 40
0.1389781099
 40
0.1888419749
 40
0.2413871476
 40
0.2969215183
 40
0.417352645
 40
0.5501144218
 40
0.6934560751
 40
0.8445745604
 40
1.0
 40
1.0
 40
1.0
 40
1.0
 10
34.4423763708
 20
48.3625472954
 30
0.0
 10
34.4827010173
 20
48.385828184
 30
0.0
 10
34.5682127689
 20
48.4260449508
 30
0.0
 10
34.7064834078
 20
48.4648435838
 30
0.0
 10
34.8537954122
 20
48.4822322965
 30
0.0
 10
35.0086494441
 20
48.4780710258
 30
0.0
 10
35.1695945864
 20
48.4525769912
 30
0.0
 10
35.3964239053
 20
48.3888927058
 30
0.0
 10
35.6866737461
 20
48.2545987973
 30
0.0
 10
36.0246097779
 20
48.0232974187
 30
0.0
 10
36.35014509
 20
47.7258887623
 30
0.0
 10
36.6515929171
 20
47.3731757737
 30
0.0
 10
36.8284083738
 20
47.1109876169
 30
0.0
 10
36.9103899921
 20
46.9736516929
 30
0.0
  0
SPLINE
  5
370
100
AcDbEntity
  8
_1
100
AcDbSpline
 62
7
  6
CONTINUOUS
 70
0
 71
3
 72
13
 73
9
 74
0
 42
0.0000001
 43
0.0000001
 44
0.0000000001
 40
0.0
 40
0.0
 40
0.0
 40
0.0
 40
0.1080963359
 40
0.2182388361
 40
0.3322536668
 40
0.4516812626
 40
0.7106595514
 40
1.0
 40
1.0
 40
1.0
 40
1.0
 10
16.7878527013
 20
58.3242195075
 30
0.0
 10
16.7534187522
 20
58.3043472901
 30
0.0
 10
16.6872206266
 20
58.2581463075
 30
0.0
 10
16.5997803963
 20
58.1720444459
 30
0.0
 10
16.5245175043
 20
58.0699121609
 30
0.0
 10
16.439225846
 20
57.9095160118
 30
0.0
 10
16.3689660417
 20
57.6715665575
 30
0.0
 10
16.3529113102
 20
57.4692964921
 30
0.0
 10
16.3529113102
 20
57.3628798811
 30
0.0
  0
SPLINE
  5
371
100
AcDbEntity
  8
_1
100
AcDbSpline
 62
7
  6
CONTINUOUS
 70
0
 71
3
 72
13
 73
9
 74
0
 42
0.0000001
 43
0.0000001
 44
0.0000000001
 40
0.0
 40
0.0
 40
0.0
 40
0.0
 40
0.112826796
 40
0.2342257114
 40
0.4928769943
 40
0.7553675731
 40
0.8813082476
 40
1.0
 40
1.0
 40
1.0
 40
1.0
 10
15.8823669558
 20
26.4523153347
 30
0.0
 10
15.8467888293
 20
26.472855911
 30
0.0
 10
15.7693903325
 20
26.5095173921
 30
0.0
 10
15.5981921965
 20
26.5646074909
 30
0.0
 10
15.3644128651
 20
26.5963553305
 30
0.0
 10
15.1275068691
 20
26.5806826751
 30
0.0
 10
14.9474573973
 20
26.5382353508
 30
0.0
 10
14.8635470922
 20
26.5074502225
 30
0.0
 10
14.8241520812
 20
26.4896802011
 30
0.0
  0
SPLINE
  5
372
100
AcDbEntity
  8
_1
100
AcDbSpline
 62
7
  6
CONTINUOUS
 70
0
 71
3
 72
15
 73
11
 74
0
 42
0.0000001
 43
0.0000001
 44
0.0000000001
 40
0.0
 40
0.0
 40
0.0
 40
0.0
 40
0.1127841189
 40
0.2340407043
 40
0.361562515
 40
0.4928895303
 40
0.6251889548
 40
0.7555609263
 40
0.8813520636
 40
1.0
 40
1.0
 40
1.0
 40
1.0
 10
16.4480500256
 20
61.0720121773
 30
0.0
 10
16.3768668874
 20
61.1131088516
 30
0.0
 10
16.2221001744
 20
61.1864596659
 30
0.0
 10
15.9706841163
 20
61.2673451631
 30
0.0
 10
15.6983206018
 20
61.3210246808
 30
0.0
 10
15.4138193475
 20
61.3458662966
 30
0.0
 10
15.1262093344
 20
61.341006252
 30
0.0
 10
14.8446399391
 20
61.3066775937
 30
0.0
 10
14.578232305
 20
61.2438957105
 30
0.0
 10
14.4104407849
 20
61.1822957046
 30
0.0
 10
14.3316202763
 20
61.14674191
 30
0.0
  0
SPLINE
  5
373
100
AcDbEntity
  8
_1
100
AcDbSpline
 62
7
  6
CONTINUOUS
 70
0
 71
3
 72
23
 73
19
 74
0
 42
0.0000001
 43
0.0000001
 44
0.0000000001
 40
0.0
 40
0.0
 40
0.0
 40
0.0
 40
0.0428120806
 40
0.0873936894
 40
0.1351770143
 40
0.1870851105
 40
0.2435323897
 40
0.3044901335
 40
0.369586656
 40
0.4381949639
 40
0.509492019
 40
0.5825260304
 40
0.656267329
 40
0.7296579146
 40
0.8016464423
 40
0.8712445229
 40
0.9376263951
 40
1.0
 40
1.0
 40
1.0
 40
1.0
 10
16.5878558108
 20
58.670626347
 30
0.0
 10
16.6494874449
 20
58.7062085365
 30
0.0
 10
16.7853421195
 20
58.7626850866
 30
0.0
 10
17.0096131818
 20
58.7955566804
 30
0.0
 10
17.250442037
 20
58.7778117772
 30
0.0
 10
17.5024947585
 20
58.7108697382
 30
0.0
 10
17.7608058514
 20
58.5967015441
 30
0.0
 10
18.0202337078
 20
58.4379738161
 30
0.0
 10
18.2755332776
 20
58.2381313627
 30
0.0
 10
18.5213672269
 20
58.0013632068
 30
0.0
 10
18.7525777359
 20
57.7327113411
 30
0.0
 10
18.9642818499
 20
57.4379037361
 30
0.0
 10
19.1519348942
 20
57.1231878161
 30
0.0
 10
19.3115382222
 20
56.7952848183
 30
0.0
 10
19.4397330694
 20
56.4612211832
 30
0.0
 10
19.5337620671
 20
56.1279985371
 30
0.0
 10
19.5915252444
 20
55.8028216224
 30
0.0
 10
19.6056160458
 20
55.5886547921
 30
0.0
 10
19.6056160458
 20
55.4849724103
 30
0.0
  0
SPLINE
  5
374
100
AcDbEntity
  8
_1
100
AcDbSpline
 62
7
  6
CONTINUOUS
 70
0
 71
3
 72
10
 73
6
 74
0
 42
0.0000001
 43
0.0000001
 44
0.0000000001
 40
0.0
 40
0.0
 40
0.0
 40
0.0
 40
0.2278997329
 40
0.4763436701
 40
1.0
 40
1.0
 40
1.0
 40
1.0
 10
32.7755299664
 20
51.5392270833
 30
0.0
 10
32.7755299664
 20
51.5122070403
 30
0.0
 10
32.7815417291
 20
51.4556549616
 30
0.0
 10
32.8130607993
 20
51.3410643394
 30
0.0
 10
32.856227559
 20
51.2585741588
 30
0.0
 10
32.8920163438
 20
51.2078420813
 30
0.0
  0
SPLINE
  5
375
100
AcDbEntity
  8
_1
100
AcDbSpline
 62
7
  6
CONTINUOUS
 70
0
 71
3
 72
10
 73
6
 74
0
 42
0.0000001
 43
0.0000001
 44
0.0000000001
 40
0.0
 40
0.0
 40
0.0
 40
0.0
 40
0.2278997329
 40
0.4763436701
 40
1.0
 40
1.0
 40
1.0
 40
1.0
 10
16.512006288
 20
60.9287644373
 30
0.0
 10
16.512006288
 20
60.9017443943
 30
0.0
 10
16.5180180507
 20
60.8451923156
 30
0.0
 10
16.5495371209
 20
60.7306016934
 30
0.0
 10
16.5927038807
 20
60.6481115128
 30
0.0
 10
16.6284926654
 20
60.5973794353
 30
0.0
  0
SPLINE
  5
376
100
AcDbEntity
  8
_1
100
AcDbSpline
 62
7
  6
CONTINUOUS
 70
0
 71
3
 72
15
 73
11
 74
0
 42
0.0000001
 43
0.0000001
 44
0.0000000001
 40
0.0
 40
0.0
 40
0.0
 40
0.0
 40
0.1077571018
 40
0.2186520472
 40
0.3339019202
 40
0.4544659214
 40
0.5810275494
 40
0.7140467701
 40
0.8537546308
 40
1.0
 40
1.0
 40
1.0
 40
1.0
 10
21.0006753963
 20
46.5038658767
 30
0.0
 10
20.8494473585
 20
46.3792739648
 30
0.0
 10
20.5609898827
 20
46.1032825351
 30
0.0
 10
20.1844094348
 20
45.6247650173
 30
0.0
 10
19.8617371401
 20
45.0811933021
 30
0.0
 10
19.5952164448
 20
44.4769993906
 30
0.0
 10
19.3864831694
 20
43.8167241463
 30
0.0
 10
19.2368187864
 20
43.1051625432
 30
0.0
 10
19.1473009651
 20
42.3477027202
 30
0.0
 10
19.128312271
 20
41.8274709847
 30
0.0
 10
19.128312271
 20
41.5615438787
 30
0.0
  0
SPLINE
  5
377
100
AcDbEntity
  8
_1
100
AcDbSpline
 62
7
  6
CONTINUOUS
 70
0
 71
3
 72
9
 73
5
 74
0
 42
0.0000001
 43
0.0000001
 44
0.0000000001
 40
0.0
 40
0.0
 40
0.0
 40
0.0
 40
0.4950869119
 40
1.0
 40
1.0
 40
1.0
 40
1.0
 10
20.9651305999
 20
46.5452609382
 30
0.0
 10
21.1604486054
 20
46.6580274602
 30
0.0
 10
21.5758324209
 20
46.8513553259
 30
0.0
 10
22.0180009409
 20
46.970426697
 30
0.0
 10
22.2441581408
 20
47.012348761
 30
0.0
  0
SPLINE
  5
378
100
AcDbEntity
  8
_1
100
AcDbSpline
 62
7
  6
CONTINUOUS
 70
0
 71
3
 72
19
 73
15
 74
0
 42
0.0000001
 43
0.0000001
 44
0.0000000001
 40
0.0
 40
0.0
 40
0.0
 40
0.0
 40
0.0469296372
 40
0.0954790661
 40
0.1459500019
 40
0.1985695148
 40
0.3107242295
 40
0.3704712034
 40
0.432617011
 40
0.4970919054
 40
0.5637796181
 40
0.7031216829
 40
0.849159768
 40
1.0
 40
1.0
 40
1.0
 40
1.0
 10
22.2441581408
 20
47.012348761
 30
0.0
 10
22.4165780203
 20
47.0443097033
 30
0.0
 10
22.7716119277
 20
47.0880941205
 30
0.0
 10
23.3179422298
 20
47.0936112284
 30
0.0
 10
23.8830275947
 20
47.0401502479
 30
0.0
 10
24.6737300854
 20
46.8876253471
 30
0.0
 10
25.4728768689
 20
46.6180192792
 30
0.0
 10
26.2665675743
 20
46.2498309331
 30
0.0
 10
26.8772339216
 20
45.9139156823
 30
0.0
 10
27.4870519398
 20
45.5259679359
 30
0.0
 10
28.3066755399
 20
44.9336271173
 30
0.0
 10
29.3062749717
 20
44.0742143578
 30
0.0
 10
30.4325495522
 20
42.8928371761
 30
0.0
 10
31.1223205167
 20
42.0217965747
 30
0.0
 10
31.4528129813
 20
41.5652306406
 30
0.0
  0
SPLINE
  5
379
100
AcDbEntity
  8
_1
100
AcDbSpline
 62
7
  6
CONTINUOUS
 70
0
 71
3
 72
10
 73
6
 74
0
 42
0.0000001
 43
0.0000001
 44
0.0000000001
 40
0.0
 40
0.0
 40
0.0
 40
0.0
 40
0.5095614466
 40
0.7578305112
 40
1.0
 40
1.0
 40
1.0
 40
1.0
 10
33.3018585392
 20
38.4469136562
 30
0.0
 10
33.5990078907
 20
37.8227292639
 30
0.0
 10
33.9928833159
 20
36.8700872062
 30
0.0
 10
34.4035317872
 20
35.5765460455
 30
0.0
 10
34.5675010823
 20
34.9311734205
 30
0.0
 10
34.6383356821
 20
34.6103566131
 30
0.0
  0
SPLINE
  5
37A
100
AcDbEntity
  8
_1
100
AcDbSpline
 62
7
  6
CONTINUOUS
 70
0
 71
3
 72
11
 73
7
 74
0
 42
0.0000001
 43
0.0000001
 44
0.0000000001
 40
0.0
 40
0.0
 40
0.0
 40
0.0
 40
0.2245975475
 40
0.4608430523
 40
0.717926383
 40
1.0
 40
1.0
 40
1.0
 40
1.0
 10
37.8821286945
 20
47.8528057255
 30
0.0
 10
37.8821409552
 20
47.8271395286
 30
0.0
 10
37.8743323006
 20
47.7742001557
 30
0.0
 10
37.8402250001
 20
47.6986196729
 30
0.0
 10
37.7853267423
 20
47.6282023947
 30
0.0
 10
37.7384887383
 20
47.5876066403
 30
0.0
 10
37.7125646538
 20
47.5684495086
 30
0.0
  0
SPLINE
  5
37B
100
AcDbEntity
  8
_1
100
AcDbSpline
 62
7
  6
CONTINUOUS
 70
0
 71
3
 72
14
 73
10
 74
0
 42
0.0000001
 43
0.0000001
 44
0.0000000001
 40
0.0
 40
0.0
 40
0.0
 40
0.0
 40
0.0848312642
 40
0.1806574743
 40
0.2880089216
 40
0.4074391062
 40
0.5392674253
 40
0.6832032743
 40
1.0
 40
1.0
 40
1.0
 40
1.0
 10
29.7396330113
 20
17.6424598299
 30
0.0
 10
29.7153314462
 20
17.6564923113
 30
0.0
 10
29.6668310436
 20
17.6921221906
 30
0.0
 10
29.6001422654
 20
17.7605877494
 30
0.0
 10
29.5361773353
 20
17.8463229287
 30
0.0
 10
29.4751719753
 20
17.9482285303
 30
0.0
 10
29.4163022375
 20
18.0650372583
 30
0.0
 10
29.3357866064
 20
18.2437569099
 30
0.0
 10
29.2759286518
 20
18.384025153
 30
0.0
 10
29.2296337081
 20
18.4780406971
 30
0.0
  0
SPLINE
  5
37C
100
AcDbEntity
  8
_1
100
AcDbSpline
 62
7
  6
CONTINUOUS
 70
0
 71
3
 72
11
 73
7
 74
0
 42
0.0000001
 43
0.0000001
 44
0.0000000001
 40
0.0
 40
0.0
 40
0.0
 40
0.0
 40
0.2275867307
 40
0.4652550171
 40
0.7212796743
 40
1.0
 40
1.0
 40
1.0
 40
1.0
 10
31.3391588421
 20
16.7190365924
 30
0.0
 10
31.3800680339
 20
16.6954056919
 30
0.0
 10
31.4706468326
 20
16.6582513213
 30
0.0
 10
31.6204637477
 20
16.6383570505
 30
0.0
 10
31.7812271012
 20
16.6533939407
 30
0.0
 10
31.8884698316
 20
16.684415072
 30
0.0
 10
31.942666835
 20
16.7046706417
 30
0.0
  0
SPLINE
  5
37D
100
AcDbEntity
  8
_1
100
AcDbSpline
 62
7
  6
CONTINUOUS
 70
0
 71
3
 72
14
 73
10
 74
0
 42
0.0000001
 43
0.0000001
 44
0.0000000001
 40
0.0
 40
0.0
 40
0.0
 40
0.0
 40
0.0848312642
 40
0.1806574743
 40
0.2880089216
 40
0.4074391062
 40
0.5392674253
 40
0.6832032743
 40
1.0
 40
1.0
 40
1.0
 40
1.0
 10
25.6383966054
 20
20.0102562061
 30
0.0
 10
25.6140950403
 20
20.0242886875
 30
0.0
 10
25.5655946378
 20
20.0599185668
 30
0.0
 10
25.4989058596
 20
20.1283841256
 30
0.0
 10
25.4349409294
 20
20.2141193049
 30
0.0
 10
25.3739355695
 20
20.3160249065
 30
0.0
 10
25.3150658316
 20
20.4328336345
 30
0.0
 10
25.2345502006
 20
20.6115532861
 30
0.0
 10
25.1746922459
 20
20.7518215292
 30
0.0
 10
25.1283973022
 20
20.8458370733
 30
0.0
  0
SPLINE
  5
37E
100
AcDbEntity
  8
_1
100
AcDbSpline
 62
7
  6
CONTINUOUS
 70
0
 71
3
 72
11
 73
7
 74
0
 42
0.0000001
 43
0.0000001
 44
0.0000000001
 40
0.0
 40
0.0
 40
0.0
 40
0.0
 40
0.205435894
 40
0.4431804452
 40
0.7130009335
 40
1.0
 40
1.0
 40
1.0
 40
1.0
 10
28.5545677086
 20
18.3266421249
 30
0.0
 10
28.6066808173
 20
18.2965517387
 30
0.0
 10
28.7272995703
 20
18.2457921042
 30
0.0
 10
28.9304258295
 20
18.1958487597
 30
0.0
 10
29.1597722329
 20
18.1563117093
 30
0.0
 10
29.3202012303
 20
18.1262546374
 30
0.0
 10
29.4019423955
 20
18.1066124577
 30
0.0
  0
SPLINE
  5
37F
100
AcDbEntity
  8
_1
100
AcDbSpline
 62
7
  6
CONTINUOUS
 70
0
 71
3
 72
11
 73
7
 74
0
 42
0.0000001
 43
0.0000001
 44
0.0000000001
 40
0.0
 40
0.0
 40
0.0
 40
0.0
 40
0.2237915546
 40
0.4596052694
 40
0.7168576945
 40
1.0
 40
1.0
 40
1.0
 40
1.0
 10
22.8538421375
 20
21.6179256414
 30
0.0
 10
22.8083706746
 20
21.644191915
 30
0.0
 10
22.7226360517
 20
21.7125592205
 30
0.0
 10
22.6246640911
 20
21.8515820843
 30
0.0
 10
22.557788458
 20
22.0225254815
 30
0.0
 10
22.5354607505
 20
22.1481353174
 30
0.0
 10
22.5289448785
 20
22.2142542358
 30
0.0
  0
SPLINE
  5
380
100
AcDbEntity
  8
_1
100
AcDbSpline
 62
7
  6
CONTINUOUS
 70
0
 71
3
 72
25
 73
21
 74
0
 42
0.0000001
 43
0.0000001
 44
0.0000000001
 40
0.0
 40
0.0
 40
0.0
 40
0.0
 40
0.0614663903
 40
0.126704793
 40
0.1950796791
 40
0.2658201267
 40
0.33804344
 40
0.4108082606
 40
0.4831484871
 40
0.5541167801
 40
0.622822274
 40
0.688472927
 40
0.7504223608
 40
0.8082243256
 40
0.8616975426
 40
0.9110013606
 40
0.9342811169
 40
0.9567732756
 40
0.9786229476
 40
1.0
 40
1.0
 40
1.0
 40
1.0
 10
19.128312271
 20
41.5615438787
 30
0.0
 10
19.128312271
 20
41.100571596
 30
0.0
 10
19.1881109113
 20
40.1497400551
 30
0.0
 10
19.4350498676
 20
38.7054001016
 30
0.0
 10
19.8372298342
 20
37.2242613687
 30
0.0
 10
20.3866219961
 20
35.7355171639
 30
0.0
 10
21.0725326728
 20
34.2682130679
 30
0.0
 10
21.8814424945
 20
32.8511806551
 30
0.0
 10
22.7974777056
 20
31.5122722611
 30
0.0
 10
23.8026356377
 20
30.2777924529
 30
0.0
 10
24.877233443
 20
29.1719454393
 30
0.0
 10
26.0003577507
 20
28.2163566703
 30
0.0
 10
27.1503234572
 20
27.4296781313
 30
0.0
 10
28.3054352326
 20
26.8273551723
 30
0.0
 10
29.4438212888
 20
26.4215906557
 30
0.0
 10
30.3795374171
 20
26.2520039437
 30
0.0
 10
31.0932615854
 20
26.228612689
 30
0.0
 10
31.6001217111
 20
26.2645591744
 30
0.0
 10
32.0859185467
 20
26.3534358328
 30
0.0
 10
32.3967303228
 20
26.4487065382
 30
0.0
 10
32.5468831289
 20
26.5048875695
 30
0.0
  0
SPLINE
  5
381
100
AcDbEntity
  8
_1
100
AcDbSpline
 62
7
  6
CONTINUOUS
 70
0
 71
3
 72
11
 73
7
 74
0
 42
0.0000001
 43
0.0000001
 44
0.0000000001
 40
0.0
 40
0.0
 40
0.0
 40
0.0
 40
0.205435894
 40
0.4431804452
 40
0.7130009335
 40
1.0
 40
1.0
 40
1.0
 40
1.0
 10
24.4533313028
 20
20.6944385011
 30
0.0
 10
24.5054444115
 20
20.6643481149
 30
0.0
 10
24.6260631644
 20
20.6135884804
 30
0.0
 10
24.8291894237
 20
20.5636451359
 30
0.0
 10
25.0585358271
 20
20.5241080855
 30
0.0
 10
25.2189648244
 20
20.4940510137
 30
0.0
 10
25.3007059897
 20
20.474408834
 30
0.0
  0
SPLINE
  5
382
100
AcDbEntity
  8
_1
100
AcDbSpline
 62
7
  6
CONTINUOUS
 70
0
 71
3
 72
12
 73
8
 74
0
 42
0.0000001
 43
0.0000001
 44
0.0000000001
 40
0.0
 40
0.0
 40
0.0
 40
0.0
 40
0.2501111563
 40
0.3790834637
 40
0.5080674998
 40
0.7606790159
 40
1.0
 40
1.0
 40
1.0
 40
1.0
 10
37.6240770065
 20
48.7016440558
 30
0.0
 10
37.6141022916
 20
48.6669870684
 30
0.0
 10
37.612915566
 20
48.609968222
 30
0.0
 10
37.6320327615
 20
48.5391282191
 30
0.0
 10
37.6620062403
 20
48.471570993
 30
0.0
 10
37.7136579855
 20
48.3975132256
 30
0.0
 10
37.764567671
 20
48.3475680649
 30
0.0
 10
37.7912395202
 20
48.3256725173
 30
0.0
  0
SPLINE
  5
383
100
AcDbEntity
  8
_1
100
AcDbSpline
 62
7
  6
CONTINUOUS
 70
0
 71
3
 72
13
 73
9
 74
0
 42
0.0000001
 43
0.0000001
 44
0.0000000001
 40
0.0
 40
0.0
 40
0.0
 40
0.0
 40
0.1081000123
 40
0.218240732
 40
0.3322531631
 40
0.451677505
 40
0.71065083
 40
1.0
 40
1.0
 40
1.0
 40
1.0
 10
38.6821385735
 20
47.8528058153
 30
0.0
 10
38.6821456413
 20
47.8830969988
 30
0.0
 10
38.6768876236
 20
47.9443767999
 30
0.0
 10
38.6533810418
 20
48.0348701895
 30
0.0
 10
38.6146597276
 20
48.1234317929
 30
0.0
 10
38.5413214663
 20
48.2408076589
 30
0.0
 10
38.4110841163
 20
48.37781146
 30
0.0
 10
38.2837377169
 20
48.4654572092
 30
0.0
 10
38.2135201399
 20
48.505996429
 30
0.0
  0
SPLINE
  5
384
100
AcDbEntity
  8
_1
100
AcDbSpline
 62
7
  6
CONTINUOUS
 70
0
 71
3
 72
11
 73
7
 74
0
 42
0.0000001
 43
0.0000001
 44
0.0000000001
 40
0.0
 40
0.0
 40
0.0
 40
0.0
 40
0.2510111693
 40
0.5085660244
 40
0.761690498
 40
1.0
 40
1.0
 40
1.0
 40
1.0
 10
32.855936495
 20
51.0895483299
 30
0.0
 10
32.8923822864
 20
51.2161786495
 30
0.0
 10
32.9876853258
 20
51.4669081819
 30
0.0
 10
33.1834256092
 20
51.8171069962
 30
0.0
 10
33.423667543
 20
52.1300809167
 30
0.0
 10
33.6118428576
 20
52.3087594
 30
0.0
 10
33.7104411478
 20
52.3857601277
 30
0.0
  0
SPLINE
  5
385
100
AcDbEntity
  8
_1
100
AcDbSpline
 62
7
  6
CONTINUOUS
 70
0
 71
3
 72
11
 73
7
 74
0
 42
0.0000001
 43
0.0000001
 44
0.0000000001
 40
0.0
 40
0.0
 40
0.0
 40
0.0
 40
0.224640267
 40
0.4608512946
 40
0.7177755372
 40
1.0
 40
1.0
 40
1.0
 40
1.0
 10
38.6821385653
 20
13.5597042959
 30
0.0
 10
38.682126585
 20
13.5083613639
 30
0.0
 10
38.6665108317
 20
13.4024833446
 30
0.0
 10
38.598283889
 20
13.2513669215
 30
0.0
 10
38.488572685
 20
13.1104755835
 30
0.0
 10
38.3948519815
 20
13.0293270427
 30
0.0
 10
38.3429753073
 20
12.9909917149
 30
0.0
  0
SPLINE
  5
386
100
AcDbEntity
  8
_1
100
AcDbSpline
 62
7
  6
CONTINUOUS
 70
0
 71
3
 72
11
 73
7
 74
0
 42
0.0000001
 43
0.0000001
 44
0.0000000001
 40
0.0
 40
0.0
 40
0.0
 40
0.0
 40
0.2510111693
 40
0.5085660244
 40
0.761690498
 40
1.0
 40
1.0
 40
1.0
 40
1.0
 10
37.6240770065
 20
48.7016440558
 30
0.0
 10
37.6422999022
 20
48.7649592156
 30
0.0
 10
37.6899514219
 20
48.8903239818
 30
0.0
 10
37.7878215636
 20
49.0654233889
 30
0.0
 10
37.9079425305
 20
49.2219103492
 30
0.0
 10
38.0020301878
 20
49.3112495908
 30
0.0
 10
38.0513293329
 20
49.3497499547
 30
0.0
  0
SPLINE
  5
387
100
AcDbEntity
  8
_1
100
AcDbSpline
 62
7
  6
CONTINUOUS
 70
0
 71
3
 72
11
 73
7
 74
0
 42
0.0000001
 43
0.0000001
 44
0.0000000001
 40
0.0
 40
0.0
 40
0.0
 40
0.0
 40
0.2895401978
 40
0.5491171512
 40
0.782255066
 40
1.0
 40
1.0
 40
1.0
 40
1.0
 10
37.5838808077
 20
48.1100020259
 30
0.0
 10
37.5838808077
 20
48.0897465766
 30
0.0
 10
37.5807879878
 20
48.0512039692
 30
0.0
 10
37.5652067601
 20
47.9982396323
 30
0.0
 10
37.5389241739
 20
47.9552471575
 30
0.0
 10
37.5142168851
 20
47.934523419
 30
0.0
 10
37.5010248319
 20
47.926907032
 30
0.0
  0
SPLINE
  5
388
100
AcDbEntity
  8
_1
100
AcDbSpline
 62
7
  6
CONTINUOUS
 70
0
 71
3
 72
11
 73
7
 74
0
 42
0.0000001
 43
0.0000001
 44
0.0000000001
 40
0.0
 40
0.0
 40
0.0
 40
0.0
 40
0.2895401978
 40
0.5491171512
 40
0.782255066
 40
1.0
 40
1.0
 40
1.0
 40
1.0
 10
21.3203571293
 20
57.4995393798
 30
0.0
 10
21.3203571293
 20
57.4792839306
 30
0.0
 10
21.3172643094
 20
57.4407413232
 30
0.0
 10
21.3016830817
 20
57.3877769863
 30
0.0
 10
21.2754004955
 20
57.3447845115
 30
0.0
 10
21.2506932068
 20
57.3240607729
 30
0.0
 10
21.2375011535
 20
57.316444386
 30
0.0
  0
SPLINE
  5
389
100
AcDbEntity
  8
_1
100
AcDbSpline
 62
7
  6
CONTINUOUS
 70
0
 71
3
 72
11
 73
7
 74
0
 42
0.0000001
 43
0.0000001
 44
0.0000000001
 40
0.0
 40
0.0
 40
0.0
 40
0.0
 40
0.2893966051
 40
0.5491278405
 40
0.7823136736
 40
1.0
 40
1.0
 40
1.0
 40
1.0
 10
29.0985641059
 20
51.6455101393
 30
0.0
 10
29.0985641059
 20
51.6252648901
 30
0.0
 10
29.0954526584
 20
51.5867260097
 30
0.0
 10
29.0799022982
 20
51.5337457271
 30
0.0
 10
29.0535943175
 20
51.4907607005
 30
0.0
 10
29.0289045857
 20
51.4700154899
 30
0.0
 10
29.0157108073
 20
51.4624105314
 30
0.0
  0
SPLINE
  5
38A
100
AcDbEntity
  8
_1
100
AcDbSpline
 62
7
  6
CONTINUOUS
 70
0
 71
3
 72
9
 73
5
 74
0
 42
0.0000001
 43
0.0000001
 44
0.0000000001
 40
0.0
 40
0.0
 40
0.0
 40
0.0
 40
0.5049096899
 40
1.0
 40
1.0
 40
1.0
 40
1.0
 10
33.609190239
 20
27.3276644503
 30
0.0
 10
33.4597953487
 20
27.1527504125
 30
0.0
 10
33.1355634193
 20
26.8293248971
 30
0.0
 10
32.7604110973
 20
26.5662285441
 30
0.0
 10
32.565073426
 20
26.4534506682
 30
0.0
  0
SPLINE
  5
38B
100
AcDbEntity
  8
_1
100
AcDbSpline
 62
7
  6
CONTINUOUS
 70
0
 71
3
 72
11
 73
7
 74
0
 42
0.0000001
 43
0.0000001
 44
0.0000000001
 40
0.0
 40
0.0
 40
0.0
 40
0.0
 40
0.2524002575
 40
0.5045043506
 40
0.7542934345
 40
1.0
 40
1.0
 40
1.0
 40
1.0
 10
18.0520302637
 20
33.0689420042
 30
0.0
 10
18.3125010822
 20
32.5609105926
 30
0.0
 10
18.8646819242
 20
31.5612796971
 30
0.0
 10
19.7800785529
 20
30.1202438889
 30
0.0
 10
20.7740894971
 20
28.7509102395
 30
0.0
 10
21.4893313687
 20
27.8868155093
 30
0.0
 10
21.8578373392
 20
27.4707799967
 30
0.0
  0
SPLINE
  5
38C
100
AcDbEntity
  8
_1
100
AcDbSpline
 62
7
  6
CONTINUOUS
 70
0
 71
3
 72
14
 73
10
 74
0
 42
0.0000001
 43
0.0000001
 44
0.0000000001
 40
0.0
 40
0.0
 40
0.0
 40
0.0
 40
0.2892470857
 40
0.4225700047
 40
0.5485176831
 40
0.6678932818
 40
0.7818668409
 40
0.8919560968
 40
1.0
 40
1.0
 40
1.0
 40
1.0
 10
19.6056160458
 20
55.4849724103
 30
0.0
 10
19.6056160458
 20
55.3582692459
 30
0.0
 10
19.5907993641
 20
55.172258723
 30
0.0
 10
19.533644043
 20
54.9384578115
 30
0.0
 10
19.4754574521
 20
54.7826628539
 30
0.0
 10
19.401304285
 20
54.6432726414
 30
0.0
 10
19.3117354466
 20
54.5216670833
 30
0.0
 10
19.207639102
 20
54.4191548653
 30
0.0
 10
19.1288152055
 20
54.3641858535
 30
0.0
 10
19.0878276551
 20
54.3405222463
 30
0.0
  0
SPLINE
  5
38D
100
AcDbEntity
  8
_1
100
AcDbSpline
 62
7
  6
CONTINUOUS
 70
0
 71
3
 72
12
 73
8
 74
0
 42
0.0000001
 43
0.0000001
 44
0.0000000001
 40
0.0
 40
0.0
 40
0.0
 40
0.0
 40
0.2920206352
 40
0.5594807787
 40
0.6819341889
 40
0.7960773062
 40
1.0
 40
1.0
 40
1.0
 40
1.0
 10
32.855936495
 20
51.0895483299
 30
0.0
 10
32.8440357655
 20
51.0481994356
 30
0.0
 10
32.8186350404
 20
50.96968702
 30
0.0
 10
32.7792486384
 20
50.8770230553
 30
0.0
 10
32.7428246094
 20
50.8121073422
 30
0.0
 10
32.7058194043
 20
50.7589724338
 30
0.0
 10
32.6704836249
 20
50.7254742188
 30
0.0
 10
32.6436500013
 20
50.7119552372
 30
0.0
  0
SPLINE
  5
38E
100
AcDbEntity
  8
_1
100
AcDbSpline
 62
7
  6
CONTINUOUS
 70
0
 71
3
 72
9
 73
5
 74
0
 42
0.0000001
 43
0.0000001
 44
0.0000000001
 40
0.0
 40
0.0
 40
0.0
 40
0.0
 40
0.2566061756
 40
1.0
 40
1.0
 40
1.0
 40
1.0
 10
29.0985593956
 20
52.298698066
 30
0.0
 10
29.0985593956
 20
52.313656907
 30
0.0
 10
29.0976820023
 20
52.3719461138
 30
0.0
 10
29.093233154
 20
52.4302004798
 30
0.0
 10
29.0876419619
 20
52.4731743769
 30
0.0
  0
SPLINE
  5
38F
100
AcDbEntity
  8
_1
100
AcDbSpline
 62
7
  6
CONTINUOUS
 70
0
 71
3
 72
11
 73
7
 74
0
 42
0.0000001
 43
0.0000001
 44
0.0000000001
 40
0.0
 40
0.0
 40
0.0
 40
0.0
 40
0.2814579762
 40
0.5378401102
 40
0.7744424656
 40
1.0
 40
1.0
 40
1.0
 40
1.0
 10
29.0876419619
 20
52.4731743769
 30
0.0
 10
29.0795863462
 20
52.5350898305
 30
0.0
 10
29.0550987669
 20
52.6525899291
 30
0.0
 10
28.9876520366
 20
52.8119974962
 30
0.0
 10
28.8923054043
 20
52.9417514819
 30
0.0
 10
28.8105089214
 20
53.0061311237
 30
0.0
 10
28.7671756906
 20
53.0311489883
 30
0.0
  0
SPLINE
  5
390
100
AcDbEntity
  8
_1
100
AcDbSpline
 62
7
  6
CONTINUOUS
 70
0
 71
3
 72
11
 73
7
 74
0
 42
0.0000001
 43
0.0000001
 44
0.0000000001
 40
0.0
 40
0.0
 40
0.0
 40
0.0
 40
0.2895396729
 40
0.5491163863
 40
0.7822545095
 40
1.0
 40
1.0
 40
1.0
 40
1.0
 10
27.9671932561
 20
52.2987093535
 30
0.0
 10
28.0022753642
 20
52.3189638972
 30
0.0
 10
28.0721232103
 20
52.3521481273
 30
0.0
 10
28.1794371367
 20
52.3781239896
 30
0.0
 10
28.2801810441
 20
52.3755941154
 30
0.0
 10
28.3407808267
 20
52.3535249484
 30
0.0
 10
28.3671640881
 20
52.3382928958
 30
0.0
  0
SPLINE
  5
391
100
AcDbEntity
  8
_1
100
AcDbSpline
 62
7
  6
CONTINUOUS
 70
0
 71
3
 72
15
 73
11
 74
0
 42
0.0000001
 43
0.0000001
 44
0.0000000001
 40
0.0
 40
0.0
 40
0.0
 40
0.0
 40
0.1098838456
 40
0.2284327299
 40
0.3531894085
 40
0.4820391594
 40
0.6130971293
 40
0.7445128748
 40
0.8742673599
 40
1.0
 40
1.0
 40
1.0
 40
1.0
 10
19.0503073482
 20
58.746523631
 30
0.0
 10
19.0699423199
 20
58.79023171
 30
0.0
 10
19.1084515431
 20
58.8821188204
 30
0.0
 10
19.1663848641
 20
59.024810954
 30
0.0
 10
19.2286709033
 20
59.1746710135
 30
0.0
 10
19.2958396252
 20
59.3283838696
 30
0.0
 10
19.3673648593
 20
59.4833221862
 30
0.0
 10
19.4416384395
 20
59.6373937794
 30
0.0
 10
19.5158591571
 20
59.7888973684
 30
0.0
 10
19.5636901583
 20
59.8895343993
 30
0.0
 10
19.5861504251
 20
59.9395496027
 30
0.0
  0
SPLINE
  5
392
100
AcDbEntity
  8
_1
100
AcDbSpline
 62
7
  6
CONTINUOUS
 70
0
 71
3
 72
13
 73
9
 74
0
 42
0.0000001
 43
0.0000001
 44
0.0000000001
 40
0.0
 40
0.0
 40
0.0
 40
0.0
 40
0.2893052466
 40
0.5483352362
 40
0.6677598057
 40
0.78176081
 40
0.8918958892
 40
1.0
 40
1.0
 40
1.0
 40
1.0
 10
24.4316446303
 20
54.9931150598
 30
0.0
 10
24.5018497525
 20
55.0336477641
 30
0.0
 10
24.6414341105
 20
55.1000899924
 30
0.0
 10
24.8251965275
 20
55.1443988628
 30
0.0
 10
24.9635254026
 20
55.1492191877
 30
0.0
 10
25.0595789202
 20
55.1384800191
 30
0.0
 10
25.1496832008
 20
55.1135513868
 30
0.0
 10
25.2053935499
 20
55.0874983483
 30
0.0
 10
25.2316270649
 20
55.0723527609
 30
0.0
  0
SPLINE
  5
393
100
AcDbEntity
  8
_1
100
AcDbSpline
 62
7
  6
CONTINUOUS
 70
0
 71
3
 72
12
 73
8
 74
0
 42
0.0000001
 43
0.0000001
 44
0.0000000001
 40
0.0
 40
0.0
 40
0.0
 40
0.0
 40
0.2501111563
 40
0.3790834637
 40
0.5080674998
 40
0.7606790159
 40
1.0
 40
1.0
 40
1.0
 40
1.0
 10
21.3605533281
 20
58.0911814098
 30
0.0
 10
21.3505786132
 20
58.0565244224
 30
0.0
 10
21.3493918876
 20
57.999505576
 30
0.0
 10
21.3685090831
 20
57.9286655731
 30
0.0
 10
21.398482562
 20
57.861108347
 30
0.0
 10
21.4501343072
 20
57.7870505795
 30
0.0
 10
21.5010439926
 20
57.7371054188
 30
0.0
 10
21.5277158418
 20
57.7152098712
 30
0.0
  0
SPLINE
  5
394
100
AcDbEntity
  8
_1
100
AcDbSpline
 62
7
  6
CONTINUOUS
 70
0
 71
3
 72
15
 73
11
 74
0
 42
0.0000001
 43
0.0000001
 44
0.0000000001
 40
0.0
 40
0.0
 40
0.0
 40
0.0
 40
0.1098838456
 40
0.2284327299
 40
0.3531894085
 40
0.4820391594
 40
0.6130971293
 40
0.7445128748
 40
0.8742673599
 40
1.0
 40
1.0
 40
1.0
 40
1.0
 10
35.4906084579
 20
49.2549260884
 30
0.0
 10
35.5102434296
 20
49.2986341674
 30
0.0
 10
35.5487526527
 20
49.3905212778
 30
0.0
 10
35.6066859738
 20
49.5332134114
 30
0.0
 10
35.6689720129
 20
49.6830734709
 30
0.0
 10
35.7361407349
 20
49.836786327
 30
0.0
 10
35.807665969
 20
49.9917246436
 30
0.0
 10
35.8819395492
 20
50.1457962368
 30
0.0
 10
35.9561602668
 20
50.2972998258
 30
0.0
 10
36.003991268
 20
50.3979368567
 30
0.0
 10
36.0264515348
 20
50.4479520601
 30
0.0
  0
SPLINE
  5
395
100
AcDbEntity
  8
_1
100
AcDbSpline
 62
7
  6
CONTINUOUS
 70
0
 71
3
 72
11
 73
7
 74
0
 42
0.0000001
 43
0.0000001
 44
0.0000000001
 40
0.0
 40
0.0
 40
0.0
 40
0.0
 40
0.2510111693
 40
0.5085660244
 40
0.761690498
 40
1.0
 40
1.0
 40
1.0
 40
1.0
 10
16.5924128166
 20
60.4790856839
 30
0.0
 10
16.628858608
 20
60.6057160035
 30
0.0
 10
16.7241616474
 20
60.8564455358
 30
0.0
 10
16.9199019308
 20
61.2066443501
 30
0.0
 10
17.1601438646
 20
61.5196182707
 30
0.0
 10
17.3483191792
 20
61.698296754
 30
0.0
 10
17.4469174694
 20
61.7752974817
 30
0.0
  0
SPLINE
  5
396
100
AcDbEntity
  8
_1
100
AcDbSpline
 62
7
  6
CONTINUOUS
 70
0
 71
3
 72
11
 73
7
 74
0
 42
0.0000001
 43
0.0000001
 44
0.0000000001
 40
0.0
 40
0.0
 40
0.0
 40
0.0
 40
0.2510111693
 40
0.5085660244
 40
0.761690498
 40
1.0
 40
1.0
 40
1.0
 40
1.0
 10
21.3605533281
 20
58.0911814098
 30
0.0
 10
21.3787762238
 20
58.1544965696
 30
0.0
 10
21.4264277435
 20
58.2798613357
 30
0.0
 10
21.5242978852
 20
58.4549607429
 30
0.0
 10
21.6444188521
 20
58.6114477031
 30
0.0
 10
21.7385065094
 20
58.7007869448
 30
0.0
 10
21.7878056545
 20
58.7392873087
 30
0.0
  0
SPLINE
  5
397
100
AcDbEntity
  8
_1
100
AcDbSpline
 62
7
  6
CONTINUOUS
 70
0
 71
3
 72
12
 73
8
 74
0
 42
0.0000001
 43
0.0000001
 44
0.0000000001
 40
0.0
 40
0.0
 40
0.0
 40
0.0
 40
0.2920206352
 40
0.5594807787
 40
0.6819341889
 40
0.7960773063
 40
1.0
 40
1.0
 40
1.0
 40
1.0
 10
16.5924128166
 20
60.4790856839
 30
0.0
 10
16.5805120871
 20
60.4377367896
 30
0.0
 10
16.5551113621
 20
60.359224374
 30
0.0
 10
16.51572496
 20
60.2665604093
 30
0.0
 10
16.479300931
 20
60.2016446962
 30
0.0
 10
16.442295726
 20
60.1485097877
 30
0.0
 10
16.4069599465
 20
60.1150115727
 30
0.0
 10
16.3801263229
 20
60.1014925912
 30
0.0
  0
SPLINE
  5
398
100
AcDbEntity
  8
_1
100
AcDbSpline
 62
7
  6
CONTINUOUS
 70
0
 71
3
 72
11
 73
7
 74
0
 42
0.0000001
 43
0.0000001
 44
0.0000000001
 40
0.0
 40
0.0
 40
0.0
 40
0.0
 40
0.2982229626
 40
0.5597206306
 40
0.7892949348
 40
1.0
 40
1.0
 40
1.0
 40
1.0
 10
36.0735287271
 20
40.5038992274
 30
0.0
 10
36.1087782147
 20
40.5299475562
 30
0.0
 10
36.1786975575
 20
40.5741741625
 30
0.0
 10
36.2878911453
 20
40.6161196876
 30
0.0
 10
36.3919405004
 20
40.6271130501
 30
0.0
 10
36.4564632747
 20
40.6116674704
 30
0.0
 10
36.4846960938
 20
40.5989443806
 30
0.0
  0
SPLINE
  5
399
100
AcDbEntity
  8
_1
100
AcDbSpline
 62
7
  6
CONTINUOUS
 70
0
 71
3
 72
14
 73
10
 74
0
 42
0.0000001
 43
0.0000001
 44
0.0000000001
 40
0.0
 40
0.0
 40
0.0
 40
0.0
 40
0.308882973
 40
0.4512397464
 40
0.5831438241
 40
0.7036746614
 40
0.8126617877
 40
0.9108199489
 40
1.0
 40
1.0
 40
1.0
 40
1.0
 10
33.4967640764
 20
41.7701393011
 30
0.0
 10
33.5393258841
 20
41.8377415711
 30
0.0
 10
33.6087472744
 20
41.9324250833
 30
0.0
 10
33.7137532922
 20
42.0409350707
 30
0.0
 10
33.7920409659
 20
42.1068170094
 30
0.0
 10
33.8705132278
 20
42.1580860913
 30
0.0
 10
33.947790501
 20
42.1937989734
 30
0.0
 10
34.022487004
 20
42.2129439944
 30
0.0
 10
34.0714978371
 20
42.2143220756
 30
0.0
 10
34.0944227382
 20
42.2117913753
 30
0.0
  0
SPLINE
  5
39A
100
AcDbEntity
  8
_1
100
AcDbSpline
 62
7
  6
CONTINUOUS
 70
0
 71
3
 72
10
 73
6
 74
0
 42
0.0000001
 43
0.0000001
 44
0.0000000001
 40
0.0
 40
0.0
 40
0.0
 40
0.0
 40
0.2262431916
 40
0.4703254491
 40
1.0
 40
1.0
 40
1.0
 40
1.0
 10
33.1647314866
 20
41.3958556033
 30
0.0
 10
33.1952221191
 20
41.418387279
 30
0.0
 10
33.2556824616
 20
41.4692654599
 30
0.0
 10
33.3723400261
 20
41.589820918
 30
0.0
 10
33.4494738091
 20
41.6950266685
 30
0.0
 10
33.4967640764
 20
41.7701393011
 30
0.0
  0
SPLINE
  5
39B
100
AcDbEntity
  8
_1
100
AcDbSpline
 62
7
  6
CONTINUOUS
 70
0
 71
3
 72
11
 73
7
 74
0
 42
0.0000001
 43
0.0000001
 44
0.0000000001
 40
0.0
 40
0.0
 40
0.0
 40
0.0
 40
0.2305999039
 40
0.4762024957
 40
0.7338364043
 40
1.0
 40
1.0
 40
1.0
 40
1.0
 10
34.0271042262
 20
32.2646335129
 30
0.0
 10
34.0271042262
 20
32.3824824081
 30
0.0
 10
34.0402750178
 20
32.6259518332
 30
0.0
 10
34.0942344596
 20
32.9975051192
 30
0.0
 10
34.1822088392
 20
33.3811409279
 30
0.0
 10
34.2614174141
 20
33.6371308504
 30
0.0
 10
34.3061877949
 20
33.7655757785
 30
0.0
  0
SPLINE
  5
39C
100
AcDbEntity
  8
_1
100
AcDbSpline
 62
7
  6
CONTINUOUS
 70
0
 71
3
 72
15
 73
11
 74
0
 42
0.0000001
 43
0.0000001
 44
0.0000000001
 40
0.0
 40
0.0
 40
0.0
 40
0.0
 40
0.0827026224
 40
0.1788837059
 40
0.2906347956
 40
0.4172006379
 40
0.5557600163
 40
0.7022758567
 40
0.8520202818
 40
1.0
 40
1.0
 40
1.0
 40
1.0
 10
32.866353423
 20
40.8168498062
 30
0.0
 10
32.9011862515
 20
40.8130045792
 30
0.0
 10
32.9784595343
 20
40.8206678401
 30
0.0
 10
33.0929602368
 20
40.8690893149
 30
0.0
 10
33.2094465395
 20
40.9512996527
 30
0.0
 10
33.3236027605
 20
41.0637646577
 30
0.0
 10
33.4308813988
 20
41.20185463
 30
0.0
 10
33.5266954626
 20
41.3596709891
 30
0.0
 10
33.6068834113
 20
41.5303415691
 30
0.0
 10
33.648294645
 20
41.6498227619
 30
0.0
 10
33.6654183188
 20
41.7101443255
 30
0.0
  0
SPLINE
  5
39D
100
AcDbEntity
  8
_1
100
AcDbSpline
 62
7
  6
CONTINUOUS
 70
0
 71
3
 72
9
 73
5
 74
0
 42
0.0000001
 43
0.0000001
 44
0.0000000001
 40
0.0
 40
0.0
 40
0.0
 40
0.0
 40
0.5164382505
 40
1.0
 40
1.0
 40
1.0
 40
1.0
 10
33.6654183188
 20
41.7101443255
 30
0.0
 10
33.6796962776
 20
41.7604412891
 30
0.0
 10
33.7026952848
 20
41.8592265457
 30
0.0
 10
33.7149703857
 20
41.959992946
 30
0.0
 10
33.7176617602
 20
42.0088747572
 30
0.0
  0
SPLINE
  5
39E
100
AcDbEntity
  8
_1
100
AcDbSpline
 62
7
  6
CONTINUOUS
 70
0
 71
3
 72
11
 73
7
 74
0
 42
0.0000001
 43
0.0000001
 44
0.0000000001
 40
0.0
 40
0.0
 40
0.0
 40
0.0
 40
0.2891954637
 40
0.5505998818
 40
0.7858944552
 40
1.0
 40
1.0
 40
1.0
 40
1.0
 10
32.5343208331
 20
40.7004089771
 30
0.0
 10
32.5621817742
 20
40.7209973885
 30
0.0
 10
32.6175800219
 20
40.7571962356
 30
0.0
 10
32.7034203996
 20
40.7968424155
 30
0.0
 10
32.7864011563
 20
40.8181784171
 30
0.0
 10
32.8408606179
 20
40.8196639798
 30
0.0
 10
32.866353423
 20
40.8168498062
 30
0.0
  0
SPLINE
  5
39F
100
AcDbEntity
  8
_1
100
AcDbSpline
 62
7
  6
CONTINUOUS
 70
0
 71
3
 72
11
 73
7
 74
0
 42
0.0000001
 43
0.0000001
 44
0.0000000001
 40
0.0
 40
0.0
 40
0.0
 40
0.0
 40
0.2661635957
 40
0.5237975043
 40
0.7694000961
 40
1.0
 40
1.0
 40
1.0
 40
1.0
 10
35.7796926994
 20
37.9930187557
 30
0.0
 10
35.8244630802
 20
38.1214636839
 30
0.0
 10
35.9036716551
 20
38.3774536063
 30
0.0
 10
35.9916460347
 20
38.761089415
 30
0.0
 10
36.0456054765
 20
39.132642701
 30
0.0
 10
36.0587762681
 20
39.3761121261
 30
0.0
 10
36.0587762681
 20
39.4939610213
 30
0.0
  0
SPLINE
  5
3A0
100
AcDbEntity
  8
_1
100
AcDbSpline
 62
7
  6
CONTINUOUS
 70
0
 71
3
 72
11
 73
7
 74
0
 42
0.0000001
 43
0.0000001
 44
0.0000000001
 40
0.0
 40
0.0
 40
0.0
 40
0.0
 40
0.227742055
 40
0.4752160479
 40
0.7354138087
 40
1.0
 40
1.0
 40
1.0
 40
1.0
 10
34.2074318701
 20
47.0548008295
 30
0.0
 10
34.2074318701
 20
46.9197806551
 30
0.0
 10
34.2359110401
 20
46.6377512351
 30
0.0
 10
34.3473107017
 20
46.2147675759
 30
0.0
 10
34.5240089287
 20
45.7909708894
 30
0.0
 10
34.6801848865
 20
45.5207150886
 30
0.0
 10
34.767315183
 20
45.3902752606
 30
0.0
  0
SPLINE
  5
3A1
100
AcDbEntity
  8
_1
100
AcDbSpline
 62
7
  6
CONTINUOUS
 70
0
 71
3
 72
22
 73
18
 74
0
 42
0.0000001
 43
0.0000001
 44
0.0000000001
 40
0.0
 40
0.0
 40
0.0
 40
0.0
 40
0.0623735597
 40
0.1287720567
 40
0.1983816443
 40
0.270374429
 40
0.4173930977
 40
0.4904358786
 40
0.5617444207
 40
0.6303606611
 40
0.6954682362
 40
0.7564327129
 40
0.8128854663
 40
0.8648031021
 40
0.9125911121
 40
0.9571795893
 40
1.0
 40
1.0
 40
1.0
 40
1.0
 10
16.3529113102
 20
57.3628798811
 30
0.0
 10
16.3529113102
 20
57.2757985438
 30
0.0
 10
16.3647612413
 20
57.0958997079
 30
0.0
 10
16.4132586962
 20
56.8227518901
 30
0.0
 10
16.4922544317
 20
56.5428161816
 30
0.0
 10
16.636794801
 20
56.1662530058
 30
0.0
 10
16.8319792988
 20
55.805546131
 30
0.0
 10
17.0694391883
 20
55.4748052242
 30
0.0
 10
17.2636683376
 20
55.2491124263
 30
0.0
 10
17.4701873602
 20
55.0502525035
 30
0.0
 10
17.6846133735
 20
54.8823516027
 30
0.0
 10
17.9025448769
 20
54.7490391715
 30
0.0
 10
18.1195256011
 20
54.6531524728
 30
0.0
 10
18.3312387481
 20
54.5968704506
 30
0.0
 10
18.5335398165
 20
54.5820216402
 30
0.0
 10
18.7219350815
 20
54.6095901117
 30
0.0
 10
18.8360520846
 20
54.65704703
 30
0.0
 10
18.8878307646
 20
54.6869290858
 30
0.0
  0
SPLINE
  5
3A2
100
AcDbEntity
  8
_1
100
AcDbSpline
 62
7
  6
CONTINUOUS
 70
0
 71
3
 72
11
 73
7
 74
0
 42
0.0000001
 43
0.0000001
 44
0.0000000001
 40
0.0
 40
0.0
 40
0.0
 40
0.0
 40
0.2177460211
 40
0.4508843679
 40
0.7104607696
 40
1.0
 40
1.0
 40
1.0
 40
1.0
 10
21.2375011535
 20
57.316444386
 30
0.0
 10
21.2243093868
 20
57.3088281644
 30
0.0
 10
21.194009185
 20
57.2977931858
 30
0.0
 10
21.1436366209
 20
57.2965278289
 30
0.0
 10
21.0899789502
 20
57.3095154253
 30
0.0
 10
21.0550545448
 20
57.3261074664
 30
0.0
 10
21.0375132393
 20
57.3362347148
 30
0.0
  0
SPLINE
  5
3A3
100
AcDbEntity
  8
_1
100
AcDbSpline
 62
7
  6
CONTINUOUS
 70
0
 71
3
 72
13
 73
9
 74
0
 42
0.0000001
 43
0.0000001
 44
0.0000000001
 40
0.0
 40
0.0
 40
0.0
 40
0.0
 40
0.1080963359
 40
0.2182388361
 40
0.3322536668
 40
0.4516812626
 40
0.7106595514
 40
1.0
 40
1.0
 40
1.0
 40
1.0
 10
18.8878307646
 20
54.6869290858
 30
0.0
 10
18.9222647138
 20
54.7068013032
 30
0.0
 10
18.9884628394
 20
54.7530022858
 30
0.0
 10
19.0759030696
 20
54.8391041473
 30
0.0
 10
19.1511659617
 20
54.9412364323
 30
0.0
 10
19.2364576199
 20
55.1016325814
 30
0.0
 10
19.3067174243
 20
55.3395820357
 30
0.0
 10
19.3227721558
 20
55.5418521012
 30
0.0
 10
19.3227721558
 20
55.6482687121
 30
0.0
  0
SPLINE
  5
3A4
100
AcDbEntity
  8
_1
100
AcDbSpline
 62
7
  6
CONTINUOUS
 70
0
 71
3
 72
13
 73
9
 74
0
 42
0.0000001
 43
0.0000001
 44
0.0000000001
 40
0.0
 40
0.0
 40
0.0
 40
0.0
 40
0.1081040887
 40
0.2182391431
 40
0.3322401274
 40
0.4516646903
 40
0.7106947514
 40
1.0
 40
1.0
 40
1.0
 40
1.0
 10
28.7671756906
 20
53.0311489883
 30
0.0
 10
28.7409421741
 20
53.0462945602
 30
0.0
 10
28.6852318396
 20
53.0723475906
 30
0.0
 10
28.595127585
 20
53.0972762487
 30
0.0
 10
28.4990740806
 20
53.108015403
 30
0.0
 10
28.3607451935
 20
53.1031951048
 30
0.0
 10
28.1769827643
 20
53.0588861998
 30
0.0
 10
28.0373983782
 20
52.9924439915
 30
0.0
 10
27.9671932561
 20
52.9519112872
 30
0.0
  0
SPLINE
  5
3A5
100
AcDbEntity
  8
_1
100
AcDbSpline
 62
7
  6
CONTINUOUS
 70
0
 71
3
 72
17
 73
13
 74
0
 42
0.0000001
 43
0.0000001
 44
0.0000000001
 40
0.0
 40
0.0
 40
0.0
 40
0.0
 40
0.0428572716
 40
0.0874788458
 40
0.1353175345
 40
0.1872738754
 40
0.3045409073
 40
0.4382063355
 40
0.5825472936
 40
0.7296721167
 40
0.8713406818
 40
1.0
 40
1.0
 40
1.0
 40
1.0
 10
29.0157108073
 20
51.4624105314
 30
0.0
 10
29.0058461358
 20
51.4567244864
 30
0.0
 10
28.9841151224
 20
51.4476893712
 30
0.0
 10
28.9482355526
 20
51.4424058621
 30
0.0
 10
28.9097059901
 20
51.4452683909
 30
0.0
 10
28.8537100646
 20
51.4601290026
 30
0.0
 10
28.7821445332
 20
51.4992880215
 30
0.0
 10
28.7030638346
 20
51.5693105146
 30
0.0
 10
28.633182499
 20
51.6587823605
 30
0.0
 10
28.5781354607
 20
51.7604572912
 30
0.0
 10
28.5424610553
 20
51.8660238224
 30
0.0
 10
28.5328763258
 20
51.9379212511
 30
0.0
 10
28.5328763258
 20
51.9721027429
 30
0.0
  0
SPLINE
  5
3A6
100
AcDbEntity
  8
_1
100
AcDbSpline
 62
7
  6
CONTINUOUS
 70
0
 71
3
 72
12
 73
8
 74
0
 42
0.0000001
 43
0.0000001
 44
0.0000000001
 40
0.0
 40
0.0
 40
0.0
 40
0.0
 40
0.2854808833
 40
0.5474558444
 40
0.7830936884
 40
0.8930330364
 40
1.0
 40
1.0
 40
1.0
 40
1.0
 10
36.0264515348
 20
50.4479520601
 30
0.0
 10
36.0484529909
 20
50.4969455697
 30
0.0
 10
36.0887234877
 20
50.5918360628
 30
0.0
 10
36.1335378473
 20
50.7324847455
 30
0.0
 10
36.1490484191
 20
50.8468837601
 30
0.0
 10
36.1423924768
 20
50.932064749
 30
0.0
 10
36.1326983818
 20
50.9719338671
 30
0.0
 10
36.1262801852
 20
50.9910063627
 30
0.0
  0
SPLINE
  5
3A7
100
AcDbEntity
  8
_1
100
AcDbSpline
 62
7
  6
CONTINUOUS
 70
0
 71
3
 72
11
 73
7
 74
0
 42
0.0000001
 43
0.0000001
 44
0.0000000001
 40
0.0
 40
0.0
 40
0.0
 40
0.0
 40
0.2177460211
 40
0.4508843679
 40
0.7104607696
 40
1.0
 40
1.0
 40
1.0
 40
1.0
 10
37.5010248319
 20
47.926907032
 30
0.0
 10
37.4878330652
 20
47.9192908105
 30
0.0
 10
37.4575328634
 20
47.9082558318
 30
0.0
 10
37.4071602993
 20
47.906990475
 30
0.0
 10
37.3535026286
 20
47.9199780713
 30
0.0
 10
37.3185782232
 20
47.9365701124
 30
0.0
 10
37.3010369177
 20
47.9466973608
 30
0.0
  0
SPLINE
  5
3A8
100
AcDbEntity
  8
_1
100
AcDbSpline
 62
7
  6
CONTINUOUS
 70
0
 71
3
 72
11
 73
7
 74
0
 42
0.0000001
 43
0.0000001
 44
0.0000000001
 40
0.0
 40
0.0
 40
0.0
 40
0.0
 40
0.228622236
 40
0.4669862813
 40
0.722892495
 40
1.0
 40
1.0
 40
1.0
 40
1.0
 10
12.5136798894
 20
54.3571098123
 30
0.0
 10
12.5446975674
 20
54.3341764139
 30
0.0
 10
12.6016901549
 20
54.2780549089
 30
0.0
 10
12.6631551324
 20
54.1712282187
 30
0.0
 10
12.6999293716
 20
54.0453067069
 30
0.0
 10
12.7073950809
 20
53.9550834307
 30
0.0
 10
12.7073950809
 20
53.9083275005
 30
0.0
  0
SPLINE
  5
3A9
100
AcDbEntity
  8
_1
100
AcDbSpline
 62
7
  6
CONTINUOUS
 70
0
 71
3
 72
15
 73
11
 74
0
 42
0.0000001
 43
0.0000001
 44
0.0000000001
 40
0.0
 40
0.0
 40
0.0
 40
0.0
 40
0.0963927672
 40
0.1982291516
 40
0.309327037
 40
0.4312941056
 40
0.5637318219
 40
0.7046815317
 40
0.8513745351
 40
1.0
 40
1.0
 40
1.0
 40
1.0
 10
9.548305837
 20
56.3071579581
 30
0.0
 10
9.57893144
 20
56.2845135239
 30
0.0
 10
9.6345338796
 20
56.2271083739
 30
0.0
 10
9.6893222234
 20
56.1160553619
 30
0.0
 10
9.7154231871
 20
55.9850408213
 30
0.0
 10
9.7126322308
 20
55.8397243811
 30
0.0
 10
9.6815887774
 20
55.6858900636
 30
0.0
 10
9.6237827228
 20
55.5296481605
 30
0.0
 10
9.5416201124
 20
55.3775268165
 30
0.0
 10
9.4728141017
 20
55.282777829
 30
0.0
 10
9.435200583
 20
55.2376771061
 30
0.0
  0
SPLINE
  5
3AA
100
AcDbEntity
  8
_1
100
AcDbSpline
 62
7
  6
CONTINUOUS
 70
0
 71
3
 72
13
 73
9
 74
0
 42
0.0000001
 43
0.0000001
 44
0.0000000001
 40
0.0
 40
0.0
 40
0.0
 40
0.0
 40
0.118691812
 40
0.244632606
 40
0.5071232444
 40
0.7657744624
 40
0.8871732622
 40
1.0
 40
1.0
 40
1.0
 40
1.0
 10
14.8241520812
 20
60.7827817206
 30
0.0
 10
14.863547112
 20
60.8005517509
 30
0.0
 10
14.9474574873
 20
60.8313368778
 30
0.0
 10
15.1275070395
 20
60.873784236
 30
0.0
 10
15.3644130874
 20
60.889456843
 30
0.0
 10
15.5981923607
 20
60.8577089559
 30
0.0
 10
15.7693904197
 20
60.802618898
 30
0.0
 10
15.8467888476
 20
60.7659574198
 30
0.0
 10
15.8823669558
 20
60.7454168542
 30
0.0
  0
SPLINE
  5
3AB
100
AcDbEntity
  8
_1
100
AcDbSpline
 62
7
  6
CONTINUOUS
 70
0
 71
3
 72
24
 73
20
 74
0
 42
0.0000001
 43
0.0000001
 44
0.0000000001
 40
0.0
 40
0.0
 40
0.0
 40
0.0
 40
0.02007832
 40
0.0406497471
 40
0.0848534315
 40
0.1353161943
 40
0.1930343979
 40
0.2578603395
 40
0.328848766
 40
0.4045237828
 40
0.4830842666
 40
0.5625323538
 40
0.640823435
 40
0.7159783245
 40
0.7862266036
 40
0.8501588199
 40
0.9069057247
 40
0.9564889361
 40
1.0
 40
1.0
 40
1.0
 40
1.0
 10
34.165633392
 20
42.1925113511
 30
0.0
 10
34.178485173
 20
42.1867162271
 30
0.0
 10
34.2034736095
 20
42.1725269471
 30
0.0
 10
34.2492775052
 20
42.1339793009
 30
0.0
 10
34.2964732831
 20
42.0665287313
 30
0.0
 10
34.3329084908
 20
41.9650148315
 30
0.0
 10
34.3509004978
 20
41.8442601292
 30
0.0
 10
34.3500379653
 20
41.7079476357
 30
0.0
 10
34.3305099813
 20
41.5604098715
 30
0.0
 10
34.2929885693
 20
41.4065041192
 30
0.0
 10
34.2386822897
 20
41.2514102033
 30
0.0
 10
34.1694312018
 20
41.1003751487
 30
0.0
 10
34.0876118564
 20
40.958503946
 30
0.0
 10
33.9959614198
 20
40.8306057792
 30
0.0
 10
33.8975565333
 20
40.7209664093
 30
0.0
 10
33.7956796338
 20
40.6331586906
 30
0.0
 10
33.693359469
 20
40.570065015
 30
0.0
 10
33.5935954566
 20
40.5339632408
 30
0.0
 10
33.5271307768
 20
40.5291413248
 30
0.0
 10
33.4967640764
 20
40.532493532
 30
0.0
  0
SPLINE
  5
3AC
100
AcDbEntity
  8
_1
100
AcDbSpline
 62
7
  6
CONTINUOUS
 70
0
 71
3
 72
11
 73
7
 74
0
 42
0.0000001
 43
0.0000001
 44
0.0000000001
 40
0.0
 40
0.0
 40
0.0
 40
0.0
 40
0.238309502
 40
0.4914339756
 40
0.7489888307
 40
1.0
 40
1.0
 40
1.0
 40
1.0
 10
21.6895758203
 20
59.3258529546
 30
0.0
 10
21.5909775301
 20
59.2488522269
 30
0.0
 10
21.4028022155
 20
59.0701737435
 30
0.0
 10
21.1625602817
 20
58.757199823
 30
0.0
 10
20.9668199983
 20
58.4070010087
 30
0.0
 10
20.8715169589
 20
58.1562714763
 30
0.0
 10
20.8350711675
 20
58.0296411568
 30
0.0
  0
SPLINE
  5
3AD
100
AcDbEntity
  8
_1
100
AcDbSpline
 62
7
  6
CONTINUOUS
 70
0
 71
3
 72
12
 73
8
 74
0
 42
0.0000001
 43
0.0000001
 44
0.0000000001
 40
0.0
 40
0.0
 40
0.0
 40
0.0
 40
0.1005486904
 40
0.2042695557
 40
0.4308029433
 40
0.6948842358
 40
1.0
 40
1.0
 40
1.0
 40
1.0
 10
36.4846960938
 20
40.5989443806
 30
0.0
 10
36.5007845997
 20
40.5916941125
 30
0.0
 10
36.5319901587
 20
40.5734252616
 30
0.0
 10
36.5884520989
 20
40.5224653642
 30
0.0
 10
36.6440702728
 20
40.4317368919
 30
0.0
 10
36.6818677563
 20
40.296130099
 30
0.0
 10
36.6891869216
 20
40.1958990852
 30
0.0
 10
36.6891869216
 20
40.1423500068
 30
0.0
  0
SPLINE
  5
3AE
100
AcDbEntity
  8
_1
100
AcDbSpline
 62
7
  6
CONTINUOUS
 70
0
 71
3
 72
14
 73
10
 74
0
 42
0.0000001
 43
0.0000001
 44
0.0000000001
 40
0.0
 40
0.0
 40
0.0
 40
0.0
 40
0.0555815911
 40
0.1155239173
 40
0.2420574994
 40
0.3717569986
 40
0.5008132708
 40
0.7530294508
 40
1.0
 40
1.0
 40
1.0
 40
1.0
 10
21.0375132393
 20
57.3362347148
 30
0.0
 10
21.0251901873
 20
57.3433492712
 30
0.0
 10
21.000921062
 20
57.3604987575
 30
0.0
 10
20.9553138354
 20
57.4026169987
 30
0.0
 10
20.9052547464
 20
57.4669826821
 30
0.0
 10
20.8592417458
 20
57.5547232779
 30
0.0
 10
20.8171597022
 20
57.6790340043
 30
0.0
 10
20.7982745847
 20
57.8408616989
 30
0.0
 10
20.817583668
 20
57.9688811194
 30
0.0
 10
20.8350711675
 20
58.0296411568
 30
0.0
  0
SPLINE
  5
3AF
100
AcDbEntity
  8
_1
100
AcDbSpline
 62
7
  6
CONTINUOUS
 70
0
 71
3
 72
9
 73
5
 74
0
 42
0.0000001
 43
0.0000001
 44
0.0000000001
 40
0.0
 40
0.0
 40
0.0
 40
0.0
 40
0.4661315757
 40
1.0
 40
1.0
 40
1.0
 40
1.0
 10
18.9399374397
 20
58.5472432706
 30
0.0
 10
18.9614659178
 20
58.5754067621
 30
0.0
 10
19.0010701454
 20
58.6407700067
 30
0.0
 10
19.0336699535
 20
58.7094882551
 30
0.0
 10
19.0503073482
 20
58.746523631
 30
0.0
  0
SPLINE
  5
3B0
100
AcDbEntity
  8
_1
100
AcDbSpline
 62
7
  6
CONTINUOUS
 70
0
 71
3
 72
19
 73
15
 74
0
 42
0.0000001
 43
0.0000001
 44
0.0000000001
 40
0.0
 40
0.0
 40
0.0
 40
0.0
 40
0.0624237019
 40
0.1256272291
 40
0.1890402556
 40
0.252450264
 40
0.3790360687
 40
0.5056561302
 40
0.6313377595
 40
0.7549709586
 40
0.8161098059
 40
0.8770408416
 40
0.9381843736
 40
1.0
 40
1.0
 40
1.0
 40
1.0
 10
19.0969593517
 20
60.8226669082
 30
0.0
 10
19.0475427176
 20
60.8250519643
 30
0.0
 10
18.947535371
 20
60.8220084902
 30
0.0
 10
18.7997892333
 20
60.7937068756
 30
0.0
 10
18.6576168519
 20
60.7421217673
 30
0.0
 10
18.4807930256
 20
60.6454952637
 30
0.0
 10
18.2882505614
 20
60.479984123
 30
0.0
 10
18.1084672878
 20
60.2370741807
 30
0.0
 10
17.9781406042
 20
59.967372437
 30
0.0
 10
17.9139731443
 20
59.7278742587
 30
0.0
 10
17.8956587994
 20
59.5335940507
 30
0.0
 10
17.9001481479
 20
59.3880256709
 30
0.0
 10
17.9245866572
 20
59.2438740283
 30
0.0
 10
17.9547570639
 20
59.1507768049
 30
0.0
 10
17.9731880453
 20
59.1053836669
 30
0.0
  0
SPLINE
  5
3B1
100
AcDbEntity
  8
_1
100
AcDbSpline
 62
7
  6
CONTINUOUS
 70
0
 71
3
 72
13
 73
9
 74
0
 42
0.0000001
 43
0.0000001
 44
0.0000000001
 40
0.0
 40
0.0
 40
0.0
 40
0.0
 40
0.1077880703
 40
0.2183002604
 40
0.3330015585
 40
0.4530994303
 40
0.7124581051
 40
1.0
 40
1.0
 40
1.0
 40
1.0
 10
16.5946356718
 20
58.6705629639
 30
0.0
 10
16.5582861696
 20
58.6449240523
 30
0.0
 10
16.4887130985
 20
58.5870074792
 30
0.0
 10
16.3974679804
 20
58.4836119577
 30
0.0
 10
16.3191028652
 20
58.364039445
 30
0.0
 10
16.2305265371
 20
58.1797885629
 30
0.0
 10
16.1576441957
 20
57.9119320431
 30
0.0
 10
16.1407778038
 20
57.6856631919
 30
0.0
 10
16.1407778038
 20
57.5670005983
 30
0.0
  0
SPLINE
  5
3B2
100
AcDbEntity
  8
_1
100
AcDbSpline
 62
7
  6
CONTINUOUS
 70
0
 71
3
 72
16
 73
12
 74
0
 42
0.0000001
 43
0.0000001
 44
0.0000000001
 40
0.0
 40
0.0
 40
0.0
 40
0.0
 40
0.0452425767
 40
0.0913135896
 40
0.1885997402
 40
0.2965505637
 40
0.4170652802
 40
0.5499243449
 40
0.6933618133
 40
0.8445525144
 40
1.0
 40
1.0
 40
1.0
 40
1.0
 10
34.713083469
 20
48.0569651724
 30
0.0
 10
34.7470397448
 20
48.0765620086
 30
0.0
 10
34.8190653121
 20
48.110383798
 30
0.0
 10
34.9770276039
 20
48.1547278576
 30
0.0
 10
35.1981024266
 20
48.1620179028
 30
0.0
 10
35.47535872
 20
48.0974281413
 30
0.0
 10
35.7609637166
 20
47.9647850787
 30
0.0
 10
36.0454970199
 20
47.7693753558
 30
0.0
 10
36.3193550769
 20
47.5183367606
 30
0.0
 10
36.572787583
 20
47.2207435488
 30
0.0
 10
36.7212759021
 20
46.9995901192
 30
0.0
 10
36.7900878197
 20
46.8837874844
 30
0.0
  0
SPLINE
  5
3B3
100
AcDbEntity
  8
_1
100
AcDbSpline
 62
7
  6
CONTINUOUS
 70
0
 71
3
 72
23
 73
19
 74
0
 42
0.0000001
 43
0.0000001
 44
0.0000000001
 40
0.0
 40
0.0
 40
0.0
 40
0.0
 40
0.0428120806
 40
0.0873936894
 40
0.1351770143
 40
0.1870851105
 40
0.2435323897
 40
0.3044901335
 40
0.369586656
 40
0.4381949639
 40
0.509492019
 40
0.5825260304
 40
0.656267329
 40
0.7296579146
 40
0.8016464423
 40
0.8712445229
 40
0.9376263951
 40
1.0
 40
1.0
 40
1.0
 40
1.0
 10
19.0878276551
 20
54.3405222463
 30
0.0
 10
19.0261960211
 20
54.3049400568
 30
0.0
 10
18.8903413464
 20
54.2484635066
 30
0.0
 10
18.6660702842
 20
54.2155919128
 30
0.0
 10
18.4252414289
 20
54.233336816
 30
0.0
 10
18.1731887074
 20
54.3002788551
 30
0.0
 10
17.9148776146
 20
54.4144470491
 30
0.0
 10
17.6554497581
 20
54.5731747772
 30
0.0
 10
17.4001501883
 20
54.7730172306
 30
0.0
 10
17.1543162391
 20
55.0097853864
 30
0.0
 10
16.92310573
 20
55.2784372521
 30
0.0
 10
16.711401616
 20
55.5732448572
 30
0.0
 10
16.5237485718
 20
55.8879607771
 30
0.0
 10
16.3641452438
 20
56.215863775
 30
0.0
 10
16.2359503966
 20
56.5499274101
 30
0.0
 10
16.1419213989
 20
56.8831500562
 30
0.0
 10
16.0841582215
 20
57.2083269708
 30
0.0
 10
16.0700674201
 20
57.4224938011
 30
0.0
 10
16.0700674201
 20
57.5261761829
 30
0.0
  0
SPLINE
  5
3B4
100
AcDbEntity
  8
_1
100
AcDbSpline
 62
7
  6
CONTINUOUS
 70
0
 71
3
 72
11
 73
7
 74
0
 42
0.0000001
 43
0.0000001
 44
0.0000000001
 40
0.0
 40
0.0
 40
0.0
 40
0.0
 40
0.238309502
 40
0.4914339756
 40
0.7489888307
 40
1.0
 40
1.0
 40
1.0
 40
1.0
 10
37.9530994987
 20
49.9363156006
 30
0.0
 10
37.8545012085
 20
49.8593148729
 30
0.0
 10
37.6663258939
 20
49.6806363896
 30
0.0
 10
37.42608396
 20
49.3676624691
 30
0.0
 10
37.2303436767
 20
49.0174636547
 30
0.0
 10
37.1350406373
 20
48.7667341224
 30
0.0
 10
37.0985948458
 20
48.6401038028
 30
0.0
  0
SPLINE
  5
3B5
100
AcDbEntity
  8
_1
100
AcDbSpline
 62
7
  6
CONTINUOUS
 70
0
 71
3
 72
11
 73
7
 74
0
 42
0.0000001
 43
0.0000001
 44
0.0000000001
 40
0.0
 40
0.0
 40
0.0
 40
0.0
 40
0.2239270843
 40
0.4702596206
 40
0.7321470373
 40
1.0
 40
1.0
 40
1.0
 40
1.0
 10
36.0103014794
 20
39.3625148667
 30
0.0
 10
35.9575064141
 20
39.3886618845
 30
0.0
 10
35.8528364581
 20
39.4563822566
 30
0.0
 10
35.7108137966
 20
39.5875760088
 30
0.0
 10
35.5824434523
 20
39.7472158156
 30
0.0
 10
35.510325602
 20
39.8670595272
 30
0.0
 10
35.4781737622
 20
39.9297696022
 30
0.0
  0
SPLINE
  5
3B6
100
AcDbEntity
  8
_1
100
AcDbSpline
 62
7
  6
CONTINUOUS
 70
0
 71
3
 72
11
 73
7
 74
0
 42
0.0000001
 43
0.0000001
 44
0.0000000001
 40
0.0
 40
0.0
 40
0.0
 40
0.0
 40
0.2822244703
 40
0.5391486573
 40
0.775359696
 40
1.0
 40
1.0
 40
1.0
 40
1.0
 10
38.3429753073
 20
47.2840932343
 30
0.0
 10
38.394851983
 20
47.3224285633
 30
0.0
 10
38.4885726906
 20
47.4035770844
 30
0.0
 10
38.5982838765
 20
47.544468428
 30
0.0
 10
38.6665108214
 20
47.6955848453
 30
0.0
 10
38.6821265937
 20
47.8014628747
 30
0.0
 10
38.6821385735
 20
47.8528058153
 30
0.0
  0
SPLINE
  5
3B7
100
AcDbEntity
  8
_1
100
AcDbSpline
 62
7
  6
CONTINUOUS
 70
0
 71
3
 72
11
 73
7
 74
0
 42
0.0000001
 43
0.0000001
 44
0.0000000001
 40
0.0
 40
0.0
 40
0.0
 40
0.0
 40
0.2889893685
 40
0.5481832482
 40
0.7815730359
 40
1.0
 40
1.0
 40
1.0
 40
1.0
 10
37.6545980702
 20
48.17544987
 30
0.0
 10
37.688752586
 20
48.1552449175
 30
0.0
 10
37.750700647
 20
48.1116210807
 30
0.0
 10
37.8246048093
 20
48.0325052608
 30
0.0
 10
37.8712841641
 20
47.9452540097
 30
0.0
 10
37.8821143665
 20
47.8827996328
 30
0.0
 10
37.8821286945
 20
47.8528057255
 30
0.0
  0
SPLINE
  5
3B8
100
AcDbEntity
  8
_1
100
AcDbSpline
 62
7
  6
CONTINUOUS
 70
0
 71
3
 72
11
 73
7
 74
0
 42
0.0000001
 43
0.0000001
 44
0.0000000001
 40
0.0
 40
0.0
 40
0.0
 40
0.0
 40
0.2661635957
 40
0.5237975043
 40
0.7694000961
 40
1.0
 40
1.0
 40
1.0
 40
1.0
 10
34.9365984483
 20
33.4812195042
 30
0.0
 10
34.8918280676
 20
33.3527745761
 30
0.0
 10
34.8126194927
 20
33.0967846536
 30
0.0
 10
34.7246451131
 20
32.7131488449
 30
0.0
 10
34.6706856713
 20
32.341595559
 30
0.0
 10
34.6575148797
 20
32.0981261338
 30
0.0
 10
34.6575148797
 20
31.9802772386
 30
0.0
  0
SPLINE
  5
3B9
100
AcDbEntity
  8
_1
100
AcDbSpline
 62
7
  6
CONTINUOUS
 70
0
 71
3
 72
11
 73
7
 74
0
 42
0.0000001
 43
0.0000001
 44
0.0000000001
 40
0.0
 40
0.0
 40
0.0
 40
0.0
 40
0.2305999039
 40
0.4762024957
 40
0.7338364043
 40
1.0
 40
1.0
 40
1.0
 40
1.0
 10
36.6891869216
 20
39.2096047471
 30
0.0
 10
36.6891869216
 20
39.0917558518
 30
0.0
 10
36.6760161299
 20
38.8482864267
 30
0.0
 10
36.6220566881
 20
38.4767331407
 30
0.0
 10
36.5340823086
 20
38.093097332
 30
0.0
 10
36.4548737336
 20
37.8371074096
 30
0.0
 10
36.4101033529
 20
37.7086624814
 30
0.0
  0
SPLINE
  5
3BA
100
AcDbEntity
  8
_1
100
AcDbSpline
 62
7
  6
CONTINUOUS
 70
0
 71
3
 72
11
 73
7
 74
0
 42
0.0000001
 43
0.0000001
 44
0.0000000001
 40
0.0
 40
0.0
 40
0.0
 40
0.0
 40
0.2177442246
 40
0.4508817658
 40
0.7104588047
 40
1.0
 40
1.0
 40
1.0
 40
1.0
 10
28.3671640881
 20
52.3382928958
 30
0.0
 10
28.3935482418
 20
52.3230603281
 30
0.0
 10
28.4429629971
 20
52.2816131264
 30
0.0
 10
28.495528205
 20
52.1956281924
 30
0.0
 10
28.526690741
 20
52.0896992985
 30
0.0
 10
28.5328763258
 20
52.0126138301
 30
0.0
 10
28.5328763258
 20
51.9721027429
 30
0.0
  0
SPLINE
  5
3BB
100
AcDbEntity
  8
_1
100
AcDbSpline
 62
7
  6
CONTINUOUS
 70
0
 71
3
 72
11
 73
7
 74
0
 42
0.0000001
 43
0.0000001
 44
0.0000000001
 40
0.0
 40
0.0
 40
0.0
 40
0.0
 40
0.2141055448
 40
0.4494001182
 40
0.7108045363
 40
1.0
 40
1.0
 40
1.0
 40
1.0
 10
33.4967640764
 20
40.532493532
 30
0.0
 10
33.4712712714
 20
40.5353077055
 30
0.0
 10
33.4168118098
 20
40.5338221428
 30
0.0
 10
33.333831053
 20
40.5124861412
 30
0.0
 10
33.2479906754
 20
40.4728399613
 30
0.0
 10
33.1925924277
 20
40.4366411142
 30
0.0
 10
33.1647314866
 20
40.4160527028
 30
0.0
  0
SPLINE
  5
3BC
100
AcDbEntity
  8
_1
100
AcDbSpline
 62
7
  6
CONTINUOUS
 70
0
 71
3
 72
13
 73
9
 74
0
 42
0.0000001
 43
0.0000001
 44
0.0000000001
 40
0.0
 40
0.0
 40
0.0
 40
0.0
 40
0.1077880703
 40
0.2183002604
 40
0.3330015585
 40
0.4530994303
 40
0.7124581051
 40
1.0
 40
1.0
 40
1.0
 40
1.0
 10
34.4491562318
 20
48.3624839123
 30
0.0
 10
34.4128067296
 20
48.3368450007
 30
0.0
 10
34.3432336584
 20
48.2789284276
 30
0.0
 10
34.2519885404
 20
48.1755329061
 30
0.0
 10
34.1736234252
 20
48.0559603934
 30
0.0
 10
34.0850470971
 20
47.8717095113
 30
0.0
 10
34.0121647557
 20
47.6038529915
 30
0.0
 10
33.9952983638
 20
47.3775841403
 30
0.0
 10
33.9952983638
 20
47.2589215467
 30
0.0
  0
SPLINE
  5
3BD
100
AcDbEntity
  8
_1
100
AcDbSpline
 62
7
  6
CONTINUOUS
 70
0
 71
3
 72
13
 73
9
 74
0
 42
0.0000001
 43
0.0000001
 44
0.0000000001
 40
0.0
 40
0.0
 40
0.0
 40
0.0
 40
0.1141759018
 40
0.2375697245
 40
0.4999990825
 40
0.762428944
 40
0.8858232992
 40
1.0
 40
1.0
 40
1.0
 40
1.0
 10
16.2291671083
 20
60.1122718455
 30
0.0
 10
16.2098180731
 20
60.1234427635
 30
0.0
 10
16.1715787654
 20
60.150274736
 30
0.0
 10
16.099941232
 20
60.2172590545
 30
0.0
 10
16.0243413818
 20
60.320613543
 30
0.0
 10
15.9726331705
 20
60.437762037
 30
0.0
 10
15.950441117
 20
60.5332943227
 30
0.0
 10
15.9463232182
 20
60.5798267428
 30
0.0
 10
15.9463232182
 20
60.6021691142
 30
0.0
  0
SPLINE
  5
3BE
100
AcDbEntity
  8
_1
100
AcDbSpline
 62
7
  6
CONTINUOUS
 70
0
 71
3
 72
11
 73
7
 74
0
 42
0.0000001
 43
0.0000001
 44
0.0000000001
 40
0.0
 40
0.0
 40
0.0
 40
0.0
 40
0.2254642558
 40
0.4658372434
 40
0.723829495
 40
1.0
 40
1.0
 40
1.0
 40
1.0
 10
8.6511134084
 20
54.8839966388
 30
0.0
 10
8.616997511
 20
54.8941260044
 30
0.0
 10
8.543884118
 20
54.9068237255
 30
0.0
 10
8.4290478393
 20
54.9032948552
 30
0.0
 10
8.3088720737
 20
54.8780739024
 30
0.0
 10
8.2296217262
 20
54.8483465982
 30
0.0
 10
8.1898856586
 20
54.8304227354
 30
0.0
  0
SPLINE
  5
3BF
100
AcDbEntity
  8
_1
100
AcDbSpline
 62
7
  6
CONTINUOUS
 70
0
 71
3
 72
13
 73
9
 74
0
 42
0.0000001
 43
0.0000001
 44
0.0000000001
 40
0.0
 40
0.0
 40
0.0
 40
0.0
 40
0.2875028418
 40
0.5548787429
 40
0.6777804811
 40
0.7926404295
 40
0.8997400903
 40
1.0
 40
1.0
 40
1.0
 40
1.0
 10
9.435200583
 20
55.2376771061
 30
0.0
 10
9.3796988812
 20
55.1711274461
 30
0.0
 10
9.2596662522
 20
55.0528326693
 30
0.0
 10
9.0850375137
 20
54.9427139997
 30
0.0
 10
8.942047358
 20
54.8890459912
 30
0.0
 10
8.8398490456
 20
54.8675770722
 30
0.0
 10
8.7422378314
 20
54.8646600313
 30
0.0
 10
8.6800827912
 20
54.875395327
 30
0.0
 10
8.6511134084
 20
54.8839966388
 30
0.0
  0
SPLINE
  5
3C0
100
AcDbEntity
  8
_1
100
AcDbSpline
 62
7
  6
CONTINUOUS
 70
0
 71
3
 72
11
 73
7
 74
0
 42
0.0000001
 43
0.0000001
 44
0.0000000001
 40
0.0
 40
0.0
 40
0.0
 40
0.0
 40
0.264719023
 40
0.5248643806
 40
0.7722296214
 40
1.0
 40
1.0
 40
1.0
 40
1.0
 10
34.579976052
 20
45.2532668102
 30
0.0
 10
34.4778998566
 20
45.4076359414
 30
0.0
 10
34.2950031049
 20
45.7270898425
 30
0.0
 10
34.0881747269
 20
46.2274187066
 30
0.0
 10
33.9578481091
 20
46.7263514172
 30
0.0
 10
33.9245879801
 20
47.0588621655
 30
0.0
 10
33.9245879801
 20
47.2180971313
 30
0.0
  0
SPLINE
  5
3C1
100
AcDbEntity
  8
_1
100
AcDbSpline
 62
7
  6
CONTINUOUS
 70
0
 71
3
 72
13
 73
9
 74
0
 42
0.0000001
 43
0.0000001
 44
0.0000000001
 40
0.0
 40
0.0
 40
0.0
 40
0.0
 40
0.1141759018
 40
0.2375697245
 40
0.4999990825
 40
0.762428944
 40
0.8858232992
 40
1.0
 40
1.0
 40
1.0
 40
1.0
 10
32.4926907867
 20
50.7227344916
 30
0.0
 10
32.4733417514
 20
50.7339054095
 30
0.0
 10
32.4351024438
 20
50.760737382
 30
0.0
 10
32.3634649104
 20
50.8277217005
 30
0.0
 10
32.2878650602
 20
50.9310761891
 30
0.0
 10
32.2361568489
 20
51.048224683
 30
0.0
 10
32.2139647954
 20
51.1437569687
 30
0.0
 10
32.2098468966
 20
51.1902893888
 30
0.0
 10
32.2098468966
 20
51.2126317602
 30
0.0
  0
SPLINE
  5
3C2
100
AcDbEntity
  8
_1
100
AcDbSpline
 62
7
  6
CONTINUOUS
 70
0
 71
3
 72
15
 73
11
 74
0
 42
0.0000001
 43
0.0000001
 44
0.0000000001
 40
0.0
 40
0.0
 40
0.0
 40
0.0
 40
0.1485721854
 40
0.2895075385
 40
0.4227238636
 40
0.5486380759
 40
0.6679996367
 40
0.7819362958
 40
0.891985016
 40
1.0
 40
1.0
 40
1.0
 40
1.0
 10
18.5626292013
 20
41.2349485556
 30
0.0
 10
18.5626292013
 20
41.5370241694
 30
0.0
 10
18.5870098319
 20
42.1260525485
 30
0.0
 10
18.7029188008
 20
42.9790433744
 30
0.0
 10
18.8966119913
 20
43.7707849309
 30
0.0
 10
19.1665551507
 20
44.4935413576
 30
0.0
 10
19.5105661516
 20
45.1404316128
 30
0.0
 10
19.9261165132
 20
45.7047857415
 30
0.0
 10
20.4092878422
 20
46.1802711673
 30
0.0
 10
20.7749381997
 20
46.4354536759
 30
0.0
 10
20.9651305999
 20
46.5452609382
 30
0.0
  0
SPLINE
  5
3C3
100
AcDbEntity
  8
_1
100
AcDbSpline
 62
7
  6
CONTINUOUS
 70
0
 71
3
 72
22
 73
18
 74
0
 42
0.0000001
 43
0.0000001
 44
0.0000000001
 40
0.0
 40
0.0
 40
0.0
 40
0.0
 40
0.0797542866
 40
0.1567975301
 40
0.2296524272
 40
0.297457549
 40
0.3597260518
 40
0.4164301589
 40
0.4682297271
 40
0.5165934743
 40
0.5637106176
 40
0.6120621988
 40
0.6638331956
 40
0.7205023977
 40
0.7827341177
 40
0.8505379167
 40
1.0
 40
1.0
 40
1.0
 40
1.0
 10
17.0436568019
 20
32.756655974
 30
0.0
 10
17.0239545147
 20
32.8005216465
 30
0.0
 10
16.9893424121
 20
32.888689079
 30
0.0
 10
16.9518472498
 20
33.0222392892
 30
0.0
 10
16.9306471525
 20
33.1520901037
 30
0.0
 10
16.926217506
 20
33.2747375623
 30
0.0
 10
16.9387980381
 20
33.3871349837
 30
0.0
 10
16.9682289054
 20
33.4864805295
 30
0.0
 10
17.0142706702
 20
33.5701030174
 30
0.0
 10
17.0762053071
 20
33.6352810901
 30
0.0
 10
17.1523213516
 20
33.6793406075
 30
0.0
 10
17.2396910125
 20
33.7004798062
 30
0.0
 10
17.3350868662
 20
33.6987074613
 30
0.0
 10
17.4358039029
 20
33.6746387821
 30
0.0
 10
17.5394577018
 20
33.6294637703
 30
0.0
 10
17.6826587533
 20
33.5398002083
 30
0.0
 10
17.7795026536
 20
33.4493595858
 30
0.0
 10
17.8392616308
 20
33.3819064591
 30
0.0
  0
SPLINE
  5
3C4
100
AcDbEntity
  8
_1
100
AcDbSpline
 62
7
  6
CONTINUOUS
 70
0
 71
3
 72
23
 73
19
 74
0
 42
0.0000001
 43
0.0000001
 44
0.0000000001
 40
0.0
 40
0.0
 40
0.0
 40
0.0
 40
0.0449318366
 40
0.0917470361
 40
0.1408989894
 40
0.1927067955
 40
0.2473596194
 40
0.3049285602
 40
0.3653796589
 40
0.4285929326
 40
0.4943738631
 40
0.5624649311
 40
0.6325604462
 40
0.7043139165
 40
0.7773415592
 40
0.8512424353
 40
0.9256204689
 40
1.0
 40
1.0
 40
1.0
 40
1.0
 10
34.0584960362
 20
20.343547288
 30
0.0
 10
33.7331569706
 20
20.2665136901
 30
0.0
 10
33.0557481014
 20
20.160668892
 30
0.0
 10
32.0043984899
 20
20.1468674956
 30
0.0
 10
30.9094328585
 20
20.274688221
 30
0.0
 10
29.7804800664
 20
20.5422807509
 30
0.0
 10
28.6268357885
 20
20.9468686359
 30
0.0
 10
27.458146541
 20
21.4848079949
 30
0.0
 10
26.2841058454
 20
22.1512684809
 30
0.0
 10
25.1145813865
 20
22.9405453602
 30
0.0
 10
23.9594649592
 20
23.8459044018
 30
0.0
 10
22.8284923722
 20
24.8595453968
 30
0.0
 10
21.7313250307
 20
25.9728706987
 30
0.0
 10
20.6773456491
 20
27.1763549385
 30
0.0
 10
19.6755001373
 20
28.4596283634
 30
0.0
 10
18.7343332203
 20
29.8118915145
 30
0.0
 10
17.8620991396
 20
31.2213751258
 30
0.0
 10
17.3304032056
 20
32.1929225149
 30
0.0
 10
17.0778980184
 20
32.6854174802
 30
0.0
  0
SPLINE
  5
3C5
100
AcDbEntity
  8
_1
100
AcDbSpline
 62
7
  6
CONTINUOUS
 70
0
 71
3
 72
23
 73
19
 74
0
 42
0.0000001
 43
0.0000001
 44
0.0000000001
 40
0.0
 40
0.0
 40
0.0
 40
0.0
 40
0.0445662959
 40
0.0909322009
 40
0.1415845426
 40
0.1980585906
 40
0.2607142034
 40
0.3290535734
 40
0.401949825
 40
0.4778823131
 40
0.555085874
 40
0.6316957173
 40
0.7059019568
 40
0.776065439
 40
0.8408989228
 40
0.8996444751
 40
0.9523692828
 40
1.0
 40
1.0
 40
1.0
 40
1.0
 10
18.0520302637
 20
49.9905306371
 30
0.0
 10
18.0262229112
 20
49.9699941622
 30
0.0
 10
17.9660685131
 20
49.9366633113
 30
0.0
 10
17.8613005447
 20
49.918096136
 30
0.0
 10
17.7471450266
 20
49.9307439107
 30
0.0
 10
17.6278274525
 20
49.9727407477
 30
0.0
 10
17.5068944952
 20
50.0420010704
 30
0.0
 10
17.3883392375
 20
50.1361235647
 30
0.0
 10
17.2761316203
 20
50.2517384816
 30
0.0
 10
17.1741553151
 20
50.3847839371
 30
0.0
 10
17.0860690195
 20
50.5306067684
 30
0.0
 10
17.0149245421
 20
50.6840017756
 30
0.0
 10
16.9632566787
 20
50.8395633121
 30
0.0
 10
16.9329614839
 20
50.9918481635
 30
0.0
 10
16.9250040234
 20
51.1355606857
 30
0.0
 10
16.9399504508
 20
51.2659701881
 30
0.0
 10
16.9777800234
 20
51.3785190844
 30
0.0
 10
17.0196095465
 20
51.4413870362
 30
0.0
 10
17.0436568019
 20
51.4671597057
 30
0.0
  0
SPLINE
  5
3C6
100
AcDbEntity
  8
_1
100
AcDbSpline
 62
7
  6
CONTINUOUS
 70
0
 71
3
 72
11
 73
7
 74
0
 42
0.0000001
 43
0.0000001
 44
0.0000000001
 40
0.0
 40
0.0
 40
0.0
 40
0.0
 40
0.2318602928
 40
0.4768981419
 40
0.7335969089
 40
1.0
 40
1.0
 40
1.0
 40
1.0
 10
26.2656694399
 20
51.3916893135
 30
0.0
 10
26.7925628648
 20
51.1115333454
 30
0.0
 10
27.8445026578
 20
50.4741136108
 30
0.0
 10
29.3593862965
 20
49.3430663444
 30
0.0
 10
30.836204464
 20
48.0253454637
 30
0.0
 10
31.7667523179
 20
47.050199561
 30
0.0
 10
32.2213631942
 20
46.5369331647
 30
0.0
  0
SPLINE
  5
3C7
100
AcDbEntity
  8
_1
100
AcDbSpline
 62
7
  6
CONTINUOUS
 70
0
 71
3
 72
14
 73
10
 74
0
 42
0.0000001
 43
0.0000001
 44
0.0000000001
 40
0.0
 40
0.0
 40
0.0
 40
0.0
 40
0.2892470857
 40
0.4225700047
 40
0.5485176831
 40
0.6678932818
 40
0.7818668409
 40
0.8919560968
 40
1.0
 40
1.0
 40
1.0
 40
1.0
 10
16.0700674201
 20
57.5261761829
 30
0.0
 10
16.0700674201
 20
57.6528793474
 30
0.0
 10
16.0848841019
 20
57.8388898702
 30
0.0
 10
16.142039423
 20
58.0726907817
 30
0.0
 10
16.2002260138
 20
58.2284857393
 30
0.0
 10
16.2743791809
 20
58.3678759518
 30
0.0
 10
16.3639480193
 20
58.48948151
 30
0.0
 10
16.468044364
 20
58.591993728
 30
0.0
 10
16.5468682605
 20
58.6469627397
 30
0.0
 10
16.5878558108
 20
58.670626347
 30
0.0
  0
SPLINE
  5
3C8
100
AcDbEntity
  8
_1
100
AcDbSpline
 62
7
  6
CONTINUOUS
 70
0
 71
3
 72
14
 73
10
 74
0
 42
0.0000001
 43
0.0000001
 44
0.0000000001
 40
0.0
 40
0.0
 40
0.0
 40
0.0
 40
0.2892470857
 40
0.4225700047
 40
0.5485176831
 40
0.6678932818
 40
0.7818668409
 40
0.8919560968
 40
1.0
 40
1.0
 40
1.0
 40
1.0
 10
33.9245879801
 20
47.2180971313
 30
0.0
 10
33.9245879801
 20
47.3448002957
 30
0.0
 10
33.9394046619
 20
47.5308108186
 30
0.0
 10
33.996559983
 20
47.7646117301
 30
0.0
 10
34.0547465738
 20
47.9204066877
 30
0.0
 10
34.1288997409
 20
48.0597969002
 30
0.0
 10
34.2184685793
 20
48.1814024583
 30
0.0
 10
34.322564924
 20
48.2839146763
 30
0.0
 10
34.4013888204
 20
48.3388836881
 30
0.0
 10
34.4423763708
 20
48.3625472954
 30
0.0
  0
SPLINE
  5
3C9
100
AcDbEntity
  8
_1
100
AcDbSpline
 62
7
  6
CONTINUOUS
 70
0
 71
3
 72
11
 73
7
 74
0
 42
0.0000001
 43
0.0000001
 44
0.0000000001
 40
0.0
 40
0.0
 40
0.0
 40
0.0
 40
0.2831422989
 40
0.5403948119
 40
0.7762085098
 40
1.0
 40
1.0
 40
1.0
 40
1.0
 10
31.0142615803
 20
17.3153651816
 30
0.0
 10
31.020777452
 20
17.249246265
 30
0.0
 10
31.0431051923
 20
17.123636418
 30
0.0
 10
31.1099808005
 20
16.9526929956
 30
0.0
 10
31.2079527787
 20
16.8136701412
 30
0.0
 10
31.2936873882
 20
16.7453028507
 30
0.0
 10
31.3391588421
 20
16.7190365924
 30
0.0
  0
SPLINE
  5
3CA
100
AcDbEntity
  8
_1
100
AcDbSpline
 62
7
  6
CONTINUOUS
 70
0
 71
3
 72
26
 73
22
 74
0
 42
0.0000001
 43
0.0000001
 44
0.0000000001
 40
0.0
 40
0.0
 40
0.0
 40
0.0
 40
0.0213312687
 40
0.0428907796
 40
0.0648953373
 40
0.0875389633
 40
0.1109875064
 40
0.135373142
 40
0.1872713046
 40
0.2437056075
 40
0.3046495631
 40
0.3697329043
 40
0.4383254318
 40
0.5096069799
 40
0.5826263201
 40
0.6563532525
 40
0.7297252296
 40
0.8016964855
 40
0.8712838973
 40
0.9376208522
 40
1.0
 40
1.0
 40
1.0
 40
1.0
 10
32.565073426
 20
26.4534506682
 30
0.0
 10
32.4225560906
 20
26.3711685243
 30
0.0
 10
32.1250320949
 20
26.2239605959
 30
0.0
 10
31.6506991122
 20
26.0599478057
 30
0.0
 10
31.1499383976
 20
25.9531816718
 30
0.0
 10
30.6257862708
 20
25.9039907495
 30
0.0
 10
30.0811132765
 20
25.9126014171
 30
0.0
 10
29.3158645487
 20
26.0025782807
 30
0.0
 10
28.3208144579
 20
26.2668381118
 30
0.0
 10
27.1225098829
 20
26.7965358757
 30
0.0
 10
25.9186513261
 20
27.5330157986
 30
0.0
 10
24.7341420277
 20
28.4603698171
 30
0.0
 10
23.5934400359
 20
29.5589610798
 30
0.0
 10
22.5205899464
 20
30.8055007806
 30
0.0
 10
21.5383370354
 20
32.1734922952
 30
0.0
 10
20.6676178071
 20
33.6337812362
 30
0.0
 10
19.9269915703
 20
35.1552143828
 30
0.0
 10
19.3322823842
 20
36.7053351247
 30
0.0
 10
18.8960990569
 20
38.251298536
 30
0.0
 10
18.6278335578
 20
39.7600406179
 30
0.0
 10
18.5626292013
 20
40.7537110726
 30
0.0
 10
18.5626292013
 20
41.2349485556
 30
0.0
  0
SPLINE
  5
3CB
100
AcDbEntity
  8
_1
100
AcDbSpline
 62
7
  6
CONTINUOUS
 70
0
 71
3
 72
14
 73
10
 74
0
 42
0.0000001
 43
0.0000001
 44
0.0000000001
 40
0.0
 40
0.0
 40
0.0
 40
0.0
 40
0.0555815911
 40
0.1155239173
 40
0.2420574994
 40
0.3717569986
 40
0.5008132708
 40
0.7530294508
 40
1.0
 40
1.0
 40
1.0
 40
1.0
 10
37.3010369176
 20
47.9466973608
 30
0.0
 10
37.2887138657
 20
47.9538119172
 30
0.0
 10
37.2644447404
 20
47.9709614035
 30
0.0
 10
37.2188375137
 20
48.0130796447
 30
0.0
 10
37.1687784248
 20
48.0774453281
 30
0.0
 10
37.1227654241
 20
48.1651859239
 30
0.0
 10
37.0806833805
 20
48.2894966503
 30
0.0
 10
37.0617982631
 20
48.451324345
 30
0.0
 10
37.0811073464
 20
48.5793437655
 30
0.0
 10
37.0985948458
 20
48.6401038028
 30
0.0
  0
SPLINE
  5
3CC
100
AcDbEntity
  8
_1
100
AcDbSpline
 62
7
  6
CONTINUOUS
 70
0
 71
3
 72
9
 73
5
 74
0
 42
0.0000001
 43
0.0000001
 44
0.0000000001
 40
0.0
 40
0.0
 40
0.0
 40
0.0
 40
0.4661315757
 40
1.0
 40
1.0
 40
1.0
 40
1.0
 10
35.3802385494
 20
49.0556457281
 30
0.0
 10
35.4017670275
 20
49.0838092195
 30
0.0
 10
35.4413712551
 20
49.1491724641
 30
0.0
 10
35.4739710632
 20
49.2178907125
 30
0.0
 10
35.4906084579
 20
49.2549260884
 30
0.0
  0
SPLINE
  5
3CD
100
AcDbEntity
  8
_1
100
AcDbSpline
 62
7
  6
CONTINUOUS
 70
0
 71
3
 72
19
 73
15
 74
0
 42
0.0000001
 43
0.0000001
 44
0.0000000001
 40
0.0
 40
0.0
 40
0.0
 40
0.0
 40
0.0624237019
 40
0.1256272291
 40
0.1890402556
 40
0.252450264
 40
0.3790360687
 40
0.5056561302
 40
0.6313377595
 40
0.7549709586
 40
0.8161098059
 40
0.8770408416
 40
0.9381843736
 40
1.0
 40
1.0
 40
1.0
 40
1.0
 10
35.5372604613
 20
51.3310693656
 30
0.0
 10
35.4878438273
 20
51.3334544218
 30
0.0
 10
35.3878364807
 20
51.3304109476
 30
0.0
 10
35.2400903429
 20
51.302109333
 30
0.0
 10
35.0979179616
 20
51.2505242247
 30
0.0
 10
34.9210941352
 20
51.1538977211
 30
0.0
 10
34.7285516711
 20
50.9883865804
 30
0.0
 10
34.5487683974
 20
50.7454766381
 30
0.0
 10
34.4184417138
 20
50.4757748944
 30
0.0
 10
34.354274254
 20
50.2362767161
 30
0.0
 10
34.335959909
 20
50.0419965081
 30
0.0
 10
34.3404492575
 20
49.8964281283
 30
0.0
 10
34.3648877669
 20
49.7522764857
 30
0.0
 10
34.3950581736
 20
49.6591792623
 30
0.0
 10
34.4134891549
 20
49.6137861243
 30
0.0
  0
SPLINE
  5
3CE
100
AcDbEntity
  8
_1
100
AcDbSpline
 62
7
  6
CONTINUOUS
 70
0
 71
3
 72
15
 73
11
 74
0
 42
0.0000001
 43
0.0000001
 44
0.0000000001
 40
0.0
 40
0.0
 40
0.0
 40
0.0
 40
0.1239471236
 40
0.2449364343
 40
0.3648185934
 40
0.4848513762
 40
0.6063178014
 40
0.7309624891
 40
0.8611942908
 40
1.0
 40
1.0
 40
1.0
 40
1.0
 10
24.3005703178
 20
21.3237723932
 30
0.0
 10
24.2770750764
 20
21.3031877266
 30
0.0
 10
24.2370208768
 20
21.2545621619
 30
0.0
 10
24.2025776225
 20
21.1679571887
 30
0.0
 10
24.1933258934
 20
21.0763984324
 30
0.0
 10
24.2071293861
 20
20.9854930491
 30
0.0
 10
24.2417539525
 20
20.8991407746
 30
0.0
 10
24.295399758
 20
20.8200982151
 30
0.0
 10
24.366651566
 20
20.750231081
 30
0.0
 10
24.4230369611
 20
20.7119306152
 30
0.0
 10
24.4533313028
 20
20.6944385011
 30
0.0
  0
SPLINE
  5
3CF
100
AcDbEntity
  8
_1
100
AcDbSpline
 62
7
  6
CONTINUOUS
 70
0
 71
3
 72
15
 73
11
 74
0
 42
0.0000001
 43
0.0000001
 44
0.0000000001
 40
0.0
 40
0.0
 40
0.0
 40
0.0
 40
0.1239471236
 40
0.2449364343
 40
0.3648185934
 40
0.4848513762
 40
0.6063178014
 40
0.7309624891
 40
0.8611942908
 40
1.0
 40
1.0
 40
1.0
 40
1.0
 10
28.4018067237
 20
18.955976017
 30
0.0
 10
28.3783114822
 20
18.9353913504
 30
0.0
 10
28.3382572826
 20
18.8867657857
 30
0.0
 10
28.3038140284
 20
18.8001608125
 30
0.0
 10
28.2945622993
 20
18.7086020562
 30
0.0
 10
28.308365792
 20
18.6176966729
 30
0.0
 10
28.3429903583
 20
18.5313443984
 30
0.0
 10
28.3966361639
 20
18.4523018389
 30
0.0
 10
28.4678879718
 20
18.3824347048
 30
0.0
 10
28.5242733669
 20
18.344134239
 30
0.0
 10
28.5545677086
 20
18.3266421249
 30
0.0
  0
SPLINE
  5
3D0
100
AcDbEntity
  8
_1
100
AcDbSpline
 62
7
  6
CONTINUOUS
 70
0
 71
3
 72
16
 73
12
 74
0
 42
0.0000001
 43
0.0000001
 44
0.0000000001
 40
0.0
 40
0.0
 40
0.0
 40
0.0
 40
0.1553811506
 40
0.3065758209
 40
0.4500584407
 40
0.5829738079
 40
0.7035298836
 40
0.8114886544
 40
0.9087435876
 40
0.9547877705
 40
1.0
 40
1.0
 40
1.0
 40
1.0
 10
36.724188819
 20
46.8348427571
 30
0.0
 10
36.6554592519
 20
46.9511942111
 30
0.0
 10
36.5070002856
 20
47.1734666527
 30
0.0
 10
36.2533271708
 20
47.4726963631
 30
0.0
 10
35.9789393521
 20
47.7252860167
 30
0.0
 10
35.6936681974
 20
47.9220509033
 30
0.0
 10
35.4071998093
 20
48.055767171
 30
0.0
 10
35.1290341489
 20
48.1210831504
 30
0.0
 10
34.9071773995
 20
48.1140732288
 30
0.0
 10
34.7486832206
 20
48.0696974019
 30
0.0
 10
34.6764297901
 20
48.0357948598
 30
0.0
 10
34.6423732613
 20
48.0161404558
 30
0.0
  0
SPLINE
  5
3D1
100
AcDbEntity
  8
_1
100
AcDbSpline
 62
7
  6
CONTINUOUS
 70
0
 71
3
 72
9
 73
5
 74
0
 42
0.0000001
 43
0.0000001
 44
0.0000000001
 40
0.0
 40
0.0
 40
0.0
 40
0.0
 40
0.2451008923
 40
1.0
 40
1.0
 40
1.0
 40
1.0
 10
33.9952983638
 20
47.2589215467
 30
0.0
 10
33.9952983638
 20
47.2409343646
 30
0.0
 10
33.9961458193
 20
47.1675489629
 30
0.0
 10
34.0002947408
 20
47.0942098588
 30
0.0
 10
34.0050893973
 20
47.0390180631
 30
0.0
  0
SPLINE
  5
3D2
100
AcDbEntity
  8
_1
100
AcDbSpline
 62
7
  6
CONTINUOUS
 70
0
 71
3
 72
11
 73
7
 74
0
 42
0.0000001
 43
0.0000001
 44
0.0000000001
 40
0.0
 40
0.0
 40
0.0
 40
0.0
 40
0.2332123386
 40
0.4813809472
 40
0.7391065762
 40
1.0
 40
1.0
 40
1.0
 40
1.0
 10
34.0050893973
 20
47.0390180631
 30
0.0
 10
34.0176606303
 20
46.8943092766
 30
0.0
 10
34.067153934
 20
46.5973902318
 30
0.0
 10
34.2015811891
 20
46.1559795526
 30
0.0
 10
34.3937796785
 20
45.7176655952
 30
0.0
 10
34.5562501914
 20
45.4375589229
 30
0.0
 10
34.6455841272
 20
45.3018240063
 30
0.0
  0
SPLINE
  5
3D3
100
AcDbEntity
  8
_1
100
AcDbSpline
 62
7
  6
CONTINUOUS
 70
0
 71
3
 72
15
 73
11
 74
0
 42
0.0000001
 43
0.0000001
 44
0.0000000001
 40
0.0
 40
0.0
 40
0.0
 40
0.0
 40
0.4120063942
 40
0.5786579397
 40
0.717624486
 40
0.8284911152
 40
0.9111990167
 40
0.942252752
 40
0.9668417327
 40
1.0
 40
1.0
 40
1.0
 40
1.0
 10
17.7770952945
 20
32.9996529889
 30
0.0
 10
17.8138601561
 20
33.0141276418
 30
0.0
 10
17.8657677925
 20
33.0338134811
 30
0.0
 10
17.9310406004
 20
33.0556542768
 30
0.0
 10
17.9693446061
 20
33.067008302
 30
0.0
 10
18.0003791137
 20
33.074458433
 30
0.0
 10
18.0216728658
 20
33.0778566544
 30
0.0
 10
18.0350337423
 20
33.0781372329
 30
0.0
 10
18.0433628952
 20
33.0773038404
 30
0.0
 10
18.049151542
 20
33.0749268036
 30
0.0
 10
18.0508709084
 20
33.0722518224
 30
0.0
  0
SPLINE
  5
3D4
100
AcDbEntity
  8
_1
100
AcDbSpline
 62
7
  6
CONTINUOUS
 70
0
 71
3
 72
10
 73
6
 74
0
 42
0.0000001
 43
0.0000001
 44
0.0000000001
 40
0.0
 40
0.0
 40
0.0
 40
0.0
 40
0.5589064262
 40
0.7973349083
 40
1.0
 40
1.0
 40
1.0
 40
1.0
 10
17.0778980181
 20
32.6854174807
 30
0.0
 10
17.2064390461
 20
32.747708146
 30
0.0
 10
17.3907980773
 20
32.8346099176
 30
0.0
 10
17.6247349009
 20
32.9375364711
 30
0.0
 10
17.7289012038
 20
32.9806785471
 30
0.0
 10
17.7770952945
 20
32.9996529889
 30
0.0
  0
SPLINE
  5
3D5
100
AcDbEntity
  8
_1
100
AcDbSpline
 62
7
  6
CONTINUOUS
 70
0
 71
3
 72
9
 73
5
 74
0
 42
0.0000001
 43
0.0000001
 44
0.0000000001
 40
0.0
 40
0.0
 40
0.0
 40
0.0
 40
0.5408785997
 40
1.0
 40
1.0
 40
1.0
 40
1.0
 10
35.4781737622
 20
39.9297696021
 30
0.0
 10
35.5826990063
 20
39.9804222776
 30
0.0
 10
35.776819985
 20
40.0722847412
 30
0.0
 10
35.9730887891
 20
40.1595322017
 30
0.0
 10
36.0639802878
 20
40.197737445
 30
0.0
  0
SPLINE
  5
3D6
100
AcDbEntity
  8
_1
100
AcDbSpline
 62
7
  6
CONTINUOUS
 70
0
 71
3
 72
9
 73
5
 74
0
 42
0.0000001
 43
0.0000001
 44
0.0000000001
 40
0.0
 40
0.0
 40
0.0
 40
0.0
 40
0.5111128432
 40
1.0
 40
1.0
 40
1.0
 40
1.0
 10
17.7770952922
 20
50.8671689361
 30
0.0
 10
17.862852774
 20
50.7343834831
 30
0.0
 10
17.9978811623
 20
50.451657708
 30
0.0
 10
18.0505956316
 20
50.141720771
 30
0.0
 10
18.0520302637
 20
49.9905306371
 30
0.0
  0
SPLINE
  5
3D7
100
AcDbEntity
  8
_1
100
AcDbSpline
 62
7
  6
CONTINUOUS
 70
0
 71
3
 72
9
 73
5
 74
0
 42
0.0000001
 43
0.0000001
 44
0.0000000001
 40
0.0
 40
0.0
 40
0.0
 40
0.0
 40
0.4946624139
 40
1.0
 40
1.0
 40
1.0
 40
1.0
 10
17.0778980184
 20
51.4988607428
 30
0.0
 10
17.2183136581
 20
51.4291742402
 30
0.0
 10
17.482703342
 20
51.2464651873
 30
0.0
 10
17.6902151517
 20
51.0016926952
 30
0.0
 10
17.7770952922
 20
50.8671689361
 30
0.0
  0
SPLINE
  5
3D8
100
AcDbEntity
  8
_1
100
AcDbSpline
 62
7
  6
CONTINUOUS
 70
0
 71
3
 72
9
 73
5
 74
0
 42
0.0000001
 43
0.0000001
 44
0.0000000001
 40
0.0
 40
0.0
 40
0.0
 40
0.0
 40
0.2451008923
 40
1.0
 40
1.0
 40
1.0
 40
1.0
 10
16.1407778038
 20
57.5670005983
 30
0.0
 10
16.1407778038
 20
57.5490134162
 30
0.0
 10
16.1416252593
 20
57.4756280145
 30
0.0
 10
16.1457741808
 20
57.4022889105
 30
0.0
 10
16.1505688373
 20
57.3470971147
 30
0.0
  0
SPLINE
  5
3D9
100
AcDbEntity
  8
_1
100
AcDbSpline
 62
7
  6
CONTINUOUS
 70
0
 71
3
 72
20
 73
16
 74
0
 42
0.0000001
 43
0.0000001
 44
0.0000000001
 40
0.0
 40
0.0
 40
0.0
 40
0.0
 40
0.1323721802
 40
0.2027947361
 40
0.2749775101
 40
0.4209275408
 40
0.5631173939
 40
0.6307442672
 40
0.6950591185
 40
0.7555347092
 40
0.8118490265
 40
0.863952335
 40
0.9121435588
 40
0.9571186372
 40
1.0
 40
1.0
 40
1.0
 40
1.0
 10
16.1505688373
 20
57.3470971147
 30
0.0
 10
16.1684579268
 20
57.1411739239
 30
0.0
 10
16.2310396326
 20
56.8281252235
 30
0.0
 10
16.368296602
 20
56.4210333391
 30
0.0
 10
16.5471963937
 20
56.0069471208
 30
0.0
 10
16.8313202405
 20
55.5185531852
 30
0.0
 10
17.1840780601
 20
55.0858079444
 30
0.0
 10
17.496665123
 20
54.7925710498
 30
0.0
 10
17.7350433555
 20
54.6088056505
 30
0.0
 10
17.9767970149
 20
54.4608971183
 30
0.0
 10
18.2176789514
 20
54.3516421852
 30
0.0
 10
18.4534637748
 20
54.2832174611
 30
0.0
 10
18.68008849
 20
54.2571940486
 30
0.0
 10
18.8932835316
 20
54.2748074113
 30
0.0
 10
19.0254952417
 20
54.3165559888
 30
0.0
 10
19.0864503343
 20
54.3442688113
 30
0.0
  0
SPLINE
  5
3DA
100
AcDbEntity
  8
_1
100
AcDbSpline
 62
7
  6
CONTINUOUS
 70
0
 71
3
 72
13
 73
9
 74
0
 42
0.0000001
 43
0.0000001
 44
0.0000000001
 40
0.0
 40
0.0
 40
0.0
 40
0.0
 40
0.2893471302
 40
0.5483225086
 40
0.6677485678
 40
0.7817630691
 40
0.8919046644
 40
1.0
 40
1.0
 40
1.0
 40
1.0
 10
19.3934825395
 20
55.6890931275
 30
0.0
 10
19.3934825395
 20
55.5826739656
 30
0.0
 10
19.3774275491
 20
55.3804024015
 30
0.0
 10
19.3071675421
 20
55.1424516735
 30
0.0
 10
19.2218741362
 20
54.9820582356
 30
0.0
 10
19.1466127015
 20
54.8799264033
 30
0.0
 10
19.0591751284
 20
54.7938222844
 30
0.0
 10
18.992974858
 20
54.7476254711
 30
0.0
 10
18.9585413244
 20
54.7277532
 30
0.0
  0
SPLINE
  5
3DB
100
AcDbEntity
  8
_1
100
AcDbSpline
 62
7
  6
CONTINUOUS
 70
0
 71
3
 72
22
 73
18
 74
0
 42
0.0000001
 43
0.0000001
 44
0.0000000001
 40
0.0
 40
0.0
 40
0.0
 40
0.0
 40
0.0623735597
 40
0.1287720567
 40
0.1983816443
 40
0.270374429
 40
0.4173930977
 40
0.4904358786
 40
0.5617444207
 40
0.6303606611
 40
0.6954682362
 40
0.7564327129
 40
0.8128854663
 40
0.8648031021
 40
0.9125911121
 40
0.9571795893
 40
1.0
 40
1.0
 40
1.0
 40
1.0
 10
19.3227721558
 20
55.6482687121
 30
0.0
 10
19.3227721558
 20
55.7353500495
 30
0.0
 10
19.3109222247
 20
55.9152488853
 30
0.0
 10
19.2624247697
 20
56.1883967031
 30
0.0
 10
19.1834290342
 20
56.4683324117
 30
0.0
 10
19.038888665
 20
56.8448955874
 30
0.0
 10
18.8437041672
 20
57.2056024622
 30
0.0
 10
18.6062442776
 20
57.536343369
 30
0.0
 10
18.4120151284
 20
57.762036167
 30
0.0
 10
18.2054961057
 20
57.9608960897
 30
0.0
 10
17.9910700924
 20
58.1287969905
 30
0.0
 10
17.7731385891
 20
58.2621094217
 30
0.0
 10
17.5561578649
 20
58.3579961204
 30
0.0
 10
17.3444447178
 20
58.4142781426
 30
0.0
 10
17.1421436495
 20
58.429126953
 30
0.0
 10
16.9537483845
 20
58.4015584816
 30
0.0
 10
16.8396313814
 20
58.3541015633
 30
0.0
 10
16.7878527013
 20
58.3242195075
 30
0.0
  0
SPLINE
  5
3DC
100
AcDbEntity
  8
_1
100
AcDbSpline
 62
7
  6
CONTINUOUS
 70
0
 71
3
 72
12
 73
8
 74
0
 42
0.0000001
 43
0.0000001
 44
0.0000000001
 40
0.0
 40
0.0
 40
0.0
 40
0.0
 40
0.2854808833
 40
0.5474558444
 40
0.7830936884
 40
0.8930330364
 40
1.0
 40
1.0
 40
1.0
 40
1.0
 10
19.5861504251
 20
59.9395496027
 30
0.0
 10
19.6081518812
 20
59.9885431123
 30
0.0
 10
19.648422378
 20
60.0834336054
 30
0.0
 10
19.6932367377
 20
60.2240822881
 30
0.0
 10
19.7087473095
 20
60.3384813027
 30
0.0
 10
19.7020913671
 20
60.4236622916
 30
0.0
 10
19.6923972721
 20
60.4635314097
 30
0.0
 10
19.6859790756
 20
60.4826039053
 30
0.0
  0
SPLINE
  5
3DD
100
AcDbEntity
  8
_1
100
AcDbSpline
 62
7
  6
CONTINUOUS
 70
0
 71
3
 72
11
 73
7
 74
0
 42
0.0000001
 43
0.0000001
 44
0.0000000001
 40
0.0
 40
0.0
 40
0.0
 40
0.0
 40
0.2656665768
 40
0.5222997762
 40
0.7676154198
 40
1.0
 40
1.0
 40
1.0
 40
1.0
 10
10.4641794727
 20
47.5304542982
 30
0.0
 10
10.4070185763
 20
47.4095470933
 30
0.0
 10
10.3056123998
 20
47.1664449308
 30
0.0
 10
10.1927503839
 20
46.7961640464
 30
0.0
 10
10.1235864299
 20
46.4322729403
 30
0.0
 10
10.1069680527
 20
46.1916020311
 30
0.0
 10
10.1069680527
 20
46.0746181481
 30
0.0
  0
SPLINE
  5
3DE
100
AcDbEntity
  8
_1
100
AcDbSpline
 62
7
  6
CONTINUOUS
 70
0
 71
3
 72
22
 73
18
 74
0
 42
0.0000001
 43
0.0000001
 44
0.0000000001
 40
0.0
 40
0.0
 40
0.0
 40
0.0
 40
0.0428184346
 40
0.0874059079
 40
0.1351931464
 40
0.1871101129
 40
0.2435623744
 40
0.3045253719
 40
0.3696314607
 40
0.4382460521
 40
0.5095534218
 40
0.5825965786
 40
0.7296195234
 40
0.8016144777
 40
0.8712266837
 40
0.9376267105
 40
1.0
 40
1.0
 40
1.0
 40
1.0
 10
16.858562909
 20
58.365044224
 30
0.0
 10
16.9103390138
 20
58.3949252348
 30
0.0
 10
17.024450553
 20
58.4423844239
 30
0.0
 10
17.2128412216
 20
58.4699507981
 30
0.0
 10
17.4151385
 20
58.4551044861
 30
0.0
 10
17.6268509887
 20
58.3988293804
 30
0.0
 10
17.8438275672
 20
58.3029422563
 30
0.0
 10
18.0617584118
 20
58.1696384411
 30
0.0
 10
18.2761807602
 20
58.0017427834
 30
0.0
 10
18.4826959397
 20
57.8028878526
 30
0.0
 10
18.6769291916
 20
57.5772029852
 30
0.0
 10
18.914391827
 20
57.2464578751
 30
0.0
 10
19.1095868554
 20
56.8857459987
 30
0.0
 10
19.2541341465
 20
56.5091717479
 30
0.0
 10
19.3331338182
 20
56.2292279073
 30
0.0
 10
19.3816319797
 20
55.9560746636
 30
0.0
 10
19.3934825395
 20
55.7761740966
 30
0.0
 10
19.3934825395
 20
55.6890931275
 30
0.0
  0
SPLINE
  5
3DF
100
AcDbEntity
  8
_1
100
AcDbSpline
 62
7
  6
CONTINUOUS
 70
0
 71
3
 72
11
 73
7
 74
0
 42
0.0000001
 43
0.0000001
 44
0.0000000001
 40
0.0
 40
0.0
 40
0.0
 40
0.0
 40
0.2323845802
 40
0.4777002238
 40
0.7343334232
 40
1.0
 40
1.0
 40
1.0
 40
1.0
 10
12.7073950809
 20
52.9755822407
 30
0.0
 10
12.7073950809
 20
52.8585983577
 30
0.0
 10
12.6907767037
 20
52.6179274486
 30
0.0
 10
12.6216127496
 20
52.2540363424
 30
0.0
 10
12.5087507338
 20
51.883755458
 30
0.0
 10
12.4073445573
 20
51.6406532955
 30
0.0
 10
12.3501836609
 20
51.5197460906
 30
0.0
  0
ELLIPSE
  5
3E0
100
AcDbEntity
  8
_1
100
AcDbEllipse
 62
7
  6
CONTINUOUS
 10
23.5326962565
 20
23.0734650744
 30
0.0
 11
-1.1313804478
 21
1.9595862528
 31
0.0
 40
0.5773470039
 41
1.5707920067
 42
1.678047343
  0
ELLIPSE
  5
3E1
100
AcDbEntity
  8
_1
100
AcDbEllipse
 62
7
  6
CONTINUOUS
 10
28.8157202159
 20
17.5628487796
 30
0.0
 11
-0.2448742125
 21
1.4768194446
 31
0.0
 40
0.4491786057
 41
5.3042343839
 42
6.5548815031
  0
ELLIPSE
  5
3E2
100
AcDbEntity
  8
_1
100
AcDbEllipse
 62
7
  6
CONTINUOUS
 10
18.4961481855
 20
59.9534308816
 30
0.0
 11
1.1687463149
 21
0.5801114531
 31
0.0
 40
0.555575298
 41
-0.0759458358
 42
0.7832341984
  0
ELLIPSE
  5
3E3
100
AcDbEntity
  8
_1
100
AcDbEllipse
 62
7
  6
CONTINUOUS
 10
24.71448381
 20
19.9306451558
 30
0.0
 11
-0.2448742125
 21
1.4768194446
 31
0.0
 40
0.4491786057
 41
5.3042343839
 42
6.5548815031
  0
ELLIPSE
  5
3E4
100
AcDbEntity
  8
_1
100
AcDbEllipse
 62
7
  6
CONTINUOUS
 10
18.4565627425
 20
59.8652959215
 30
0.0
 11
-0.2448742125
 21
1.4768194446
 31
0.0
 40
0.4491786057
 41
-4.2478931262
 42
-2.7425469083
  0
ELLIPSE
  5
3E5
100
AcDbEntity
  8
_1
100
AcDbEllipse
 62
7
  6
CONTINUOUS
 10
34.9364492952
 20
50.461833339
 30
0.0
 11
1.1687463149
 21
0.5801114531
 31
0.0
 40
0.555575298
 41
-0.0759458358
 42
0.7832341984
  0
ELLIPSE
  5
3E6
100
AcDbEntity
  8
_1
100
AcDbEllipse
 62
7
  6
CONTINUOUS
 10
34.8968638522
 20
50.3736983789
 30
0.0
 11
-0.2448742125
 21
1.4768194446
 31
0.0
 40
0.4491786057
 41
-4.2478931262
 42
-2.7425469083
  0
ENDSEC
  0
SECTION
  2
OBJECTS
  0
DICTIONARY
  5
C
100
AcDbDictionary
280
0
281
1
  3
ACAD_GROUP
350
D
  3
ACAD_MLINESTYLE
350
17
  3
ACAD_LAYOUT
350
1A
  3
ACAD_PLOTSETTINGS
350
19
  3
ACAD_PLOTSTYLENAME
350
E
  0
DICTIONARY
  5
D
102
{ACAD_REACTORS
330
C
102
}
100
AcDbDictionary
280
0
281
1
  0
ACDBDICTIONARYWDFLT
  5
E
102
{ACAD_REACTORS
330
C
102
}
100
AcDbDictionary
281
1
  3
Normal
350
F
100
AcDbDictionaryWithDefault
340
F
  0
DICTIONARY
  5
17
102
{ACAD_REACTORS
330
C
102
}
100
AcDbDictionary
280
0
281
1
  3
Standard
350
18
  0
DICTIONARY
  5
19
102
{ACAD_REACTORS
330
C
102
}
100
AcDbDictionary
281
1
  0
DICTIONARY
  5
1A
102
{ACAD_REACTORS
330
C
102
}
100
AcDbDictionary
281
1
  3
Model
350
3E7
  3
Layout1
350
3E8
  0
ACDBPLACEHOLDER
  5
F
102
{ACAD_REACTORS
330
E
102
}
  0
MLINESTYLE
  5
18
102
{ACAD_REACTORS
330
17
102
}
100
AcDbMlineStyle
  2
STANDARD
 70
0
  3

 62
256
 51
90.0
 52
90.0
 71
2
 49
0.5
 62
256
  6
BYLAYER
 49
-0.5
 62
256
  6
BYLAYER
  0
LAYOUT
  5
3E7
102
{ACAD_REACTORS
330
1A
102
}
100
AcDbPlotSettings
  1

  2
none_device
  4

  6

 40
0.0
 41
0.0
 42
0.0
 43
0.0
 44
210.0
 45
297.0
 46
0.0
 47
0.0
 48
0.0
 49
0.0
140
0.0
141
0.0
142
1.0
143
1.0
 70
1024
 72
1
 73
0
 74
0
  7

 75
0
147
1.0
148
0.0
149
0.0
100
AcDbLayout
  1
Model
 70
0
 71
0
 10
0.0
 20
0.0
 11
210.0
 21
297.0
 12
0.0
 22
0.0
 32
0.0
 14
0.0
 24
0.0
 34
0.0
 15
0.0
 25
0.0
 35
0.0
146
0.0
 13
0.0
 23
0.0
 33
0.0
 16
1.0
 26
0.0
 36
0.0
 17
0.0
 27
1.0
 37
0.0
 76
0
330
211
345
0
346
0
  0
LAYOUT
  5
3E8
102
{ACAD_REACTORS
330
1A
102
}
100
AcDbPlotSettings
  1

  2
none_device
  4

  6

 40
0.0
 41
0.0
 42
0.0
 43
0.0
 44
210.0
 45
297.0
 46
0.0
 47
0.0
 48
0.0
 49
0.0
140
0.0
141
0.0
142
1.0
143
1.0
 70
0
 72
1
 73
0
 74
0
  7

 75
0
147
1.0
148
0.0
149
0.0
100
AcDbLayout
  1
Layout1
 70
0
 71
1
 10
0.0
 20
0.0
 11
210.0
 21
297.0
 12
0.0
 22
0.0
 32
0.0
 14
0.0
 24
0.0
 34
0.0
 15
0.0
 25
0.0
 35
0.0
146
0.0
 13
0.0
 23
0.0
 33
0.0
 16
1.0
 26
0.0
 36
0.0
 17
0.0
 27
1.0
 37
0.0
 76
0
330
212
345
0
346
0
  0
ENDSEC
  0
EOF
