  0
SECTION
  2
HEADER
  9
$ACADVER
  1
AC1015
  9
$ACADMAINTVER
 70
    20
  9
$DWGCODEPAGE
  3
ANSI_1252
  9
$INSBASE
 10
0.0
 20
0.0
 30
0.0
  9
$EXTMIN
 10
2.552937
 20
3.703112
 30
0.0
  9
$EXTMAX
 10
5.913424
 20
4.423022
 30
0.0
  9
$LIMMIN
 10
-0.5
 20
-0.5
  9
$LIMMAX
 10
5.0
 20
5.0
  9
$ORTHOMODE
 70
     0
  9
$REGENMODE
 70
     1
  9
$FILLMODE
 70
     1
  9
$QTEXTMODE
 70
     0
  9
$MIRRTEXT
 70
     1
  9
$LTSCALE
 40
1.0
  9
$ATTMODE
 70
     1
  9
$TEXTSIZE
 40
0.0
  9
$TRACEWID
 40
0.05
  9
$TEXTSTYLE
  7
STANDARD
  9
$CLAYER
  8
0
  9
$CELTYPE
  6
CONTINUOUS
  9
$CECOLOR
 62
   256
  9
$CELTSCALE
 40
1.0
  9
$DISPSILH
 70
     0
  9
$DIMSCALE
 40
1.0
  9
$DIMASZ
 40
0.18
  9
$DIMEXO
 40
0.0625
  9
$DIMDLI
 40
0.38
  9
$DIMRND
 40
0.0
  9
$DIMDLE
 40
0.0
  9
$DIMEXE
 40
0.18
  9
$DIMTP
 40
0.0
  9
$DIMTM
 40
0.0
  9
$DIMTXT
 40
0.18
  9
$DIMCEN
 40
0.09
  9
$DIMTSZ
 40
0.0
  9
$DIMTOL
 70
     0
  9
$DIMLIM
 70
     0
  9
$DIMTIH
 70
     1
  9
$DIMTOH
 70
     1
  9
$DIMSE1
 70
     0
  9
$DIMSE2
 70
     0
  9
$DIMTAD
 70
     0
  9
$DIMZIN
 70
     0
  9
$DIMBLK
  1

  9
$DIMASO
 70
     1
  9
$DIMSHO
 70
     1
  9
$DIMPOST
  1

  9
$DIMAPOST
  1

  9
$DIMALT
 70
     0
  9
$DIMALTD
 70
     2
  9
$DIMALTF
 40
25.4
  9
$DIMLFAC
 40
1.0
  9
$DIMTOFL
 70
     0
  9
$DIMTVP
 40
0.0
  9
$DIMTIX
 70
     0
  9
$DIMSOXD
 70
     0
  9
$DIMSAH
 70
     0
  9
$DIMBLK1
  1

  9
$DIMBLK2
  1

  9
$DIMSTYLE
  2
STANDARD
  9
$DIMCLRD
 70
     0
  9
$DIMCLRE
 70
     0
  9
$DIMCLRT
 70
     0
  9
$DIMTFAC
 40
1.0
  9
$DIMGAP
 40
0.09
  9
$DIMJUST
 70
     0
  9
$DIMSD1
 70
     0
  9
$DIMSD2
 70
     0
  9
$DIMTOLJ
 70
     1
  9
$DIMTZIN
 70
     0
  9
$DIMALTZ
 70
     0
  9
$DIMALTTZ
 70
     0
  9
$DIMUPT
 70
     0
  9
$DIMDEC
 70
     4
  9
$DIMTDEC
 70
     4
  9
$DIMALTU
 70
     2
  9
$DIMALTTD
 70
     2
  9
$DIMTXSTY
  7
STANDARD
  9
$DIMAUNIT
 70
     0
  9
$DIMADEC
 70
     0
  9
$DIMALTRND
 40
0.0
  9
$DIMAZIN
 70
     0
  9
$DIMDSEP
 70
    46
  9
$DIMATFIT
 70
     3
  9
$DIMFRAC
 70
     0
  9
$DIMLDRBLK
  1

  9
$DIMLUNIT
 70
     2
  9
$DIMLWD
 70
    -2
  9
$DIMLWE
 70
    -2
  9
$DIMTMOVE
 70
     0
  9
$LUNITS
 70
     2
  9
$LUPREC
 70
     4
  9
$SKETCHINC
 40
0.1
  9
$FILLETRAD
 40
0.0
  9
$AUNITS
 70
     0
  9
$AUPREC
 70
     0
  9
$MENU
  1
acad
  9
$ELEVATION
 40
0.0
  9
$PELEVATION
 40
0.0
  9
$THICKNESS
 40
0.0
  9
$LIMCHECK
 70
     0
  9
$CHAMFERA
 40
0.0
  9
$CHAMFERB
 40
0.0
  9
$CHAMFERC
 40
0.0
  9
$CHAMFERD
 40
0.0
  9
$SKPOLY
 70
     0
  9
$TDCREATE
 40
2311911.044107917
  9
$TDUCREATE
 40
2311911.294107917
  9
$TDUPDATE
 40
2454873.464429271
  9
$TDUUPDATE
 40
2454873.714429271
  9
$TDINDWG
 40
0.0004278472
  9
$TDUSRTIMER
 40
0.0004276736
  9
$USRTIMER
 70
     1
  9
$ANGBASE
 50
0.0
  9
$ANGDIR
 70
     0
  9
$PDMODE
 70
     0
  9
$PDSIZE
 40
0.0
  9
$PLINEWID
 40
0.0
  9
$SPLFRAME
 70
     0
  9
$SPLINETYPE
 70
     6
  9
$SPLINESEGS
 70
     8
  9
$HANDSEED
  5
41D
  9
$SURFTAB1
 70
     6
  9
$SURFTAB2
 70
     6
  9
$SURFTYPE
 70
     6
  9
$SURFU
 70
     6
  9
$SURFV
 70
     6
  9
$UCSBASE
  2

  9
$UCSNAME
  2

  9
$UCSORG
 10
0.0
 20
0.0
 30
0.0
  9
$UCSXDIR
 10
1.0
 20
0.0
 30
0.0
  9
$UCSYDIR
 10
0.0
 20
1.0
 30
0.0
  9
$UCSORTHOREF
  2

  9
$UCSORTHOVIEW
 70
     1
  9
$UCSORGTOP
 10
0.0
 20
0.0
 30
0.0
  9
$UCSORGBOTTOM
 10
0.0
 20
0.0
 30
0.0
  9
$UCSORGLEFT
 10
0.0
 20
0.0
 30
0.0
  9
$UCSORGRIGHT
 10
0.0
 20
0.0
 30
0.0
  9
$UCSORGFRONT
 10
0.0
 20
0.0
 30
0.0
  9
$UCSORGBACK
 10
0.0
 20
0.0
 30
0.0
  9
$PUCSBASE
  2

  9
$PUCSNAME
  2

  9
$PUCSORG
 10
0.0
 20
0.0
 30
0.0
  9
$PUCSXDIR
 10
1.0
 20
0.0
 30
0.0
  9
$PUCSYDIR
 10
0.0
 20
1.0
 30
0.0
  9
$PUCSORTHOREF
  2

  9
$PUCSORTHOVIEW
 70
     0
  9
$PUCSORGTOP
 10
0.0
 20
0.0
 30
0.0
  9
$PUCSORGBOTTOM
 10
0.0
 20
0.0
 30
0.0
  9
$PUCSORGLEFT
 10
0.0
 20
0.0
 30
0.0
  9
$PUCSORGRIGHT
 10
0.0
 20
0.0
 30
0.0
  9
$PUCSORGFRONT
 10
0.0
 20
0.0
 30
0.0
  9
$PUCSORGBACK
 10
0.0
 20
0.0
 30
0.0
  9
$USERI1
 70
     0
  9
$USERI2
 70
     0
  9
$USERI3
 70
     0
  9
$USERI4
 70
     0
  9
$USERI5
 70
     0
  9
$USERR1
 40
0.0
  9
$USERR2
 40
0.0
  9
$USERR3
 40
0.0
  9
$USERR4
 40
0.0
  9
$USERR5
 40
0.0
  9
$WORLDVIEW
 70
     1
  9
$SHADEDGE
 70
     3
  9
$SHADEDIF
 70
    70
  9
$TILEMODE
 70
     1
  9
$MAXACTVP
 70
    64
  9
$PINSBASE
 10
0.0
 20
0.0
 30
0.0
  9
$PLIMCHECK
 70
     0
  9
$PEXTMIN
 10
1.000000000000000E+20
 20
1.000000000000000E+20
 30
1.000000000000000E+20
  9
$PEXTMAX
 10
-1.000000000000000E+20
 20
-1.000000000000000E+20
 30
-1.000000000000000E+20
  9
$PLIMMIN
 10
-0.2500002402958907
 20
-0.2499999962453767
  9
$PLIMMAX
 10
10.74999951940822
 20
8.249999763458733
  9
$UNITMODE
 70
     0
  9
$VISRETAIN
 70
     0
  9
$PLINEGEN
 70
     1
  9
$PSLTSCALE
 70
     0
  9
$TREEDEPTH
 70
  3020
  9
$CMLSTYLE
  2
STANDARD
  9
$CMLJUST
 70
     0
  9
$CMLSCALE
 40
1.0
  9
$PROXYGRAPHICS
 70
     0
  9
$MEASUREMENT
 70
     0
  9
$CELWEIGHT
370
    -1
  9
$ENDCAPS
280
     0
  9
$JOINSTYLE
280
     0
  9
$LWDISPLAY
290
     0
  9
$INSUNITS
 70
     0
  9
$HYPERLINKBASE
  1

  9
$STYLESHEET
  1

  9
$XEDIT
290
     1
  9
$CEPSNTYPE
380
     0
  9
$PSTYLEMODE
290
     1
  9
$FINGERPRINTGUID
  2
{E9D4DC49-538C-41BC-B26B-0B5D3FF42238}
  9
$VERSIONGUID
  2
{95C6497D-6CC2-43EE-8DCB-DE410EF5594C}
  9
$EXTNAMES
290
     1
  9
$PSVPSCALE
 40
0.0
  9
$OLESTARTUP
290
     0
  0
ENDSEC
  0
SECTION
  2
CLASSES
  0
CLASS
  1
IMAGE
  2
AcDbRasterImage
  3
ISM
 90
    34943
280
     0
281
     1
  0
CLASS
  1
DICTIONARYVAR
  2
AcDbDictionaryVar
  3
ObjectDBX Classes
 90
        0
280
     0
281
     0
  0
CLASS
  1
RASTERVARIABLES
  2
AcDbRasterVariables
  3
ISM
 90
    32768
280
     0
281
     0
  0
CLASS
  1
IMAGEDEF
  2
AcDbRasterImageDef
  3
ISM
 90
    32768
280
     0
281
     0
  0
CLASS
  1
IMAGEDEF_REACTOR
  2
AcDbRasterImageDefReactor
  3
ISM
 90
    32769
280
     0
281
     0
  0
CLASS
  1
IDBUFFER
  2
AcDbIdBuffer
  3
ObjectDBX Classes
 90
    32768
280
     0
281
     0
  0
CLASS
  1
SPATIAL_FILTER
  2
AcDbSpatialFilter
  3
ObjectDBX Classes
 90
    32768
280
     0
281
     0
  0
CLASS
  1
SORTENTSTABLE
  2
AcDbSortentsTable
  3
ObjectDBX Classes
 90
    32768
280
     0
281
     0
  0
CLASS
  1
LAYER_INDEX
  2
AcDbLayerIndex
  3
ObjectDBX Classes
 90
    32768
280
     0
281
     0
  0
CLASS
  1
SPATIAL_INDEX
  2
AcDbSpatialIndex
  3
ObjectDBX Classes
 90
    32768
280
     0
281
     0
  0
CLASS
  1
OBJECT_PTR
  2
CAseDLPNTableRecord
  3
ASE-LPNTableRecord
 90
    32769
280
     0
281
     0
  0
CLASS
  1
LAYOUT
  2
AcDbLayout
  3
ObjectDBX Classes
 90
        0
280
     0
281
     0
  0
CLASS
  1
PLOTSETTINGS
  2
AcDbPlotSettings
  3
ObjectDBX Classes
 90
    32768
280
     0
281
     0
  0
CLASS
  1
ACDBDICTIONARYWDFLT
  2
AcDbDictionaryWithDefault
  3
ObjectDBX Classes
 90
        0
280
     0
281
     0
  0
CLASS
  1
ACDBPLACEHOLDER
  2
AcDbPlaceHolder
  3
ObjectDBX Classes
 90
        0
280
     0
281
     0
  0
CLASS
  1
VBA_PROJECT
  2
AcDbVbaProject
  3
acad
 90
    32768
280
     0
281
     0
  0
CLASS
  1
WIPEOUT
  2
AcDbWipeout
  3
"WipeOut|Product Desc: Object Enabler for WipeOut entity                        |Company: Autodesk, Inc.                        |WEB Address: www.autodesk.com"
 90
    34943
280
     0
281
     1
  0
CLASS
  1
WIPEOUTVARIABLES
  2
AcDbWipeoutVariables
  3
"WipeOut|Product Desc:     WipeOut Dbx Application|Company:          Autodesk, Inc.|WEB Address:      www.autodesk.com"
 90
    32768
280
     0
281
     0
  0
CLASS
  1
RTEXT
  2
RText
  3
RText|AutoCAD Express Tool|expresstools@autodesk.com
 90
    35839
280
     0
281
     1
  0
CLASS
  1
ARCALIGNEDTEXT
  2
AcDbArcAlignedText
  3
ATEXT|AutoCAD Express Tool|expresstools@autodesk.com
 90
    32768
280
     0
281
     1
  0
CLASS
  1
MATERIAL
  2
AcDbMaterial
  3
ObjectDBX Classes
 90
     1024
280
     0
281
     0
  0
CLASS
  1
VISUALSTYLE
  2
AcDbVisualStyle
  3
ObjectDBX Classes
 90
     4095
280
     0
281
     0
  0
CLASS
  1
TABLESTYLE
  2
AcDbTableStyle
  3
ObjectDBX Classes
 90
     4095
280
     0
281
     0
  0
ENDSEC
  0
SECTION
  2
TABLES
  0
TABLE
  2
VPORT
  5
7
330
0
100
AcDbSymbolTable
 70
    16
  0
VPORT
  5
38F
330
7
100
AcDbSymbolTableRecord
100
AcDbViewportTableRecord
  2
*ACTIVE
 70
     0
 10
0.0
 20
0.0
 11
1.0
 21
1.0
 12
4.604817130723823
 22
3.878065923690801
 13
0.0
 23
0.0
 14
1.0
 24
1.0
 15
0.0
 25
0.0
 16
0.0
 26
0.0
 36
1.0
 17
0.0
 27
0.0
 37
0.0
 40
3.50673684816267
 41
1.540302267002518
 42
50.0
 43
24.87319
 44
-24.87319
 50
0.0
 51
0.0
 71
    16
 72
   100
 73
     1
 74
     1
 75
     0
 76
     0
 77
     0
 78
     0
281
     0
 65
     1
110
0.0
120
0.0
130
0.0
111
1.0
121
0.0
131
0.0
112
0.0
122
1.0
132
0.0
 79
     0
146
0.0
  0
VPORT
  5
390
330
7
100
AcDbSymbolTableRecord
100
AcDbViewportTableRecord
  2
L1
 70
     0
 10
0.0
 20
0.0
 11
1.0
 21
1.0
 12
0.0
 22
0.0
 13
0.0
 23
0.0
 14
1.0
 24
1.0
 15
0.0
 25
0.0
 16
0.718873
 26
-0.5850489999999999
 36
0.375419
 17
0.0
 27
0.0
 37
0.0
 40
50.233404
 41
0.6885640000000001
 42
50.0
 43
24.87319
 44
-24.87319
 50
0.0
 51
0.0
 71
    16
 72
   100
 73
     1
 74
     1
 75
     0
 76
     0
 77
     0
 78
     0
281
     0
 65
     1
110
0.0
120
0.0
130
0.0
111
1.0
121
0.0
131
0.0
112
0.0
122
1.0
132
0.0
 79
     0
146
0.0
  0
VPORT
  5
391
330
7
100
AcDbSymbolTableRecord
100
AcDbViewportTableRecord
  2
L2
 70
     0
 10
0.0
 20
0.0
 11
0.5
 21
1.0
 12
0.0
 22
0.0
 13
0.0
 23
0.0
 14
1.0
 24
1.0
 15
0.0
 25
0.0
 16
0.0
 26
-1.0
 36
0.0
 17
0.0
 27
0.0
 37
0.0
 40
48.533053
 41
0.6885640000000001
 42
50.0
 43
24.933901
 44
-24.933901
 50
0.0
 51
0.0
 71
    16
 72
   100
 73
     1
 74
     1
 75
     0
 76
     0
 77
     0
 78
     0
281
     0
 65
     1
110
0.0
120
0.0
130
0.0
111
1.0
121
0.0
131
0.0
112
0.0
122
1.0
132
0.0
 79
     0
146
0.0
  0
VPORT
  5
392
330
7
100
AcDbSymbolTableRecord
100
AcDbViewportTableRecord
  2
L2
 70
     0
 10
0.5
 20
0.0
 11
1.0
 21
1.0
 12
0.0
 22
0.0
 13
0.0
 23
0.0
 14
1.0
 24
1.0
 15
0.0
 25
0.0
 16
1.0
 26
0.0
 36
0.0
 17
0.0
 27
0.0
 37
0.0
 40
48.533053
 41
0.6885640000000001
 42
50.0
 43
24.60003
 44
-24.60003
 50
0.0
 51
0.0
 71
    16
 72
   100
 73
     1
 74
     1
 75
     0
 76
     0
 77
     0
 78
     0
281
     0
 65
     1
110
0.0
120
0.0
130
0.0
111
1.0
121
0.0
131
0.0
112
0.0
122
1.0
132
0.0
 79
     0
146
0.0
  0
VPORT
  5
393
330
7
100
AcDbSymbolTableRecord
100
AcDbViewportTableRecord
  2
L3
 70
     0
 10
0.0
 20
0.5
 11
1.0
 21
1.0
 12
0.0
 22
0.0
 13
0.0
 23
0.0
 14
1.0
 24
1.0
 15
0.0
 25
0.0
 16
0.0
 26
0.0
 36
1.0
 17
0.0
 27
0.0
 37
0.0
 40
8.073942
 41
0.6885640000000001
 42
50.0
 43
24.266527
 44
-24.266527
 50
0.0
 51
0.0
 71
    16
 72
   100
 73
     1
 74
     1
 75
     0
 76
     0
 77
     0
 78
     0
281
     0
 65
     1
110
0.0
120
0.0
130
0.0
111
1.0
121
0.0
131
0.0
112
0.0
122
1.0
132
0.0
 79
     0
146
0.0
  0
VPORT
  5
394
330
7
100
AcDbSymbolTableRecord
100
AcDbViewportTableRecord
  2
L3
 70
     0
 10
0.0
 20
0.0
 11
1.0
 21
0.5
 12
0.0
 22
0.0
 13
0.0
 23
0.0
 14
1.0
 24
1.0
 15
0.0
 25
0.0
 16
0.0
 26
-1.0
 36
0.0
 17
0.0
 27
0.0
 37
0.0
 40
48.533053
 41
0.6885640000000001
 42
50.0
 43
24.933901
 44
-24.933901
 50
0.0
 51
0.0
 71
    16
 72
   100
 73
     1
 74
     1
 75
     0
 76
     0
 77
     0
 78
     0
281
     0
 65
     1
110
0.0
120
0.0
130
0.0
111
1.0
121
0.0
131
0.0
112
0.0
122
1.0
132
0.0
 79
     0
146
0.0
  0
VPORT
  5
395
330
7
100
AcDbSymbolTableRecord
100
AcDbViewportTableRecord
  2
L4
 70
     0
 10
0.0
 20
0.5
 11
0.5
 21
1.0
 12
0.0
 22
0.0
 13
0.0
 23
0.0
 14
1.0
 24
1.0
 15
0.0
 25
0.0
 16
0.0
 26
0.0
 36
1.0
 17
0.0
 27
0.0
 37
0.0
 40
8.073942
 41
0.6885640000000001
 42
50.0
 43
24.266527
 44
-24.266527
 50
0.0
 51
0.0
 71
    16
 72
   100
 73
     1
 74
     1
 75
     0
 76
     0
 77
     0
 78
     0
281
     0
 65
     1
110
0.0
120
0.0
130
0.0
111
1.0
121
0.0
131
0.0
112
0.0
122
1.0
132
0.0
 79
     0
146
0.0
  0
VPORT
  5
396
330
7
100
AcDbSymbolTableRecord
100
AcDbViewportTableRecord
  2
L4
 70
     0
 10
0.0
 20
0.0
 11
0.5
 21
0.5
 12
0.0
 22
0.0
 13
0.0
 23
0.0
 14
1.0
 24
1.0
 15
0.0
 25
0.0
 16
0.0
 26
-1.0
 36
0.0
 17
0.0
 27
0.0
 37
0.0
 40
48.533053
 41
0.6885640000000001
 42
50.0
 43
24.933901
 44
-24.933901
 50
0.0
 51
0.0
 71
    16
 72
   100
 73
     1
 74
     1
 75
     0
 76
     0
 77
     0
 78
     0
281
     0
 65
     1
110
0.0
120
0.0
130
0.0
111
1.0
121
0.0
131
0.0
112
0.0
122
1.0
132
0.0
 79
     0
146
0.0
  0
VPORT
  5
397
330
7
100
AcDbSymbolTableRecord
100
AcDbViewportTableRecord
  2
L4
 70
     0
 10
0.5
 20
0.0
 11
1.0
 21
0.5
 12
0.0
 22
0.0
 13
0.0
 23
0.0
 14
1.0
 24
1.0
 15
0.0
 25
0.0
 16
1.0
 26
0.0
 36
0.0
 17
0.0
 27
0.0
 37
0.0
 40
48.533053
 41
0.6885640000000001
 42
50.0
 43
24.60003
 44
-24.60003
 50
0.0
 51
0.0
 71
    16
 72
   100
 73
     1
 74
     1
 75
     0
 76
     0
 77
     0
 78
     0
281
     0
 65
     1
110
0.0
120
0.0
130
0.0
111
1.0
121
0.0
131
0.0
112
0.0
122
1.0
132
0.0
 79
     0
146
0.0
  0
VPORT
  5
398
330
7
100
AcDbSymbolTableRecord
100
AcDbViewportTableRecord
  2
L4
 70
     0
 10
0.5
 20
0.5
 11
1.0
 21
1.0
 12
0.0
 22
0.0
 13
0.0
 23
0.0
 14
1.0
 24
1.0
 15
0.0
 25
0.0
 16
0.5773500000000001
 26
-0.5773500000000001
 36
0.5773500000000001
 17
0.0
 27
0.0
 37
0.0
 40
47.601927
 41
0.6885640000000003
 42
50.0
 43
24.782748
 44
-24.782748
 50
0.0
 51
0.0
 71
    16
 72
   100
 73
     1
 74
     1
 75
     0
 76
     0
 77
     0
 78
     0
281
     0
 65
     1
110
0.0
120
0.0
130
0.0
111
1.0
121
0.0
131
0.0
112
0.0
122
1.0
132
0.0
 79
     0
146
0.0
  0
VPORT
  5
399
330
7
100
AcDbSymbolTableRecord
100
AcDbViewportTableRecord
  2
L6
 70
     0
 10
0.0
 20
0.5
 11
0.333333
 21
1.0
 12
0.0
 22
0.0
 13
0.0
 23
0.0
 14
1.0
 24
1.0
 15
0.0
 25
0.0
 16
0.718873
 26
-0.5850489999999999
 36
0.375419
 17
0.0
 27
0.0
 37
0.0
 40
50.233404
 41
0.6885640000000001
 42
50.0
 43
24.87319
 44
-24.87319
 50
0.0
 51
0.0
 71
    16
 72
   100
 73
     1
 74
     1
 75
     0
 76
     0
 77
     0
 78
     0
281
     0
 65
     1
110
0.0
120
0.0
130
0.0
111
1.0
121
0.0
131
0.0
112
0.0
122
1.0
132
0.0
 79
     0
146
0.0
  0
VPORT
  5
39A
330
7
100
AcDbSymbolTableRecord
100
AcDbViewportTableRecord
  2
L6
 70
     0
 10
0.0
 20
0.0
 11
0.333333
 21
0.5
 12
0.0
 22
0.0
 13
0.0
 23
0.0
 14
1.0
 24
1.0
 15
0.0
 25
0.0
 16
-1.0
 26
0.0
 36
0.0
 17
0.0
 27
0.0
 37
0.0
 40
48.533053
 41
0.6885640000000001
 42
50.0
 43
24.60003
 44
-24.60003
 50
0.0
 51
0.0
 71
    16
 72
   100
 73
     1
 74
     1
 75
     0
 76
     0
 77
     0
 78
     0
281
     0
 65
     1
110
0.0
120
0.0
130
0.0
111
1.0
121
0.0
131
0.0
112
0.0
122
1.0
132
0.0
 79
     0
146
0.0
  0
VPORT
  5
39B
330
7
100
AcDbSymbolTableRecord
100
AcDbViewportTableRecord
  2
L6
 70
     0
 10
0.333333
 20
0.5
 11
0.666667
 21
1.0
 12
0.0
 22
0.0
 13
0.0
 23
0.0
 14
1.0
 24
1.0
 15
0.0
 25
0.0
 16
0.0
 26
0.0
 36
1.0
 17
0.0
 27
0.0
 37
0.0
 40
8.073942
 41
0.6885640000000001
 42
50.0
 43
24.266527
 44
-24.266527
 50
0.0
 51
0.0
 71
    16
 72
   100
 73
     1
 74
     1
 75
     0
 76
     0
 77
     0
 78
     0
281
     0
 65
     1
110
0.0
120
0.0
130
0.0
111
1.0
121
0.0
131
0.0
112
0.0
122
1.0
132
0.0
 79
     0
146
0.0
  0
VPORT
  5
39C
330
7
100
AcDbSymbolTableRecord
100
AcDbViewportTableRecord
  2
L6
 70
     0
 10
0.333333
 20
0.0
 11
0.666667
 21
0.5
 12
0.0
 22
0.0
 13
0.0
 23
0.0
 14
1.0
 24
1.0
 15
0.0
 25
0.0
 16
0.0
 26
-1.0
 36
0.0
 17
0.0
 27
0.0
 37
0.0
 40
48.533053
 41
0.6885640000000001
 42
50.0
 43
24.933901
 44
-24.933901
 50
0.0
 51
0.0
 71
    16
 72
   100
 73
     1
 74
     1
 75
     0
 76
     0
 77
     0
 78
     0
281
     0
 65
     1
110
0.0
120
0.0
130
0.0
111
1.0
121
0.0
131
0.0
112
0.0
122
1.0
132
0.0
 79
     0
146
0.0
  0
VPORT
  5
39D
330
7
100
AcDbSymbolTableRecord
100
AcDbViewportTableRecord
  2
L6
 70
     0
 10
0.666667
 20
0.5
 11
1.0
 21
1.0
 12
0.0
 22
0.0
 13
0.0
 23
0.0
 14
1.0
 24
1.0
 15
0.0
 25
0.0
 16
0.5773500000000001
 26
-0.5773500000000001
 36
0.5773500000000001
 17
0.0
 27
0.0
 37
0.0
 40
47.601927
 41
0.6885640000000003
 42
50.0
 43
24.782748
 44
-24.782748
 50
0.0
 51
0.0
 71
    16
 72
   100
 73
     1
 74
     1
 75
     0
 76
     0
 77
     0
 78
     0
281
     0
 65
     1
110
0.0
120
0.0
130
0.0
111
1.0
121
0.0
131
0.0
112
0.0
122
1.0
132
0.0
 79
     0
146
0.0
  0
VPORT
  5
39E
330
7
100
AcDbSymbolTableRecord
100
AcDbViewportTableRecord
  2
L6
 70
     0
 10
0.666667
 20
0.0
 11
1.0
 21
0.5
 12
0.0
 22
0.0
 13
0.0
 23
0.0
 14
1.0
 24
1.0
 15
0.0
 25
0.0
 16
1.0
 26
0.0
 36
0.0
 17
0.0
 27
0.0
 37
0.0
 40
48.533053
 41
0.6885640000000001
 42
50.0
 43
24.60003
 44
-24.60003
 50
0.0
 51
0.0
 71
    16
 72
   100
 73
     1
 74
     1
 75
     0
 76
     0
 77
     0
 78
     0
281
     0
 65
     1
110
0.0
120
0.0
130
0.0
111
1.0
121
0.0
131
0.0
112
0.0
122
1.0
132
0.0
 79
     0
146
0.0
  0
ENDTAB
  0
TABLE
  2
LTYPE
  5
4
330
0
100
AcDbSymbolTable
 70
     7
  0
LTYPE
  5
11
330
4
100
AcDbSymbolTableRecord
100
AcDbLinetypeTableRecord
  2
BYBLOCK
 70
     0
  3

 72
    65
 73
     0
 40
0.0
  0
LTYPE
  5
12
330
4
100
AcDbSymbolTableRecord
100
AcDbLinetypeTableRecord
  2
BYLAYER
 70
     0
  3

 72
    65
 73
     0
 40
0.0
  0
LTYPE
  5
13
330
4
100
AcDbSymbolTableRecord
100
AcDbLinetypeTableRecord
  2
CONTINUOUS
 70
     0
  3
Solid line
 72
    65
 73
     0
 40
0.0
  0
LTYPE
  5
24
330
4
100
AcDbSymbolTableRecord
100
AcDbLinetypeTableRecord
  2
DASHED
 70
     0
  3
__ __ __ __ __ __ __ __ __
 72
    65
 73
     2
 40
25.72
 49
12.86
 74
     0
 49
-12.86
 74
     0
  0
LTYPE
  5
25
330
4
100
AcDbSymbolTableRecord
100
AcDbLinetypeTableRecord
  2
HIDDEN
 70
     0
  3
_ _ _ _ _ _ _ _ _ _ _ _ _ _ _
 72
    65
 73
     2
 40
0.5
 49
0.25
 74
     0
 49
-0.25
 74
     0
  0
LTYPE
  5
26
330
4
100
AcDbSymbolTableRecord
100
AcDbLinetypeTableRecord
  2
PHANTOM
 70
     0
  3
____ _ _ ____ _ _ _____ _ _ ____
 72
    65
 73
     6
 40
50.5
 49
18.0
 74
     0
 49
-6.5
 74
     0
 49
6.5
 74
     0
 49
-6.5
 74
     0
 49
6.5
 74
     0
 49
-6.5
 74
     0
  0
LTYPE
  5
27
330
4
100
AcDbSymbolTableRecord
100
AcDbLinetypeTableRecord
  2
CENTER
 70
     0
  3
____ _ ____ _ ____ _ ____
 72
    65
 73
     4
 40
47.5
 49
22.0
 74
     0
 49
-8.5
 74
     0
 49
8.5
 74
     0
 49
-8.5
 74
     0
  0
LTYPE
  5
28
330
4
100
AcDbSymbolTableRecord
100
AcDbLinetypeTableRecord
  2
DOT
 70
     0
  3
.........................
 72
    65
 73
     2
 40
10.0
 49
0.0
 74
     0
 49
-10.0
 74
     0
  0
LTYPE
  5
29
330
4
100
AcDbSymbolTableRecord
100
AcDbLinetypeTableRecord
  2
DASHDOT
 70
     0
  3
_._._._._._._._._._._._._._._._.
 72
    65
 73
     4
 40
70.0
 49
31.0
 74
     0
 49
-13.0
 74
     0
 49
13.0
 74
     0
 49
-13.0
 74
     0
  0
ENDTAB
  0
TABLE
  2
LAYER
  5
2
102
{ACAD_XDICTIONARY
360
3C9
102
}
330
0
100
AcDbSymbolTable
 70
     2
  0
LAYER
  5
14
330
2
100
AcDbSymbolTableRecord
100
AcDbLayerTableRecord
  2
0
 70
     0
 62
     7
  6
CONTINUOUS
370
    -3
390
3A2
  0
LAYER
  5
2B
330
2
100
AcDbSymbolTableRecord
100
AcDbLayerTableRecord
  2
1
 70
     0
 62
     7
  6
CONTINUOUS
370
    -3
390
3A2
  0
ENDTAB
  0
TABLE
  2
STYLE
  5
3
330
0
100
AcDbSymbolTable
 70
     1
  0
STYLE
  5
17
330
3
100
AcDbSymbolTableRecord
100
AcDbTextStyleTableRecord
  2
STANDARD
 70
     0
 40
0.0
 41
1.0
 50
0.0
 71
     0
 42
0.0
  3
txt
  4

  0
ENDTAB
  0
TABLE
  2
VIEW
  5
5
330
0
100
AcDbSymbolTable
 70
     9
  0
VIEW
  5
387
330
5
100
AcDbSymbolTableRecord
100
AcDbViewTableRecord
  2
TOP
 70
     0
 40
8.073942
 10
0.0
 20
0.0
 41
11.460384
 11
0.0
 21
0.0
 31
1.0
 12
0.0
 22
0.0
 32
0.0
 42
50.0
 43
24.266527
 44
-24.266527
 50
0.0
 71
    16
281
     0
 72
     0
  0
VIEW
  5
388
330
5
100
AcDbSymbolTableRecord
100
AcDbViewTableRecord
  2
FRONT
 70
     0
 40
48.533053
 10
0.0
 20
0.0
 41
11.460384
 11
0.0
 21
-1.0
 31
0.0
 12
0.0
 22
0.0
 32
0.0
 42
50.0
 43
24.933901
 44
-24.933901
 50
0.0
 71
    16
281
     0
 72
     0
  0
VIEW
  5
389
330
5
100
AcDbSymbolTableRecord
100
AcDbViewTableRecord
  2
RIGHT
 70
     0
 40
48.533053
 10
0.0
 20
0.0
 41
8.073942
 11
1.0
 21
0.0
 31
0.0
 12
0.0
 22
0.0
 32
0.0
 42
50.0
 43
24.60003
 44
-24.60003
 50
0.0
 71
    16
281
     0
 72
     0
  0
VIEW
  5
38A
330
5
100
AcDbSymbolTableRecord
100
AcDbViewTableRecord
  2
BACK
 70
     0
 40
48.533053
 10
0.0
 20
0.0
 41
11.460384
 11
0.0
 21
1.0
 31
0.0
 12
0.0
 22
0.0
 32
0.0
 42
50.0
 43
24.933901
 44
-24.933901
 50
0.0
 71
    16
281
     0
 72
     0
  0
VIEW
  5
38B
330
5
100
AcDbSymbolTableRecord
100
AcDbViewTableRecord
  2
BOTTOM
 70
     0
 40
8.073942
 10
0.0
 20
0.0
 41
11.460384
 11
0.0
 21
0.0
 31
-1.0
 12
0.0
 22
0.0
 32
0.0
 42
50.0
 43
24.266527
 44
-24.266527
 50
180.0
 71
    16
281
     0
 72
     0
  0
VIEW
  5
38C
330
5
100
AcDbSymbolTableRecord
100
AcDbViewTableRecord
  2
LEFT
 70
     0
 40
48.533053
 10
0.0
 20
0.0
 41
8.073942
 11
-1.0
 21
0.0
 31
0.0
 12
0.0
 22
0.0
 32
0.0
 42
50.0
 43
24.60003
 44
-24.60003
 50
0.0
 71
    16
281
     0
 72
     0
  0
VIEW
  5
38D
330
5
100
AcDbSymbolTableRecord
100
AcDbViewTableRecord
  2
TFR-ISO
 70
     0
 40
47.601927
 10
0.0
 20
0.0
 41
13.812854
 11
0.5773500000000001
 21
-0.5773500000000001
 31
0.5773500000000001
 12
0.0
 22
0.0
 32
0.0
 42
50.0
 43
24.782748
 44
-24.782748
 50
0.0
 71
    16
281
     0
 72
     0
  0
VIEW
  5
38E
330
5
100
AcDbSymbolTableRecord
100
AcDbViewTableRecord
  2
TFR-TRI
 70
     0
 40
50.233404
 10
0.0
 20
0.0
 41
13.496199
 11
0.718873
 21
-0.5850489999999999
 31
0.375419
 12
0.0
 22
0.0
 32
0.0
 42
50.0
 43
24.87319
 44
-24.87319
 50
0.0
 71
    16
281
     0
 72
     0
  0
ENDTAB
  0
TABLE
  2
UCS
  5
6
330
0
100
AcDbSymbolTable
 70
     0
  0
ENDTAB
  0
TABLE
  2
APPID
  5
8
330
0
100
AcDbSymbolTable
 70
     3
  0
APPID
  5
16
330
8
100
AcDbSymbolTableRecord
100
AcDbRegAppTableRecord
  2
ACAD
 70
     0
  0
APPID
  5
3C5
330
8
100
AcDbSymbolTableRecord
100
AcDbRegAppTableRecord
  2
ACAD_PSEXT
 70
     0
  0
APPID
  5
3D1
330
8
100
AcDbSymbolTableRecord
100
AcDbRegAppTableRecord
  2
DCO15
 70
     0
  0
ENDTAB
  0
TABLE
  2
DIMSTYLE
  5
9
330
0
100
AcDbSymbolTable
 70
     1
100
AcDbDimStyleTable
 71
     0
  0
DIMSTYLE
105
18
330
9
100
AcDbSymbolTableRecord
100
AcDbDimStyleTableRecord
  2
STANDARD
 70
     0
340
17
  0
ENDTAB
  0
TABLE
  2
BLOCK_RECORD
  5
1
330
0
100
AcDbSymbolTable
 70
     0
  0
BLOCK_RECORD
  5
A
330
1
100
AcDbSymbolTableRecord
100
AcDbBlockTableRecord
  2
*MODEL_SPACE
340
3BE
  0
BLOCK_RECORD
  5
B
330
1
100
AcDbSymbolTableRecord
100
AcDbBlockTableRecord
  2
*PAPER_SPACE
340
3BF
  0
ENDTAB
  0
ENDSEC
  0
SECTION
  2
BLOCKS
  0
BLOCK
  5
D
330
A
100
AcDbEntity
  8
0
100
AcDbBlockBegin
  2
*MODEL_SPACE
 70
     0
 10
0.0
 20
0.0
 30
0.0
  3
*MODEL_SPACE
  1

  0
ENDBLK
  5
E
330
A
100
AcDbEntity
  8
0
100
AcDbBlockEnd
  0
BLOCK
  5
F
330
B
100
AcDbEntity
 67
     1
  8
0
100
AcDbBlockBegin
  2
*PAPER_SPACE
 70
     0
 10
0.0
 20
0.0
 30
0.0
  3
*PAPER_SPACE
  1

  0
ENDBLK
  5
10
330
B
100
AcDbEntity
 67
     1
  8
0
100
AcDbBlockEnd
  0
ENDSEC
  0
SECTION
  2
ENTITIES
  0
LINE
  5
2A
330
A
100
AcDbEntity
  8
1
  6
Continuous
 62
     2
100
AcDbLine
 10
3.040683
 20
3.983884999999999
 30
0.0
 11
3.024684999999999
 21
3.983884999999999
 31
0.0
  0
LINE
  5
2C
330
A
100
AcDbEntity
  8
1
  6
Continuous
 62
     5
100
AcDbLine
 10
2.630465
 20
4.023525
 30
0.0
 11
2.67207
 21
4.023525
 31
0.0
  0
LINE
  5
2D
330
A
100
AcDbEntity
  8
1
  6
Continuous
 62
     3
100
AcDbLine
 10
5.626419
 20
4.269598999999999
 30
0.0
 11
5.633833999999999
 21
4.26961
 31
0.0
  0
LINE
  5
2E
330
A
100
AcDbEntity
  8
1
  6
Continuous
 62
     5
100
AcDbLine
 10
3.024683
 20
4.086369999999999
 30
0.0
 11
3.000682999999999
 21
4.086369999999999
 31
0.0
  0
LINE
  5
2F
330
A
100
AcDbEntity
  8
1
  6
Continuous
 62
     3
100
AcDbLine
 10
2.976720999999999
 20
4.201291999999999
 30
0.0
 11
2.975118999999999
 21
4.201386
 31
0.0
  0
LINE
  5
30
330
A
100
AcDbEntity
  8
1
  6
Continuous
 62
     5
100
AcDbLine
 10
2.67914
 20
4.020596
 30
0.0
 11
2.67207
 21
4.023525
 31
0.0
  0
LINE
  5
31
330
A
100
AcDbEntity
  8
1
  6
Continuous
 62
     3
100
AcDbLine
 10
5.636917999999999
 20
4.247298999999999
 30
0.0
 11
5.641219
 21
4.251654
 31
0.0
  0
LINE
  5
32
330
A
100
AcDbEntity
  8
1
  6
Continuous
 62
     5
100
AcDbLine
 10
2.875904
 20
4.353737999999999
 30
0.0
 11
2.876032
 21
4.353739
 31
0.0
  0
LINE
  5
33
330
A
100
AcDbEntity
  8
1
  6
Continuous
 62
     5
100
AcDbLine
 10
2.608183
 20
4.262738999999999
 30
0.0
 11
2.608183
 21
4.013524999999999
 31
0.0
  0
LINE
  5
34
330
A
100
AcDbEntity
  8
1
  6
Continuous
 62
     6
100
AcDbLine
 10
5.729638999999999
 20
4.314783
 30
0.0
 11
5.72958
 21
4.315258
 31
0.0
  0
LINE
  5
35
330
A
100
AcDbEntity
  8
1
  6
Continuous
 62
     5
100
AcDbLine
 10
2.695596
 20
4.017052999999999
 30
0.0
 11
2.688556
 21
4.017052999999999
 31
0.0
  0
LINE
  5
36
330
A
100
AcDbEntity
  8
1
  6
Continuous
 62
     3
100
AcDbLine
 10
5.807539
 20
4.116634999999999
 30
0.0
 11
5.796587999999999
 21
4.115662
 31
0.0
  0
LINE
  5
37
330
A
100
AcDbEntity
  8
1
  6
Continuous
 62
     5
100
AcDbLine
 10
2.638183
 20
4.232738999999999
 30
0.0
 11
2.635899
 21
4.235022999999999
 31
0.0
  0
LINE
  5
38
330
A
100
AcDbEntity
  8
1
  6
Continuous
 62
     3
100
AcDbLine
 10
5.522048
 20
3.713112
 30
0.0
 11
5.642049
 21
3.713112
 31
0.0
  0
LINE
  5
39
330
A
100
AcDbEntity
  8
1
  6
Continuous
 62
     6
100
AcDbLine
 10
5.644312999999999
 20
4.316507999999999
 30
0.0
 11
5.643570999999999
 21
4.316126
 31
0.0
  0
LINE
  5
3A
330
A
100
AcDbEntity
  8
1
  6
Continuous
 62
     5
100
AcDbLine
 10
2.678638
 20
4.235668
 30
0.0
 11
2.671568
 21
4.232738999999999
 31
0.0
  0
LINE
  5
3B
330
A
100
AcDbEntity
  8
1
  6
Continuous
 62
     6
100
AcDbLine
 10
5.788424
 20
4.306465
 30
0.0
 11
5.788424
 21
4.287764
 31
0.0
  0
LINE
  5
3C
330
A
100
AcDbEntity
  8
1
  6
Continuous
 62
     5
100
AcDbLine
 10
2.748683
 20
4.328738999999999
 30
0.0
 11
2.762682999999999
 21
4.328738999999999
 31
0.0
  0
LINE
  5
3D
330
A
100
AcDbEntity
  8
1
  6
Continuous
 62
     6
100
AcDbLine
 10
5.64113
 20
4.312181999999999
 30
0.0
 11
5.641127
 21
4.311424999999999
 31
0.0
  0
LINE
  5
3E
330
A
100
AcDbEntity
  8
1
  6
Continuous
 62
     5
100
AcDbLine
 10
2.800176
 20
4.231075999999999
 30
0.0
 11
2.85852
 21
4.231075999999999
 31
0.0
  0
LINE
  5
3F
330
A
100
AcDbEntity
  8
1
  6
Continuous
 62
     6
100
AcDbLine
 10
5.646307
 20
4.316936
 30
0.0
 11
5.646612
 21
4.316944999999999
 31
0.0
  0
LINE
  5
40
330
A
100
AcDbEntity
  8
1
  6
Continuous
 62
     5
100
AcDbLine
 10
3.137183
 20
4.262738999999999
 30
0.0
 11
3.137183
 21
3.933739
 31
0.0
  0
LINE
  5
41
330
A
100
AcDbEntity
  8
1
  6
Continuous
 62
     3
100
AcDbLine
 10
4.550518
 20
4.381126
 30
0.0
 11
4.550518
 21
3.772304
 31
0.0
  0
LINE
  5
42
330
A
100
AcDbEntity
  8
1
  6
Continuous
 62
     5
100
AcDbLine
 10
2.798119999999999
 20
4.338739
 30
0.0
 11
2.798052
 21
4.344005
 31
0.0
  0
LINE
  5
43
330
A
100
AcDbEntity
  8
1
  6
Continuous
 62
     6
100
AcDbLine
 10
5.680213
 20
4.317823999999999
 30
0.0
 11
5.703424
 21
4.318431999999999
 31
0.0
  0
LINE
  5
44
330
A
100
AcDbEntity
  8
1
  6
Continuous
 62
     5
100
AcDbLine
 10
2.982683
 20
3.817112999999999
 30
0.0
 11
2.982683
 21
3.783108
 31
0.0
  0
LINE
  5
45
330
A
100
AcDbEntity
  8
1
  6
Continuous
 62
     5
100
AcDbLine
 10
2.634818999999999
 20
4.408965
 30
0.0
 11
3.110546999999999
 21
4.408965
 31
0.0
  0
LINE
  5
46
330
A
100
AcDbEntity
  8
1
  6
Continuous
 62
     3
100
AcDbLine
 10
5.163517999999999
 20
4.322845
 30
0.0
 11
5.161559999999999
 21
4.323241
 31
0.0
  0
LINE
  5
47
330
A
100
AcDbEntity
  8
1
  6
Continuous
 62
     6
100
AcDbLine
 10
5.703424
 20
4.314262
 30
0.0
 11
5.703424
 21
4.269711
 31
0.0
  0
LINE
  5
48
330
A
100
AcDbEntity
  8
1
  6
Continuous
 62
     5
100
AcDbLine
 10
3.039925999999999
 20
3.964616999999999
 30
0.0
 11
3.041683
 21
3.963738999999999
 31
0.0
  0
LINE
  5
49
330
A
100
AcDbEntity
  8
1
  6
Continuous
 62
     5
100
AcDbLine
 10
2.762682999999999
 20
3.783108
 30
0.0
 11
2.767075
 21
3.772502999999999
 31
0.0
  0
LINE
  5
4A
330
A
100
AcDbEntity
  8
1
  6
Continuous
 62
     6
100
AcDbLine
 10
5.913424
 20
4.264816
 30
0.0
 11
5.913424
 21
4.26214
 31
0.0
  0
LINE
  5
4B
330
A
100
AcDbEntity
  8
1
  6
Continuous
 62
     3
100
AcDbLine
 10
5.185559999999999
 20
3.757303999999999
 30
0.0
 11
5.18405
 21
3.757303999999999
 31
0.0
  0
LINE
  5
4C
330
A
100
AcDbEntity
  8
1
  6
Continuous
 62
     6
100
AcDbLine
 10
5.778685
 20
4.287509
 30
0.0
 11
5.778685
 21
4.306465
 31
0.0
  0
LINE
  5
4D
330
A
100
AcDbEntity
  8
1
  6
Continuous
 62
     5
100
AcDbLine
 10
2.960749999999999
 20
3.964205
 30
0.0
 11
2.984615
 21
3.964205
 31
0.0
  0
LINE
  5
4E
330
A
100
AcDbEntity
  8
1
  6
Continuous
 62
     3
100
AcDbLine
 10
5.18656
 20
4.322710999999999
 30
0.0
 11
5.18656
 21
3.757303999999999
 31
0.0
  0
LINE
  5
4F
330
A
100
AcDbEntity
  8
1
  6
Continuous
 62
     6
100
AcDbLine
 10
5.720087
 20
4.317995999999999
 30
0.0
 11
5.722412999999999
 21
4.317934999999999
 31
0.0
  0
LINE
  5
50
330
A
100
AcDbEntity
  8
1
  6
Continuous
 62
     5
100
AcDbLine
 10
2.90544
 20
3.964616999999999
 30
0.0
 11
2.904615
 21
3.964205
 31
0.0
  0
LINE
  5
51
330
A
100
AcDbEntity
  8
1
  6
Continuous
 62
     3
100
AcDbLine
 10
5.541559999999999
 20
3.757303999999999
 30
0.0
 11
5.522048
 21
3.757303999999999
 31
0.0
  0
LINE
  5
52
330
A
100
AcDbEntity
  8
1
  6
Continuous
 62
     3
100
AcDbLine
 10
2.563855999999999
 20
3.761698
 30
0.0
 11
2.563931999999999
 21
3.772304
 31
0.0
  0
LINE
  5
53
330
A
100
AcDbEntity
  8
1
  6
Continuous
 62
     6
100
AcDbLine
 10
5.720087
 20
4.314161
 30
0.0
 11
5.710757
 21
4.31428
 31
0.0
  0
LINE
  5
54
330
A
100
AcDbEntity
  8
1
  6
Continuous
 62
     5
100
AcDbLine
 10
2.839925999999999
 20
3.964616999999999
 30
0.0
 11
2.82544
 21
3.964616999999999
 31
0.0
  0
LINE
  5
55
330
A
100
AcDbEntity
  8
1
  6
Continuous
 62
    95
100
AcDbLine
 10
2.980306999999999
 20
4.207174
 30
0.0
 11
2.984225999999999
 21
4.207174
 31
0.0
  0
LINE
  5
56
330
A
100
AcDbEntity
  8
1
  6
Continuous
 62
     3
100
AcDbLine
 10
2.798416
 20
4.309845
 30
0.0
 11
2.79387
 21
4.309845
 31
0.0
  0
LINE
  5
57
330
A
100
AcDbEntity
  8
1
  6
Continuous
 62
     5
100
AcDbLine
 10
2.759925999999999
 20
3.964616999999999
 30
0.0
 11
2.760749999999999
 21
3.964205
 31
0.0
  0
LINE
  5
58
330
A
100
AcDbEntity
  8
1
  6
Continuous
 62
     3
100
AcDbLine
 10
5.507048999999999
 20
3.725372
 30
0.0
 11
5.507048999999999
 21
3.727304
 31
0.0
  0
LINE
  5
59
330
A
100
AcDbEntity
  8
1
  6
Continuous
 62
     5
100
AcDbLine
 10
2.79387
 20
4.341914
 30
0.0
 11
2.79387
 21
4.298739
 31
0.0
  0
LINE
  5
5A
330
A
100
AcDbEntity
  8
1
  6
Continuous
 62
     6
100
AcDbLine
 10
5.788424
 20
4.271633
 30
0.0
 11
5.731423
 21
4.271527999999999
 31
0.0
  0
LINE
  5
5B
330
A
100
AcDbEntity
  8
1
  6
Continuous
 62
     5
100
AcDbLine
 10
3.112257
 20
4.415588999999999
 30
0.0
 11
3.110632999999999
 21
4.413963999999999
 31
0.0
  0
LINE
  5
5C
330
A
100
AcDbEntity
  8
1
  6
Continuous
 62
     3
100
AcDbLine
 10
5.507048999999999
 20
3.708112
 30
0.0
 11
5.507048999999999
 21
3.708496999999999
 31
0.0
  0
LINE
  5
5D
330
A
100
AcDbEntity
  8
1
  6
Continuous
 62
    95
100
AcDbLine
 10
2.967799
 20
4.208187999999999
 30
0.0
 11
2.966425
 21
4.208872
 31
0.0
  0
LINE
  5
5E
330
A
100
AcDbEntity
  8
1
  6
Continuous
 62
     5
100
AcDbLine
 10
2.996682999999999
 20
4.194266
 30
0.0
 11
2.858262999999999
 21
4.194266
 31
0.0
  0
LINE
  5
5F
330
A
100
AcDbEntity
  8
1
  6
Continuous
 62
     6
100
AcDbLine
 10
5.788424
 20
4.274835999999999
 30
0.0
 11
5.910966999999999
 21
4.272695999999999
 31
0.0
  0
LINE
  5
60
330
A
100
AcDbEntity
  8
1
  6
Continuous
 62
     5
100
AcDbLine
 10
2.633108
 20
4.415588999999999
 30
0.0
 11
2.634733
 21
4.413963999999999
 31
0.0
  0
LINE
  5
61
330
A
100
AcDbEntity
  8
1
  6
Continuous
 62
     3
100
AcDbLine
 10
5.652655
 20
3.708112
 30
0.0
 11
5.657048999999999
 21
3.708112
 31
0.0
  0
LINE
  5
62
330
A
100
AcDbEntity
  8
1
  6
Continuous
 62
    95
100
AcDbLine
 10
2.980402999999999
 20
4.210139999999999
 30
0.0
 11
2.979950999999999
 21
4.209645
 31
0.0
  0
LINE
  5
63
330
A
100
AcDbEntity
  8
1
  6
Continuous
 62
     5
100
AcDbLine
 10
3.107183
 20
3.963738999999999
 30
0.0
 11
2.682243999999999
 21
3.963738999999999
 31
0.0
  0
LINE
  5
64
330
A
100
AcDbEntity
  8
1
  6
Continuous
 62
     6
100
AcDbLine
 10
5.913424
 20
4.236816
 30
0.0
 11
5.913424
 21
4.234138999999999
 31
0.0
  0
LINE
  5
65
330
A
100
AcDbEntity
  8
1
  6
Continuous
 62
     5
100
AcDbLine
 10
2.570825999999999
 20
3.703112
 30
0.0
 11
2.574329999999999
 21
3.703112
 31
0.0
  0
LINE
  5
66
330
A
100
AcDbEntity
  8
1
  6
Continuous
 62
     3
100
AcDbLine
 10
5.507048999999999
 20
3.708112
 30
0.0
 11
5.511441999999999
 21
3.708112
 31
0.0
  0
LINE
  5
67
330
A
100
AcDbEntity
  8
1
  6
Continuous
 62
    95
100
AcDbLine
 10
2.981527
 20
4.212111
 30
0.0
 11
2.98155
 21
4.212174
 31
0.0
  0
LINE
  5
68
330
A
100
AcDbEntity
  8
1
  6
Continuous
 62
     5
100
AcDbLine
 10
3.137183
 20
3.933739
 30
0.0
 11
3.125701999999999
 21
3.945219999999999
 31
0.0
  0
LINE
  5
69
330
A
100
AcDbEntity
  8
1
  6
Continuous
 62
     6
100
AcDbLine
 10
5.913424
 20
4.201068
 30
0.0
 11
5.913424
 21
4.190504999999999
 31
0.0
  0
LINE
  5
6A
330
A
100
AcDbEntity
  8
1
  6
Continuous
 62
     5
100
AcDbLine
 10
2.977591999999999
 20
3.827019999999999
 30
0.0
 11
2.966986999999999
 21
3.831412999999999
 31
0.0
  0
LINE
  5
6B
330
A
100
AcDbEntity
  8
1
  6
Continuous
 62
     3
100
AcDbLine
 10
5.19735
 20
3.713112
 30
0.0
 11
5.187083999999999
 21
3.713112
 31
0.0
  0
LINE
  5
6C
330
A
100
AcDbEntity
  8
1
  6
Continuous
 62
    95
100
AcDbLine
 10
2.965365
 20
4.219748
 30
0.0
 11
2.965746999999999
 21
4.220323999999999
 31
0.0
  0
LINE
  5
6D
330
A
100
AcDbEntity
  8
1
  6
Continuous
 62
     5
100
AcDbLine
 10
2.720683
 20
3.987644
 30
0.0
 11
2.695596
 21
3.987644
 31
0.0
  0
LINE
  5
6E
330
A
100
AcDbEntity
  8
1
  6
Continuous
 62
     6
100
AcDbLine
 10
5.788424
 20
4.260144999999999
 30
0.0
 11
5.913424
 21
4.262070999999999
 31
0.0
  0
LINE
  5
6F
330
A
100
AcDbEntity
  8
1
  6
Continuous
 62
     5
100
AcDbLine
 10
2.967684999999999
 20
3.768111
 30
0.0
 11
2.966986999999999
 21
3.768808999999999
 31
0.0
  0
LINE
  5
70
330
A
100
AcDbEntity
  8
1
  6
Continuous
 62
     3
100
AcDbLine
 10
5.041297
 20
3.7105
 30
0.0
 11
5.041297
 21
3.708112
 31
0.0
  0
LINE
  5
71
330
A
100
AcDbEntity
  8
1
  6
Continuous
 62
    95
100
AcDbLine
 10
2.978866
 20
4.220851
 30
0.0
 11
2.979499
 21
4.220441
 31
0.0
  0
LINE
  5
72
330
A
100
AcDbEntity
  8
1
  6
Continuous
 62
     5
100
AcDbLine
 10
2.748683
 20
4.175355999999999
 30
0.0
 11
2.996682999999999
 21
4.175355999999999
 31
0.0
  0
LINE
  5
73
330
A
100
AcDbEntity
  8
1
  6
Continuous
 62
    95
100
AcDbLine
 10
2.961138999999999
 20
4.207174
 30
0.0
 11
2.965059
 21
4.207174
 31
0.0
  0
LINE
  5
74
330
A
100
AcDbEntity
  8
1
  6
Continuous
 62
     5
100
AcDbLine
 10
4.412994
 20
3.703112
 30
0.0
 11
4.411559999999999
 21
3.703112
 31
0.0
  0
LINE
  5
75
330
A
100
AcDbEntity
  8
1
  6
Continuous
 62
    95
100
AcDbLine
 10
2.781718
 20
4.221173999999999
 30
0.0
 11
2.784225999999999
 21
4.221173999999999
 31
0.0
  0
LINE
  5
76
330
A
100
AcDbEntity
  8
1
  6
Continuous
 62
     5
100
AcDbLine
 10
2.824683
 20
4.086369999999999
 30
0.0
 11
2.824683
 21
3.987644
 31
0.0
  0
LINE
  5
77
330
A
100
AcDbEntity
  8
1
  6
Continuous
 62
     6
100
AcDbLine
 10
5.911013999999999
 20
4.272695999999999
 30
0.0
 11
5.910966999999999
 21
4.272695999999999
 31
0.0
  0
LINE
  5
78
330
A
100
AcDbEntity
  8
1
  6
Continuous
 62
     5
100
AcDbLine
 10
2.777683
 20
4.378921
 30
0.0
 11
2.762682999999999
 21
4.379998
 31
0.0
  0
LINE
  5
79
330
A
100
AcDbEntity
  8
1
  6
Continuous
 62
     5
100
AcDbLine
 10
5.161559999999999
 20
4.382543
 30
0.0
 11
4.932297
 21
4.422968
 31
0.0
  0
LINE
  5
7A
330
A
100
AcDbEntity
  8
1
  6
Continuous
 62
    95
100
AcDbLine
 10
2.78155
 20
4.216173999999999
 30
0.0
 11
2.78155
 21
4.212174
 31
0.0
  0
LINE
  5
7B
330
A
100
AcDbEntity
  8
1
  6
Continuous
 62
     5
100
AcDbLine
 10
2.904683
 20
4.086369999999999
 30
0.0
 11
2.901683
 21
4.086369999999999
 31
0.0
  0
LINE
  5
7C
330
A
100
AcDbEntity
  8
1
  6
Continuous
 62
     6
100
AcDbLine
 10
5.650621
 20
4.313752
 30
0.0
 11
5.650661
 21
4.311831999999999
 31
0.0
  0
LINE
  5
7D
330
A
100
AcDbEntity
  8
1
  6
Continuous
 62
     5
100
AcDbLine
 10
2.607683
 20
3.921739
 30
0.0
 11
2.607683
 21
3.933739
 31
0.0
  0
LINE
  5
7E
330
A
100
AcDbEntity
  8
1
  6
Continuous
 62
     5
100
AcDbLine
 10
5.161559999999999
 20
4.377464999999999
 30
0.0
 11
5.161559999999999
 21
4.382543
 31
0.0
  0
LINE
  5
7F
330
A
100
AcDbEntity
  8
1
  6
Continuous
 62
    95
100
AcDbLine
 10
2.780402999999999
 20
4.210139999999999
 30
0.0
 11
2.780402999999999
 21
4.218208999999999
 31
0.0
  0
LINE
  5
80
330
A
100
AcDbEntity
  8
1
  6
Continuous
 62
     5
100
AcDbLine
 10
2.944683
 20
3.987644
 30
0.0
 11
2.960682999999999
 21
3.987644
 31
0.0
  0
LINE
  5
81
330
A
100
AcDbEntity
  8
1
  6
Continuous
 62
     5
100
AcDbLine
 10
2.695596
 20
3.987644
 30
0.0
 11
2.688556
 21
3.987543
 31
0.0
  0
LINE
  5
82
330
A
100
AcDbEntity
  8
1
  6
Continuous
 62
     5
100
AcDbLine
 10
4.509559999999999
 20
4.415588999999999
 30
0.0
 11
4.509559999999999
 21
4.41059
 31
0.0
  0
LINE
  5
83
330
A
100
AcDbEntity
  8
1
  6
Continuous
 62
    95
100
AcDbLine
 10
2.765204999999999
 20
4.218491999999999
 30
0.0
 11
2.764963
 21
4.218208999999999
 31
0.0
  0
LINE
  5
84
330
A
100
AcDbEntity
  8
1
  6
Continuous
 62
     6
100
AcDbLine
 10
5.728276999999999
 20
4.317223999999999
 30
0.0
 11
5.728823999999999
 21
4.316766
 31
0.0
  0
LINE
  5
85
330
A
100
AcDbEntity
  8
1
  6
Continuous
 62
     5
100
AcDbLine
 10
2.748683
 20
4.292739
 30
0.0
 11
2.684483
 21
4.292739
 31
0.0
  0
LINE
  5
86
330
A
100
AcDbEntity
  8
1
  6
Continuous
 62
     5
100
AcDbLine
 10
4.932212999999999
 20
4.421878999999999
 30
0.0
 11
4.932273999999999
 21
4.422687999999999
 31
0.0
  0
LINE
  5
87
330
A
100
AcDbEntity
  8
1
  6
Continuous
 62
    95
100
AcDbLine
 10
2.763838999999999
 20
4.216237999999999
 30
0.0
 11
2.764963
 21
4.218208999999999
 31
0.0
  0
LINE
  5
88
330
A
100
AcDbEntity
  8
1
  6
Continuous
 62
     5
100
AcDbLine
 10
2.790399
 20
4.301023
 30
0.0
 11
2.792683
 21
4.298739
 31
0.0
  0
LINE
  5
89
330
A
100
AcDbEntity
  8
1
  6
Continuous
 62
   151
100
AcDbLine
 10
5.652044
 20
3.759883999999999
 30
0.0
 11
5.639765
 21
3.759883999999999
 31
0.0
  0
LINE
  5
8A
330
A
100
AcDbEntity
  8
1
  6
Continuous
 62
     5
100
AcDbLine
 10
3.137682999999999
 20
3.921739
 30
0.0
 11
3.137682999999999
 21
3.933739
 31
0.0
  0
LINE
  5
8B
330
A
100
AcDbEntity
  8
1
  6
Continuous
 62
     6
100
AcDbLine
 10
5.703424
 20
4.318431999999999
 30
0.0
 11
5.70344
 21
4.318329
 31
0.0
  0
LINE
  5
8C
330
A
100
AcDbEntity
  8
1
  6
Continuous
 62
    95
100
AcDbLine
 10
2.757677999999999
 20
4.216173999999999
 30
0.0
 11
2.755609999999999
 21
4.216173999999999
 31
0.0
  0
LINE
  5
8D
330
A
100
AcDbEntity
  8
1
  6
Continuous
 62
     5
100
AcDbLine
 10
3.176034999999999
 20
4.352338999999999
 30
0.0
 11
3.176034999999999
 21
3.703112
 31
0.0
  0
LINE
  5
8E
330
A
100
AcDbEntity
  8
1
  6
Continuous
 62
   151
100
AcDbLine
 10
5.632044
 20
4.297698999999999
 30
0.0
 11
5.583295999999999
 21
4.269555
 31
0.0
  0
LINE
  5
8F
330
A
100
AcDbEntity
  8
1
  6
Continuous
 62
    95
100
AcDbLine
 10
2.768177
 20
4.221173999999999
 30
0.0
 11
2.767276999999999
 21
4.221093999999999
 31
0.0
  0
LINE
  5
90
330
A
100
AcDbEntity
  8
1
  6
Continuous
 62
     5
100
AcDbLine
 10
2.952683
 20
4.298739
 30
0.0
 11
2.952683
 21
4.371959999999999
 31
0.0
  0
LINE
  5
91
330
A
100
AcDbEntity
  8
1
  6
Continuous
 62
   151
100
AcDbLine
 10
5.677044
 20
3.745451
 30
0.0
 11
5.677044
 21
3.732008999999999
 31
0.0
  0
LINE
  5
92
330
A
100
AcDbEntity
  8
1
  6
Continuous
 62
    30
100
AcDbLine
 10
2.883682999999999
 20
3.964207
 30
0.0
 11
2.883682999999999
 21
4.095206
 31
0.0
  0
LINE
  5
93
330
A
100
AcDbEntity
  8
1
  6
Continuous
 62
     5
100
AcDbLine
 10
2.996682999999999
 20
4.232738999999999
 30
0.0
 11
3.107183
 21
4.232738999999999
 31
0.0
  0
LINE
  5
94
330
A
100
AcDbEntity
  8
1
  6
Continuous
 62
   151
100
AcDbLine
 10
5.677044
 20
3.732008999999999
 30
0.0
 11
5.677044
 21
3.719006999999999
 31
0.0
  0
LINE
  5
95
330
A
100
AcDbEntity
  8
1
  6
Continuous
 62
     2
100
AcDbLine
 10
3.094929
 20
3.983884999999999
 30
0.0
 11
3.107183
 21
3.983884999999999
 31
0.0
  0
LINE
  5
96
330
A
100
AcDbEntity
  8
1
  6
Continuous
 62
     5
100
AcDbLine
 10
3.005469999999999
 20
4.241526
 30
0.0
 11
3.015201999999999
 21
4.251257999999999
 31
0.0
  0
LINE
  5
97
330
A
100
AcDbEntity
  8
1
  6
Continuous
 62
     3
100
AcDbLine
 10
5.641219
 20
3.784047
 30
0.0
 11
5.686219
 21
3.784047
 31
0.0
  0
LINE
  5
98
330
A
100
AcDbEntity
  8
1
  6
Continuous
 62
     2
100
AcDbLine
 10
2.784684999999999
 20
3.983884999999999
 30
0.0
 11
2.784340999999999
 21
3.964205999999999
 31
0.0
  0
LINE
  5
99
330
A
100
AcDbEntity
  8
1
  6
Continuous
 62
     3
100
AcDbLine
 10
3.189303999999999
 20
4.352897
 30
0.0
 11
3.189458999999999
 21
4.347767
 31
0.0
  0
LINE
  5
9A
330
A
100
AcDbEntity
  8
1
  6
Continuous
 62
     5
100
AcDbLine
 10
2.971201999999999
 20
4.317257999999999
 30
0.0
 11
2.96147
 21
4.307526
 31
0.0
  0
LINE
  5
9B
330
A
100
AcDbEntity
  8
1
  6
Continuous
 62
     3
100
AcDbLine
 10
5.595119
 20
4.245395999999999
 30
0.0
 11
5.552038999999999
 21
4.245395999999999
 31
0.0
  0
LINE
  5
9C
330
A
100
AcDbEntity
  8
1
  6
Continuous
 62
     5
100
AcDbLine
 10
3.125701999999999
 20
4.251257999999999
 30
0.0
 11
3.137183
 21
4.262738999999999
 31
0.0
  0
LINE
  5
9D
330
A
100
AcDbEntity
  8
1
  6
Continuous
 62
     2
100
AcDbLine
 10
2.880683
 20
3.983884999999999
 30
0.0
 11
2.881025999999999
 21
3.964205999999999
 31
0.0
  0
LINE
  5
9E
330
A
100
AcDbEntity
  8
1
  6
Continuous
 62
     5
100
AcDbLine
 10
3.184909
 20
4.41908
 30
0.0
 11
3.184265
 21
4.420632
 31
0.0
  0
LINE
  5
9F
330
A
100
AcDbEntity
  8
1
  6
Continuous
 62
     3
100
AcDbLine
 10
5.796587999999999
 20
4.115662
 30
0.0
 11
5.772229
 21
4.253810999999999
 31
0.0
  0
LINE
  5
A0
330
A
100
AcDbEntity
  8
1
  6
Continuous
 62
     2
100
AcDbLine
 10
2.960682999999999
 20
3.983884999999999
 30
0.0
 11
2.944684999999999
 21
3.983884999999999
 31
0.0
  0
LINE
  5
A1
330
A
100
AcDbEntity
  8
1
  6
Continuous
 62
     5
100
AcDbLine
 10
2.684483
 20
4.292739
 30
0.0
 11
2.681392999999999
 21
4.295829
 31
0.0
  0
LINE
  5
A2
330
A
100
AcDbEntity
  8
1
  6
Continuous
 62
     3
100
AcDbLine
 10
5.787427
 20
4.256588999999999
 30
0.0
 11
5.81203
 21
4.117062
 31
0.0
  0
LINE
  5
A3
330
A
100
AcDbEntity
  8
1
  6
Continuous
 62
     7
100
AcDbLine
 10
2.981683
 20
3.964207
 30
0.0
 11
2.981683
 21
4.102248999999999
 31
0.0
  0
LINE
  5
A4
330
A
100
AcDbEntity
  8
1
  6
Continuous
 62
     5
100
AcDbLine
 10
2.685595999999999
 20
3.987298
 30
0.0
 11
2.685595999999999
 21
4.017052999999999
 31
0.0
  0
LINE
  5
A5
330
A
100
AcDbEntity
  8
1
  6
Continuous
 62
     3
100
AcDbLine
 10
5.633833999999999
 20
4.26961
 30
0.0
 11
5.639241999999999
 21
4.269618
 31
0.0
  0
LINE
  5
A6
330
A
100
AcDbEntity
  8
1
  6
Continuous
 62
     5
100
AcDbLine
 10
3.024683
 20
4.086369999999999
 30
0.0
 11
3.024683
 21
3.987644
 31
0.0
  0
LINE
  5
A7
330
A
100
AcDbEntity
  8
1
  6
Continuous
 62
     3
100
AcDbLine
 10
2.975117
 20
4.202973
 30
0.0
 11
2.980216999999999
 21
4.202973
 31
0.0
  0
LINE
  5
A8
330
A
100
AcDbEntity
  8
1
  6
Continuous
 62
     3
100
AcDbLine
 10
2.553460999999999
 20
4.338124999999999
 30
0.0
 11
2.553460999999999
 21
4.337710999999999
 31
0.0
  0
LINE
  5
A9
330
A
100
AcDbEntity
  8
1
  6
Continuous
 62
     5
100
AcDbLine
 10
2.67207
 20
4.013524999999999
 30
0.0
 11
2.679109999999999
 21
4.013524999999999
 31
0.0
  0
LINE
  5
AA
330
A
100
AcDbEntity
  8
1
  6
Continuous
 62
     3
100
AcDbLine
 10
2.553383999999999
 20
4.327105
 30
0.0
 11
2.553199
 21
4.322710999999999
 31
0.0
  0
LINE
  5
AB
330
A
100
AcDbEntity
  8
1
  6
Continuous
 62
     3
100
AcDbLine
 10
5.771646999999999
 20
4.269810999999999
 30
0.0
 11
5.772048999999999
 21
4.265125
 31
0.0
  0
LINE
  5
AC
330
A
100
AcDbEntity
  8
1
  6
Continuous
 62
     5
100
AcDbLine
 10
2.608183
 20
4.013524999999999
 30
0.0
 11
2.608370999999999
 21
4.013633999999999
 31
0.0
  0
LINE
  5
AD
330
A
100
AcDbEntity
  8
1
  6
Continuous
 62
     6
100
AcDbLine
 10
5.72958
 20
4.315258
 30
0.0
 11
5.72944
 21
4.315744
 31
0.0
  0
LINE
  5
AE
330
A
100
AcDbEntity
  8
1
  6
Continuous
 62
     5
100
AcDbLine
 10
2.688556
 20
4.017052999999999
 30
0.0
 11
2.685595999999999
 21
4.017052999999999
 31
0.0
  0
LINE
  5
AF
330
A
100
AcDbEntity
  8
1
  6
Continuous
 62
     3
100
AcDbLine
 10
5.81203
 20
3.941285999999999
 30
0.0
 11
5.807539
 21
3.941712999999999
 31
0.0
  0
LINE
  5
B0
330
A
100
AcDbEntity
  8
1
  6
Continuous
 62
     5
100
AcDbLine
 10
2.635899
 20
4.235022999999999
 30
0.0
 11
2.629395999999999
 21
4.241526
 31
0.0
  0
LINE
  5
B1
330
A
100
AcDbEntity
  8
1
  6
Continuous
 62
     6
100
AcDbLine
 10
5.643570999999999
 20
4.316126
 30
0.0
 11
5.642914
 21
4.315649999999999
 31
0.0
  0
LINE
  5
B2
330
A
100
AcDbEntity
  8
1
  6
Continuous
 62
     5
100
AcDbLine
 10
2.860252999999999
 20
4.306701
 30
0.0
 11
2.860576
 21
4.338739
 31
0.0
  0
LINE
  5
B3
330
A
100
AcDbEntity
  8
1
  6
Continuous
 62
     6
100
AcDbLine
 10
5.788424
 20
4.287764
 30
0.0
 11
5.788424
 21
4.28408
 31
0.0
  0
LINE
  5
B4
330
A
100
AcDbEntity
  8
1
  6
Continuous
 62
     5
100
AcDbLine
 10
2.762682999999999
 20
4.379998
 30
0.0
 11
2.762682999999999
 21
4.328738999999999
 31
0.0
  0
LINE
  5
B5
330
A
100
AcDbEntity
  8
1
  6
Continuous
 62
     3
100
AcDbLine
 10
5.138107999999999
 20
4.352897
 30
0.0
 11
5.138033
 21
4.352897
 31
0.0
  0
LINE
  5
B6
330
A
100
AcDbEntity
  8
1
  6
Continuous
 62
     5
100
AcDbLine
 10
2.860576
 20
4.338739
 30
0.0
 11
2.798119999999999
 21
4.338739
 31
0.0
  0
LINE
  5
B7
330
A
100
AcDbEntity
  8
1
  6
Continuous
 62
     5
100
AcDbLine
 10
2.67207
 20
3.933739
 30
0.0
 11
2.67207
 21
4.013524999999999
 31
0.0
  0
LINE
  5
B8
330
A
100
AcDbEntity
  8
1
  6
Continuous
 62
     6
100
AcDbLine
 10
5.650605
 20
4.315520999999999
 30
0.0
 11
5.650608999999999
 21
4.314686
 31
0.0
  0
LINE
  5
B9
330
A
100
AcDbEntity
  8
1
  6
Continuous
 62
     3
100
AcDbLine
 10
4.565516
 20
3.757303999999999
 30
0.0
 11
4.554910999999999
 21
3.761698
 31
0.0
  0
LINE
  5
BA
330
A
100
AcDbEntity
  8
1
  6
Continuous
 62
     5
100
AcDbLine
 10
2.860576
 20
4.338739
 30
0.0
 11
2.861911999999999
 21
4.344749
 31
0.0
  0
LINE
  5
BB
330
A
100
AcDbEntity
  8
1
  6
Continuous
 62
     6
100
AcDbLine
 10
5.720125
 20
4.316258999999999
 30
0.0
 11
5.720115999999999
 21
4.315572
 31
0.0
  0
LINE
  5
BC
330
A
100
AcDbEntity
  8
1
  6
Continuous
 62
     6
100
AcDbLine
 10
5.728352
 20
4.317778999999999
 30
0.0
 11
5.747662
 21
4.317273999999999
 31
0.0
  0
LINE
  5
BD
330
A
100
AcDbEntity
  8
1
  6
Continuous
 62
     5
100
AcDbLine
 10
2.674481999999999
 20
4.232738999999999
 30
0.0
 11
2.671568
 21
4.232738999999999
 31
0.0
  0
LINE
  5
BE
330
A
100
AcDbEntity
  8
1
  6
Continuous
 62
     5
100
AcDbLine
 10
2.634818999999999
 20
4.408965
 30
0.0
 11
2.634818999999999
 21
4.352253
 31
0.0
  0
LINE
  5
BF
330
A
100
AcDbEntity
  8
1
  6
Continuous
 62
     3
100
AcDbLine
 10
5.150504999999999
 20
4.337710999999999
 30
0.0
 11
5.150426
 21
4.337710999999999
 31
0.0
  0
LINE
  5
C0
330
A
100
AcDbEntity
  8
1
  6
Continuous
 62
   151
100
AcDbLine
 10
5.408061
 20
4.310386
 30
0.0
 11
5.408061
 21
4.340673
 31
0.0
  0
LINE
  5
C1
330
A
100
AcDbEntity
  8
1
  6
Continuous
 62
     6
100
AcDbLine
 10
5.703424
 20
4.314262
 30
0.0
 11
5.673881999999999
 21
4.3127
 31
0.0
  0
LINE
  5
C2
330
A
100
AcDbEntity
  8
1
  6
Continuous
 62
     5
100
AcDbLine
 10
2.767075
 20
3.772502999999999
 30
0.0
 11
2.777681
 21
3.768111
 31
0.0
  0
LINE
  5
C3
330
A
100
AcDbEntity
  8
1
  6
Continuous
 62
     3
100
AcDbLine
 10
5.18405
 20
3.757303999999999
 30
0.0
 11
5.180422
 21
3.757303999999999
 31
0.0
  0
LINE
  5
C4
330
A
100
AcDbEntity
  8
1
  6
Continuous
 62
     6
100
AcDbLine
 10
5.778685
 20
4.306465
 30
0.0
 11
5.739219
 21
4.311323
 31
0.0
  0
LINE
  5
C5
330
A
100
AcDbEntity
  8
1
  6
Continuous
 62
     5
100
AcDbLine
 10
2.959925
 20
3.964616999999999
 30
0.0
 11
2.960749999999999
 21
3.964205
 31
0.0
  0
LINE
  5
C6
330
A
100
AcDbEntity
  8
1
  6
Continuous
 62
   151
100
AcDbLine
 10
2.975118999999999
 20
4.227452999999999
 30
0.0
 11
2.975118999999999
 21
4.221173999999999
 31
0.0
  0
LINE
  5
C7
330
A
100
AcDbEntity
  8
1
  6
Continuous
 62
    95
100
AcDbLine
 10
2.978088999999999
 20
4.221093999999999
 30
0.0
 11
2.978866
 21
4.220851
 31
0.0
  0
LINE
  5
C8
330
A
100
AcDbEntity
  8
1
  6
Continuous
 62
     6
100
AcDbLine
 10
5.722412999999999
 20
4.317934999999999
 30
0.0
 11
5.724428999999999
 21
4.317881999999999
 31
0.0
  0
LINE
  5
C9
330
A
100
AcDbEntity
  8
1
  6
Continuous
 62
     5
100
AcDbLine
 10
2.880749999999999
 20
3.964205
 30
0.0
 11
2.904615
 21
3.964205
 31
0.0
  0
LINE
  5
CA
330
A
100
AcDbEntity
  8
1
  6
Continuous
 62
     3
100
AcDbLine
 10
2.56867
 20
3.757303999999999
 30
0.0
 11
2.563670999999999
 21
3.757303999999999
 31
0.0
  0
LINE
  5
CB
330
A
100
AcDbEntity
  8
1
  6
Continuous
 62
     6
100
AcDbLine
 10
5.710757
 20
4.31428
 30
0.0
 11
5.703424
 21
4.314269
 31
0.0
  0
LINE
  5
CC
330
A
100
AcDbEntity
  8
1
  6
Continuous
 62
     5
100
AcDbLine
 10
2.82544
 20
3.964616999999999
 30
0.0
 11
2.824615
 21
3.964205
 31
0.0
  0
LINE
  5
CD
330
A
100
AcDbEntity
  8
1
  6
Continuous
 62
     3
100
AcDbLine
 10
5.410453999999999
 20
4.093674
 30
0.0
 11
5.527651
 21
4.210869999999999
 31
0.0
  0
LINE
  5
CE
330
A
100
AcDbEntity
  8
1
  6
Continuous
 62
     5
100
AcDbLine
 10
2.79387
 20
4.341914
 30
0.0
 11
2.798052
 21
4.344005
 31
0.0
  0
LINE
  5
CF
330
A
100
AcDbEntity
  8
1
  6
Continuous
 62
     6
100
AcDbLine
 10
5.643759999999999
 20
4.311620999999999
 30
0.0
 11
5.641659999999999
 21
4.311514999999999
 31
0.0
  0
LINE
  5
D0
330
A
100
AcDbEntity
  8
1
  6
Continuous
 62
     5
100
AcDbLine
 10
2.759925999999999
 20
3.964616999999999
 30
0.0
 11
2.74544
 21
3.964616999999999
 31
0.0
  0
LINE
  5
D1
330
A
100
AcDbEntity
  8
1
  6
Continuous
 62
     3
100
AcDbLine
 10
2.553676999999999
 20
4.352897
 30
0.0
 11
2.553522
 21
4.347767
 31
0.0
  0
LINE
  5
D2
330
A
100
AcDbEntity
  8
1
  6
Continuous
 62
     3
100
AcDbLine
 10
5.201559999999999
 20
3.723733
 30
0.0
 11
5.201559999999999
 21
3.725372
 31
0.0
  0
LINE
  5
D3
330
A
100
AcDbEntity
  8
1
  6
Continuous
 62
     6
100
AcDbLine
 10
5.650608999999999
 20
4.316197999999999
 30
0.0
 11
5.650605
 21
4.315520999999999
 31
0.0
  0
LINE
  5
D4
330
A
100
AcDbEntity
  8
1
  6
Continuous
 62
    95
100
AcDbLine
 10
2.963815
 20
4.212174
 30
0.0
 11
2.963839
 21
4.212111
 31
0.0
  0
LINE
  5
D5
330
A
100
AcDbEntity
  8
1
  6
Continuous
 62
     5
100
AcDbLine
 10
2.952683
 20
4.353739
 30
0.0
 11
2.79387
 21
4.353739
 31
0.0
  0
LINE
  5
D6
330
A
100
AcDbEntity
  8
1
  6
Continuous
 62
     6
100
AcDbLine
 10
5.788424
 20
4.274835999999999
 30
0.0
 11
5.731423
 21
4.275083999999999
 31
0.0
  0
LINE
  5
D7
330
A
100
AcDbEntity
  8
1
  6
Continuous
 62
     5
100
AcDbLine
 10
3.112257
 20
4.415588999999999
 30
0.0
 11
3.17266
 21
4.415588999999999
 31
0.0
  0
LINE
  5
D8
330
A
100
AcDbEntity
  8
1
  6
Continuous
 62
     3
100
AcDbLine
 10
5.507048999999999
 20
3.708496999999999
 30
0.0
 11
5.507048999999999
 21
3.709591
 31
0.0
  0
LINE
  5
D9
330
A
100
AcDbEntity
  8
1
  6
Continuous
 62
     5
100
AcDbLine
 10
2.748683
 20
4.305829
 30
0.0
 11
2.748683
 21
4.328738999999999
 31
0.0
  0
LINE
  5
DA
330
A
100
AcDbEntity
  8
1
  6
Continuous
 62
     6
100
AcDbLine
 10
5.910966999999999
 20
4.272695999999999
 30
0.0
 11
5.906696
 21
4.272770999999999
 31
0.0
  0
LINE
  5
DB
330
A
100
AcDbEntity
  8
1
  6
Continuous
 62
     5
100
AcDbLine
 10
2.560327
 20
3.703112
 30
0.0
 11
2.560327
 21
3.757306999999999
 31
0.0
  0
LINE
  5
DC
330
A
100
AcDbEntity
  8
1
  6
Continuous
 62
     3
100
AcDbLine
 10
5.657048999999999
 20
3.713112
 30
0.0
 11
5.652655
 21
3.713112
 31
0.0
  0
LINE
  5
DD
330
A
100
AcDbEntity
  8
1
  6
Continuous
 62
    95
100
AcDbLine
 10
2.979950999999999
 20
4.209645
 30
0.0
 11
2.977996
 21
4.208369999999999
 31
0.0
  0
LINE
  5
DE
330
A
100
AcDbEntity
  8
1
  6
Continuous
 62
     5
100
AcDbLine
 10
2.682243999999999
 20
3.963738999999999
 30
0.0
 11
2.682068999999999
 21
3.956020999999999
 31
0.0
  0
LINE
  5
DF
330
A
100
AcDbEntity
  8
1
  6
Continuous
 62
     6
100
AcDbLine
 10
5.913424
 20
4.234138999999999
 30
0.0
 11
5.913424
 21
4.234071
 31
0.0
  0
LINE
  5
E0
330
A
100
AcDbEntity
  8
1
  6
Continuous
 62
     5
100
AcDbLine
 10
2.560327
 20
3.703112
 30
0.0
 11
2.569331
 21
3.703112
 31
0.0
  0
LINE
  5
E1
330
A
100
AcDbEntity
  8
1
  6
Continuous
 62
     3
100
AcDbLine
 10
5.511441999999999
 20
3.708112
 30
0.0
 11
5.522048
 21
3.708112
 31
0.0
  0
LINE
  5
E2
330
A
100
AcDbEntity
  8
1
  6
Continuous
 62
    95
100
AcDbLine
 10
2.98155
 20
4.212174
 30
0.0
 11
2.98155
 21
4.216173999999999
 31
0.0
  0
LINE
  5
E3
330
A
100
AcDbEntity
  8
1
  6
Continuous
 62
     5
100
AcDbLine
 10
3.125701999999999
 20
3.945219999999999
 30
0.0
 11
3.115969999999999
 21
3.954951999999999
 31
0.0
  0
LINE
  5
E4
330
A
100
AcDbEntity
  8
1
  6
Continuous
 62
     6
100
AcDbLine
 10
5.731423
 20
4.286271
 30
0.0
 11
5.731423
 21
4.28315
 31
0.0
  0
LINE
  5
E5
330
A
100
AcDbEntity
  8
1
  6
Continuous
 62
     5
100
AcDbLine
 10
2.778379
 20
3.831412999999999
 30
0.0
 11
2.966986999999999
 21
3.831412999999999
 31
0.0
  0
LINE
  5
E6
330
A
100
AcDbEntity
  8
1
  6
Continuous
 62
    95
100
AcDbLine
 10
2.963646999999999
 20
4.221173999999999
 30
0.0
 11
2.961138999999999
 21
4.221173999999999
 31
0.0
  0
LINE
  5
E7
330
A
100
AcDbEntity
  8
1
  6
Continuous
 62
     3
100
AcDbLine
 10
5.187083999999999
 20
3.713112
 30
0.0
 11
5.187083999999999
 21
3.708112
 31
0.0
  0
LINE
  5
E8
330
A
100
AcDbEntity
  8
1
  6
Continuous
 62
    95
100
AcDbLine
 10
2.965746999999999
 20
4.220323999999999
 30
0.0
 11
2.966444
 21
4.220826
 31
0.0
  0
LINE
  5
E9
330
A
100
AcDbEntity
  8
1
  6
Continuous
 62
     5
100
AcDbLine
 10
2.720683
 20
4.086369999999999
 30
0.0
 11
2.720683
 21
3.987644
 31
0.0
  0
LINE
  5
EA
330
A
100
AcDbEntity
  8
1
  6
Continuous
 62
     6
100
AcDbLine
 10
5.791247
 20
4.234932999999999
 30
0.0
 11
5.913424
 21
4.236816
 31
0.0
  0
LINE
  5
EB
330
A
100
AcDbEntity
  8
1
  6
Continuous
 62
     5
100
AcDbLine
 10
2.777681
 20
3.768111
 30
0.0
 11
2.778379
 21
3.768808999999999
 31
0.0
  0
LINE
  5
EC
330
A
100
AcDbEntity
  8
1
  6
Continuous
 62
     5
100
AcDbLine
 10
4.411559999999999
 20
3.703112
 30
0.0
 11
4.411559999999999
 21
4.352253
 31
0.0
  0
LINE
  5
ED
330
A
100
AcDbEntity
  8
1
  6
Continuous
 62
    95
100
AcDbLine
 10
2.979499
 20
4.220441
 30
0.0
 11
2.980027999999999
 21
4.219685
 31
0.0
  0
LINE
  5
EE
330
A
100
AcDbEntity
  8
1
  6
Continuous
 62
     5
100
AcDbLine
 10
2.781681999999999
 20
4.086369999999999
 30
0.0
 11
2.784683
 21
4.086369999999999
 31
0.0
  0
LINE
  5
EF
330
A
100
AcDbEntity
  8
1
  6
Continuous
 62
     5
100
AcDbLine
 10
2.760683
 20
4.086369999999999
 30
0.0
 11
2.763683
 21
4.086369999999999
 31
0.0
  0
LINE
  5
F0
330
A
100
AcDbEntity
  8
1
  6
Continuous
 62
     5
100
AcDbLine
 10
2.996682999999999
 20
4.145469999999999
 30
0.0
 11
2.748683
 21
4.145469999999999
 31
0.0
  0
LINE
  5
F1
330
A
100
AcDbEntity
  8
1
  6
Continuous
 62
     5
100
AcDbLine
 10
4.411559999999999
 20
4.408965
 30
0.0
 11
4.416473
 21
4.413963999999999
 31
0.0
  0
LINE
  5
F2
330
A
100
AcDbEntity
  8
1
  6
Continuous
 62
     3
100
AcDbLine
 10
3.185839
 20
4.387916
 30
0.0
 11
3.189303999999999
 21
4.352897
 31
0.0
  0
LINE
  5
F3
330
A
100
AcDbEntity
  8
1
  6
Continuous
 62
    95
100
AcDbLine
 10
2.784225999999999
 20
4.207174
 30
0.0
 11
2.780307
 21
4.207174
 31
0.0
  0
LINE
  5
F4
330
A
100
AcDbEntity
  8
1
  6
Continuous
 62
     5
100
AcDbLine
 10
2.840683
 20
3.987644
 30
0.0
 11
2.824683
 21
3.987644
 31
0.0
  0
LINE
  5
F5
330
A
100
AcDbEntity
  8
1
  6
Continuous
 62
     6
100
AcDbLine
 10
5.646307
 20
4.316936
 30
0.0
 11
5.644312999999999
 21
4.316507999999999
 31
0.0
  0
LINE
  5
F6
330
A
100
AcDbEntity
  8
1
  6
Continuous
 62
     5
100
AcDbLine
 10
3.110546999999999
 20
4.408965
 30
0.0
 11
3.110632999999999
 21
4.413963999999999
 31
0.0
  0
LINE
  5
F7
330
A
100
AcDbEntity
  8
1
  6
Continuous
 62
     6
100
AcDbLine
 10
5.720087
 20
4.269735999999999
 30
0.0
 11
5.720087
 21
4.314161
 31
0.0
  0
LINE
  5
F8
330
A
100
AcDbEntity
  8
1
  6
Continuous
 62
     5
100
AcDbLine
 10
4.932297
 20
3.703112
 30
0.0
 11
4.932297
 21
3.757312999999999
 31
0.0
  0
LINE
  5
F9
330
A
100
AcDbEntity
  8
1
  6
Continuous
 62
    95
100
AcDbLine
 10
2.78155
 20
4.212174
 30
0.0
 11
2.787687
 21
4.212174
 31
0.0
  0
LINE
  5
FA
330
A
100
AcDbEntity
  8
1
  6
Continuous
 62
     5
100
AcDbLine
 10
2.883682999999999
 20
4.086369999999999
 30
0.0
 11
2.880683
 21
4.086369999999999
 31
0.0
  0
LINE
  5
FB
330
A
100
AcDbEntity
  8
1
  6
Continuous
 62
     5
100
AcDbLine
 10
4.509559999999999
 20
4.41059
 30
0.0
 11
4.932267999999999
 21
4.417968
 31
0.0
  0
LINE
  5
FC
330
A
100
AcDbEntity
  8
1
  6
Continuous
 62
    95
100
AcDbLine
 10
2.772683
 20
4.207211
 30
0.0
 11
2.777566999999999
 21
4.208187999999999
 31
0.0
  0
LINE
  5
FD
330
A
100
AcDbEntity
  8
1
  6
Continuous
 62
     5
100
AcDbLine
 10
2.960682999999999
 20
4.086369999999999
 30
0.0
 11
2.960682999999999
 21
3.987644
 31
0.0
  0
LINE
  5
FE
330
A
100
AcDbEntity
  8
1
  6
Continuous
 62
     5
100
AcDbLine
 10
2.688556
 20
3.987543
 30
0.0
 11
2.685595999999999
 21
3.987298
 31
0.0
  0
LINE
  5
FF
330
A
100
AcDbEntity
  8
1
  6
Continuous
 62
     5
100
AcDbLine
 10
4.401559999999999
 20
3.921739
 30
0.0
 11
4.411559999999999
 21
3.921739
 31
0.0
  0
LINE
  5
100
330
A
100
AcDbEntity
  8
1
  6
Continuous
 62
    95
100
AcDbLine
 10
2.764963
 20
4.218208999999999
 30
0.0
 11
2.764963
 21
4.210139999999999
 31
0.0
  0
LINE
  5
101
330
A
100
AcDbEntity
  8
1
  6
Continuous
 62
     5
100
AcDbLine
 10
2.684483
 20
4.292739
 30
0.0
 11
2.684483
 21
4.242739
 31
0.0
  0
LINE
  5
102
330
A
100
AcDbEntity
  8
1
  6
Continuous
 62
     5
100
AcDbLine
 10
4.932273999999999
 20
4.422687999999999
 30
0.0
 11
4.932297
 21
4.422968
 31
0.0
  0
LINE
  5
103
330
A
100
AcDbEntity
  8
1
  6
Continuous
 62
    95
100
AcDbLine
 10
2.763815
 20
4.212174
 30
0.0
 11
2.763815
 21
4.216173999999999
 31
0.0
  0
LINE
  5
104
330
A
100
AcDbEntity
  8
1
  6
Continuous
 62
     5
100
AcDbLine
 10
2.633108
 20
4.353963999999999
 30
0.0
 11
2.634818999999999
 21
4.352253
 31
0.0
  0
LINE
  5
105
330
A
100
AcDbEntity
  8
1
  6
Continuous
 62
   151
100
AcDbLine
 10
5.677044
 20
3.745451
 30
0.0
 11
5.652044
 21
3.759883999999999
 31
0.0
  0
LINE
  5
106
330
A
100
AcDbEntity
  8
1
  6
Continuous
 62
    95
100
AcDbLine
 10
2.780159999999999
 20
4.218491999999999
 30
0.0
 11
2.780000999999999
 21
4.219748
 31
0.0
  0
LINE
  5
107
330
A
100
AcDbEntity
  8
1
  6
Continuous
 62
     5
100
AcDbLine
 10
3.185038
 20
4.417968
 30
0.0
 11
3.185038999999999
 21
4.417891
 31
0.0
  0
LINE
  5
108
330
A
100
AcDbEntity
  8
1
  6
Continuous
 62
   151
100
AcDbLine
 10
5.583295999999999
 20
4.269555
 30
0.0
 11
5.552044
 21
4.269555
 31
0.0
  0
LINE
  5
109
330
A
100
AcDbEntity
  8
1
  6
Continuous
 62
    95
100
AcDbLine
 10
2.767276999999999
 20
4.221093999999999
 30
0.0
 11
2.766499
 21
4.220851
 31
0.0
  0
LINE
  5
10A
330
A
100
AcDbEntity
  8
1
  6
Continuous
 62
     5
100
AcDbLine
 10
2.996682999999999
 20
4.192738999999999
 30
0.0
 11
2.996682999999999
 21
4.232738999999999
 31
0.0
  0
LINE
  5
10B
330
A
100
AcDbEntity
  8
1
  6
Continuous
 62
   151
100
AcDbLine
 10
5.426060999999999
 20
3.973589
 30
0.0
 11
5.639765
 21
3.759883999999999
 31
0.0
  0
LINE
  5
10C
330
A
100
AcDbEntity
  8
1
  6
Continuous
 62
   151
100
AcDbLine
 10
2.770502
 20
4.200851
 30
0.0
 11
2.770265999999999
 21
4.207174
 31
0.0
  0
LINE
  5
10D
330
A
100
AcDbEntity
  8
1
  6
Continuous
 62
    30
100
AcDbLine
 10
2.901683
 20
3.964207
 30
0.0
 11
2.901683
 21
4.095206
 31
0.0
  0
LINE
  5
10E
330
A
100
AcDbEntity
  8
1
  6
Continuous
 62
     5
100
AcDbLine
 10
3.107183
 20
4.232738999999999
 30
0.0
 11
3.109465999999999
 21
4.235022999999999
 31
0.0
  0
LINE
  5
10F
330
A
100
AcDbEntity
  8
1
  6
Continuous
 62
   151
100
AcDbLine
 10
5.628248999999999
 20
3.771398
 30
0.0
 11
5.632222
 21
3.771329
 31
0.0
  0
LINE
  5
110
330
A
100
AcDbEntity
  8
1
  6
Continuous
 62
     2
100
AcDbLine
 10
2.704685
 20
3.983884999999999
 30
0.0
 11
2.704339
 21
3.964067
 31
0.0
  0
LINE
  5
111
330
A
100
AcDbEntity
  8
1
  6
Continuous
 62
     5
100
AcDbLine
 10
3.015201999999999
 20
4.251257999999999
 30
0.0
 11
3.026683
 21
4.262738999999999
 31
0.0
  0
LINE
  5
112
330
A
100
AcDbEntity
  8
1
  6
Continuous
 62
     3
100
AcDbLine
 10
5.641219
 20
3.784047
 30
0.0
 11
5.636917999999999
 21
3.784047
 31
0.0
  0
LINE
  5
113
330
A
100
AcDbEntity
  8
1
  6
Continuous
 62
     2
100
AcDbLine
 10
2.800683
 20
3.983884999999999
 30
0.0
 11
2.801025999999999
 21
3.964205999999999
 31
0.0
  0
LINE
  5
114
330
A
100
AcDbEntity
  8
1
  6
Continuous
 62
     3
100
AcDbLine
 10
3.189458999999999
 20
4.347767
 30
0.0
 11
3.189519999999999
 21
4.338124999999999
 31
0.0
  0
LINE
  5
115
330
A
100
AcDbEntity
  8
1
  6
Continuous
 62
     5
100
AcDbLine
 10
2.96147
 20
4.307526
 30
0.0
 11
2.954966
 21
4.301023
 31
0.0
  0
LINE
  5
116
330
A
100
AcDbEntity
  8
1
  6
Continuous
 62
     3
100
AcDbLine
 10
5.81203
 20
4.117062
 30
0.0
 11
5.81203
 21
3.941285999999999
 31
0.0
  0
LINE
  5
117
330
A
100
AcDbEntity
  8
1
  6
Continuous
 62
     2
100
AcDbLine
 10
2.880683
 20
3.983884999999999
 30
0.0
 11
2.864684999999999
 21
3.983884999999999
 31
0.0
  0
LINE
  5
118
330
A
100
AcDbEntity
  8
1
  6
Continuous
 62
     5
100
AcDbLine
 10
3.184265
 20
4.420632
 30
0.0
 11
3.183150999999999
 21
4.421878999999999
 31
0.0
  0
LINE
  5
119
330
A
100
AcDbEntity
  8
1
  6
Continuous
 62
     3
100
AcDbLine
 10
5.772229
 20
4.253810999999999
 30
0.0
 11
5.641219
 21
4.253619999999999
 31
0.0
  0
LINE
  5
11A
330
A
100
AcDbEntity
  8
1
  6
Continuous
 62
     2
100
AcDbLine
 10
2.984684999999999
 20
3.983884999999999
 30
0.0
 11
2.984341
 21
3.964205999999999
 31
0.0
  0
LINE
  5
11B
330
A
100
AcDbEntity
  8
1
  6
Continuous
 62
     5
100
AcDbLine
 10
2.681392999999999
 20
4.295829
 30
0.0
 11
2.681392999999999
 21
4.262738999999999
 31
0.0
  0
LINE
  5
11C
330
A
100
AcDbEntity
  8
1
  6
Continuous
 62
     3
100
AcDbLine
 10
5.775875
 20
3.736237999999999
 30
0.0
 11
5.742753999999999
 21
3.703116999999999
 31
0.0
  0
LINE
  5
11D
330
A
100
AcDbEntity
  8
1
  6
Continuous
 62
     6
100
AcDbLine
 10
5.72944
 20
4.315744
 30
0.0
 11
5.729219
 21
4.316207
 31
0.0
  0
LINE
  5
11E
330
A
100
AcDbEntity
  8
1
  6
Continuous
 62
     5
100
AcDbLine
 10
2.984683
 20
4.086369999999999
 30
0.0
 11
2.981683
 21
4.086369999999999
 31
0.0
  0
LINE
  5
11F
330
A
100
AcDbEntity
  8
1
  6
Continuous
 62
     7
100
AcDbLine
 10
2.963682999999999
 20
3.964207
 30
0.0
 11
2.963682999999999
 21
4.102248999999999
 31
0.0
  0
LINE
  5
120
330
A
100
AcDbEntity
  8
1
  6
Continuous
 62
     5
100
AcDbLine
 10
2.685595999999999
 20
4.017052999999999
 30
0.0
 11
2.682068999999999
 21
4.013524999999999
 31
0.0
  0
LINE
  5
121
330
A
100
AcDbEntity
  8
1
  6
Continuous
 62
     3
100
AcDbLine
 10
5.639241999999999
 20
4.269618
 30
0.0
 11
5.641219
 21
4.269620999999999
 31
0.0
  0
LINE
  5
122
330
A
100
AcDbEntity
  8
1
  6
Continuous
 62
     5
100
AcDbLine
 10
3.024683
 20
3.987644
 30
0.0
 11
3.107183
 21
3.987644
 31
0.0
  0
LINE
  5
123
330
A
100
AcDbEntity
  8
1
  6
Continuous
 62
     3
100
AcDbLine
 10
2.770246999999999
 20
4.226957999999999
 30
0.0
 11
2.768634999999999
 21
4.227052999999999
 31
0.0
  0
LINE
  5
124
330
A
100
AcDbEntity
  8
1
  6
Continuous
 62
     5
100
AcDbLine
 10
2.679109999999999
 20
4.013524999999999
 30
0.0
 11
2.682068999999999
 21
4.013524999999999
 31
0.0
  0
LINE
  5
125
330
A
100
AcDbEntity
  8
1
  6
Continuous
 62
     3
100
AcDbLine
 10
5.772048999999999
 20
4.265125
 30
0.0
 11
5.772229
 21
4.253810999999999
 31
0.0
  0
LINE
  5
126
330
A
100
AcDbEntity
  8
1
  6
Continuous
 62
     6
100
AcDbLine
 10
5.703444
 20
4.316864999999999
 30
0.0
 11
5.703443
 21
4.315642999999999
 31
0.0
  0
LINE
  5
127
330
A
100
AcDbEntity
  8
1
  6
Continuous
 62
     5
100
AcDbLine
 10
2.608370999999999
 20
4.013633999999999
 30
0.0
 11
2.609698999999999
 21
4.0144
 31
0.0
  0
LINE
  5
128
330
A
100
AcDbEntity
  8
1
  6
Continuous
 62
     5
100
AcDbLine
 10
2.681392999999999
 20
4.295829
 30
0.0
 11
2.678433
 21
4.298789
 31
0.0
  0
LINE
  5
129
330
A
100
AcDbEntity
  8
1
  6
Continuous
 62
     3
100
AcDbLine
 10
5.807539
 20
3.941712999999999
 30
0.0
 11
5.796587999999999
 21
3.942686
 31
0.0
  0
LINE
  5
12A
330
A
100
AcDbEntity
  8
1
  6
Continuous
 62
     5
100
AcDbLine
 10
2.629395999999999
 20
4.241526
 30
0.0
 11
2.619663
 21
4.251257999999999
 31
0.0
  0
LINE
  5
12B
330
A
100
AcDbEntity
  8
1
  6
Continuous
 62
     6
100
AcDbLine
 10
5.642914
 20
4.315649999999999
 30
0.0
 11
5.642328
 21
4.315064999999999
 31
0.0
  0
LINE
  5
12C
330
A
100
AcDbEntity
  8
1
  6
Continuous
 62
     5
100
AcDbLine
 10
2.860252999999999
 20
4.306701
 30
0.0
 11
2.860183
 21
4.291699999999999
 31
0.0
  0
LINE
  5
12D
330
A
100
AcDbEntity
  8
1
  6
Continuous
 62
     6
100
AcDbLine
 10
5.788424
 20
4.28408
 30
0.0
 11
5.788424
 21
4.274835999999999
 31
0.0
  0
LINE
  5
12E
330
A
100
AcDbEntity
  8
1
  6
Continuous
 62
     5
100
AcDbLine
 10
2.762682999999999
 20
4.379998
 30
0.0
 11
2.982683
 21
4.379998
 31
0.0
  0
LINE
  5
12F
330
A
100
AcDbEntity
  8
1
  6
Continuous
 62
   151
100
AcDbLine
 10
2.974863999999999
 20
4.227497
 30
0.0
 11
2.975099999999999
 21
4.221173999999999
 31
0.0
  0
LINE
  5
130
330
A
100
AcDbEntity
  8
1
  6
Continuous
 62
     3
100
AcDbLine
 10
5.138033
 20
4.352897
 30
0.0
 11
5.146918
 21
4.347767
 31
0.0
  0
LINE
  5
131
330
A
100
AcDbEntity
  8
1
  6
Continuous
 62
     6
100
AcDbLine
 10
5.646612
 20
4.316944999999999
 30
0.0
 11
5.647510999999999
 21
4.316968
 31
0.0
  0
LINE
  5
132
330
A
100
AcDbEntity
  8
1
  6
Continuous
 62
     5
100
AcDbLine
 10
2.798119999999999
 20
4.338739
 30
0.0
 11
2.798443
 21
4.306701
 31
0.0
  0
LINE
  5
133
330
A
100
AcDbEntity
  8
1
  6
Continuous
 62
     6
100
AcDbLine
 10
5.647510999999999
 20
4.316968
 30
0.0
 11
5.648177999999999
 21
4.316985999999999
 31
0.0
  0
LINE
  5
134
330
A
100
AcDbEntity
  8
1
  6
Continuous
 62
     5
100
AcDbLine
 10
2.67207
 20
4.013524999999999
 30
0.0
 11
2.608183
 21
4.013524999999999
 31
0.0
  0
LINE
  5
135
330
A
100
AcDbEntity
  8
1
  6
Continuous
 62
     3
100
AcDbLine
 10
4.554910999999999
 20
3.761698
 30
0.0
 11
4.550518
 21
3.772304
 31
0.0
  0
LINE
  5
136
330
A
100
AcDbEntity
  8
1
  6
Continuous
 62
     5
100
AcDbLine
 10
2.861911999999999
 20
4.344749
 30
0.0
 11
2.865674999999999
 21
4.349832
 31
0.0
  0
LINE
  5
137
330
A
100
AcDbEntity
  8
1
  6
Continuous
 62
     6
100
AcDbLine
 10
5.747662
 20
4.317273999999999
 30
0.0
 11
5.778685
 21
4.316461
 31
0.0
  0
LINE
  5
138
330
A
100
AcDbEntity
  8
1
  6
Continuous
 62
     5
100
AcDbLine
 10
2.671568
 20
4.232738999999999
 30
0.0
 11
2.638183
 21
4.232738999999999
 31
0.0
  0
LINE
  5
139
330
A
100
AcDbEntity
  8
1
  6
Continuous
 62
     5
100
AcDbLine
 10
2.634818999999999
 20
4.352253
 30
0.0
 11
2.574329999999999
 21
4.352253
 31
0.0
  0
LINE
  5
13A
330
A
100
AcDbEntity
  8
1
  6
Continuous
 62
     3
100
AcDbLine
 10
5.150426
 20
4.338124999999999
 30
0.0
 11
5.150426
 21
4.337710999999999
 31
0.0
  0
LINE
  5
13B
330
A
100
AcDbEntity
  8
1
  6
Continuous
 62
     6
100
AcDbLine
 10
5.673881999999999
 20
4.3127
 30
0.0
 11
5.650661
 21
4.311831999999999
 31
0.0
  0
LINE
  5
13C
330
A
100
AcDbEntity
  8
1
  6
Continuous
 62
     5
100
AcDbLine
 10
3.02544
 20
3.964616999999999
 30
0.0
 11
3.024615
 21
3.964205
 31
0.0
  0
LINE
  5
13D
330
A
100
AcDbEntity
  8
1
  6
Continuous
 62
     5
100
AcDbLine
 10
2.762682999999999
 20
3.817112999999999
 30
0.0
 11
2.762682999999999
 21
3.783108
 31
0.0
  0
LINE
  5
13E
330
A
100
AcDbEntity
  8
1
  6
Continuous
 62
     3
100
AcDbLine
 10
5.185559999999999
 20
3.757303999999999
 30
0.0
 11
5.185559999999999
 21
4.322710999999999
 31
0.0
  0
LINE
  5
13F
330
A
100
AcDbEntity
  8
1
  6
Continuous
 62
     5
100
AcDbLine
 10
2.872766999999999
 20
4.353397
 30
0.0
 11
2.875904
 21
4.353737999999999
 31
0.0
  0
LINE
  5
140
330
A
100
AcDbEntity
  8
1
  6
Continuous
 62
     6
100
AcDbLine
 10
5.739219
 20
4.311323
 30
0.0
 11
5.729373
 21
4.313544999999999
 31
0.0
  0
LINE
  5
141
330
A
100
AcDbEntity
  8
1
  6
Continuous
 62
     5
100
AcDbLine
 10
2.945439999999999
 20
3.964616999999999
 30
0.0
 11
2.959925
 21
3.964616999999999
 31
0.0
  0
LINE
  5
142
330
A
100
AcDbEntity
  8
1
  6
Continuous
 62
     3
100
AcDbLine
 10
5.517044
 20
4.306636
 30
0.0
 11
5.475483999999999
 21
4.306636
 31
0.0
  0
LINE
  5
143
330
A
100
AcDbEntity
  8
1
  6
Continuous
 62
     6
100
AcDbLine
 10
5.724428999999999
 20
4.317881999999999
 30
0.0
 11
5.725281999999999
 21
4.317859999999999
 31
0.0
  0
LINE
  5
144
330
A
100
AcDbEntity
  8
1
  6
Continuous
 62
     5
100
AcDbLine
 10
2.879925
 20
3.964616999999999
 30
0.0
 11
2.880749999999999
 21
3.964205
 31
0.0
  0
LINE
  5
145
330
A
100
AcDbEntity
  8
1
  6
Continuous
 62
     3
100
AcDbLine
 10
5.55656
 20
3.80445
 30
0.0
 11
5.55656
 21
3.772304
 31
0.0
  0
LINE
  5
146
330
A
100
AcDbEntity
  8
1
  6
Continuous
 62
     3
100
AcDbLine
 10
2.793874
 20
4.303548999999999
 30
0.0
 11
2.798472
 21
4.303548999999999
 31
0.0
  0
LINE
  5
147
330
A
100
AcDbEntity
  8
1
  6
Continuous
 62
     6
100
AcDbLine
 10
5.788424
 20
4.306465
 30
0.0
 11
5.785586
 21
4.306465
 31
0.0
  0
LINE
  5
148
330
A
100
AcDbEntity
  8
1
  6
Continuous
 62
     5
100
AcDbLine
 10
2.824615
 20
3.964205
 30
0.0
 11
2.800749999999999
 21
3.964205
 31
0.0
  0
LINE
  5
149
330
A
100
AcDbEntity
  8
1
  6
Continuous
 62
    95
100
AcDbLine
 10
2.963839
 20
4.216237999999999
 30
0.0
 11
2.963815
 21
4.216173999999999
 31
0.0
  0
LINE
  5
14A
330
A
100
AcDbEntity
  8
1
  6
Continuous
 62
     5
100
AcDbLine
 10
2.798052
 20
4.344005
 30
0.0
 11
2.797877
 21
4.351198
 31
0.0
  0
LINE
  5
14B
330
A
100
AcDbEntity
  8
1
  6
Continuous
 62
     6
100
AcDbLine
 10
5.641659999999999
 20
4.311514999999999
 30
0.0
 11
5.640924
 21
4.311409999999999
 31
0.0
  0
LINE
  5
14C
330
A
100
AcDbEntity
  8
1
  6
Continuous
 62
     5
100
AcDbLine
 10
2.74544
 20
3.964616999999999
 30
0.0
 11
2.744615
 21
3.964205
 31
0.0
  0
LINE
  5
14D
330
A
100
AcDbEntity
  8
1
  6
Continuous
 62
     3
100
AcDbLine
 10
2.553522
 20
4.347767
 30
0.0
 11
2.553460999999999
 21
4.338124999999999
 31
0.0
  0
LINE
  5
14E
330
A
100
AcDbEntity
  8
1
  6
Continuous
 62
     3
100
AcDbLine
 10
5.201559999999999
 20
3.725372
 30
0.0
 11
5.201559999999999
 21
3.727304
 31
0.0
  0
LINE
  5
14F
330
A
100
AcDbEntity
  8
1
  6
Continuous
 62
     5
100
AcDbLine
 10
2.860183
 20
4.291699999999999
 30
0.0
 11
2.860183
 21
4.232738999999999
 31
0.0
  0
LINE
  5
150
330
A
100
AcDbEntity
  8
1
  6
Continuous
 62
     6
100
AcDbLine
 10
5.729823999999999
 20
4.275043
 30
0.0
 11
5.731423
 21
4.275083999999999
 31
0.0
  0
LINE
  5
151
330
A
100
AcDbEntity
  8
1
  6
Continuous
 62
     5
100
AcDbLine
 10
3.180038999999999
 20
4.422968
 30
0.0
 11
3.17266
 21
4.415588999999999
 31
0.0
  0
LINE
  5
152
330
A
100
AcDbEntity
  8
1
  6
Continuous
 62
     3
100
AcDbLine
 10
5.201559999999999
 20
3.708112
 30
0.0
 11
5.201559999999999
 21
3.708496999999999
 31
0.0
  0
LINE
  5
153
330
A
100
AcDbEntity
  8
1
  6
Continuous
 62
    95
100
AcDbLine
 10
2.972682999999999
 20
4.207211
 30
0.0
 11
2.972682999999999
 21
4.214173999999999
 31
0.0
  0
LINE
  5
154
330
A
100
AcDbEntity
  8
1
  6
Continuous
 62
     5
100
AcDbLine
 10
2.748683
 20
4.305829
 30
0.0
 11
2.748683
 21
4.298789
 31
0.0
  0
LINE
  5
155
330
A
100
AcDbEntity
  8
1
  6
Continuous
 62
     6
100
AcDbLine
 10
5.913424
 20
4.270197
 30
0.0
 11
5.913424
 21
4.264816
 31
0.0
  0
LINE
  5
156
330
A
100
AcDbEntity
  8
1
  6
Continuous
 62
     5
100
AcDbLine
 10
2.560327
 20
4.384726
 30
0.0
 11
2.560327
 21
4.423003999999999
 31
0.0
  0
LINE
  5
157
330
A
100
AcDbEntity
  8
1
  6
Continuous
 62
     3
100
AcDbLine
 10
5.652655
 20
3.713112
 30
0.0
 11
5.642049
 21
3.713112
 31
0.0
  0
LINE
  5
158
330
A
100
AcDbEntity
  8
1
  6
Continuous
 62
    95
100
AcDbLine
 10
2.977996
 20
4.208369999999999
 30
0.0
 11
2.972682999999999
 21
4.207211
 31
0.0
  0
LINE
  5
159
330
A
100
AcDbEntity
  8
1
  6
Continuous
 62
     5
100
AcDbLine
 10
2.682068999999999
 20
3.956020999999999
 30
0.0
 11
2.681429999999999
 21
3.952365
 31
0.0
  0
LINE
  5
15A
330
A
100
AcDbEntity
  8
1
  6
Continuous
 62
     6
100
AcDbLine
 10
5.913424
 20
4.234071
 30
0.0
 11
5.913424
 21
4.22738
 31
0.0
  0
LINE
  5
15B
330
A
100
AcDbEntity
  8
1
  6
Continuous
 62
     5
100
AcDbLine
 10
2.778379
 20
3.768808999999999
 30
0.0
 11
2.966986999999999
 21
3.768808999999999
 31
0.0
  0
LINE
  5
15C
330
A
100
AcDbEntity
  8
1
  6
Continuous
 62
     6
100
AcDbLine
 10
5.729824999999999
 20
4.314303999999999
 30
0.0
 11
5.729824999999999
 21
4.269747999999999
 31
0.0
  0
LINE
  5
15D
330
A
100
AcDbEntity
  8
1
  6
Continuous
 62
     3
100
AcDbLine
 10
5.522048
 20
3.713112
 30
0.0
 11
5.511441999999999
 21
3.713112
 31
0.0
  0
LINE
  5
15E
330
A
100
AcDbEntity
  8
1
  6
Continuous
 62
    95
100
AcDbLine
 10
2.989754999999999
 20
4.212174
 30
0.0
 11
2.987686999999999
 21
4.212174
 31
0.0
  0
LINE
  5
15F
330
A
100
AcDbEntity
  8
1
  6
Continuous
 62
     5
100
AcDbLine
 10
3.115969999999999
 20
3.954951999999999
 30
0.0
 11
3.109465999999999
 21
3.961455
 31
0.0
  0
LINE
  5
160
330
A
100
AcDbEntity
  8
1
  6
Continuous
 62
     6
100
AcDbLine
 10
5.731423
 20
4.28315
 30
0.0
 11
5.731423
 21
4.275083999999999
 31
0.0
  0
LINE
  5
161
330
A
100
AcDbEntity
  8
1
  6
Continuous
 62
     5
100
AcDbLine
 10
2.763381
 20
3.816415
 30
0.0
 11
2.767773
 21
3.827019999999999
 31
0.0
  0
LINE
  5
162
330
A
100
AcDbEntity
  8
1
  6
Continuous
 62
     3
100
AcDbLine
 10
5.079833999999999
 20
3.713112
 30
0.0
 11
5.187083999999999
 21
3.713112
 31
0.0
  0
LINE
  5
163
330
A
100
AcDbEntity
  8
1
  6
Continuous
 62
    30
100
AcDbLine
 10
2.741683
 20
3.964207
 30
0.0
 11
2.741683
 21
4.095206
 31
0.0
  0
LINE
  5
164
330
A
100
AcDbEntity
  8
1
  6
Continuous
 62
    95
100
AcDbLine
 10
2.966444
 20
4.220826
 30
0.0
 11
2.967119999999999
 21
4.221060999999999
 31
0.0
  0
LINE
  5
165
330
A
100
AcDbEntity
  8
1
  6
Continuous
 62
     5
100
AcDbLine
 10
2.720683
 20
4.086369999999999
 30
0.0
 11
2.723683
 21
4.086369999999999
 31
0.0
  0
LINE
  5
166
330
A
100
AcDbEntity
  8
1
  6
Continuous
 62
     6
100
AcDbLine
 10
5.913424
 20
4.255380999999999
 30
0.0
 11
5.788424
 21
4.253455
 31
0.0
  0
LINE
  5
167
330
A
100
AcDbEntity
  8
1
  6
Continuous
 62
     5
100
AcDbLine
 10
2.966986999999999
 20
3.831412999999999
 30
0.0
 11
2.967684999999999
 21
3.832111
 31
0.0
  0
LINE
  5
168
330
A
100
AcDbEntity
  8
1
  6
Continuous
 62
     5
100
AcDbLine
 10
4.411559999999999
 20
4.408965
 30
0.0
 11
4.411559999999999
 21
4.352253
 31
0.0
  0
LINE
  5
169
330
A
100
AcDbEntity
  8
1
  6
Continuous
 62
    95
100
AcDbLine
 10
2.980027999999999
 20
4.219685
 30
0.0
 11
2.980159999999999
 21
4.218491999999999
 31
0.0
  0
LINE
  5
16A
330
A
100
AcDbEntity
  8
1
  6
Continuous
 62
     5
100
AcDbLine
 10
2.784683
 20
4.086369999999999
 30
0.0
 11
2.784683
 21
3.987644
 31
0.0
  0
LINE
  5
16B
330
A
100
AcDbEntity
  8
1
  6
Continuous
 62
     5
100
AcDbLine
 10
2.952683
 20
4.371959999999999
 30
0.0
 11
2.956701999999999
 21
4.375979
 31
0.0
  0
LINE
  5
16C
330
A
100
AcDbEntity
  8
1
  6
Continuous
 62
     5
100
AcDbLine
 10
4.401559999999999
 20
3.933739
 30
0.0
 11
4.411559999999999
 21
3.933739
 31
0.0
  0
LINE
  5
16D
330
A
100
AcDbEntity
  8
1
  6
Continuous
 62
     3
100
AcDbLine
 10
3.179311
 20
3.757303999999999
 30
0.0
 11
3.179125999999999
 21
3.761698
 31
0.0
  0
LINE
  5
16E
330
A
100
AcDbEntity
  8
1
  6
Continuous
 62
    95
100
AcDbLine
 10
2.780307
 20
4.207174
 30
0.0
 11
2.772683
 21
4.207174
 31
0.0
  0
LINE
  5
16F
330
A
100
AcDbEntity
  8
1
  6
Continuous
 62
     5
100
AcDbLine
 10
2.840683
 20
4.086369999999999
 30
0.0
 11
2.840683
 21
3.987644
 31
0.0
  0
LINE
  5
170
330
A
100
AcDbEntity
  8
1
  6
Continuous
 62
     6
100
AcDbLine
 10
5.650661
 20
4.31705
 30
0.0
 11
5.650621
 21
4.316683
 31
0.0
  0
LINE
  5
171
330
A
100
AcDbEntity
  8
1
  6
Continuous
 62
     5
100
AcDbLine
 10
2.634818999999999
 20
4.408965
 30
0.0
 11
2.634733
 21
4.413963999999999
 31
0.0
  0
LINE
  5
172
330
A
100
AcDbEntity
  8
1
  6
Continuous
 62
     5
100
AcDbLine
 10
4.932297
 20
4.387780999999999
 30
0.0
 11
4.932297
 21
4.417891
 31
0.0
  0
LINE
  5
173
330
A
100
AcDbEntity
  8
1
  6
Continuous
 62
     3
100
AcDbLine
 10
2.768634999999999
 20
4.201295
 30
0.0
 11
2.770246999999999
 21
4.201389999999999
 31
0.0
  0
LINE
  5
174
330
A
100
AcDbEntity
  8
1
  6
Continuous
 62
    95
100
AcDbLine
 10
2.787687
 20
4.212174
 30
0.0
 11
2.789754999999999
 21
4.212174
 31
0.0
  0
LINE
  5
175
330
A
100
AcDbEntity
  8
1
  6
Continuous
 62
     5
100
AcDbLine
 10
2.904683
 20
4.086369999999999
 30
0.0
 11
2.904683
 21
3.987644
 31
0.0
  0
LINE
  5
176
330
A
100
AcDbEntity
  8
1
  6
Continuous
 62
     6
100
AcDbLine
 10
5.70344
 20
4.318329
 30
0.0
 11
5.703444
 21
4.317795999999999
 31
0.0
  0
LINE
  5
177
330
A
100
AcDbEntity
  8
1
  6
Continuous
 62
     6
100
AcDbLine
 10
5.913424
 20
4.201068
 30
0.0
 11
5.797544
 21
4.199215
 31
0.0
  0
LINE
  5
178
330
A
100
AcDbEntity
  8
1
  6
Continuous
 62
     5
100
AcDbLine
 10
4.509559999999999
 20
4.353963999999999
 30
0.0
 11
4.509559999999999
 21
4.41059
 31
0.0
  0
LINE
  5
179
330
A
100
AcDbEntity
  8
1
  6
Continuous
 62
    95
100
AcDbLine
 10
2.777566999999999
 20
4.208187999999999
 30
0.0
 11
2.778939999999999
 21
4.208872
 31
0.0
  0
LINE
  5
17A
330
A
100
AcDbEntity
  8
1
  6
Continuous
 62
     5
100
AcDbLine
 10
2.574329999999999
 20
4.352253
 30
0.0
 11
2.569331
 21
4.352338999999999
 31
0.0
  0
LINE
  5
17B
330
A
100
AcDbEntity
  8
1
  6
Continuous
 62
     5
100
AcDbLine
 10
4.932267999999999
 20
4.417968
 30
0.0
 11
4.932185999999999
 21
4.418122
 31
0.0
  0
LINE
  5
17C
330
A
100
AcDbEntity
  8
1
  6
Continuous
 62
    95
100
AcDbLine
 10
2.764963
 20
4.210139999999999
 30
0.0
 11
2.765414999999999
 21
4.209645
 31
0.0
  0
LINE
  5
17D
330
A
100
AcDbEntity
  8
1
  6
Continuous
 62
   151
100
AcDbLine
 10
5.185061
 20
4.35236
 30
0.0
 11
5.180387
 21
4.352605
 31
0.0
  0
LINE
  5
17E
330
A
100
AcDbEntity
  8
1
  6
Continuous
 62
     3
100
AcDbLine
 10
5.583291
 20
4.269555
 30
0.0
 11
5.595659999999999
 21
4.269555
 31
0.0
  0
LINE
  5
17F
330
A
100
AcDbEntity
  8
1
  6
Continuous
 62
    95
100
AcDbLine
 10
2.764963
 20
4.210139999999999
 30
0.0
 11
2.763838999999999
 21
4.212111
 31
0.0
  0
LINE
  5
180
330
A
100
AcDbEntity
  8
1
  6
Continuous
 62
     5
100
AcDbLine
 10
3.185038999999999
 20
3.703112
 30
0.0
 11
3.185038999999999
 21
3.757312999999999
 31
0.0
  0
LINE
  5
181
330
A
100
AcDbEntity
  8
1
  6
Continuous
 62
   151
100
AcDbLine
 10
5.632222
 20
3.771329
 30
0.0
 11
5.652044999999999
 21
3.759883999999999
 31
0.0
  0
LINE
  5
182
330
A
100
AcDbEntity
  8
1
  6
Continuous
 62
    95
100
AcDbLine
 10
2.780000999999999
 20
4.219748
 30
0.0
 11
2.779618999999999
 21
4.220323999999999
 31
0.0
  0
LINE
  5
183
330
A
100
AcDbEntity
  8
1
  6
Continuous
 62
     5
100
AcDbLine
 10
2.981984999999999
 20
3.783806999999999
 30
0.0
 11
2.982683
 21
3.783108
 31
0.0
  0
LINE
  5
184
330
A
100
AcDbEntity
  8
1
  6
Continuous
 62
   151
100
AcDbLine
 10
5.161559999999999
 20
3.716215
 30
0.0
 11
5.132967999999999
 21
3.716714
 31
0.0
  0
LINE
  5
185
330
A
100
AcDbEntity
  8
1
  6
Continuous
 62
    95
100
AcDbLine
 10
2.766499
 20
4.220851
 30
0.0
 11
2.765866999999999
 21
4.220441
 31
0.0
  0
LINE
  5
186
330
A
100
AcDbEntity
  8
1
  6
Continuous
 62
     5
100
AcDbLine
 10
2.996682999999999
 20
4.298739
 30
0.0
 11
2.996682999999999
 21
4.232738999999999
 31
0.0
  0
LINE
  5
187
330
A
100
AcDbEntity
  8
1
  6
Continuous
 62
   151
100
AcDbLine
 10
5.426060999999999
 20
4.076853999999999
 30
0.0
 11
5.426060999999999
 21
3.973589
 31
0.0
  0
LINE
  5
188
330
A
100
AcDbEntity
  8
1
  6
Continuous
 62
    95
100
AcDbLine
 10
2.957677999999999
 20
4.216173999999999
 30
0.0
 11
2.963815
 21
4.216173999999999
 31
0.0
  0
LINE
  5
189
330
A
100
AcDbEntity
  8
1
  6
Continuous
 62
     5
100
AcDbLine
 10
3.109465999999999
 20
4.235022999999999
 30
0.0
 11
3.115969999999999
 21
4.241526
 31
0.0
  0
LINE
  5
18A
330
A
100
AcDbEntity
  8
1
  6
Continuous
 62
     2
100
AcDbLine
 10
2.720683
 20
3.983884999999999
 30
0.0
 11
2.721025999999999
 21
3.964205999999999
 31
0.0
  0
LINE
  5
18B
330
A
100
AcDbEntity
  8
1
  6
Continuous
 62
     5
100
AcDbLine
 10
3.026683
 20
4.328738999999999
 30
0.0
 11
3.015201999999999
 21
4.317257999999999
 31
0.0
  0
LINE
  5
18C
330
A
100
AcDbEntity
  8
1
  6
Continuous
 62
     3
100
AcDbLine
 10
5.636917999999999
 20
3.784047
 30
0.0
 11
5.626481
 21
3.784047
 31
0.0
  0
LINE
  5
18D
330
A
100
AcDbEntity
  8
1
  6
Continuous
 62
     2
100
AcDbLine
 10
2.800683
 20
3.983884999999999
 30
0.0
 11
2.784684999999999
 21
3.983884999999999
 31
0.0
  0
LINE
  5
18E
330
A
100
AcDbEntity
  8
1
  6
Continuous
 62
     5
100
AcDbLine
 10
2.954966
 20
4.301023
 30
0.0
 11
2.952683
 21
4.298739
 31
0.0
  0
LINE
  5
18F
330
A
100
AcDbEntity
  8
1
  6
Continuous
 62
     3
100
AcDbLine
 10
5.686219
 20
3.784047
 30
0.0
 11
5.686219
 21
3.719112
 31
0.0
  0
LINE
  5
190
330
A
100
AcDbEntity
  8
1
  6
Continuous
 62
   151
100
AcDbLine
 10
2.770246999999999
 20
4.200896
 30
0.0
 11
2.770246999999999
 21
4.207174
 31
0.0
  0
LINE
  5
191
330
A
100
AcDbEntity
  8
1
  6
Continuous
 62
     2
100
AcDbLine
 10
2.904684999999999
 20
3.983884999999999
 30
0.0
 11
2.904341
 21
3.964205999999999
 31
0.0
  0
LINE
  5
192
330
A
100
AcDbEntity
  8
1
  6
Continuous
 62
     5
100
AcDbLine
 10
3.183150999999999
 20
4.421878999999999
 30
0.0
 11
3.181688
 21
4.422687999999999
 31
0.0
  0
LINE
  5
193
330
A
100
AcDbEntity
  8
1
  6
Continuous
 62
     6
100
AcDbLine
 10
5.796669
 20
4.204181
 30
0.0
 11
5.913424
 21
4.206048
 31
0.0
  0
LINE
  5
194
330
A
100
AcDbEntity
  8
1
  6
Continuous
 62
     3
100
AcDbLine
 10
5.641219
 20
4.253619999999999
 30
0.0
 11
5.641219
 21
3.784047
 31
0.0
  0
LINE
  5
195
330
A
100
AcDbEntity
  8
1
  6
Continuous
 62
     6
100
AcDbLine
 10
5.729824999999999
 20
4.314517999999999
 30
0.0
 11
5.729824999999999
 21
4.314391999999999
 31
0.0
  0
LINE
  5
196
330
A
100
AcDbEntity
  8
1
  6
Continuous
 62
     2
100
AcDbLine
 10
3.000682999999999
 20
3.983884999999999
 30
0.0
 11
3.001025999999999
 21
3.964205999999999
 31
0.0
  0
LINE
  5
197
330
A
100
AcDbEntity
  8
1
  6
Continuous
 62
     3
100
AcDbLine
 10
5.742748999999999
 20
3.703112
 30
0.0
 11
5.686219
 21
3.703112
 31
0.0
  0
LINE
  5
198
330
A
100
AcDbEntity
  8
1
  6
Continuous
 62
     5
100
AcDbLine
 10
2.963682999999999
 20
4.086369999999999
 30
0.0
 11
2.960682999999999
 21
4.086369999999999
 31
0.0
  0
LINE
  5
199
330
A
100
AcDbEntity
  8
1
  6
Continuous
 62
     7
100
AcDbLine
 10
2.781683
 20
3.964207
 30
0.0
 11
2.781683
 21
4.102248999999999
 31
0.0
  0
LINE
  5
19A
330
A
100
AcDbEntity
  8
1
  6
Continuous
 62
     5
100
AcDbLine
 10
2.682068999999999
 20
4.013524999999999
 30
0.0
 11
2.682068999999999
 21
3.956020999999999
 31
0.0
  0
LINE
  5
19B
330
A
100
AcDbEntity
  8
1
  6
Continuous
 62
     3
100
AcDbLine
 10
5.641219
 20
4.269620999999999
 30
0.0
 11
5.771646999999999
 21
4.269810999999999
 31
0.0
  0
LINE
  5
19C
330
A
100
AcDbEntity
  8
1
  6
Continuous
 62
     5
100
AcDbLine
 10
2.996682999999999
 20
4.143492
 30
0.0
 11
2.996682999999999
 21
4.192738999999999
 31
0.0
  0
LINE
  5
19D
330
A
100
AcDbEntity
  8
1
  6
Continuous
 62
     3
100
AcDbLine
 10
2.765149
 20
4.225375999999999
 30
0.0
 11
2.770246999999999
 21
4.225375999999999
 31
0.0
  0
LINE
  5
19E
330
A
100
AcDbEntity
  8
1
  6
Continuous
 62
     5
100
AcDbLine
 10
2.67207
 20
4.013524999999999
 30
0.0
 11
2.67207
 21
4.020566
 31
0.0
  0
LINE
  5
19F
330
A
100
AcDbEntity
  8
1
  6
Continuous
 62
     5
100
AcDbLine
 10
2.609698999999999
 20
4.0144
 30
0.0
 11
2.619994999999999
 21
4.020051999999999
 31
0.0
  0
LINE
  5
1A0
330
A
100
AcDbEntity
  8
1
  6
Continuous
 62
     6
100
AcDbLine
 10
5.729219
 20
4.316207
 30
0.0
 11
5.728918
 21
4.316634999999999
 31
0.0
  0
LINE
  5
1A1
330
A
100
AcDbEntity
  8
1
  6
Continuous
 62
     5
100
AcDbLine
 10
2.678433
 20
4.298789
 30
0.0
 11
2.671393
 21
4.305829
 31
0.0
  0
LINE
  5
1A2
330
A
100
AcDbEntity
  8
1
  6
Continuous
 62
     3
100
AcDbLine
 10
5.73668
 20
3.719112
 30
0.0
 11
5.741144
 21
3.707939
 31
0.0
  0
LINE
  5
1A3
330
A
100
AcDbEntity
  8
1
  6
Continuous
 62
     5
100
AcDbLine
 10
2.619663
 20
4.251257999999999
 30
0.0
 11
2.608183
 21
4.262738999999999
 31
0.0
  0
LINE
  5
1A4
330
A
100
AcDbEntity
  8
1
  6
Continuous
 62
     6
100
AcDbLine
 10
5.642328
 20
4.315064999999999
 30
0.0
 11
5.641842999999999
 21
4.314394999999999
 31
0.0
  0
LINE
  5
1A5
330
A
100
AcDbEntity
  8
1
  6
Continuous
 62
     5
100
AcDbLine
 10
2.763381
 20
3.816415
 30
0.0
 11
2.762682999999999
 21
3.817112999999999
 31
0.0
  0
LINE
  5
1A6
330
A
100
AcDbEntity
  8
1
  6
Continuous
 62
     5
100
AcDbLine
 10
2.85852
 20
4.231075999999999
 30
0.0
 11
2.860183
 21
4.232738999999999
 31
0.0
  0
LINE
  5
1A7
330
A
100
AcDbEntity
  8
1
  6
Continuous
 62
     6
100
AcDbLine
 10
5.788424
 20
4.271633
 30
0.0
 11
5.788424
 21
4.273794
 31
0.0
  0
LINE
  5
1A8
330
A
100
AcDbEntity
  8
1
  6
Continuous
 62
     5
100
AcDbLine
 10
2.982683
 20
4.379998
 30
0.0
 11
2.982683
 21
4.328738999999999
 31
0.0
  0
LINE
  5
1A9
330
A
100
AcDbEntity
  8
1
  6
Continuous
 62
     3
100
AcDbLine
 10
5.146918
 20
4.347767
 30
0.0
 11
5.150426
 21
4.338124999999999
 31
0.0
  0
LINE
  5
1AA
330
A
100
AcDbEntity
  8
1
  6
Continuous
 62
     5
100
AcDbLine
 10
2.798443
 20
4.306701
 30
0.0
 11
2.860252999999999
 21
4.306701
 31
0.0
  0
LINE
  5
1AB
330
A
100
AcDbEntity
  8
1
  6
Continuous
 62
     6
100
AcDbLine
 10
5.720125
 20
4.317369999999999
 30
0.0
 11
5.720127999999999
 21
4.316872
 31
0.0
  0
LINE
  5
1AC
330
A
100
AcDbEntity
  8
1
  6
Continuous
 62
     6
100
AcDbLine
 10
5.648177999999999
 20
4.316985999999999
 30
0.0
 11
5.648925
 21
4.317004999999999
 31
0.0
  0
LINE
  5
1AD
330
A
100
AcDbEntity
  8
1
  6
Continuous
 62
     5
100
AcDbLine
 10
2.767075
 20
3.827717999999999
 30
0.0
 11
2.762682999999999
 21
3.817112999999999
 31
0.0
  0
LINE
  5
1AE
330
A
100
AcDbEntity
  8
1
  6
Continuous
 62
     5
100
AcDbLine
 10
2.574329999999999
 20
3.703112
 30
0.0
 11
3.171035999999999
 21
3.703112
 31
0.0
  0
LINE
  5
1AF
330
A
100
AcDbEntity
  8
1
  6
Continuous
 62
     3
100
AcDbLine
 10
5.180422
 20
4.322710999999999
 30
0.0
 11
5.165423999999999
 21
4.322710999999999
 31
0.0
  0
LINE
  5
1B0
330
A
100
AcDbEntity
  8
1
  6
Continuous
 62
     5
100
AcDbLine
 10
2.865674999999999
 20
4.349832
 30
0.0
 11
2.872766999999999
 21
4.353397
 31
0.0
  0
LINE
  5
1B1
330
A
100
AcDbEntity
  8
1
  6
Continuous
 62
     5
100
AcDbLine
 10
2.671568
 20
4.232738999999999
 30
0.0
 11
2.671479999999999
 21
4.236758
 31
0.0
  0
LINE
  5
1B2
330
A
100
AcDbEntity
  8
1
  6
Continuous
 62
     5
100
AcDbLine
 10
2.574329999999999
 20
3.703112
 30
0.0
 11
2.574329999999999
 21
4.352253
 31
0.0
  0
LINE
  5
1B3
330
A
100
AcDbEntity
  8
1
  6
Continuous
 62
     3
100
AcDbLine
 10
5.180422
 20
3.757303999999999
 30
0.0
 11
4.565516
 21
3.757303999999999
 31
0.0
  0
LINE
  5
1B4
330
A
100
AcDbEntity
  8
1
  6
Continuous
 62
     6
100
AcDbLine
 10
5.650661
 20
4.311831999999999
 30
0.0
 11
5.650661
 21
4.269631999999999
 31
0.0
  0
LINE
  5
1B5
330
A
100
AcDbEntity
  8
1
  6
Continuous
 62
     5
100
AcDbLine
 10
3.00075
 20
3.964205
 30
0.0
 11
3.024615
 21
3.964205
 31
0.0
  0
LINE
  5
1B6
330
A
100
AcDbEntity
  8
1
  6
Continuous
 62
     5
100
AcDbLine
 10
2.777681
 20
3.832111
 30
0.0
 11
2.767075
 21
3.827717999999999
 31
0.0
  0
LINE
  5
1B7
330
A
100
AcDbEntity
  8
1
  6
Continuous
 62
     3
100
AcDbLine
 10
5.18656
 20
4.322710999999999
 30
0.0
 11
5.185852999999999
 21
4.322710999999999
 31
0.0
  0
LINE
  5
1B8
330
A
100
AcDbEntity
  8
1
  6
Continuous
 62
     6
100
AcDbLine
 10
5.731423
 20
4.286271
 30
0.0
 11
5.729824999999999
 21
4.286312999999999
 31
0.0
  0
LINE
  5
1B9
330
A
100
AcDbEntity
  8
1
  6
Continuous
 62
     5
100
AcDbLine
 10
2.945439999999999
 20
3.964616999999999
 30
0.0
 11
2.944615
 21
3.964205
 31
0.0
  0
LINE
  5
1BA
330
A
100
AcDbEntity
  8
1
  6
Continuous
 62
     3
100
AcDbLine
 10
5.475483999999999
 20
4.306636
 30
0.0
 11
5.18656
 21
4.322710999999999
 31
0.0
  0
LINE
  5
1BB
330
A
100
AcDbEntity
  8
1
  6
Continuous
 62
     3
100
AcDbLine
 10
2.552937
 20
4.322710999999999
 30
0.0
 11
2.553199
 21
4.322710999999999
 31
0.0
  0
LINE
  5
1BC
330
A
100
AcDbEntity
  8
1
  6
Continuous
 62
     6
100
AcDbLine
 10
5.725281999999999
 20
4.317859999999999
 30
0.0
 11
5.725893
 21
4.317844
 31
0.0
  0
LINE
  5
1BD
330
A
100
AcDbEntity
  8
1
  6
Continuous
 62
     5
100
AcDbLine
 10
2.879925
 20
3.964616999999999
 30
0.0
 11
2.865439999999999
 21
3.964616999999999
 31
0.0
  0
LINE
  5
1BE
330
A
100
AcDbEntity
  8
1
  6
Continuous
 62
     3
100
AcDbLine
 10
2.860233
 20
4.303548999999999
 30
0.0
 11
2.952675999999999
 21
4.303548999999999
 31
0.0
  0
LINE
  5
1BF
330
A
100
AcDbEntity
  8
1
  6
Continuous
 62
     6
100
AcDbLine
 10
5.785586
 20
4.306465
 30
0.0
 11
5.778685
 21
4.306465
 31
0.0
  0
LINE
  5
1C0
330
A
100
AcDbEntity
  8
1
  6
Continuous
 62
     5
100
AcDbLine
 10
2.799925999999999
 20
3.964616999999999
 30
0.0
 11
2.800749999999999
 21
3.964205
 31
0.0
  0
LINE
  5
1C1
330
A
100
AcDbEntity
  8
1
  6
Continuous
 62
     3
100
AcDbLine
 10
5.532043999999999
 20
4.221476999999999
 30
0.0
 11
5.532043999999999
 21
4.291636
 31
0.0
  0
LINE
  5
1C2
330
A
100
AcDbEntity
  8
1
  6
Continuous
 62
     5
100
AcDbLine
 10
2.797877
 20
4.351198
 30
0.0
 11
2.797665999999999
 21
4.353739
 31
0.0
  0
LINE
  5
1C3
330
A
100
AcDbEntity
  8
1
  6
Continuous
 62
     6
100
AcDbLine
 10
5.729824999999999
 20
4.314303999999999
 30
0.0
 11
5.729087999999999
 21
4.314269
 31
0.0
  0
LINE
  5
1C4
330
A
100
AcDbEntity
  8
1
  6
Continuous
 62
     5
100
AcDbLine
 10
2.744615
 20
3.964205
 30
0.0
 11
2.720749999999999
 21
3.964205
 31
0.0
  0
LINE
  5
1C5
330
A
100
AcDbEntity
  8
1
  6
Continuous
 62
     3
100
AcDbLine
 10
5.201559999999999
 20
3.723733
 30
0.0
 11
5.507048999999999
 21
3.723733
 31
0.0
  0
LINE
  5
1C6
330
A
100
AcDbEntity
  8
1
  6
Continuous
 62
   151
100
AcDbLine
 10
2.952679999999999
 20
4.321477999999999
 30
0.0
 11
2.860406
 21
4.321477999999999
 31
0.0
  0
LINE
  5
1C7
330
A
100
AcDbEntity
  8
1
  6
Continuous
 62
    95
100
AcDbLine
 10
2.964963
 20
4.210139999999999
 30
0.0
 11
2.964963
 21
4.218208999999999
 31
0.0
  0
LINE
  5
1C8
330
A
100
AcDbEntity
  8
1
  6
Continuous
 62
     5
100
AcDbLine
 10
2.860183
 20
4.291699999999999
 30
0.0
 11
2.798513
 21
4.291699999999999
 31
0.0
  0
LINE
  5
1C9
330
A
100
AcDbEntity
  8
1
  6
Continuous
 62
     6
100
AcDbLine
 10
5.910966999999999
 20
4.188005
 30
0.0
 11
5.799864
 21
4.186066
 31
0.0
  0
LINE
  5
1CA
330
A
100
AcDbEntity
  8
1
  6
Continuous
 62
     5
100
AcDbLine
 10
2.872683
 20
4.422968
 30
0.0
 11
3.180038
 21
4.422968
 31
0.0
  0
LINE
  5
1CB
330
A
100
AcDbEntity
  8
1
  6
Continuous
 62
     3
100
AcDbLine
 10
5.201559999999999
 20
3.708496999999999
 30
0.0
 11
5.201559999999999
 21
3.709591
 31
0.0
  0
LINE
  5
1CC
330
A
100
AcDbEntity
  8
1
  6
Continuous
 62
     5
100
AcDbLine
 10
2.748683
 20
4.298789
 30
0.0
 11
2.748683
 21
4.295829
 31
0.0
  0
LINE
  5
1CD
330
A
100
AcDbEntity
  8
1
  6
Continuous
 62
     3
100
AcDbLine
 10
5.642049
 20
3.713112
 30
0.0
 11
5.642049
 21
3.708112
 31
0.0
  0
LINE
  5
1CE
330
A
100
AcDbEntity
  8
1
  6
Continuous
 62
    95
100
AcDbLine
 10
2.980402999999999
 20
4.218208999999999
 30
0.0
 11
2.980402999999999
 21
4.210139999999999
 31
0.0
  0
LINE
  5
1CF
330
A
100
AcDbEntity
  8
1
  6
Continuous
 62
     5
100
AcDbLine
 10
2.681429999999999
 20
3.952365
 30
0.0
 11
2.678595999999999
 21
3.945551
 31
0.0
  0
LINE
  5
1D0
330
A
100
AcDbEntity
  8
1
  6
Continuous
 62
     6
100
AcDbLine
 10
5.913424
 20
4.22738
 30
0.0
 11
5.913424
 21
4.208816
 31
0.0
  0
LINE
  5
1D1
330
A
100
AcDbEntity
  8
1
  6
Continuous
 62
     5
100
AcDbLine
 10
2.966986999999999
 20
3.768808999999999
 30
0.0
 11
2.977591999999999
 21
3.773201
 31
0.0
  0
LINE
  5
1D2
330
A
100
AcDbEntity
  8
1
  6
Continuous
 62
     3
100
AcDbLine
 10
5.511441999999999
 20
3.713112
 30
0.0
 11
5.507048999999999
 21
3.713112
 31
0.0
  0
LINE
  5
1D3
330
A
100
AcDbEntity
  8
1
  6
Continuous
 62
    95
100
AcDbLine
 10
2.987686999999999
 20
4.212174
 30
0.0
 11
2.98155
 21
4.212174
 31
0.0
  0
LINE
  5
1D4
330
A
100
AcDbEntity
  8
1
  6
Continuous
 62
     5
100
AcDbLine
 10
3.109465999999999
 20
3.961455
 30
0.0
 11
3.107183
 21
3.963738999999999
 31
0.0
  0
LINE
  5
1D5
330
A
100
AcDbEntity
  8
1
  6
Continuous
 62
     6
100
AcDbLine
 10
5.913424
 20
4.270197
 30
0.0
 11
5.913145
 21
4.271342999999999
 31
0.0
  0
LINE
  5
1D6
330
A
100
AcDbEntity
  8
1
  6
Continuous
 62
     5
100
AcDbLine
 10
2.767773
 20
3.827019999999999
 30
0.0
 11
2.778379
 21
3.831412999999999
 31
0.0
  0
LINE
  5
1D7
330
A
100
AcDbEntity
  8
1
  6
Continuous
 62
     3
100
AcDbLine
 10
5.055773
 20
3.708112
 30
0.0
 11
5.055773
 21
3.711480999999999
 31
0.0
  0
LINE
  5
1D8
330
A
100
AcDbEntity
  8
1
  6
Continuous
 62
    95
100
AcDbLine
 10
2.967119999999999
 20
4.221060999999999
 30
0.0
 11
2.967916999999999
 21
4.221167999999999
 31
0.0
  0
LINE
  5
1D9
330
A
100
AcDbEntity
  8
1
  6
Continuous
 62
     5
100
AcDbLine
 10
2.741683
 20
4.086369999999999
 30
0.0
 11
2.744683
 21
4.086369999999999
 31
0.0
  0
LINE
  5
1DA
330
A
100
AcDbEntity
  8
1
  6
Continuous
 62
     6
100
AcDbLine
 10
5.913424
 20
4.234138999999999
 30
0.0
 11
5.791718
 21
4.232264999999999
 31
0.0
  0
LINE
  5
1DB
330
A
100
AcDbEntity
  8
1
  6
Continuous
 62
     5
100
AcDbLine
 10
2.778379
 20
3.831412999999999
 30
0.0
 11
2.777681
 21
3.832111
 31
0.0
  0
LINE
  5
1DC
330
A
100
AcDbEntity
  8
1
  6
Continuous
 62
     5
100
AcDbLine
 10
4.509559999999999
 20
4.415588999999999
 30
0.0
 11
4.416473
 21
4.413963999999999
 31
0.0
  0
LINE
  5
1DD
330
A
100
AcDbEntity
  8
1
  6
Continuous
 62
    95
100
AcDbLine
 10
2.761139
 20
4.221173999999999
 30
0.0
 11
2.763647
 21
4.221173999999999
 31
0.0
  0
LINE
  5
1DE
330
A
100
AcDbEntity
  8
1
  6
Continuous
 62
     5
100
AcDbLine
 10
2.800683
 20
3.987644
 30
0.0
 11
2.784683
 21
3.987644
 31
0.0
  0
LINE
  5
1DF
330
A
100
AcDbEntity
  8
1
  6
Continuous
 62
     5
100
AcDbLine
 10
2.956701999999999
 20
4.375979
 30
0.0
 11
2.967683
 21
4.378921
 31
0.0
  0
LINE
  5
1E0
330
A
100
AcDbEntity
  8
1
  6
Continuous
 62
     6
100
AcDbLine
 10
5.79173
 20
4.232196
 30
0.0
 11
5.913424
 21
4.234071
 31
0.0
  0
LINE
  5
1E1
330
A
100
AcDbEntity
  8
1
  6
Continuous
 62
     5
100
AcDbLine
 10
4.401559999999999
 20
3.913738999999999
 30
0.0
 11
4.401559999999999
 21
3.916081999999999
 31
0.0
  0
LINE
  5
1E2
330
A
100
AcDbEntity
  8
1
  6
Continuous
 62
    95
100
AcDbLine
 10
2.772683
 20
4.207174
 30
0.0
 11
2.765058999999999
 21
4.207174
 31
0.0
  0
LINE
  5
1E3
330
A
100
AcDbEntity
  8
1
  6
Continuous
 62
     5
100
AcDbLine
 10
2.840683
 20
4.086369999999999
 30
0.0
 11
2.864683
 21
4.086369999999999
 31
0.0
  0
LINE
  5
1E4
330
A
100
AcDbEntity
  8
1
  6
Continuous
 62
     5
100
AcDbLine
 10
2.607683
 20
3.933739
 30
0.0
 11
3.137682999999999
 21
3.933739
 31
0.0
  0
LINE
  5
1E5
330
A
100
AcDbEntity
  8
1
  6
Continuous
 62
     5
100
AcDbLine
 10
4.932297
 20
3.703112
 30
0.0
 11
5.161559999999999
 21
3.718651999999999
 31
0.0
  0
LINE
  5
1E6
330
A
100
AcDbEntity
  8
1
  6
Continuous
 62
    95
100
AcDbLine
 10
2.78155
 20
4.212174
 30
0.0
 11
2.781527
 21
4.212111
 31
0.0
  0
LINE
  5
1E7
330
A
100
AcDbEntity
  8
1
  6
Continuous
 62
     5
100
AcDbLine
 10
2.904683
 20
3.987644
 30
0.0
 11
2.920683
 21
3.987644
 31
0.0
  0
LINE
  5
1E8
330
A
100
AcDbEntity
  8
1
  6
Continuous
 62
     6
100
AcDbLine
 10
5.703444
 20
4.317795999999999
 30
0.0
 11
5.703444
 21
4.316864999999999
 31
0.0
  0
LINE
  5
1E9
330
A
100
AcDbEntity
  8
1
  6
Continuous
 62
     5
100
AcDbLine
 10
2.569331
 20
4.352338999999999
 30
0.0
 11
2.567706
 21
4.353963999999999
 31
0.0
  0
LINE
  5
1EA
330
A
100
AcDbEntity
  8
1
  6
Continuous
 62
     5
100
AcDbLine
 10
4.416473
 20
4.352338999999999
 30
0.0
 11
4.509559999999999
 21
4.353963999999999
 31
0.0
  0
LINE
  5
1EB
330
A
100
AcDbEntity
  8
1
  6
Continuous
 62
    95
100
AcDbLine
 10
2.778939999999999
 20
4.208872
 30
0.0
 11
2.780402999999999
 21
4.210139999999999
 31
0.0
  0
LINE
  5
1EC
330
A
100
AcDbEntity
  8
1
  6
Continuous
 62
     5
100
AcDbLine
 10
2.792683
 20
4.298739
 30
0.0
 11
2.748683
 21
4.298739
 31
0.0
  0
LINE
  5
1ED
330
A
100
AcDbEntity
  8
1
  6
Continuous
 62
     5
100
AcDbLine
 10
4.932185999999999
 20
4.418122
 30
0.0
 11
4.932101999999999
 21
4.41848
 31
0.0
  0
LINE
  5
1EE
330
A
100
AcDbEntity
  8
1
  6
Continuous
 62
    95
100
AcDbLine
 10
2.765414999999999
 20
4.209645
 30
0.0
 11
2.76737
 21
4.208369999999999
 31
0.0
  0
LINE
  5
1EF
330
A
100
AcDbEntity
  8
1
  6
Continuous
 62
     6
100
AcDbLine
 10
5.729584
 20
4.315583999999999
 30
0.0
 11
5.729824999999999
 21
4.314303999999999
 31
0.0
  0
LINE
  5
1F0
330
A
100
AcDbEntity
  8
1
  6
Continuous
 62
     5
100
AcDbLine
 10
2.681554
 20
4.235668
 30
0.0
 11
2.674481999999999
 21
4.232738999999999
 31
0.0
  0
LINE
  5
1F1
330
A
100
AcDbEntity
  8
1
  6
Continuous
 62
   151
100
AcDbLine
 10
5.198061
 20
4.351678999999999
 30
0.0
 11
5.185061
 21
4.35236
 31
0.0
  0
LINE
  5
1F2
330
A
100
AcDbEntity
  8
1
  6
Continuous
 62
    95
100
AcDbLine
 10
2.763838999999999
 20
4.212111
 30
0.0
 11
2.763815
 21
4.212174
 31
0.0
  0
LINE
  5
1F3
330
A
100
AcDbEntity
  8
1
  6
Continuous
 62
     5
100
AcDbLine
 10
3.185038999999999
 20
4.387110999999999
 30
0.0
 11
3.185038999999999
 21
4.417891
 31
0.0
  0
LINE
  5
1F4
330
A
100
AcDbEntity
  8
1
  6
Continuous
 62
   151
100
AcDbLine
 10
5.677044
 20
3.719006999999999
 30
0.0
 11
5.507054
 21
3.71604
 31
0.0
  0
LINE
  5
1F5
330
A
100
AcDbEntity
  8
1
  6
Continuous
 62
    95
100
AcDbLine
 10
2.779618999999999
 20
4.220323999999999
 30
0.0
 11
2.778920999999999
 21
4.220826
 31
0.0
  0
LINE
  5
1F6
330
A
100
AcDbEntity
  8
1
  6
Continuous
 62
     5
100
AcDbLine
 10
2.981984999999999
 20
3.816415
 30
0.0
 11
2.982683
 21
3.817112999999999
 31
0.0
  0
LINE
  5
1F7
330
A
100
AcDbEntity
  8
1
  6
Continuous
 62
   151
100
AcDbLine
 10
5.552044
 20
4.269555
 30
0.0
 11
5.552044
 21
4.202837
 31
0.0
  0
LINE
  5
1F8
330
A
100
AcDbEntity
  8
1
  6
Continuous
 62
     3
100
AcDbLine
 10
3.179125999999999
 20
3.761698
 30
0.0
 11
3.179049
 21
3.772304
 31
0.0
  0
LINE
  5
1F9
330
A
100
AcDbEntity
  8
1
  6
Continuous
 62
    95
100
AcDbLine
 10
2.765866999999999
 20
4.220441
 30
0.0
 11
2.765338
 21
4.219685
 31
0.0
  0
LINE
  5
1FA
330
A
100
AcDbEntity
  8
1
  6
Continuous
 62
     5
100
AcDbLine
 10
3.112257
 20
4.415588999999999
 30
0.0
 11
3.112257
 21
4.353963999999999
 31
0.0
  0
LINE
  5
1FB
330
A
100
AcDbEntity
  8
1
  6
Continuous
 62
   151
100
AcDbLine
 10
5.552044
 20
4.202837
 30
0.0
 11
5.426060999999999
 21
4.076853999999999
 31
0.0
  0
LINE
  5
1FC
330
A
100
AcDbEntity
  8
1
  6
Continuous
 62
     5
100
AcDbLine
 10
3.115969999999999
 20
4.241526
 30
0.0
 11
3.125701999999999
 21
4.251257999999999
 31
0.0
  0
LINE
  5
1FD
330
A
100
AcDbEntity
  8
1
  6
Continuous
 62
   151
100
AcDbLine
 10
5.198061
 20
4.322071
 30
0.0
 11
5.198061
 21
4.351678999999999
 31
0.0
  0
LINE
  5
1FE
330
A
100
AcDbEntity
  8
1
  6
Continuous
 62
     5
100
AcDbLine
 10
2.792683
 20
4.298739
 30
0.0
 11
2.792683
 21
4.371959999999999
 31
0.0
  0
LINE
  5
1FF
330
A
100
AcDbEntity
  8
1
  6
Continuous
 62
     2
100
AcDbLine
 10
2.720683
 20
3.983884999999999
 30
0.0
 11
2.704685
 21
3.983884999999999
 31
0.0
  0
LINE
  5
200
330
A
100
AcDbEntity
  8
1
  6
Continuous
 62
     5
100
AcDbLine
 10
3.015201999999999
 20
4.317257999999999
 30
0.0
 11
3.005469999999999
 21
4.307526
 31
0.0
  0
LINE
  5
201
330
A
100
AcDbEntity
  8
1
  6
Continuous
 62
     3
100
AcDbLine
 10
5.626481
 20
3.784047
 30
0.0
 11
5.615597
 21
3.784047
 31
0.0
  0
LINE
  5
202
330
A
100
AcDbEntity
  8
1
  6
Continuous
 62
     6
100
AcDbLine
 10
5.726389
 20
4.317830999999999
 30
0.0
 11
5.727662
 21
4.317556999999999
 31
0.0
  0
LINE
  5
203
330
A
100
AcDbEntity
  8
1
  6
Continuous
 62
     2
100
AcDbLine
 10
2.824684999999999
 20
3.983884999999999
 30
0.0
 11
2.824341999999999
 21
3.964205999999999
 31
0.0
  0
LINE
  5
204
330
A
100
AcDbEntity
  8
1
  6
Continuous
 62
     5
100
AcDbLine
 10
3.112257
 20
4.353963999999999
 30
0.0
 11
3.110546999999999
 21
4.352253
 31
0.0
  0
LINE
  5
205
330
A
100
AcDbEntity
  8
1
  6
Continuous
 62
     3
100
AcDbLine
 10
5.686219
 20
3.719112
 30
0.0
 11
5.73668
 21
3.719112
 31
0.0
  0
LINE
  5
206
330
A
100
AcDbEntity
  8
1
  6
Continuous
 62
     2
100
AcDbLine
 10
2.920683
 20
3.983884999999999
 30
0.0
 11
2.921025999999999
 21
3.964205999999999
 31
0.0
  0
LINE
  5
207
330
A
100
AcDbEntity
  8
1
  6
Continuous
 62
     5
100
AcDbLine
 10
3.181688
 20
4.422687999999999
 30
0.0
 11
3.180038999999999
 21
4.422968
 31
0.0
  0
LINE
  5
208
330
A
100
AcDbEntity
  8
1
  6
Continuous
 62
     3
100
AcDbLine
 10
5.686219
 20
3.703112
 30
0.0
 11
5.686219
 21
3.707798
 31
0.0
  0
LINE
  5
209
330
A
100
AcDbEntity
  8
1
  6
Continuous
 62
     6
100
AcDbLine
 10
5.650608999999999
 20
4.314686
 30
0.0
 11
5.650621
 21
4.313752
 31
0.0
  0
LINE
  5
20A
330
A
100
AcDbEntity
  8
1
  6
Continuous
 62
     2
100
AcDbLine
 10
3.000682999999999
 20
3.983884999999999
 30
0.0
 11
2.984684999999999
 21
3.983884999999999
 31
0.0
  0
LINE
  5
20B
330
A
100
AcDbEntity
  8
1
  6
Continuous
 62
     5
100
AcDbLine
 10
2.685683
 20
3.98734
 30
0.0
 11
2.685683
 21
3.963738999999999
 31
0.0
  0
LINE
  5
20C
330
A
100
AcDbEntity
  8
1
  6
Continuous
 62
     3
100
AcDbLine
 10
5.783559999999999
 20
3.728923999999999
 30
0.0
 11
5.783559999999999
 21
3.75355
 31
0.0
  0
LINE
  5
20D
330
A
100
AcDbEntity
  8
1
  6
Continuous
 62
     5
100
AcDbLine
 10
2.984683
 20
4.086369999999999
 30
0.0
 11
2.984683
 21
3.987644
 31
0.0
  0
LINE
  5
20E
330
A
100
AcDbEntity
  8
1
  6
Continuous
 62
     7
100
AcDbLine
 10
2.763683
 20
3.964207
 30
0.0
 11
2.763683
 21
4.102248999999999
 31
0.0
  0
LINE
  5
20F
330
A
100
AcDbEntity
  8
1
  6
Continuous
 62
     5
100
AcDbLine
 10
2.685595999999999
 20
4.017052999999999
 30
0.0
 11
2.682668
 21
4.024123999999999
 31
0.0
  0
LINE
  5
210
330
A
100
AcDbEntity
  8
1
  6
Continuous
 62
     3
100
AcDbLine
 10
5.595101999999999
 20
4.269554
 30
0.0
 11
5.595119
 21
4.245395999999999
 31
0.0
  0
LINE
  5
211
330
A
100
AcDbEntity
  8
1
  6
Continuous
 62
     5
100
AcDbLine
 10
2.748683
 20
4.143492
 30
0.0
 11
2.996682999999999
 21
4.143492
 31
0.0
  0
LINE
  5
212
330
A
100
AcDbEntity
  8
1
  6
Continuous
 62
     3
100
AcDbLine
 10
2.770246999999999
 20
4.202973
 30
0.0
 11
2.765149
 21
4.202973
 31
0.0
  0
LINE
  5
213
330
A
100
AcDbEntity
  8
1
  6
Continuous
 62
     5
100
AcDbLine
 10
2.67207
 20
4.020566
 30
0.0
 11
2.67207
 21
4.023525
 31
0.0
  0
LINE
  5
214
330
A
100
AcDbEntity
  8
1
  6
Continuous
 62
     3
100
AcDbLine
 10
5.787427
 20
4.256588999999999
 30
0.0
 11
5.783013999999999
 21
4.255742999999999
 31
0.0
  0
LINE
  5
215
330
A
100
AcDbEntity
  8
1
  6
Continuous
 62
     5
100
AcDbLine
 10
2.619994999999999
 20
4.020051999999999
 30
0.0
 11
2.626809
 21
4.022886999999999
 31
0.0
  0
LINE
  5
216
330
A
100
AcDbEntity
  8
1
  6
Continuous
 62
     6
100
AcDbLine
 10
5.728918
 20
4.316634999999999
 30
0.0
 11
5.728549
 21
4.317008999999999
 31
0.0
  0
LINE
  5
217
330
A
100
AcDbEntity
  8
1
  6
Continuous
 62
     5
100
AcDbLine
 10
2.681392999999999
 20
4.262738999999999
 30
0.0
 11
2.678433
 21
4.262738999999999
 31
0.0
  0
LINE
  5
218
330
A
100
AcDbEntity
  8
1
  6
Continuous
 62
     3
100
AcDbLine
 10
5.741144
 20
3.707939
 30
0.0
 11
5.742753999999999
 21
3.703116999999999
 31
0.0
  0
LINE
  5
219
330
A
100
AcDbEntity
  8
1
  6
Continuous
 62
     5
100
AcDbLine
 10
2.608183
 20
4.262738999999999
 30
0.0
 11
2.671393
 21
4.262738999999999
 31
0.0
  0
LINE
  5
21A
330
A
100
AcDbEntity
  8
1
  6
Continuous
 62
     6
100
AcDbLine
 10
5.641842999999999
 20
4.314394999999999
 30
0.0
 11
5.641483
 21
4.313676
 31
0.0
  0
LINE
  5
21B
330
A
100
AcDbEntity
  8
1
  6
Continuous
 62
     5
100
AcDbLine
 10
2.85852
 20
4.231075999999999
 30
0.0
 11
2.858338
 21
4.226592
 31
0.0
  0
LINE
  5
21C
330
A
100
AcDbEntity
  8
1
  6
Continuous
 62
     6
100
AcDbLine
 10
5.788424
 20
4.273794
 30
0.0
 11
5.788424
 21
4.274835999999999
 31
0.0
  0
LINE
  5
21D
330
A
100
AcDbEntity
  8
1
  6
Continuous
 62
     5
100
AcDbLine
 10
3.026683
 20
4.328738999999999
 30
0.0
 11
2.982683
 21
4.328738999999999
 31
0.0
  0
LINE
  5
21E
330
A
100
AcDbEntity
  8
1
  6
Continuous
 62
     3
100
AcDbLine
 10
5.150426
 20
4.338124999999999
 30
0.0
 11
5.150504999999999
 21
4.338124999999999
 31
0.0
  0
LINE
  5
21F
330
A
100
AcDbEntity
  8
1
  6
Continuous
 62
     5
100
AcDbLine
 10
2.800433
 20
4.216077999999999
 30
0.0
 11
2.800358
 21
4.226592
 31
0.0
  0
LINE
  5
220
330
A
100
AcDbEntity
  8
1
  6
Continuous
 62
     6
100
AcDbLine
 10
5.648925
 20
4.317004999999999
 30
0.0
 11
5.649752999999999
 21
4.317026999999999
 31
0.0
  0
LINE
  5
221
330
A
100
AcDbEntity
  8
1
  6
Continuous
 62
     5
100
AcDbLine
 10
2.967684999999999
 20
3.832111
 30
0.0
 11
2.777681
 21
3.832111
 31
0.0
  0
LINE
  5
222
330
A
100
AcDbEntity
  8
1
  6
Continuous
 62
     5
100
AcDbLine
 10
3.171035999999999
 20
3.703112
 30
0.0
 11
3.171035999999999
 21
4.352253
 31
0.0
  0
LINE
  5
223
330
A
100
AcDbEntity
  8
1
  6
Continuous
 62
     3
100
AcDbLine
 10
5.150426
 20
4.337710999999999
 30
0.0
 11
5.154818999999999
 21
4.327105
 31
0.0
  0
LINE
  5
224
330
A
100
AcDbEntity
  8
1
  6
Continuous
 62
     6
100
AcDbLine
 10
5.731423
 20
4.269751999999999
 30
0.0
 11
5.731423
 21
4.271527999999999
 31
0.0
  0
LINE
  5
225
330
A
100
AcDbEntity
  8
1
  6
Continuous
 62
     5
100
AcDbLine
 10
2.671479999999999
 20
4.236758
 30
0.0
 11
2.671416999999999
 21
4.247739
 31
0.0
  0
LINE
  5
226
330
A
100
AcDbEntity
  8
1
  6
Continuous
 62
     5
100
AcDbLine
 10
2.982683
 20
3.783108
 30
0.0
 11
2.97829
 21
3.772502999999999
 31
0.0
  0
LINE
  5
227
330
A
100
AcDbEntity
  8
1
  6
Continuous
 62
     3
100
AcDbLine
 10
5.180422
 20
3.757303999999999
 30
0.0
 11
5.180422
 21
4.322710999999999
 31
0.0
  0
LINE
  5
228
330
A
100
AcDbEntity
  8
1
  6
Continuous
 62
     5
100
AcDbLine
 10
2.999925999999999
 20
3.964616999999999
 30
0.0
 11
3.00075
 21
3.964205
 31
0.0
  0
LINE
  5
229
330
A
100
AcDbEntity
  8
1
  6
Continuous
 62
     3
100
AcDbLine
 10
5.185852999999999
 20
4.322710999999999
 30
0.0
 11
5.185559999999999
 21
4.322710999999999
 31
0.0
  0
LINE
  5
22A
330
A
100
AcDbEntity
  8
1
  6
Continuous
 62
     6
100
AcDbLine
 10
5.731423
 20
4.286271
 30
0.0
 11
5.778685
 21
4.287509
 31
0.0
  0
LINE
  5
22B
330
A
100
AcDbEntity
  8
1
  6
Continuous
 62
     5
100
AcDbLine
 10
2.920749999999999
 20
3.964205
 30
0.0
 11
2.944615
 21
3.964205
 31
0.0
  0
LINE
  5
22C
330
A
100
AcDbEntity
  8
1
  6
Continuous
 62
   151
100
AcDbLine
 10
2.974863999999999
 20
4.200851
 30
0.0
 11
2.975099999999999
 21
4.207174
 31
0.0
  0
LINE
  5
22D
330
A
100
AcDbEntity
  8
1
  6
Continuous
 62
     3
100
AcDbLine
 10
2.552937
 20
3.757303999999999
 30
0.0
 11
2.552937
 21
4.322710999999999
 31
0.0
  0
LINE
  5
22E
330
A
100
AcDbEntity
  8
1
  6
Continuous
 62
     6
100
AcDbLine
 10
5.725893
 20
4.317844
 30
0.0
 11
5.726262
 21
4.317833999999999
 31
0.0
  0
LINE
  5
22F
330
A
100
AcDbEntity
  8
1
  6
Continuous
 62
     5
100
AcDbLine
 10
2.865439999999999
 20
3.964616999999999
 30
0.0
 11
2.864615
 21
3.964205
 31
0.0
  0
LINE
  5
230
330
A
100
AcDbEntity
  8
1
  6
Continuous
 62
     3
100
AcDbLine
 10
5.552166
 20
3.815056999999999
 30
0.0
 11
5.410453999999999
 21
3.956769
 31
0.0
  0
LINE
  5
231
330
A
100
AcDbEntity
  8
1
  6
Continuous
 62
    95
100
AcDbLine
 10
2.984225999999999
 20
4.221173999999999
 30
0.0
 11
2.981719
 21
4.221173999999999
 31
0.0
  0
LINE
  5
232
330
A
100
AcDbEntity
  8
1
  6
Continuous
 62
     6
100
AcDbLine
 10
5.788424
 20
4.287764
 30
0.0
 11
5.785586
 21
4.28769
 31
0.0
  0
LINE
  5
233
330
A
100
AcDbEntity
  8
1
  6
Continuous
 62
     5
100
AcDbLine
 10
2.799925999999999
 20
3.964616999999999
 30
0.0
 11
2.78544
 21
3.964616999999999
 31
0.0
  0
LINE
  5
234
330
A
100
AcDbEntity
  8
1
  6
Continuous
 62
     3
100
AcDbLine
 10
5.201559999999999
 20
3.727304
 30
0.0
 11
5.201559999999999
 21
3.742304
 31
0.0
  0
LINE
  5
235
330
A
100
AcDbEntity
  8
1
  6
Continuous
 62
     5
100
AcDbLine
 10
2.79387
 20
4.353739
 30
0.0
 11
2.792683
 21
4.371959999999999
 31
0.0
  0
LINE
  5
236
330
A
100
AcDbEntity
  8
1
  6
Continuous
 62
     6
100
AcDbLine
 10
5.729087999999999
 20
4.314269
 30
0.0
 11
5.726987999999999
 21
4.314232999999999
 31
0.0
  0
LINE
  5
237
330
A
100
AcDbEntity
  8
1
  6
Continuous
 62
     5
100
AcDbLine
 10
2.719924999999999
 20
3.964616999999999
 30
0.0
 11
2.720749999999999
 21
3.964205
 31
0.0
  0
LINE
  5
238
330
A
100
AcDbEntity
  8
1
  6
Continuous
 62
     3
100
AcDbLine
 10
5.507048999999999
 20
3.709591
 30
0.0
 11
5.507048999999999
 21
3.723733
 31
0.0
  0
LINE
  5
239
330
A
100
AcDbEntity
  8
1
  6
Continuous
 62
    95
100
AcDbLine
 10
2.964963
 20
4.218208999999999
 30
0.0
 11
2.963839
 21
4.216237999999999
 31
0.0
  0
LINE
  5
23A
330
A
100
AcDbEntity
  8
1
  6
Continuous
 62
     5
100
AcDbLine
 10
2.798513
 20
4.232738999999999
 30
0.0
 11
2.798513
 21
4.291699999999999
 31
0.0
  0
LINE
  5
23B
330
A
100
AcDbEntity
  8
1
  6
Continuous
 62
     6
100
AcDbLine
 10
5.906696
 20
4.272770999999999
 30
0.0
 11
5.810698
 21
4.274447
 31
0.0
  0
LINE
  5
23C
330
A
100
AcDbEntity
  8
1
  6
Continuous
 62
     5
100
AcDbLine
 10
2.872683
 20
4.422968
 30
0.0
 11
2.560443999999999
 21
4.422968
 31
0.0
  0
LINE
  5
23D
330
A
100
AcDbEntity
  8
1
  6
Continuous
 62
     3
100
AcDbLine
 10
5.201559999999999
 20
3.708112
 30
0.0
 11
5.507048999999999
 21
3.708112
 31
0.0
  0
LINE
  5
23E
330
A
100
AcDbEntity
  8
1
  6
Continuous
 62
     5
100
AcDbLine
 10
2.748683
 20
4.295829
 30
0.0
 11
2.748683
 21
4.292739
 31
0.0
  0
LINE
  5
23F
330
A
100
AcDbEntity
  8
1
  6
Continuous
 62
     6
100
AcDbLine
 10
5.913424
 20
4.26214
 30
0.0
 11
5.913424
 21
4.262070999999999
 31
0.0
  0
LINE
  5
240
330
A
100
AcDbEntity
  8
1
  6
Continuous
 62
     5
100
AcDbLine
 10
3.176034999999999
 20
3.703112
 30
0.0
 11
3.17454
 21
3.703112
 31
0.0
  0
LINE
  5
241
330
A
100
AcDbEntity
  8
1
  6
Continuous
 62
    95
100
AcDbLine
 10
2.98155
 20
4.216173999999999
 30
0.0
 11
2.981527
 21
4.216237999999999
 31
0.0
  0
LINE
  5
242
330
A
100
AcDbEntity
  8
1
  6
Continuous
 62
     5
100
AcDbLine
 10
2.678595999999999
 20
3.945551
 30
0.0
 11
2.672943999999999
 21
3.935255
 31
0.0
  0
LINE
  5
243
330
A
100
AcDbEntity
  8
1
  6
Continuous
 62
     6
100
AcDbLine
 10
5.913424
 20
4.208816
 30
0.0
 11
5.913424
 21
4.20614
 31
0.0
  0
LINE
  5
244
330
A
100
AcDbEntity
  8
1
  6
Continuous
 62
     5
100
AcDbLine
 10
2.977591999999999
 20
3.773201
 30
0.0
 11
2.981984999999999
 21
3.783806999999999
 31
0.0
  0
LINE
  5
245
330
A
100
AcDbEntity
  8
1
  6
Continuous
 62
     3
100
AcDbLine
 10
5.187083999999999
 20
3.708112
 30
0.0
 11
5.19735
 21
3.708112
 31
0.0
  0
LINE
  5
246
330
A
100
AcDbEntity
  8
1
  6
Continuous
 62
    95
100
AcDbLine
 10
2.98155
 20
4.216173999999999
 30
0.0
 11
2.987686999999999
 21
4.216173999999999
 31
0.0
  0
LINE
  5
247
330
A
100
AcDbEntity
  8
1
  6
Continuous
 62
     5
100
AcDbLine
 10
2.675597
 20
4.037052
 30
0.0
 11
2.689738
 21
4.031194999999999
 31
0.0
  0
LINE
  5
248
330
A
100
AcDbEntity
  8
1
  6
Continuous
 62
     6
100
AcDbLine
 10
5.913145
 20
4.271342999999999
 30
0.0
 11
5.788424
 21
4.273519999999999
 31
0.0
  0
LINE
  5
249
330
A
100
AcDbEntity
  8
1
  6
Continuous
 62
     5
100
AcDbLine
 10
2.763381
 20
3.816415
 30
0.0
 11
2.763381
 21
3.783806999999999
 31
0.0
  0
LINE
  5
24A
330
A
100
AcDbEntity
  8
1
  6
Continuous
 62
     3
100
AcDbLine
 10
5.055773
 20
3.708112
 30
0.0
 11
5.187083999999999
 21
3.708112
 31
0.0
  0
LINE
  5
24B
330
A
100
AcDbEntity
  8
1
  6
Continuous
 62
    95
100
AcDbLine
 10
2.981719
 20
4.221173999999999
 30
0.0
 11
2.977189
 21
4.221173999999999
 31
0.0
  0
LINE
  5
24C
330
A
100
AcDbEntity
  8
1
  6
Continuous
 62
    95
100
AcDbLine
 10
2.967916999999999
 20
4.221167999999999
 30
0.0
 11
2.968176999999999
 21
4.221173999999999
 31
0.0
  0
LINE
  5
24D
330
A
100
AcDbEntity
  8
1
  6
Continuous
 62
     5
100
AcDbLine
 10
2.744683
 20
4.086369999999999
 30
0.0
 11
2.744683
 21
3.987644
 31
0.0
  0
LINE
  5
24E
330
A
100
AcDbEntity
  8
1
  6
Continuous
 62
     5
100
AcDbLine
 10
2.858262999999999
 20
4.194266
 30
0.0
 11
2.858262999999999
 21
4.216077999999999
 31
0.0
  0
LINE
  5
24F
330
A
100
AcDbEntity
  8
1
  6
Continuous
 62
     5
100
AcDbLine
 10
4.932297
 20
4.422968
 30
0.0
 11
4.509559999999999
 21
4.415588999999999
 31
0.0
  0
LINE
  5
250
330
A
100
AcDbEntity
  8
1
  6
Continuous
 62
    95
100
AcDbLine
 10
2.763647
 20
4.221173999999999
 30
0.0
 11
2.768177
 21
4.221173999999999
 31
0.0
  0
LINE
  5
251
330
A
100
AcDbEntity
  8
1
  6
Continuous
 62
     5
100
AcDbLine
 10
2.800683
 20
4.086369999999999
 30
0.0
 11
2.800683
 21
3.987644
 31
0.0
  0
LINE
  5
252
330
A
100
AcDbEntity
  8
1
  6
Continuous
 62
     5
100
AcDbLine
 10
2.967683
 20
4.378921
 30
0.0
 11
2.982683
 21
4.379998
 31
0.0
  0
LINE
  5
253
330
A
100
AcDbEntity
  8
1
  6
Continuous
 62
     5
100
AcDbLine
 10
4.401559999999999
 20
3.916081999999999
 30
0.0
 11
4.401559999999999
 21
3.921739
 31
0.0
  0
LINE
  5
254
330
A
100
AcDbEntity
  8
1
  6
Continuous
 62
    95
100
AcDbLine
 10
2.765058999999999
 20
4.207174
 30
0.0
 11
2.761139
 21
4.207174
 31
0.0
  0
LINE
  5
255
330
A
100
AcDbEntity
  8
1
  6
Continuous
 62
     5
100
AcDbLine
 10
2.864683
 20
4.086369999999999
 30
0.0
 11
2.864683
 21
3.987644
 31
0.0
  0
LINE
  5
256
330
A
100
AcDbEntity
  8
1
  6
Continuous
 62
     5
100
AcDbLine
 10
2.615683
 20
3.913738999999999
 30
0.0
 11
3.129682999999999
 21
3.913738999999999
 31
0.0
  0
LINE
  5
257
330
A
100
AcDbEntity
  8
1
  6
Continuous
 62
     5
100
AcDbLine
 10
5.161559999999999
 20
3.718651999999999
 30
0.0
 11
5.161559999999999
 21
3.757305999999999
 31
0.0
  0
LINE
  5
258
330
A
100
AcDbEntity
  8
1
  6
Continuous
 62
    95
100
AcDbLine
 10
2.781527
 20
4.212111
 30
0.0
 11
2.780402999999999
 21
4.210139999999999
 31
0.0
  0
LINE
  5
259
330
A
100
AcDbEntity
  8
1
  6
Continuous
 62
     5
100
AcDbLine
 10
2.920683
 20
4.086369999999999
 30
0.0
 11
2.920683
 21
3.987644
 31
0.0
  0
LINE
  5
25A
330
A
100
AcDbEntity
  8
1
  6
Continuous
 62
     5
100
AcDbLine
 10
2.567706
 20
4.353963999999999
 30
0.0
 11
2.567706
 21
4.415588999999999
 31
0.0
  0
LINE
  5
25B
330
A
100
AcDbEntity
  8
1
  6
Continuous
 62
     5
100
AcDbLine
 10
4.416473
 20
4.352338999999999
 30
0.0
 11
4.416473
 21
3.703112
 31
0.0
  0
LINE
  5
25C
330
A
100
AcDbEntity
  8
1
  6
Continuous
 62
    95
100
AcDbLine
 10
2.780402999999999
 20
4.218208999999999
 30
0.0
 11
2.780159999999999
 21
4.218491999999999
 31
0.0
  0
LINE
  5
25D
330
A
100
AcDbEntity
  8
1
  6
Continuous
 62
     6
100
AcDbLine
 10
5.720115999999999
 20
4.315572
 30
0.0
 11
5.720087
 21
4.314161
 31
0.0
  0
LINE
  5
25E
330
A
100
AcDbEntity
  8
1
  6
Continuous
 62
     5
100
AcDbLine
 10
2.567706
 20
4.353963999999999
 30
0.0
 11
2.633108
 21
4.353963999999999
 31
0.0
  0
LINE
  5
25F
330
A
100
AcDbEntity
  8
1
  6
Continuous
 62
    95
100
AcDbLine
 10
2.76737
 20
4.208369999999999
 30
0.0
 11
2.772683
 21
4.207211
 31
0.0
  0
LINE
  5
260
330
A
100
AcDbEntity
  8
1
  6
Continuous
 62
     5
100
AcDbLine
 10
2.762682999999999
 20
4.328738999999999
 30
0.0
 11
2.774163
 21
4.317257999999999
 31
0.0
  0
LINE
  5
261
330
A
100
AcDbEntity
  8
1
  6
Continuous
 62
   151
100
AcDbLine
 10
5.408061
 20
4.340673
 30
0.0
 11
5.198061
 21
4.351678999999999
 31
0.0
  0
LINE
  5
262
330
A
100
AcDbEntity
  8
1
  6
Continuous
 62
    95
100
AcDbLine
 10
2.755609999999999
 20
4.212174
 30
0.0
 11
2.757677999999999
 21
4.212174
 31
0.0
  0
LINE
  5
263
330
A
100
AcDbEntity
  8
1
  6
Continuous
 62
     5
100
AcDbLine
 10
3.177659999999999
 20
4.41059
 30
0.0
 11
3.185038
 21
4.417968
 31
0.0
  0
LINE
  5
264
330
A
100
AcDbEntity
  8
1
  6
Continuous
 62
   151
100
AcDbLine
 10
5.161559999999999
 20
4.352933999999999
 30
0.0
 11
5.180387
 21
4.352605
 31
0.0
  0
LINE
  5
265
330
A
100
AcDbEntity
  8
1
  6
Continuous
 62
    95
100
AcDbLine
 10
2.778920999999999
 20
4.220826
 30
0.0
 11
2.778245
 21
4.221060999999999
 31
0.0
  0
LINE
  5
266
330
A
100
AcDbEntity
  8
1
  6
Continuous
 62
     5
100
AcDbLine
 10
3.171035999999999
 20
4.352253
 30
0.0
 11
3.176034999999999
 21
4.352338999999999
 31
0.0
  0
LINE
  5
267
330
A
100
AcDbEntity
  8
1
  6
Continuous
 62
   151
100
AcDbLine
 10
5.161559999999999
 20
3.716215
 30
0.0
 11
5.161559999999999
 21
3.718651999999999
 31
0.0
  0
LINE
  5
268
330
A
100
AcDbEntity
  8
1
  6
Continuous
 62
    95
100
AcDbLine
 10
2.765338
 20
4.219685
 30
0.0
 11
2.765204999999999
 21
4.218491999999999
 31
0.0
  0
LINE
  5
269
330
A
100
AcDbEntity
  8
1
  6
Continuous
 62
     5
100
AcDbLine
 10
3.177659999999999
 20
4.353963999999999
 30
0.0
 11
3.112257
 21
4.353963999999999
 31
0.0
  0
LINE
  5
26A
330
A
100
AcDbEntity
  8
1
  6
Continuous
 62
   151
100
AcDbLine
 10
5.421060999999999
 20
4.309662
 30
0.0
 11
5.421060999999999
 21
4.339991999999999
 31
0.0
  0
LINE
  5
26B
330
A
100
AcDbEntity
  8
1
  6
Continuous
 62
     2
100
AcDbLine
 10
3.065134
 20
3.983884999999999
 30
0.0
 11
3.064782
 21
3.963738999999999
 31
0.0
  0
LINE
  5
26C
330
A
100
AcDbEntity
  8
1
  6
Continuous
 62
   151
100
AcDbLine
 10
5.185061
 20
4.322710999999999
 30
0.0
 11
5.185061
 21
4.35236
 31
0.0
  0
LINE
  5
26D
330
A
100
AcDbEntity
  8
1
  6
Continuous
 62
     3
100
AcDbLine
 10
5.778941
 20
3.753630999999999
 30
0.0
 11
5.783559999999999
 21
3.75355
 31
0.0
  0
LINE
  5
26E
330
A
100
AcDbEntity
  8
1
  6
Continuous
 62
     2
100
AcDbLine
 10
2.744685
 20
3.983884999999999
 30
0.0
 11
2.744340999999999
 21
3.964205999999999
 31
0.0
  0
LINE
  5
26F
330
A
100
AcDbEntity
  8
1
  6
Continuous
 62
     5
100
AcDbLine
 10
3.005469999999999
 20
4.307526
 30
0.0
 11
2.998965999999999
 21
4.301023
 31
0.0
  0
LINE
  5
270
330
A
100
AcDbEntity
  8
1
  6
Continuous
 62
     3
100
AcDbLine
 10
5.626481
 20
3.784047
 30
0.0
 11
5.626481
 21
4.245441
 31
0.0
  0
LINE
  5
271
330
A
100
AcDbEntity
  8
1
  6
Continuous
 62
     2
100
AcDbLine
 10
2.840683
 20
3.983884999999999
 30
0.0
 11
2.841025999999999
 21
3.964205999999999
 31
0.0
  0
LINE
  5
272
330
A
100
AcDbEntity
  8
1
  6
Continuous
 62
     5
100
AcDbLine
 10
2.569331
 20
4.352338999999999
 30
0.0
 11
2.569331
 21
3.703112
 31
0.0
  0
LINE
  5
273
330
A
100
AcDbEntity
  8
1
  6
Continuous
 62
     5
100
AcDbLine
 10
3.185038
 20
4.417968
 30
0.0
 11
3.185033999999999
 21
4.418122
 31
0.0
  0
LINE
  5
274
330
A
100
AcDbEntity
  8
1
  6
Continuous
 62
    95
100
AcDbLine
 10
2.955611
 20
4.216173999999999
 30
0.0
 11
2.957677999999999
 21
4.216173999999999
 31
0.0
  0
LINE
  5
275
330
A
100
AcDbEntity
  8
1
  6
Continuous
 62
     3
100
AcDbLine
 10
5.73668
 20
3.719112
 30
0.0
 11
5.761552
 21
3.743983999999999
 31
0.0
  0
LINE
  5
276
330
A
100
AcDbEntity
  8
1
  6
Continuous
 62
     2
100
AcDbLine
 10
2.920683
 20
3.983884999999999
 30
0.0
 11
2.904684999999999
 21
3.983884999999999
 31
0.0
  0
LINE
  5
277
330
A
100
AcDbEntity
  8
1
  6
Continuous
 62
     5
100
AcDbLine
 10
2.681392999999999
 20
4.262738999999999
 30
0.0
 11
2.681443999999999
 21
4.248597
 31
0.0
  0
LINE
  5
278
330
A
100
AcDbEntity
  8
1
  6
Continuous
 62
     3
100
AcDbLine
 10
5.686219
 20
3.707798
 30
0.0
 11
5.686219
 21
3.719112
 31
0.0
  0
LINE
  5
279
330
A
100
AcDbEntity
  8
1
  6
Continuous
 62
     3
100
AcDbLine
 10
3.189519999999999
 20
4.338124999999999
 30
0.0
 11
3.189519999999999
 21
4.337710999999999
 31
0.0
  0
LINE
  5
27A
330
A
100
AcDbEntity
  8
1
  6
Continuous
 62
     2
100
AcDbLine
 10
3.024684999999999
 20
3.983884999999999
 30
0.0
 11
3.024341
 21
3.964205999999999
 31
0.0
  0
LINE
  5
27B
330
A
100
AcDbEntity
  8
1
  6
Continuous
 62
     3
100
AcDbLine
 10
5.783559999999999
 20
3.728923999999999
 30
0.0
 11
5.742748999999999
 21
3.703112
 31
0.0
  0
LINE
  5
27C
330
A
100
AcDbEntity
  8
1
  6
Continuous
 62
     5
100
AcDbLine
 10
2.984683
 20
3.987644
 30
0.0
 11
3.000682999999999
 21
3.987644
 31
0.0
  0
LINE
  5
27D
330
A
100
AcDbEntity
  8
1
  6
Continuous
 62
     3
100
AcDbLine
 10
2.980216999999999
 20
4.225375999999999
 30
0.0
 11
2.975117
 21
4.225375999999999
 31
0.0
  0
LINE
  5
27E
330
A
100
AcDbEntity
  8
1
  6
Continuous
 62
     5
100
AcDbLine
 10
2.682668
 20
4.024123999999999
 30
0.0
 11
2.675597
 21
4.027051999999999
 31
0.0
  0
LINE
  5
27F
330
A
100
AcDbEntity
  8
1
  6
Continuous
 62
     3
100
AcDbLine
 10
5.626419
 20
4.245441
 30
0.0
 11
5.626419
 21
4.269598999999999
 31
0.0
  0
LINE
  5
280
330
A
100
AcDbEntity
  8
1
  6
Continuous
 62
     6
100
AcDbLine
 10
5.650621
 20
4.316683
 30
0.0
 11
5.650608999999999
 21
4.316197999999999
 31
0.0
  0
LINE
  5
281
330
A
100
AcDbEntity
  8
1
  6
Continuous
 62
     5
100
AcDbLine
 10
2.638183
 20
4.037052
 30
0.0
 11
2.675597
 21
4.037052
 31
0.0
  0
LINE
  5
282
330
A
100
AcDbEntity
  8
1
  6
Continuous
 62
     6
100
AcDbLine
 10
5.646916
 20
4.311726
 30
0.0
 11
5.643759999999999
 21
4.311620999999999
 31
0.0
  0
LINE
  5
283
330
A
100
AcDbEntity
  8
1
  6
Continuous
 62
    95
100
AcDbLine
 10
2.972682999999999
 20
4.214173999999999
 30
0.0
 11
2.965205
 21
4.218491999999999
 31
0.0
  0
LINE
  5
284
330
A
100
AcDbEntity
  8
1
  6
Continuous
 62
     5
100
AcDbLine
 10
2.675597
 20
4.037052
 30
0.0
 11
2.675597
 21
4.030012
 31
0.0
  0
LINE
  5
285
330
A
100
AcDbEntity
  8
1
  6
Continuous
 62
     3
100
AcDbLine
 10
5.783013999999999
 20
4.255742999999999
 30
0.0
 11
5.772229
 21
4.253810999999999
 31
0.0
  0
LINE
  5
286
330
A
100
AcDbEntity
  8
1
  6
Continuous
 62
     5
100
AcDbLine
 10
2.626809
 20
4.022886999999999
 30
0.0
 11
2.630465
 21
4.023525
 31
0.0
  0
LINE
  5
287
330
A
100
AcDbEntity
  8
1
  6
Continuous
 62
     6
100
AcDbLine
 10
5.728549
 20
4.317008999999999
 30
0.0
 11
5.728133999999999
 21
4.317312999999999
 31
0.0
  0
LINE
  5
288
330
A
100
AcDbEntity
  8
1
  6
Continuous
 62
     5
100
AcDbLine
 10
2.678433
 20
4.262738999999999
 30
0.0
 11
2.671393
 21
4.262738999999999
 31
0.0
  0
LINE
  5
289
330
A
100
AcDbEntity
  8
1
  6
Continuous
 62
     3
100
AcDbLine
 10
5.775875
 20
3.736238999999999
 30
0.0
 11
5.771727999999999
 21
3.738599999999999
 31
0.0
  0
LINE
  5
28A
330
A
100
AcDbEntity
  8
1
  6
Continuous
 62
     5
100
AcDbLine
 10
2.671393
 20
4.262738999999999
 30
0.0
 11
2.671393
 21
4.305829
 31
0.0
  0
LINE
  5
28B
330
A
100
AcDbEntity
  8
1
  6
Continuous
 62
     6
100
AcDbLine
 10
5.641483
 20
4.313676
 30
0.0
 11
5.641243
 21
4.312916999999999
 31
0.0
  0
LINE
  5
28C
330
A
100
AcDbEntity
  8
1
  6
Continuous
 62
     5
100
AcDbLine
 10
2.858338
 20
4.226592
 30
0.0
 11
2.858262999999999
 21
4.216077999999999
 31
0.0
  0
LINE
  5
28D
330
A
100
AcDbEntity
  8
1
  6
Continuous
 62
     6
100
AcDbLine
 10
5.788424
 20
4.250943
 30
0.0
 11
5.788424
 21
4.271633
 31
0.0
  0
LINE
  5
28E
330
A
100
AcDbEntity
  8
1
  6
Continuous
 62
     5
100
AcDbLine
 10
3.026683
 20
4.262738999999999
 30
0.0
 11
3.026683
 21
4.328738999999999
 31
0.0
  0
LINE
  5
28F
330
A
100
AcDbEntity
  8
1
  6
Continuous
 62
     3
100
AcDbLine
 10
4.939494999999999
 20
4.387916
 30
0.0
 11
5.138033
 21
4.352897
 31
0.0
  0
LINE
  5
290
330
A
100
AcDbEntity
  8
1
  6
Continuous
 62
     5
100
AcDbLine
 10
2.800358
 20
4.226592
 30
0.0
 11
2.800176
 21
4.231075999999999
 31
0.0
  0
LINE
  5
291
330
A
100
AcDbEntity
  8
1
  6
Continuous
 62
    95
100
AcDbLine
 10
2.968176999999999
 20
4.221173999999999
 30
0.0
 11
2.963646999999999
 21
4.221173999999999
 31
0.0
  0
LINE
  5
292
330
A
100
AcDbEntity
  8
1
  6
Continuous
 62
     6
100
AcDbLine
 10
5.649752999999999
 20
4.317026999999999
 30
0.0
 11
5.650661
 21
4.31705
 31
0.0
  0
LINE
  5
293
330
A
100
AcDbEntity
  8
1
  6
Continuous
 62
     5
100
AcDbLine
 10
2.967684999999999
 20
3.832111
 30
0.0
 11
2.97829
 21
3.827717999999999
 31
0.0
  0
LINE
  5
294
330
A
100
AcDbEntity
  8
1
  6
Continuous
 62
     5
100
AcDbLine
 10
3.110546999999999
 20
4.352253
 30
0.0
 11
3.171035999999999
 21
4.352253
 31
0.0
  0
LINE
  5
295
330
A
100
AcDbEntity
  8
1
  6
Continuous
 62
     3
100
AcDbLine
 10
5.154818999999999
 20
4.327105
 30
0.0
 11
5.165423999999999
 21
4.322710999999999
 31
0.0
  0
LINE
  5
296
330
A
100
AcDbEntity
  8
1
  6
Continuous
 62
     6
100
AcDbLine
 10
5.731423
 20
4.271527999999999
 30
0.0
 11
5.731423
 21
4.273927999999999
 31
0.0
  0
LINE
  5
297
330
A
100
AcDbEntity
  8
1
  6
Continuous
 62
     5
100
AcDbLine
 10
2.671416999999999
 20
4.247739
 30
0.0
 11
2.671393
 21
4.262738999999999
 31
0.0
  0
LINE
  5
298
330
A
100
AcDbEntity
  8
1
  6
Continuous
 62
     5
100
AcDbLine
 10
2.97829
 20
3.772502999999999
 30
0.0
 11
2.967684999999999
 21
3.768111
 31
0.0
  0
LINE
  5
299
330
A
100
AcDbEntity
  8
1
  6
Continuous
 62
     3
100
AcDbLine
 10
5.185559999999999
 20
4.322710999999999
 30
0.0
 11
5.18405
 21
4.322710999999999
 31
0.0
  0
LINE
  5
29A
330
A
100
AcDbEntity
  8
1
  6
Continuous
 62
   151
100
AcDbLine
 10
2.770246999999999
 20
4.221173999999999
 30
0.0
 11
2.770246999999999
 21
4.227452999999999
 31
0.0
  0
LINE
  5
29B
330
A
100
AcDbEntity
  8
1
  6
Continuous
 62
     6
100
AcDbLine
 10
5.729824999999999
 20
4.314391999999999
 30
0.0
 11
5.729824999999999
 21
4.314303999999999
 31
0.0
  0
LINE
  5
29C
330
A
100
AcDbEntity
  8
1
  6
Continuous
 62
     5
100
AcDbLine
 10
2.98544
 20
3.964616999999999
 30
0.0
 11
2.999925999999999
 21
3.964616999999999
 31
0.0
  0
LINE
  5
29D
330
A
100
AcDbEntity
  8
1
  6
Continuous
 62
     3
100
AcDbLine
 10
5.18656
 20
3.757303999999999
 30
0.0
 11
5.185852999999999
 21
3.757303999999999
 31
0.0
  0
LINE
  5
29E
330
A
100
AcDbEntity
  8
1
  6
Continuous
 62
     6
100
AcDbLine
 10
5.703424
 20
4.318431999999999
 30
0.0
 11
5.712755999999999
 21
4.318188
 31
0.0
  0
LINE
  5
29F
330
A
100
AcDbEntity
  8
1
  6
Continuous
 62
     5
100
AcDbLine
 10
2.919925
 20
3.964616999999999
 30
0.0
 11
2.920749999999999
 21
3.964205
 31
0.0
  0
LINE
  5
2A0
330
A
100
AcDbEntity
  8
1
  6
Continuous
 62
     3
100
AcDbLine
 10
5.507048999999999
 20
3.727304
 30
0.0
 11
5.507048999999999
 21
3.742304
 31
0.0
  0
LINE
  5
2A1
330
A
100
AcDbEntity
  8
1
  6
Continuous
 62
     6
100
AcDbLine
 10
5.726262
 20
4.317833999999999
 30
0.0
 11
5.726389
 21
4.317830999999999
 31
0.0
  0
LINE
  5
2A2
330
A
100
AcDbEntity
  8
1
  6
Continuous
 62
     5
100
AcDbLine
 10
2.864615
 20
3.964205
 30
0.0
 11
2.840749999999999
 21
3.964205
 31
0.0
  0
LINE
  5
2A3
330
A
100
AcDbEntity
  8
1
  6
Continuous
 62
     6
100
AcDbLine
 10
5.785586
 20
4.28769
 30
0.0
 11
5.778685
 21
4.287509
 31
0.0
  0
LINE
  5
2A4
330
A
100
AcDbEntity
  8
1
  6
Continuous
 62
     5
100
AcDbLine
 10
2.78544
 20
3.964616999999999
 30
0.0
 11
2.784615
 21
3.964205
 31
0.0
  0
LINE
  5
2A5
330
A
100
AcDbEntity
  8
1
  6
Continuous
 62
     3
100
AcDbLine
 10
3.190043999999999
 20
3.757303999999999
 30
0.0
 11
3.190043999999999
 21
4.322710999999999
 31
0.0
  0
LINE
  5
2A6
330
A
100
AcDbEntity
  8
1
  6
Continuous
 62
     3
100
AcDbLine
 10
5.201559999999999
 20
3.727304
 30
0.0
 11
5.507048999999999
 21
3.727304
 31
0.0
  0
LINE
  5
2A7
330
A
100
AcDbEntity
  8
1
  6
Continuous
 62
    95
100
AcDbLine
 10
2.964963
 20
4.218208999999999
 30
0.0
 11
2.965205
 21
4.218491999999999
 31
0.0
  0
LINE
  5
2A8
330
A
100
AcDbEntity
  8
1
  6
Continuous
 62
    95
100
AcDbLine
 10
2.966425
 20
4.208872
 30
0.0
 11
2.964963
 21
4.210139999999999
 31
0.0
  0
LINE
  5
2A9
330
A
100
AcDbEntity
  8
1
  6
Continuous
 62
    95
100
AcDbLine
 10
2.963815
 20
4.212174
 30
0.0
 11
2.957677999999999
 21
4.212174
 31
0.0
  0
LINE
  5
2AA
330
A
100
AcDbEntity
  8
1
  6
Continuous
 62
     6
100
AcDbLine
 10
5.726987999999999
 20
4.314232999999999
 30
0.0
 11
5.723831999999999
 21
4.314197
 31
0.0
  0
LINE
  5
2AB
330
A
100
AcDbEntity
  8
1
  6
Continuous
 62
     5
100
AcDbLine
 10
2.719924999999999
 20
3.964616999999999
 30
0.0
 11
2.70544
 21
3.964616999999999
 31
0.0
  0
LINE
  5
2AC
330
A
100
AcDbEntity
  8
1
  6
Continuous
 62
     3
100
AcDbLine
 10
5.201559999999999
 20
3.709591
 30
0.0
 11
5.201559999999999
 21
3.723733
 31
0.0
  0
LINE
  5
2AD
330
A
100
AcDbEntity
  8
1
  6
Continuous
 62
     5
100
AcDbLine
 10
2.860183
 20
4.232738999999999
 30
0.0
 11
2.798513
 21
4.232738999999999
 31
0.0
  0
LINE
  5
2AE
330
A
100
AcDbEntity
  8
1
  6
Continuous
 62
     6
100
AcDbLine
 10
5.810698
 20
4.274447
 30
0.0
 11
5.794012999999999
 21
4.274738
 31
0.0
  0
LINE
  5
2AF
330
A
100
AcDbEntity
  8
1
  6
Continuous
 62
     5
100
AcDbLine
 10
2.567706
 20
4.415588999999999
 30
0.0
 11
2.560273
 21
4.423022
 31
0.0
  0
LINE
  5
2B0
330
A
100
AcDbEntity
  8
1
  6
Continuous
 62
     3
100
AcDbLine
 10
5.657048999999999
 20
3.708112
 30
0.0
 11
5.657048999999999
 21
3.713112
 31
0.0
  0
LINE
  5
2B1
330
A
100
AcDbEntity
  8
1
  6
Continuous
 62
    95
100
AcDbLine
 10
2.980159999999999
 20
4.218491999999999
 30
0.0
 11
2.980402999999999
 21
4.218208999999999
 31
0.0
  0
LINE
  5
2B2
330
A
100
AcDbEntity
  8
1
  6
Continuous
 62
     5
100
AcDbLine
 10
2.748683
 20
4.192738999999999
 30
0.0
 11
2.748683
 21
4.292739
 31
0.0
  0
LINE
  5
2B3
330
A
100
AcDbEntity
  8
1
  6
Continuous
 62
     6
100
AcDbLine
 10
5.913424
 20
4.262070999999999
 30
0.0
 11
5.913424
 21
4.255380999999999
 31
0.0
  0
LINE
  5
2B4
330
A
100
AcDbEntity
  8
1
  6
Continuous
 62
     5
100
AcDbLine
 10
3.17454
 20
3.703112
 30
0.0
 11
3.171035999999999
 21
3.703112
 31
0.0
  0
LINE
  5
2B5
330
A
100
AcDbEntity
  8
1
  6
Continuous
 62
     6
100
AcDbLine
 10
5.778685
 20
4.306465
 30
0.0
 11
5.778793
 21
4.313530999999999
 31
0.0
  0
LINE
  5
2B6
330
A
100
AcDbEntity
  8
1
  6
Continuous
 62
     3
100
AcDbLine
 10
5.522048
 20
3.708112
 30
0.0
 11
5.522048
 21
3.713112
 31
0.0
  0
LINE
  5
2B7
330
A
100
AcDbEntity
  8
1
  6
Continuous
 62
    95
100
AcDbLine
 10
2.965059
 20
4.207174
 30
0.0
 11
2.972682999999999
 21
4.207174
 31
0.0
  0
LINE
  5
2B8
330
A
100
AcDbEntity
  8
1
  6
Continuous
 62
    95
100
AcDbLine
 10
2.981527
 20
4.216237999999999
 30
0.0
 11
2.980402999999999
 21
4.218208999999999
 31
0.0
  0
LINE
  5
2B9
330
A
100
AcDbEntity
  8
1
  6
Continuous
 62
     5
100
AcDbLine
 10
2.672943999999999
 20
3.935255
 30
0.0
 11
2.672177999999999
 21
3.933926999999999
 31
0.0
  0
LINE
  5
2BA
330
A
100
AcDbEntity
  8
1
  6
Continuous
 62
     6
100
AcDbLine
 10
5.913424
 20
4.20614
 30
0.0
 11
5.913424
 21
4.206048
 31
0.0
  0
LINE
  5
2BB
330
A
100
AcDbEntity
  8
1
  6
Continuous
 62
     5
100
AcDbLine
 10
2.981984999999999
 20
3.816415
 30
0.0
 11
2.981984999999999
 21
3.783806999999999
 31
0.0
  0
LINE
  5
2BC
330
A
100
AcDbEntity
  8
1
  6
Continuous
 62
     3
100
AcDbLine
 10
5.19735
 20
3.708112
 30
0.0
 11
5.201559999999999
 21
3.708112
 31
0.0
  0
LINE
  5
2BD
330
A
100
AcDbEntity
  8
1
  6
Continuous
 62
     3
100
AcDbLine
 10
2.563670999999999
 20
3.757303999999999
 30
0.0
 11
2.563855999999999
 21
3.761698
 31
0.0
  0
LINE
  5
2BE
330
A
100
AcDbEntity
  8
1
  6
Continuous
 62
    95
100
AcDbLine
 10
2.987686999999999
 20
4.216173999999999
 30
0.0
 11
2.989754999999999
 21
4.216173999999999
 31
0.0
  0
LINE
  5
2BF
330
A
100
AcDbEntity
  8
1
  6
Continuous
 62
     5
100
AcDbLine
 10
2.689738
 20
4.031194999999999
 30
0.0
 11
2.695596
 21
4.017052999999999
 31
0.0
  0
LINE
  5
2C0
330
A
100
AcDbEntity
  8
1
  6
Continuous
 62
     6
100
AcDbLine
 10
5.788424
 20
4.26289
 30
0.0
 11
5.913424
 21
4.264816
 31
0.0
  0
LINE
  5
2C1
330
A
100
AcDbEntity
  8
1
  6
Continuous
 62
     5
100
AcDbLine
 10
2.778379
 20
3.768808999999999
 30
0.0
 11
2.767773
 21
3.773201
 31
0.0
  0
LINE
  5
2C2
330
A
100
AcDbEntity
  8
1
  6
Continuous
 62
     3
100
AcDbLine
 10
5.041297
 20
3.708112
 30
0.0
 11
5.045506999999999
 21
3.708112
 31
0.0
  0
LINE
  5
2C3
330
A
100
AcDbEntity
  8
1
  6
Continuous
 62
    95
100
AcDbLine
 10
2.977189
 20
4.221173999999999
 30
0.0
 11
2.978088999999999
 21
4.221093999999999
 31
0.0
  0
LINE
  5
2C4
330
A
100
AcDbEntity
  8
1
  6
Continuous
 62
     5
100
AcDbLine
 10
2.760683
 20
3.987644
 30
0.0
 11
2.744683
 21
3.987644
 31
0.0
  0
LINE
  5
2C5
330
A
100
AcDbEntity
  8
1
  6
Continuous
 62
     5
100
AcDbLine
 10
2.858262999999999
 20
4.216077999999999
 30
0.0
 11
2.800433
 21
4.216077999999999
 31
0.0
  0
LINE
  5
2C6
330
A
100
AcDbEntity
  8
1
  6
Continuous
 62
     6
100
AcDbLine
 10
5.728823999999999
 20
4.316766
 30
0.0
 11
5.729268
 21
4.316207
 31
0.0
  0
LINE
  5
2C7
330
A
100
AcDbEntity
  8
1
  6
Continuous
 62
     5
100
AcDbLine
 10
4.932297
 20
3.703112
 30
0.0
 11
4.416473
 21
3.703112
 31
0.0
  0
LINE
  5
2C8
330
A
100
AcDbEntity
  8
1
  6
Continuous
 62
    95
100
AcDbLine
 10
2.777188999999999
 20
4.221173999999999
 30
0.0
 11
2.768177
 21
4.221173999999999
 31
0.0
  0
LINE
  5
2C9
330
A
100
AcDbEntity
  8
1
  6
Continuous
 62
     5
100
AcDbLine
 10
2.800683
 20
4.086369999999999
 30
0.0
 11
2.803683
 21
4.086369999999999
 31
0.0
  0
LINE
  5
2CA
330
A
100
AcDbEntity
  8
1
  6
Continuous
 62
     5
100
AcDbLine
 10
2.792683
 20
4.371959999999999
 30
0.0
 11
2.788663999999999
 21
4.375979
 31
0.0
  0
LINE
  5
2CB
330
A
100
AcDbEntity
  8
1
  6
Continuous
 62
     5
100
AcDbLine
 10
4.401559999999999
 20
3.921739
 30
0.0
 11
4.401559999999999
 21
3.933739
 31
0.0
  0
LINE
  5
2CC
330
A
100
AcDbEntity
  8
1
  6
Continuous
 62
    95
100
AcDbLine
 10
2.789754999999999
 20
4.216173999999999
 30
0.0
 11
2.787687
 21
4.216173999999999
 31
0.0
  0
LINE
  5
2CD
330
A
100
AcDbEntity
  8
1
  6
Continuous
 62
     5
100
AcDbLine
 10
2.880683
 20
3.987644
 30
0.0
 11
2.864683
 21
3.987644
 31
0.0
  0
LINE
  5
2CE
330
A
100
AcDbEntity
  8
1
  6
Continuous
 62
     5
100
AcDbLine
 10
5.161559999999999
 20
4.323237
 30
0.0
 11
5.161559999999999
 21
4.377464999999999
 31
0.0
  0
LINE
  5
2CF
330
A
100
AcDbEntity
  8
1
  6
Continuous
 62
     3
100
AcDbLine
 10
2.975118999999999
 20
4.226962
 30
0.0
 11
2.976720999999999
 21
4.227056
 31
0.0
  0
LINE
  5
2D0
330
A
100
AcDbEntity
  8
1
  6
Continuous
 62
    95
100
AcDbLine
 10
2.780402999999999
 20
4.218208999999999
 30
0.0
 11
2.781527
 21
4.216237999999999
 31
0.0
  0
LINE
  5
2D1
330
A
100
AcDbEntity
  8
1
  6
Continuous
 62
     5
100
AcDbLine
 10
2.944683
 20
4.086369999999999
 30
0.0
 11
2.920683
 21
4.086369999999999
 31
0.0
  0
LINE
  5
2D2
330
A
100
AcDbEntity
  8
1
  6
Continuous
 62
     6
100
AcDbLine
 10
5.703443
 20
4.315642999999999
 30
0.0
 11
5.703424
 21
4.314269
 31
0.0
  0
LINE
  5
2D3
330
A
100
AcDbEntity
  8
1
  6
Continuous
 62
     5
100
AcDbLine
 10
2.763381
 20
3.783806999999999
 30
0.0
 11
2.762682999999999
 21
3.783108
 31
0.0
  0
LINE
  5
2D4
330
A
100
AcDbEntity
  8
1
  6
Continuous
 62
     5
100
AcDbLine
 10
4.932267999999999
 20
4.417968
 30
0.0
 11
4.932297
 21
4.417891
 31
0.0
  0
LINE
  5
2D5
330
A
100
AcDbEntity
  8
1
  6
Continuous
 62
    95
100
AcDbLine
 10
2.772683
 20
4.214173999999999
 30
0.0
 11
2.780159999999999
 21
4.218491999999999
 31
0.0
  0
LINE
  5
2D6
330
A
100
AcDbEntity
  8
1
  6
Continuous
 62
     6
100
AcDbLine
 10
5.729268
 20
4.316207
 30
0.0
 11
5.729584
 21
4.315583999999999
 31
0.0
  0
LINE
  5
2D7
330
A
100
AcDbEntity
  8
1
  6
Continuous
 62
     5
100
AcDbLine
 10
2.633108
 20
4.415588999999999
 30
0.0
 11
2.633108
 21
4.353963999999999
 31
0.0
  0
LINE
  5
2D8
330
A
100
AcDbEntity
  8
1
  6
Continuous
 62
     5
100
AcDbLine
 10
4.932072999999999
 20
4.41908
 30
0.0
 11
4.932131
 21
4.420632
 31
0.0
  0
LINE
  5
2D9
330
A
100
AcDbEntity
  8
1
  6
Continuous
 62
    95
100
AcDbLine
 10
2.765204999999999
 20
4.218491999999999
 30
0.0
 11
2.772683
 21
4.214173999999999
 31
0.0
  0
LINE
  5
2DA
330
A
100
AcDbEntity
  8
1
  6
Continuous
 62
     3
100
AcDbLine
 10
2.553460999999999
 20
4.337710999999999
 30
0.0
 11
2.553383999999999
 21
4.327105
 31
0.0
  0
LINE
  5
2DB
330
A
100
AcDbEntity
  8
1
  6
Continuous
 62
     6
100
AcDbLine
 10
5.778793
 20
4.313530999999999
 30
0.0
 11
5.778685
 21
4.316461
 31
0.0
  0
LINE
  5
2DC
330
A
100
AcDbEntity
  8
1
  6
Continuous
 62
     5
100
AcDbLine
 10
2.774163
 20
4.317257999999999
 30
0.0
 11
2.783895999999999
 21
4.307526
 31
0.0
  0
LINE
  5
2DD
330
A
100
AcDbEntity
  8
1
  6
Continuous
 62
   151
100
AcDbLine
 10
5.421060999999999
 20
4.339991999999999
 30
0.0
 11
5.408061
 21
4.340673
 31
0.0
  0
LINE
  5
2DE
330
A
100
AcDbEntity
  8
1
  6
Continuous
 62
    95
100
AcDbLine
 10
2.757677999999999
 20
4.212174
 30
0.0
 11
2.763815
 21
4.212174
 31
0.0
  0
LINE
  5
2DF
330
A
100
AcDbEntity
  8
1
  6
Continuous
 62
     5
100
AcDbLine
 10
3.177659999999999
 20
4.353963999999999
 30
0.0
 11
3.177659999999999
 21
4.41059
 31
0.0
  0
LINE
  5
2E0
330
A
100
AcDbEntity
  8
1
  6
Continuous
 62
   151
100
AcDbLine
 10
5.632044
 20
4.334719999999999
 30
0.0
 11
5.466530999999999
 21
4.337608999999999
 31
0.0
  0
LINE
  5
2E1
330
A
100
AcDbEntity
  8
1
  6
Continuous
 62
    95
100
AcDbLine
 10
2.778245
 20
4.221060999999999
 30
0.0
 11
2.777448
 21
4.221167999999999
 31
0.0
  0
LINE
  5
2E2
330
A
100
AcDbEntity
  8
1
  6
Continuous
 62
     5
100
AcDbLine
 10
3.107183
 20
3.963738999999999
 30
0.0
 11
3.107183
 21
4.232738999999999
 31
0.0
  0
LINE
  5
2E3
330
A
100
AcDbEntity
  8
1
  6
Continuous
 62
   151
100
AcDbLine
 10
5.161559999999999
 20
3.729216999999999
 30
0.0
 11
5.201562
 21
3.728518
 31
0.0
  0
LINE
  5
2E4
330
A
100
AcDbEntity
  8
1
  6
Continuous
 62
    30
100
AcDbLine
 10
2.821683
 20
3.964207
 30
0.0
 11
2.821683
 21
4.095206
 31
0.0
  0
LINE
  5
2E5
330
A
100
AcDbEntity
  8
1
  6
Continuous
 62
     5
100
AcDbLine
 10
3.17266
 20
4.415588999999999
 30
0.0
 11
3.177659999999999
 21
4.41059
 31
0.0
  0
LINE
  5
2E6
330
A
100
AcDbEntity
  8
1
  6
Continuous
 62
     2
100
AcDbLine
 10
3.094929
 20
3.963738999999999
 30
0.0
 11
3.094929
 21
3.983884999999999
 31
0.0
  0
LINE
  5
2E7
330
A
100
AcDbEntity
  8
1
  6
Continuous
 62
     5
100
AcDbLine
 10
2.996682999999999
 20
4.232738999999999
 30
0.0
 11
2.998965999999999
 21
4.235022999999999
 31
0.0
  0
LINE
  5
2E8
330
A
100
AcDbEntity
  8
1
  6
Continuous
 62
    30
100
AcDbLine
 10
2.723683
 20
3.964207
 30
0.0
 11
2.723683
 21
4.095206
 31
0.0
  0
LINE
  5
2E9
330
A
100
AcDbEntity
  8
1
  6
Continuous
 62
     3
100
AcDbLine
 10
5.81203
 20
3.941285999999999
 30
0.0
 11
5.775875
 21
3.736238999999999
 31
0.0
  0
LINE
  5
2EA
330
A
100
AcDbEntity
  8
1
  6
Continuous
 62
     2
100
AcDbLine
 10
2.760683
 20
3.983884999999999
 30
0.0
 11
2.761025999999999
 21
3.964205999999999
 31
0.0
  0
LINE
  5
2EB
330
A
100
AcDbEntity
  8
1
  6
Continuous
 62
     5
100
AcDbLine
 10
2.998965999999999
 20
4.301023
 30
0.0
 11
2.996682999999999
 21
4.298739
 31
0.0
  0
LINE
  5
2EC
330
A
100
AcDbEntity
  8
1
  6
Continuous
 62
     3
100
AcDbLine
 10
5.626481
 20
4.245441
 30
0.0
 11
5.626419
 21
4.245441
 31
0.0
  0
LINE
  5
2ED
330
A
100
AcDbEntity
  8
1
  6
Continuous
 62
     2
100
AcDbLine
 10
2.840683
 20
3.983884999999999
 30
0.0
 11
2.824684999999999
 21
3.983884999999999
 31
0.0
  0
LINE
  5
2EE
330
A
100
AcDbEntity
  8
1
  6
Continuous
 62
     5
100
AcDbLine
 10
3.185033999999999
 20
4.418122
 30
0.0
 11
3.185008999999999
 21
4.41848
 31
0.0
  0
LINE
  5
2EF
330
A
100
AcDbEntity
  8
1
  6
Continuous
 62
     3
100
AcDbLine
 10
5.761552
 20
3.743983999999999
 30
0.0
 11
5.796587999999999
 21
3.942686
 31
0.0
  0
LINE
  5
2F0
330
A
100
AcDbEntity
  8
1
  6
Continuous
 62
     2
100
AcDbLine
 10
2.944684999999999
 20
3.983884999999999
 30
0.0
 11
2.944341
 21
3.964205999999999
 31
0.0
  0
LINE
  5
2F1
330
A
100
AcDbEntity
  8
1
  6
Continuous
 62
     5
100
AcDbLine
 10
2.681443999999999
 20
4.248597
 30
0.0
 11
2.681566999999999
 21
4.242739
 31
0.0
  0
LINE
  5
2F2
330
A
100
AcDbEntity
  8
1
  6
Continuous
 62
     3
100
AcDbLine
 10
3.190043999999999
 20
4.322710999999999
 30
0.0
 11
3.189782
 21
4.322710999999999
 31
0.0
  0
LINE
  5
2F3
330
A
100
AcDbEntity
  8
1
  6
Continuous
 62
     3
100
AcDbLine
 10
5.641219
 20
4.253619999999999
 30
0.0
 11
5.641219
 21
4.264933999999999
 31
0.0
  0
LINE
  5
2F4
330
A
100
AcDbEntity
  8
1
  6
Continuous
 62
     6
100
AcDbLine
 10
5.913145
 20
4.271342999999999
 30
0.0
 11
5.912706
 21
4.271949
 31
0.0
  0
LINE
  5
2F5
330
A
100
AcDbEntity
  8
1
  6
Continuous
 62
     2
100
AcDbLine
 10
3.040683
 20
3.983884999999999
 30
0.0
 11
3.041028999999999
 21
3.964066
 31
0.0
  0
LINE
  5
2F6
330
A
100
AcDbEntity
  8
1
  6
Continuous
 62
     5
100
AcDbLine
 10
2.675597
 20
4.027051999999999
 30
0.0
 11
2.638183
 21
4.027051999999999
 31
0.0
  0
LINE
  5
2F7
330
A
100
AcDbEntity
  8
1
  6
Continuous
 62
     3
100
AcDbLine
 10
5.595101999999999
 20
4.269554
 30
0.0
 11
5.626419
 21
4.269598999999999
 31
0.0
  0
LINE
  5
2F8
330
A
100
AcDbEntity
  8
1
  6
Continuous
 62
     5
100
AcDbLine
 10
3.000682999999999
 20
4.086369999999999
 30
0.0
 11
3.000682999999999
 21
3.987644
 31
0.0
  0
LINE
  5
2F9
330
A
100
AcDbEntity
  8
1
  6
Continuous
 62
     5
100
AcDbLine
 10
2.682068999999999
 20
4.013524999999999
 30
0.0
 11
2.67914
 21
4.020596
 31
0.0
  0
LINE
  5
2FA
330
A
100
AcDbEntity
  8
1
  6
Continuous
 62
     3
100
AcDbLine
 10
5.626481
 20
4.245441
 30
0.0
 11
5.636917999999999
 21
4.247298999999999
 31
0.0
  0
LINE
  5
2FB
330
A
100
AcDbEntity
  8
1
  6
Continuous
 62
     5
100
AcDbLine
 10
2.638183
 20
4.023700999999999
 30
0.0
 11
2.638183
 21
4.232738999999999
 31
0.0
  0
LINE
  5
2FC
330
A
100
AcDbEntity
  8
1
  6
Continuous
 62
     6
100
AcDbLine
 10
5.729623999999999
 20
4.314294999999999
 30
0.0
 11
5.729638999999999
 21
4.314783
 31
0.0
  0
LINE
  5
2FD
330
A
100
AcDbEntity
  8
1
  6
Continuous
 62
     5
100
AcDbLine
 10
2.675597
 20
4.030012
 30
0.0
 11
2.675597
 21
4.027051999999999
 31
0.0
  0
LINE
  5
2FE
330
A
100
AcDbEntity
  8
1
  6
Continuous
 62
     3
100
AcDbLine
 10
2.552937
 20
3.757303999999999
 30
0.0
 11
2.563670999999999
 21
3.757303999999999
 31
0.0
  0
LINE
  5
2FF
330
A
100
AcDbEntity
  8
1
  6
Continuous
 62
     3
100
AcDbLine
 10
5.81203
 20
4.117062
 30
0.0
 11
5.807539
 21
4.116634999999999
 31
0.0
  0
LINE
  5
300
330
A
100
AcDbEntity
  8
1
  6
Continuous
 62
     5
100
AcDbLine
 10
2.630465
 20
4.023525
 30
0.0
 11
2.638183
 21
4.023700999999999
 31
0.0
  0
LINE
  5
301
330
A
100
AcDbEntity
  8
1
  6
Continuous
 62
     6
100
AcDbLine
 10
5.728133999999999
 20
4.317312999999999
 30
0.0
 11
5.727662
 21
4.317556999999999
 31
0.0
  0
LINE
  5
302
330
A
100
AcDbEntity
  8
1
  6
Continuous
 62
     3
100
AcDbLine
 10
5.771727999999999
 20
3.738599999999999
 30
0.0
 11
5.761552
 21
3.743983999999999
 31
0.0
  0
LINE
  5
303
330
A
100
AcDbEntity
  8
1
  6
Continuous
 62
     5
100
AcDbLine
 10
2.671393
 20
4.305829
 30
0.0
 11
2.748683
 21
4.305829
 31
0.0
  0
LINE
  5
304
330
A
100
AcDbEntity
  8
1
  6
Continuous
 62
     6
100
AcDbLine
 10
5.641243
 20
4.312916999999999
 30
0.0
 11
5.64113
 21
4.312181999999999
 31
0.0
  0
LINE
  5
305
330
A
100
AcDbEntity
  8
1
  6
Continuous
 62
     6
100
AcDbLine
 10
5.640924
 20
4.269619999999999
 30
0.0
 11
5.640924
 21
4.311409999999999
 31
0.0
  0
LINE
  5
306
330
A
100
AcDbEntity
  8
1
  6
Continuous
 62
     5
100
AcDbLine
 10
3.137183
 20
4.262738999999999
 30
0.0
 11
3.026683
 21
4.262738999999999
 31
0.0
  0
LINE
  5
307
330
A
100
AcDbEntity
  8
1
  6
Continuous
 62
     3
100
AcDbLine
 10
4.550518
 20
4.381126
 30
0.0
 11
4.939494999999999
 21
4.387916
 31
0.0
  0
LINE
  5
308
330
A
100
AcDbEntity
  8
1
  6
Continuous
 62
     5
100
AcDbLine
 10
2.798513
 20
4.291699999999999
 30
0.0
 11
2.798443
 21
4.306701
 31
0.0
  0
LINE
  5
309
330
A
100
AcDbEntity
  8
1
  6
Continuous
 62
     6
100
AcDbLine
 10
5.650661
 20
4.31705
 30
0.0
 11
5.680213
 21
4.317823999999999
 31
0.0
  0
LINE
  5
30A
330
A
100
AcDbEntity
  8
1
  6
Continuous
 62
     5
100
AcDbLine
 10
2.97829
 20
3.827717999999999
 30
0.0
 11
2.982683
 21
3.817112999999999
 31
0.0
  0
LINE
  5
30B
330
A
100
AcDbEntity
  8
1
  6
Continuous
 62
     5
100
AcDbLine
 10
3.110546999999999
 20
4.408965
 30
0.0
 11
3.110546999999999
 21
4.352253
 31
0.0
  0
LINE
  5
30C
330
A
100
AcDbEntity
  8
1
  6
Continuous
 62
     3
100
AcDbLine
 10
5.165512
 20
4.322710999999999
 30
0.0
 11
5.163517999999999
 21
4.322845
 31
0.0
  0
LINE
  5
30D
330
A
100
AcDbEntity
  8
1
  6
Continuous
 62
     6
100
AcDbLine
 10
5.731423
 20
4.273927999999999
 30
0.0
 11
5.731423
 21
4.275083999999999
 31
0.0
  0
LINE
  5
30E
330
A
100
AcDbEntity
  8
1
  6
Continuous
 62
     5
100
AcDbLine
 10
2.967684999999999
 20
3.768111
 30
0.0
 11
2.777681
 21
3.768111
 31
0.0
  0
LINE
  5
30F
330
A
100
AcDbEntity
  8
1
  6
Continuous
 62
     3
100
AcDbLine
 10
5.18405
 20
4.322710999999999
 30
0.0
 11
5.180422
 21
4.322710999999999
 31
0.0
  0
LINE
  5
310
330
A
100
AcDbEntity
  8
1
  6
Continuous
 62
     5
100
AcDbLine
 10
2.98544
 20
3.964616999999999
 30
0.0
 11
2.984615
 21
3.964205
 31
0.0
  0
LINE
  5
311
330
A
100
AcDbEntity
  8
1
  6
Continuous
 62
     3
100
AcDbLine
 10
5.185852999999999
 20
3.757303999999999
 30
0.0
 11
5.185559999999999
 21
3.757303999999999
 31
0.0
  0
LINE
  5
312
330
A
100
AcDbEntity
  8
1
  6
Continuous
 62
     5
100
AcDbLine
 10
3.185038999999999
 20
3.703112
 30
0.0
 11
3.176034999999999
 21
3.703112
 31
0.0
  0
LINE
  5
313
330
A
100
AcDbEntity
  8
1
  6
Continuous
 62
   151
100
AcDbLine
 10
2.871847999999999
 20
4.352933999999999
 30
0.0
 11
2.952679999999999
 21
4.352933999999999
 31
0.0
  0
LINE
  5
314
330
A
100
AcDbEntity
  8
1
  6
Continuous
 62
     6
100
AcDbLine
 10
5.712755999999999
 20
4.318188
 30
0.0
 11
5.720087
 21
4.317995999999999
 31
0.0
  0
LINE
  5
315
330
A
100
AcDbEntity
  8
1
  6
Continuous
 62
     5
100
AcDbLine
 10
2.90544
 20
3.964616999999999
 30
0.0
 11
2.919925
 21
3.964616999999999
 31
0.0
  0
LINE
  5
316
330
A
100
AcDbEntity
  8
1
  6
Continuous
 62
     5
100
AcDbLine
 10
4.932101999999999
 20
4.41848
 30
0.0
 11
4.932072999999999
 21
4.41908
 31
0.0
  0
LINE
  5
317
330
A
100
AcDbEntity
  8
1
  6
Continuous
 62
   151
100
AcDbLine
 10
2.770502
 20
4.227497
 30
0.0
 11
2.770265999999999
 21
4.221173999999999
 31
0.0
  0
LINE
  5
318
330
A
100
AcDbEntity
  8
1
  6
Continuous
 62
    95
100
AcDbLine
 10
2.963839
 20
4.212111
 30
0.0
 11
2.964963
 21
4.210139999999999
 31
0.0
  0
LINE
  5
319
330
A
100
AcDbEntity
  8
1
  6
Continuous
 62
     5
100
AcDbLine
 10
2.839925999999999
 20
3.964616999999999
 30
0.0
 11
2.840749999999999
 21
3.964205
 31
0.0
  0
LINE
  5
31A
330
A
100
AcDbEntity
  8
1
  6
Continuous
 62
     5
100
AcDbLine
 10
2.684483
 20
4.242739
 30
0.0
 11
2.681554
 21
4.235668
 31
0.0
  0
LINE
  5
31B
330
A
100
AcDbEntity
  8
1
  6
Continuous
 62
     5
100
AcDbLine
 10
2.800433
 20
4.216077999999999
 30
0.0
 11
2.800433
 21
4.194266
 31
0.0
  0
LINE
  5
31C
330
A
100
AcDbEntity
  8
1
  6
Continuous
 62
    95
100
AcDbLine
 10
2.972682999999999
 20
4.207174
 30
0.0
 11
2.980306999999999
 21
4.207174
 31
0.0
  0
LINE
  5
31D
330
A
100
AcDbEntity
  8
1
  6
Continuous
 62
     3
100
AcDbLine
 10
2.952675
 20
4.309845
 30
0.0
 11
2.860291
 21
4.309845
 31
0.0
  0
LINE
  5
31E
330
A
100
AcDbEntity
  8
1
  6
Continuous
 62
     6
100
AcDbLine
 10
5.650661
 20
4.311831999999999
 30
0.0
 11
5.646916
 21
4.311726
 31
0.0
  0
LINE
  5
31F
330
A
100
AcDbEntity
  8
1
  6
Continuous
 62
     5
100
AcDbLine
 10
2.784615
 20
3.964205
 30
0.0
 11
2.760749999999999
 21
3.964205
 31
0.0
  0
LINE
  5
320
330
A
100
AcDbEntity
  8
1
  6
Continuous
 62
     3
100
AcDbLine
 10
2.557142999999999
 20
4.387916
 30
0.0
 11
2.553676999999999
 21
4.352897
 31
0.0
  0
LINE
  5
321
330
A
100
AcDbEntity
  8
1
  6
Continuous
 62
     3
100
AcDbLine
 10
5.507048999999999
 20
3.723733
 30
0.0
 11
5.507048999999999
 21
3.725372
 31
0.0
  0
LINE
  5
322
330
A
100
AcDbEntity
  8
1
  6
Continuous
 62
    95
100
AcDbLine
 10
2.968176999999999
 20
4.221173999999999
 30
0.0
 11
2.977189
 21
4.221173999999999
 31
0.0
  0
LINE
  5
323
330
A
100
AcDbEntity
  8
1
  6
Continuous
 62
    95
100
AcDbLine
 10
2.957677999999999
 20
4.212174
 30
0.0
 11
2.955611
 21
4.212174
 31
0.0
  0
LINE
  5
324
330
A
100
AcDbEntity
  8
1
  6
Continuous
 62
     5
100
AcDbLine
 10
2.792683
 20
4.298739
 30
0.0
 11
2.79387
 21
4.298739
 31
0.0
  0
LINE
  5
325
330
A
100
AcDbEntity
  8
1
  6
Continuous
 62
     6
100
AcDbLine
 10
5.723831999999999
 20
4.314197
 30
0.0
 11
5.720087
 21
4.314161
 31
0.0
  0
LINE
  5
326
330
A
100
AcDbEntity
  8
1
  6
Continuous
 62
     5
100
AcDbLine
 10
3.110632999999999
 20
4.413963999999999
 30
0.0
 11
2.634733
 21
4.413963999999999
 31
0.0
  0
LINE
  5
327
330
A
100
AcDbEntity
  8
1
  6
Continuous
 62
     3
100
AcDbLine
 10
5.201559999999999
 20
3.709591
 30
0.0
 11
5.507048999999999
 21
3.709591
 31
0.0
  0
LINE
  5
328
330
A
100
AcDbEntity
  8
1
  6
Continuous
 62
    95
100
AcDbLine
 10
2.972682999999999
 20
4.207211
 30
0.0
 11
2.967799
 21
4.208187999999999
 31
0.0
  0
LINE
  5
329
330
A
100
AcDbEntity
  8
1
  6
Continuous
 62
     5
100
AcDbLine
 10
2.800433
 20
4.194266
 30
0.0
 11
2.748683
 21
4.194266
 31
0.0
  0
LINE
  5
32A
330
A
100
AcDbEntity
  8
1
  6
Continuous
 62
     6
100
AcDbLine
 10
5.794012999999999
 20
4.274738
 30
0.0
 11
5.788424
 21
4.274835999999999
 31
0.0
  0
LINE
  5
32B
330
A
100
AcDbEntity
  8
1
  6
Continuous
 62
     5
100
AcDbLine
 10
2.633108
 20
4.415588999999999
 30
0.0
 11
2.567706
 21
4.415588999999999
 31
0.0
  0
LINE
  5
32C
330
A
100
AcDbEntity
  8
1
  6
Continuous
 62
   151
100
AcDbLine
 10
2.975118999999999
 20
4.207174
 30
0.0
 11
2.975118999999999
 21
4.200896
 31
0.0
  0
LINE
  5
32D
330
A
100
AcDbEntity
  8
1
  6
Continuous
 62
     3
100
AcDbLine
 10
5.642049
 20
3.708112
 30
0.0
 11
5.652655
 21
3.708112
 31
0.0
  0
LINE
  5
32E
330
A
100
AcDbEntity
  8
1
  6
Continuous
 62
    95
100
AcDbLine
 10
2.980159999999999
 20
4.218491999999999
 30
0.0
 11
2.972682999999999
 21
4.214173999999999
 31
0.0
  0
LINE
  5
32F
330
A
100
AcDbEntity
  8
1
  6
Continuous
 62
     5
100
AcDbLine
 10
2.748683
 20
4.143492
 30
0.0
 11
2.748683
 21
4.192738999999999
 31
0.0
  0
LINE
  5
330
330
A
100
AcDbEntity
  8
1
  6
Continuous
 62
     6
100
AcDbLine
 10
5.913424
 20
4.255380999999999
 30
0.0
 11
5.913424
 21
4.236816
 31
0.0
  0
LINE
  5
331
330
A
100
AcDbEntity
  8
1
  6
Continuous
 62
     5
100
AcDbLine
 10
2.569331
 20
3.703112
 30
0.0
 11
2.570825999999999
 21
3.703112
 31
0.0
  0
LINE
  5
332
330
A
100
AcDbEntity
  8
1
  6
Continuous
 62
     3
100
AcDbLine
 10
5.522048
 20
3.708112
 30
0.0
 11
5.642049
 21
3.708112
 31
0.0
  0
LINE
  5
333
330
A
100
AcDbEntity
  8
1
  6
Continuous
 62
     5
100
AcDbLine
 10
2.67207
 20
4.023525
 30
0.0
 11
2.675597
 21
4.027051999999999
 31
0.0
  0
LINE
  5
334
330
A
100
AcDbEntity
  8
1
  6
Continuous
 62
    95
100
AcDbLine
 10
2.980402999999999
 20
4.210139999999999
 30
0.0
 11
2.981527
 21
4.212111
 31
0.0
  0
LINE
  5
335
330
A
100
AcDbEntity
  8
1
  6
Continuous
 62
     5
100
AcDbLine
 10
2.672177999999999
 20
3.933926999999999
 30
0.0
 11
2.67207
 21
3.933739
 31
0.0
  0
LINE
  5
336
330
A
100
AcDbEntity
  8
1
  6
Continuous
 62
     6
100
AcDbLine
 10
5.913424
 20
4.206048
 30
0.0
 11
5.913424
 21
4.201068
 31
0.0
  0
LINE
  5
337
330
A
100
AcDbEntity
  8
1
  6
Continuous
 62
     5
100
AcDbLine
 10
2.981984999999999
 20
3.816415
 30
0.0
 11
2.977591999999999
 21
3.827019999999999
 31
0.0
  0
LINE
  5
338
330
A
100
AcDbEntity
  8
1
  6
Continuous
 62
     3
100
AcDbLine
 10
5.201559999999999
 20
3.713112
 30
0.0
 11
5.19735
 21
3.713112
 31
0.0
  0
LINE
  5
339
330
A
100
AcDbEntity
  8
1
  6
Continuous
 62
     6
100
AcDbLine
 10
5.720127999999999
 20
4.316872
 30
0.0
 11
5.720125
 21
4.316258999999999
 31
0.0
  0
LINE
  5
33A
330
A
100
AcDbEntity
  8
1
  6
Continuous
 62
    95
100
AcDbLine
 10
2.965205
 20
4.218491999999999
 30
0.0
 11
2.965365
 21
4.219748
 31
0.0
  0
LINE
  5
33B
330
A
100
AcDbEntity
  8
1
  6
Continuous
 62
     5
100
AcDbLine
 10
2.695596
 20
4.017052999999999
 30
0.0
 11
2.695596
 21
3.987644
 31
0.0
  0
LINE
  5
33C
330
A
100
AcDbEntity
  8
1
  6
Continuous
 62
     6
100
AcDbLine
 10
5.913424
 20
4.26214
 30
0.0
 11
5.788424
 21
4.260213999999999
 31
0.0
  0
LINE
  5
33D
330
A
100
AcDbEntity
  8
1
  6
Continuous
 62
     5
100
AcDbLine
 10
2.767773
 20
3.773201
 30
0.0
 11
2.763381
 21
3.783806999999999
 31
0.0
  0
LINE
  5
33E
330
A
100
AcDbEntity
  8
1
  6
Continuous
 62
     3
100
AcDbLine
 10
5.045506999999999
 20
3.708112
 30
0.0
 11
5.055773
 21
3.708112
 31
0.0
  0
LINE
  5
33F
330
A
100
AcDbEntity
  8
1
  6
Continuous
 62
     6
100
AcDbLine
 10
5.912706
 20
4.271949
 30
0.0
 11
5.911989
 21
4.272458999999999
 31
0.0
  0
LINE
  5
340
330
A
100
AcDbEntity
  8
1
  6
Continuous
 62
     5
100
AcDbLine
 10
2.760683
 20
4.086369999999999
 30
0.0
 11
2.760683
 21
3.987644
 31
0.0
  0
LINE
  5
341
330
A
100
AcDbEntity
  8
1
  6
Continuous
 62
     6
100
AcDbLine
 10
5.913424
 20
4.22738
 30
0.0
 11
5.792905999999999
 21
4.225524
 31
0.0
  0
LINE
  5
342
330
A
100
AcDbEntity
  8
1
  6
Continuous
 62
     3
100
AcDbLine
 10
3.190043999999999
 20
3.757303999999999
 30
0.0
 11
3.179311
 21
3.757303999999999
 31
0.0
  0
LINE
  5
343
330
A
100
AcDbEntity
  8
1
  6
Continuous
 62
     5
100
AcDbLine
 10
4.416473
 20
3.703112
 30
0.0
 11
4.412994
 21
3.703112
 31
0.0
  0
LINE
  5
344
330
A
100
AcDbEntity
  8
1
  6
Continuous
 62
    95
100
AcDbLine
 10
2.777188999999999
 20
4.221173999999999
 30
0.0
 11
2.781718
 21
4.221173999999999
 31
0.0
  0
LINE
  5
345
330
A
100
AcDbEntity
  8
1
  6
Continuous
 62
     5
100
AcDbLine
 10
2.821682
 20
4.086369999999999
 30
0.0
 11
2.824683
 21
4.086369999999999
 31
0.0
  0
LINE
  5
346
330
A
100
AcDbEntity
  8
1
  6
Continuous
 62
     6
100
AcDbLine
 10
5.911989
 20
4.272458999999999
 30
0.0
 11
5.911013999999999
 21
4.272695999999999
 31
0.0
  0
LINE
  5
347
330
A
100
AcDbEntity
  8
1
  6
Continuous
 62
     5
100
AcDbLine
 10
2.788663999999999
 20
4.375979
 30
0.0
 11
2.777683
 21
4.378921
 31
0.0
  0
LINE
  5
348
330
A
100
AcDbEntity
  8
1
  6
Continuous
 62
     5
100
AcDbLine
 10
4.411559999999999
 20
3.913738999999999
 30
0.0
 11
4.401559999999999
 21
3.913738999999999
 31
0.0
  0
LINE
  5
349
330
A
100
AcDbEntity
  8
1
  6
Continuous
 62
     6
100
AcDbLine
 10
5.913424
 20
4.20614
 30
0.0
 11
5.796641999999999
 21
4.20434
 31
0.0
  0
LINE
  5
34A
330
A
100
AcDbEntity
  8
1
  6
Continuous
 62
    95
100
AcDbLine
 10
2.787687
 20
4.216173999999999
 30
0.0
 11
2.78155
 21
4.216173999999999
 31
0.0
  0
LINE
  5
34B
330
A
100
AcDbEntity
  8
1
  6
Continuous
 62
     5
100
AcDbLine
 10
2.880683
 20
4.086369999999999
 30
0.0
 11
2.880683
 21
3.987644
 31
0.0
  0
LINE
  5
34C
330
A
100
AcDbEntity
  8
1
  6
Continuous
 62
     5
100
AcDbLine
 10
3.02544
 20
3.964616999999999
 30
0.0
 11
3.039925999999999
 21
3.964616999999999
 31
0.0
  0
LINE
  5
34D
330
A
100
AcDbEntity
  8
1
  6
Continuous
 62
    95
100
AcDbLine
 10
2.963815
 20
4.216173999999999
 30
0.0
 11
2.963815
 21
4.212174
 31
0.0
  0
LINE
  5
34E
330
A
100
AcDbEntity
  8
1
  6
Continuous
 62
     5
100
AcDbLine
 10
4.932297
 20
4.417891
 30
0.0
 11
5.161559999999999
 21
4.377464999999999
 31
0.0
  0
LINE
  5
34F
330
A
100
AcDbEntity
  8
1
  6
Continuous
 62
    95
100
AcDbLine
 10
2.781527
 20
4.216237999999999
 30
0.0
 11
2.78155
 21
4.216173999999999
 31
0.0
  0
LINE
  5
350
330
A
100
AcDbEntity
  8
1
  6
Continuous
 62
     5
100
AcDbLine
 10
2.944683
 20
4.086369999999999
 30
0.0
 11
2.944683
 21
3.987644
 31
0.0
  0
LINE
  5
351
330
A
100
AcDbEntity
  8
1
  6
Continuous
 62
     6
100
AcDbLine
 10
5.720087
 20
4.317995999999999
 30
0.0
 11
5.720115999999999
 21
4.317726
 31
0.0
  0
LINE
  5
352
330
A
100
AcDbEntity
  8
1
  6
Continuous
 62
     5
100
AcDbLine
 10
4.411559999999999
 20
4.352253
 30
0.0
 11
4.416473
 21
4.352338999999999
 31
0.0
  0
LINE
  5
353
330
A
100
AcDbEntity
  8
1
  6
Continuous
 62
    95
100
AcDbLine
 10
2.772683
 20
4.207211
 30
0.0
 11
2.772683
 21
4.214173999999999
 31
0.0
  0
LINE
  5
354
330
A
100
AcDbEntity
  8
1
  6
Continuous
 62
     6
100
AcDbLine
 10
5.727662
 20
4.317556999999999
 30
0.0
 11
5.728276999999999
 21
4.317223999999999
 31
0.0
  0
LINE
  5
355
330
A
100
AcDbEntity
  8
1
  6
Continuous
 62
     5
100
AcDbLine
 10
2.748683
 20
4.192738999999999
 30
0.0
 11
2.638183
 21
4.192738999999999
 31
0.0
  0
LINE
  5
356
330
A
100
AcDbEntity
  8
1
  6
Continuous
 62
     5
100
AcDbLine
 10
4.932131
 20
4.420632
 30
0.0
 11
4.932212999999999
 21
4.421878999999999
 31
0.0
  0
LINE
  5
357
330
A
100
AcDbEntity
  8
1
  6
Continuous
 62
     3
100
AcDbLine
 10
3.189597
 20
4.327105
 30
0.0
 11
3.189782
 21
4.322710999999999
 31
0.0
  0
LINE
  5
358
330
A
100
AcDbEntity
  8
1
  6
Continuous
 62
    95
100
AcDbLine
 10
2.763815
 20
4.216173999999999
 30
0.0
 11
2.763838999999999
 21
4.216237999999999
 31
0.0
  0
LINE
  5
359
330
A
100
AcDbEntity
  8
1
  6
Continuous
 62
     5
100
AcDbLine
 10
2.783895999999999
 20
4.307526
 30
0.0
 11
2.790399
 21
4.301023
 31
0.0
  0
LINE
  5
35A
330
A
100
AcDbEntity
  8
1
  6
Continuous
 62
   151
100
AcDbLine
 10
2.798297
 20
4.321477999999999
 30
0.0
 11
2.793871999999999
 21
4.321477999999999
 31
0.0
  0
LINE
  5
35B
330
A
100
AcDbEntity
  8
1
  6
Continuous
 62
   151
100
AcDbLine
 10
5.466530999999999
 20
4.337608999999999
 30
0.0
 11
5.421060999999999
 21
4.339991999999999
 31
0.0
  0
LINE
  5
35C
330
A
100
AcDbEntity
  8
1
  6
Continuous
 62
     5
100
AcDbLine
 10
2.800176
 20
4.231075999999999
 30
0.0
 11
2.798513
 21
4.232738999999999
 31
0.0
  0
LINE
  5
35D
330
A
100
AcDbEntity
  8
1
  6
Continuous
 62
     6
100
AcDbLine
 10
5.910966999999999
 20
4.188005
 30
0.0
 11
5.913424
 21
4.190504999999999
 31
0.0
  0
LINE
  5
35E
330
A
100
AcDbEntity
  8
1
  6
Continuous
 62
    95
100
AcDbLine
 10
2.763815
 20
4.216173999999999
 30
0.0
 11
2.757677999999999
 21
4.216173999999999
 31
0.0
  0
LINE
  5
35F
330
A
100
AcDbEntity
  8
1
  6
Continuous
 62
     5
100
AcDbLine
 10
3.176034999999999
 20
4.352338999999999
 30
0.0
 11
3.177659999999999
 21
4.353963999999999
 31
0.0
  0
LINE
  5
360
330
A
100
AcDbEntity
  8
1
  6
Continuous
 62
   151
100
AcDbLine
 10
5.632044
 20
4.297698999999999
 30
0.0
 11
5.632044
 21
4.334719999999999
 31
0.0
  0
LINE
  5
361
330
A
100
AcDbEntity
  8
1
  6
Continuous
 62
    95
100
AcDbLine
 10
2.777448
 20
4.221167999999999
 30
0.0
 11
2.777188999999999
 21
4.221173999999999
 31
0.0
  0
LINE
  5
362
330
A
100
AcDbEntity
  8
1
  6
Continuous
 62
     5
100
AcDbLine
 10
2.748683
 20
4.295829
 30
0.0
 11
2.681392999999999
 21
4.295829
 31
0.0
  0
LINE
  5
363
330
A
100
AcDbEntity
  8
1
  6
Continuous
 62
     5
100
AcDbLine
 10
2.952683
 20
4.298739
 30
0.0
 11
2.996682999999999
 21
4.298739
 31
0.0
  0
LINE
  5
364
330
A
100
AcDbEntity
  8
1
  6
Continuous
 62
   151
100
AcDbLine
 10
5.507054
 20
3.729041999999999
 30
0.0
 11
5.677044
 21
3.732008999999999
 31
0.0
  0
LINE
  5
365
330
A
100
AcDbEntity
  8
1
  6
Continuous
 62
     6
100
AcDbLine
 10
5.720115999999999
 20
4.317726
 30
0.0
 11
5.720125
 21
4.317369999999999
 31
0.0
  0
LINE
  5
366
330
A
100
AcDbEntity
  8
1
  6
Continuous
 62
    30
100
AcDbLine
 10
2.803683
 20
3.964207
 30
0.0
 11
2.803683
 21
4.095206
 31
0.0
  0
LINE
  5
367
330
A
100
AcDbEntity
  8
1
  6
Continuous
 62
     5
100
AcDbLine
 10
2.996682999999999
 20
4.192738999999999
 30
0.0
 11
3.107183
 21
4.192738999999999
 31
0.0
  0
LINE
  5
368
330
A
100
AcDbEntity
  8
1
  6
Continuous
 62
   151
100
AcDbLine
 10
5.201562
 20
3.715516999999999
 30
0.0
 11
5.161559999999999
 21
3.716215
 31
0.0
  0
LINE
  5
369
330
A
100
AcDbEntity
  8
1
  6
Continuous
 62
     3
100
AcDbLine
 10
5.406061
 20
3.967376
 30
0.0
 11
5.406061
 21
4.083066999999999
 31
0.0
  0
LINE
  5
36A
330
A
100
AcDbEntity
  8
1
  6
Continuous
 62
     2
100
AcDbLine
 10
3.065134
 20
3.983884999999999
 30
0.0
 11
3.094929
 21
3.983884999999999
 31
0.0
  0
LINE
  5
36B
330
A
100
AcDbEntity
  8
1
  6
Continuous
 62
     5
100
AcDbLine
 10
2.998965999999999
 20
4.235022999999999
 30
0.0
 11
3.005469999999999
 21
4.241526
 31
0.0
  0
LINE
  5
36C
330
A
100
AcDbEntity
  8
1
  6
Continuous
 62
     2
100
AcDbLine
 10
2.760683
 20
3.983884999999999
 30
0.0
 11
2.744685
 21
3.983884999999999
 31
0.0
  0
LINE
  5
36D
330
A
100
AcDbEntity
  8
1
  6
Continuous
 62
     5
100
AcDbLine
 10
2.982683
 20
4.328738999999999
 30
0.0
 11
2.971201999999999
 21
4.317257999999999
 31
0.0
  0
LINE
  5
36E
330
A
100
AcDbEntity
  8
1
  6
Continuous
 62
     3
100
AcDbLine
 10
5.626419
 20
4.245441
 30
0.0
 11
5.595119
 21
4.245395999999999
 31
0.0
  0
LINE
  5
36F
330
A
100
AcDbEntity
  8
1
  6
Continuous
 62
     2
100
AcDbLine
 10
2.864684999999999
 20
3.983884999999999
 30
0.0
 11
2.864340999999999
 21
3.964205999999999
 31
0.0
  0
LINE
  5
370
330
A
100
AcDbEntity
  8
1
  6
Continuous
 62
     6
100
AcDbLine
 10
5.796171
 20
4.207008999999999
 30
0.0
 11
5.913424
 21
4.208816
 31
0.0
  0
LINE
  5
371
330
A
100
AcDbEntity
  8
1
  6
Continuous
 62
     5
100
AcDbLine
 10
3.185008999999999
 20
4.41848
 30
0.0
 11
3.184909
 21
4.41908
 31
0.0
  0
LINE
  5
372
330
A
100
AcDbEntity
  8
1
  6
Continuous
 62
     5
100
AcDbLine
 10
2.70544
 20
3.964616999999999
 30
0.0
 11
2.703683
 21
3.963738999999999
 31
0.0
  0
LINE
  5
373
330
A
100
AcDbEntity
  8
1
  6
Continuous
 62
     3
100
AcDbLine
 10
5.796587999999999
 20
3.942686
 30
0.0
 11
5.796587999999999
 21
4.115662
 31
0.0
  0
LINE
  5
374
330
A
100
AcDbEntity
  8
1
  6
Continuous
 62
     5
100
AcDbLine
 10
2.681566999999999
 20
4.242739
 30
0.0
 11
2.678638
 21
4.235668
 31
0.0
  0
LINE
  5
375
330
A
100
AcDbEntity
  8
1
  6
Continuous
 62
     2
100
AcDbLine
 10
2.960682999999999
 20
3.983884999999999
 30
0.0
 11
2.961026
 21
3.964205999999999
 31
0.0
  0
LINE
  5
376
330
A
100
AcDbEntity
  8
1
  6
Continuous
 62
     5
100
AcDbLine
 10
2.681566999999999
 20
4.242739
 30
0.0
 11
2.684483
 21
4.242739
 31
0.0
  0
LINE
  5
377
330
A
100
AcDbEntity
  8
1
  6
Continuous
 62
     3
100
AcDbLine
 10
3.189519999999999
 20
4.337710999999999
 30
0.0
 11
3.189597
 21
4.327105
 31
0.0
  0
LINE
  5
378
330
A
100
AcDbEntity
  8
1
  6
Continuous
 62
     3
100
AcDbLine
 10
5.641219
 20
4.264933999999999
 30
0.0
 11
5.641219
 21
4.269620999999999
 31
0.0
  0
ARC
  5
379
330
A
100
AcDbEntity
  8
1
  6
Continuous
 62
     3
100
AcDbCircle
 10
5.421060999999999
 20
4.083066999999999
 30
0.0
 40
0.015
100
AcDbArc
 50
135.0
 51
180.0
  0
ARC
  5
37A
330
A
100
AcDbEntity
  8
1
  6
Continuous
 62
     3
100
AcDbCircle
 10
5.517044
 20
4.291636
 30
0.0
 40
0.015
100
AcDbArc
 50
0.0
 51
90.0
  0
ARC
  5
37B
330
A
100
AcDbEntity
  8
1
  6
Continuous
 62
     3
100
AcDbCircle
 10
5.541559999999999
 20
3.772304
 30
0.0
 40
0.015
100
AcDbArc
 50
270.0
 51
360.0
  0
ARC
  5
37C
330
A
100
AcDbEntity
  8
1
  6
Continuous
 62
     5
100
AcDbCircle
 10
2.615683
 20
3.921739
 30
0.0
 40
0.008
100
AcDbArc
 50
180.0
 51
270.0
  0
ARC
  5
37D
330
A
100
AcDbEntity
  8
1
  6
Continuous
 62
     3
100
AcDbCircle
 10
5.517044
 20
4.221476999999999
 30
0.0
 40
0.015
100
AcDbArc
 50
315.0
 51
360.0
  0
ARC
  5
37E
330
A
100
AcDbEntity
  8
1
  6
Continuous
 62
     3
100
AcDbCircle
 10
5.771670999999999
 20
4.253810999999999
 30
0.0
 40
0.016
100
AcDbArc
 50
10.0
 51
90.083526
  0
ARC
  5
37F
330
A
100
AcDbEntity
  8
1
  6
Continuous
 62
     6
100
AcDbCircle
 10
5.778423
 20
4.306465
 30
0.0
 40
0.01
100
AcDbArc
 50
0.0
 51
88.49999999999999
  0
ARC
  5
380
330
A
100
AcDbEntity
  8
1
  6
Continuous
 62
     3
100
AcDbCircle
 10
5.541559999999999
 20
3.80445
 30
0.0
 40
0.015
100
AcDbArc
 50
0.0
 51
45.0
  0
ARC
  5
381
330
A
100
AcDbEntity
  8
1
  6
Continuous
 62
     3
100
AcDbCircle
 10
5.18656
 20
3.742304
 30
0.0
 40
0.015
100
AcDbArc
 50
0.0
 51
90.0
  0
CIRCLE
  5
382
330
A
100
AcDbEntity
  8
1
  6
Continuous
 62
     3
100
AcDbCircle
 10
2.972682999999999
 20
4.214173999999999
 30
0.0
 40
0.0135
  0
ARC
  5
383
330
A
100
AcDbEntity
  8
1
  6
Continuous
 62
     3
100
AcDbCircle
 10
5.421060999999999
 20
3.967376
 30
0.0
 40
0.015
100
AcDbArc
 50
180.0
 51
225.0
  0
CIRCLE
  5
384
330
A
100
AcDbEntity
  8
1
  6
Continuous
 62
     3
100
AcDbCircle
 10
2.772683
 20
4.214173999999999
 30
0.0
 40
0.0135
  0
ARC
  5
385
330
A
100
AcDbEntity
  8
1
  6
Continuous
 62
     5
100
AcDbCircle
 10
3.129682999999999
 20
3.921739
 30
0.0
 40
0.008
100
AcDbArc
 50
270.0
 51
360.0
  0
ARC
  5
386
330
A
100
AcDbEntity
  8
1
  6
Continuous
 62
     3
100
AcDbCircle
 10
5.522048
 20
3.742304
 30
0.0
 40
0.015
100
AcDbArc
 50
90.0
 51
180.0
  0
VIEWPORT
  5
3C4
102
{ACAD_XDICTIONARY
360
41B
102
}
330
B
100
AcDbEntity
 67
     1
  8
0
  6
Continuous
100
AcDbViewport
 10
5.249999639556165
 20
3.999999883606678
 30
0.0
 40
13.85193789555791
 41
8.992999745766949
 68
     1
 69
     1
 12
5.249999639556165
 22
3.999999883606678
 13
0.0
 23
0.0
 14
0.5
 24
0.5
 15
0.5
 25
0.5
 16
0.0
 26
0.0
 36
1.0
 17
0.0
 27
0.0
 37
0.0
 42
50.0
 43
0.0
 44
0.0
 45
8.992999745766949
 50
0.0
 51
0.0
 72
  1000
 90
   819232
  1

281
     0
 71
     1
 74
     0
110
0.0
120
0.0
130
0.0
111
1.0
121
0.0
131
0.0
112
0.0
122
1.0
132
0.0
 79
     0
146
0.0
  0
ENDSEC
  0
SECTION
  2
OBJECTS
  0
DICTIONARY
  5
19
330
0
100
AcDbDictionary
281
     1
  3
ACAD_COLOR
350
3B8
  3
ACAD_GROUP
350
1A
  3
ACAD_LAYOUT
350
3BD
  3
ACAD_MATERIAL
350
3A3
  3
ACAD_MLINESTYLE
350
1B
  3
ACAD_PLOTSETTINGS
350
3BC
  3
ACAD_PLOTSTYLENAME
350
3A1
  3
ACAD_TABLESTYLE
350
3B9
  3
ACAD_VISUALSTYLE
350
3A7
  3
AcDbVariableDictionary
350
3FC
  3
ASE_INDEX_DICTIONARY
350
3D0
  3
DWGPROPS
350
40F
  0
DICTIONARY
  5
3C9
330
2
100
AcDbDictionary
280
     1
281
     1
  3
ACAD_LAYERSTATES
360
3CA
  0
DICTIONARY
  5
41B
330
3C4
100
AcDbDictionary
280
     1
281
     1
  3
ACAD_XREC_ROUNDTRIP
360
41C
  0
DICTIONARY
  5
3B8
102
{ACAD_REACTORS
330
19
102
}
330
19
100
AcDbDictionary
281
     1
  0
DICTIONARY
  5
1A
102
{ACAD_REACTORS
330
19
102
}
330
19
100
AcDbDictionary
281
     1
  0
DICTIONARY
  5
3BD
102
{ACAD_REACTORS
330
19
102
}
330
19
100
AcDbDictionary
281
     1
  3
Layout1
350
3BF
  3
Model
350
3BE
  0
DICTIONARY
  5
3A3
102
{ACAD_REACTORS
330
19
102
}
330
19
100
AcDbDictionary
281
     1
  3
ByBlock
350
3A5
  3
ByLayer
350
3A4
  3
Global
350
3A6
  0
DICTIONARY
  5
1B
102
{ACAD_REACTORS
330
19
102
}
330
19
100
AcDbDictionary
281
     1
  3
STANDARD
350
1C
  0
DICTIONARY
  5
3BC
102
{ACAD_REACTORS
330
19
102
}
330
19
100
AcDbDictionary
281
     1
  0
ACDBDICTIONARYWDFLT
  5
3A1
102
{ACAD_REACTORS
330
19
102
}
330
19
100
AcDbDictionary
281
     1
  3
Normal
350
3A2
100
AcDbDictionaryWithDefault
340
3A2
  0
DICTIONARY
  5
3B9
102
{ACAD_REACTORS
330
19
102
}
330
19
100
AcDbDictionary
281
     1
  3
Standard
350
3BA
  0
DICTIONARY
  5
3A7
102
{ACAD_REACTORS
330
19
102
}
330
19
100
AcDbDictionary
281
     1
  3
2dWireframe
350
3AD
  3
3D Hidden
350
3AF
  3
3dWireframe
350
3AE
  3
Basic
350
3AC
  3
Brighten
350
3B3
  3
ColorChange
350
3B7
  3
Conceptual
350
3B0
  3
Dim
350
3B2
  3
Facepattern
350
3B6
  3
Flat
350
3A8
  3
FlatWithEdges
350
3A9
  3
Gouraud
350
3AA
  3
GouraudWithEdges
350
3AB
  3
Linepattern
350
3B5
  3
Realistic
350
3B1
  3
Thicken
350
3B4
  0
DICTIONARY
  5
3FC
102
{ACAD_REACTORS
330
19
102
}
330
19
100
AcDbDictionary
281
     1
  3
CTABLESTYLE
350
3FD
  3
DIMASSOC
350
400
  3
INDEXCTL
350
3FF
  3
SORTENTS
350
3FE
  0
DICTIONARY
  5
3D0
102
{ACAD_REACTORS
330
19
102
}
330
19
100
AcDbDictionary
281
     1
  3
ASEBlockHierarchyIndexRecord
350
3D2
1001
DCO15
1040
1647669822.689
  0
XRECORD
  5
40F
102
{ACAD_REACTORS
330
19
102
}
330
19
100
AcDbXrecord
280
     1
  1
DWGPROPS COOKIE
  2

  3

  4

  6

  7

  8
lz
  9

300
=
301
=
302
=
303
=
304
=
305
=
306
=
307
=
308
=
309
=
 40
0.000427662037037
 41
2311911.044107917
 42
2454873.464429271
  1

 90
        0
  0
DICTIONARY
  5
3CA
102
{ACAD_REACTORS
330
3C9
102
}
330
3C9
100
AcDbDictionary
281
     1
  0
XRECORD
  5
41C
102
{ACAD_REACTORS
330
41B
102
}
330
41B
100
AcDbXrecord
280
     1
102
SHADEPLOT
 70
     0
  0
LAYOUT
  5
3BF
102
{ACAD_XDICTIONARY
360
3CC
102
}
102
{ACAD_REACTORS
330
3BD
102
}
330
3BD
100
AcDbPlotSettings
  1

  2
none_device
  4
Letter_(8.50_x_11.00_Inches)
  6

 40
6.349999904632568
 41
6.349999904632568
 42
6.350006103515625
 43
6.350006103515625
 44
215.8999938964844
 45
279.3999938964844
 46
0.0
 47
0.0
 48
0.0
 49
0.0
140
0.0
141
0.0
142
1.0
143
1.0
 70
   688
 72
     0
 73
     1
 74
     5
  7

 75
    16
147
1.0
148
0.0
149
0.0
100
AcDbLayout
  1
Layout1
 70
     0
 71
     1
 10
-0.2500002402958907
 20
-0.2499999962453767
 11
10.74999951940822
 21
8.249999763458733
 12
0.0
 22
0.0
 32
0.0
 14
1.000000000000000E+20
 24
1.000000000000000E+20
 34
1.000000000000000E+20
 15
-1.000000000000000E+20
 25
-1.000000000000000E+20
 35
-1.000000000000000E+20
146
0.0
 13
0.0
 23
0.0
 33
0.0
 16
1.0
 26
0.0
 36
0.0
 17
0.0
 27
1.0
 37
0.0
 76
     0
330
B
331
3C4
1001
ACAD_PSEXT
1000
None
1000
None
1000
Not applicable
1000
The layout will not be plotted unless a new plotter configuration name is selected.
1070
     0
  0
LAYOUT
  5
3BE
102
{ACAD_XDICTIONARY
360
418
102
}
102
{ACAD_REACTORS
330
3BD
102
}
330
3BD
100
AcDbPlotSettings
  1

  2
\\NSENG\OPLaser1
  4

  6

 40
0.0
 41
0.0
 42
0.0
 43
0.0
 44
0.0
 45
0.0
 46
0.0
 47
0.0
 48
0.0
 49
0.0
140
0.0
141
0.0
142
1.0
143
1.0
 70
  1712
 72
     0
 73
     0
 74
     0
  7

 75
     0
147
1.0
148
0.0
149
0.0
100
AcDbLayout
  1
Model
 70
     1
 71
     0
 10
0.0
 20
0.0
 11
12.0
 21
9.0
 12
0.0
 22
0.0
 32
0.0
 14
0.0
 24
0.0
 34
0.0
 15
0.0
 25
0.0
 35
0.0
146
0.0
 13
0.0
 23
0.0
 33
0.0
 16
1.0
 26
0.0
 36
0.0
 17
0.0
 27
1.0
 37
0.0
 76
     0
330
A
331
38F
  0
MATERIAL
  5
3A5
102
{ACAD_XDICTIONARY
360
412
102
}
102
{ACAD_REACTORS
330
3A3
102
}
330
3A3
100
AcDbMaterial
  1
ByBlock
  0
MATERIAL
  5
3A4
102
{ACAD_XDICTIONARY
360
410
102
}
102
{ACAD_REACTORS
330
3A3
102
}
330
3A3
100
AcDbMaterial
  1
ByLayer
  0
MATERIAL
  5
3A6
102
{ACAD_XDICTIONARY
360
414
102
}
102
{ACAD_REACTORS
330
3A3
102
}
330
3A3
100
AcDbMaterial
  1
Global
  0
MLINESTYLE
  5
1C
102
{ACAD_REACTORS
330
1B
102
}
330
1B
100
AcDbMlineStyle
  2
STANDARD
 70
     0
  3

 62
     0
 51
90.0
 52
90.0
 71
     2
 49
0.5
 62
   256
  6
BYLAYER
 49
-0.5
 62
   256
  6
BYLAYER
  0
ACDBPLACEHOLDER
  5
3A2
102
{ACAD_REACTORS
330
3A1
102
}
330
3A1
  0
TABLESTYLE
  5
3BA
102
{ACAD_XDICTIONARY
360
416
102
}
102
{ACAD_REACTORS
330
3B9
102
}
330
3B9
100
AcDbTableStyle
  3
Standard
 70
     0
 71
     0
 40
0.06
 41
0.06
280
     0
281
     0
  7
STANDARD
140
0.18
170
     2
 62
     0
 63
     7
283
     0
274
    -2
284
     1
 64
     0
275
    -2
285
     1
 65
     0
276
    -2
286
     1
 66
     0
277
    -2
287
     1
 67
     0
278
    -2
288
     1
 68
     0
279
    -2
289
     1
 69
     0
  7
STANDARD
140
0.25
170
     5
 62
     0
 63
     7
283
     0
274
    -2
284
     1
 64
     0
275
    -2
285
     1
 65
     0
276
    -2
286
     1
 66
     0
277
    -2
287
     1
 67
     0
278
    -2
288
     1
 68
     0
279
    -2
289
     1
 69
     0
  7
STANDARD
140
0.18
170
     5
 62
     0
 63
     7
283
     0
274
    -2
284
     1
 64
     0
275
    -2
285
     1
 65
     0
276
    -2
286
     1
 66
     0
277
    -2
287
     1
 67
     0
278
    -2
288
     1
 68
     0
279
    -2
289
     1
 69
     0
  0
VISUALSTYLE
  5
3AD
102
{ACAD_REACTORS
330
3A7
102
}
330
3A7
100
AcDbVisualStyle
  2
2dWireframe
 70
     4
 71
     0
 72
     2
 73
     0
 90
        0
 40
-0.6
 41
-30.0
 62
     5
 63
     7
 74
     1
 91
        4
 64
     7
 65
   257
 75
     1
175
     1
 42
1.0
 92
        0
 66
   257
 43
1.0
 76
     1
 77
     6
 78
     2
 67
     7
 79
     5
170
     0
171
     0
290
     0
174
     0
 93
        1
 44
0.0
173
     0
291
     0
 45
0.0
1001
ACAD
1000
AcDbSavedByObjectVersion
1070
     0
  0
VISUALSTYLE
  5
3AF
102
{ACAD_REACTORS
330
3A7
102
}
330
3A7
100
AcDbVisualStyle
  2
3D Hidden
 70
     6
 71
     1
 72
     2
 73
     2
 90
        0
 40
-0.6
 41
-30.0
 62
     5
 63
     7
 74
     2
 91
        2
 64
     7
 65
   257
 75
     2
175
     1
 42
40.0
 92
        0
 66
   257
 43
1.0
 76
     1
 77
     6
 78
     2
 67
     7
 79
     3
170
     0
171
     0
290
     0
174
     0
 93
        1
 44
0.0
173
     0
291
     0
 45
0.0
1001
ACAD
1000
AcDbSavedByObjectVersion
1070
     0
  0
VISUALSTYLE
  5
3AE
102
{ACAD_REACTORS
330
3A7
102
}
330
3A7
100
AcDbVisualStyle
  2
3dWireframe
 70
     5
 71
     0
 72
     2
 73
     0
 90
        0
 40
-0.6
 41
-30.0
 62
     5
 63
     7
 74
     1
 91
        4
 64
     7
 65
   257
 75
     1
175
     1
 42
1.0
 92
        0
 66
   257
 43
1.0
 76
     1
 77
     6
 78
     2
 67
     7
 79
     5
170
     0
171
     0
290
     0
174
     0
 93
        1
 44
0.0
173
     0
291
     0
 45
0.0
1001
ACAD
1000
AcDbSavedByObjectVersion
1070
     0
  0
VISUALSTYLE
  5
3AC
102
{ACAD_REACTORS
330
3A7
102
}
330
3A7
100
AcDbVisualStyle
  2
Basic
 70
     7
 71
     1
 72
     0
 73
     1
 90
        0
 40
-0.6
 41
-30.0
 62
     5
 63
     7
 74
     0
 91
        4
 64
     7
 65
   257
 75
     1
175
     1
 42
1.0
 92
        8
 66
     7
 43
1.0
 76
     1
 77
     6
 78
     2
 67
     7
 79
     5
170
     0
171
     0
290
     0
174
     0
 93
        1
 44
0.0
173
     0
291
     1
 45
0.0
1001
ACAD
1000
AcDbSavedByObjectVersion
1070
     0
  0
VISUALSTYLE
  5
3B3
102
{ACAD_REACTORS
330
3A7
102
}
330
3A7
100
AcDbVisualStyle
  2
Brighten
 70
    12
 71
     2
 72
     2
 73
     0
 90
        0
 40
-0.6
 41
-30.0
 62
     5
 63
     7
 74
     1
 91
        4
 64
     7
 65
   257
 75
     1
175
     1
 42
1.0
 92
        8
 66
     7
 43
1.0
 76
     1
 77
     6
 78
     2
 67
     7
 79
     5
170
     0
171
     0
290
     0
174
     0
 93
        1
 44
50.0
173
     0
291
     1
 45
0.0
1001
ACAD
1000
AcDbSavedByObjectVersion
1070
     0
  0
VISUALSTYLE
  5
3B7
102
{ACAD_REACTORS
330
3A7
102
}
330
3A7
100
AcDbVisualStyle
  2
ColorChange
 70
    16
 71
     2
 72
     2
 73
     3
 90
        0
 40
-0.6
 41
-30.0
 62
     5
 63
     8
 74
     1
 91
        4
 64
     7
 65
   257
 75
     1
175
     1
 42
1.0
 92
        8
 66
     8
 43
1.0
 76
     1
 77
     6
 78
     2
 67
     7
 79
     5
170
     0
171
     0
290
     0
174
     0
 93
        1
 44
0.0
173
     0
291
     1
 45
0.0
1001
ACAD
1000
AcDbSavedByObjectVersion
1070
     0
  0
VISUALSTYLE
  5
3B0
102
{ACAD_REACTORS
330
3A7
102
}
330
3A7
100
AcDbVisualStyle
  2
Conceptual
 70
     9
 71
     3
 72
     2
 73
     0
 90
        0
 40
-0.6
 41
-30.0
 62
     5
 63
     7
 74
     2
 91
        2
 64
     7
 65
   257
 75
     1
175
     1
 42
40.0
 92
        8
 66
     7
 43
1.0
 76
     1
 77
     6
 78
     2
 67
     7
 79
     3
170
     0
171
     0
290
     0
174
     0
 93
        1
 44
0.0
173
     0
291
     0
 45
0.0
1001
ACAD
1000
AcDbSavedByObjectVersion
1070
     0
  0
VISUALSTYLE
  5
3B2
102
{ACAD_REACTORS
330
3A7
102
}
330
3A7
100
AcDbVisualStyle
  2
Dim
 70
    11
 71
     2
 72
     2
 73
     0
 90
        0
 40
-0.6
 41
-30.0
 62
     5
 63
     7
 74
     1
 91
        4
 64
     7
 65
   257
 75
     1
175
     1
 42
1.0
 92
        8
 66
     7
 43
1.0
 76
     1
 77
     6
 78
     2
 67
     7
 79
     5
170
     0
171
     0
290
     0
174
     0
 93
        1
 44
-50.0
173
     0
291
     1
 45
0.0
1001
ACAD
1000
AcDbSavedByObjectVersion
1070
     0
  0
VISUALSTYLE
  5
3B6
102
{ACAD_REACTORS
330
3A7
102
}
330
3A7
100
AcDbVisualStyle
  2
Facepattern
 70
    15
 71
     2
 72
     2
 73
     0
 90
        0
 40
-0.6
 41
-30.0
 62
     5
 63
     7
 74
     1
 91
        4
 64
     7
 65
   257
 75
     1
175
     1
 42
1.0
 92
        8
 66
     7
 43
1.0
 76
     1
 77
     6
 78
     2
 67
     7
 79
     5
170
     0
171
     0
290
     0
174
     0
 93
        1
 44
0.0
173
     0
291
     1
 45
0.0
1001
ACAD
1000
AcDbSavedByObjectVersion
1070
     0
  0
VISUALSTYLE
  5
3A8
102
{ACAD_REACTORS
330
3A7
102
}
330
3A7
100
AcDbVisualStyle
  2
Flat
 70
     0
 71
     2
 72
     1
 73
     1
 90
        2
 40
-0.6
 41
30.0
 62
     5
 63
     7
 74
     0
 91
        4
 64
     7
 65
   257
 75
     1
175
     1
 42
1.0
 92
        8
 66
     7
 43
1.0
 76
     1
 77
     6
 78
     2
 67
     7
 79
     5
170
     0
171
     0
290
     0
174
     0
 93
       13
 44
0.0
173
     0
291
     1
 45
0.0
1001
ACAD
1000
AcDbSavedByObjectVersion
1070
     0
  0
VISUALSTYLE
  5
3A9
102
{ACAD_REACTORS
330
3A7
102
}
330
3A7
100
AcDbVisualStyle
  2
FlatWithEdges
 70
     1
 71
     2
 72
     1
 73
     1
 90
        2
 40
-0.6
 41
30.0
 62
     5
 63
     7
 74
     1
 91
        4
 64
     7
 65
   257
 75
     1
175
     1
 42
1.0
 92
        0
 66
   257
 43
1.0
 76
     1
 77
     6
 78
     2
 67
     7
 79
     5
170
     0
171
     0
290
     0
174
     0
 93
       13
 44
0.0
173
     0
291
     1
 45
0.0
1001
ACAD
1000
AcDbSavedByObjectVersion
1070
     0
  0
VISUALSTYLE
  5
3AA
102
{ACAD_REACTORS
330
3A7
102
}
330
3A7
100
AcDbVisualStyle
  2
Gouraud
 70
     2
 71
     2
 72
     2
 73
     1
 90
        2
 40
-0.6
 41
30.0
 62
     5
 63
     7
 74
     0
 91
        4
 64
     7
 65
   257
 75
     1
175
     1
 42
1.0
 92
        0
 66
     7
 43
1.0
 76
     1
 77
     6
 78
     2
 67
     7
 79
     5
170
     0
171
     0
290
     0
174
     0
 93
       13
 44
0.0
173
     0
291
     1
 45
0.0
1001
ACAD
1000
AcDbSavedByObjectVersion
1070
     0
  0
VISUALSTYLE
  5
3AB
102
{ACAD_REACTORS
330
3A7
102
}
330
3A7
100
AcDbVisualStyle
  2
GouraudWithEdges
 70
     3
 71
     2
 72
     2
 73
     1
 90
        2
 40
-0.6
 41
30.0
 62
     5
 63
     7
 74
     1
 91
        4
 64
     7
 65
   257
 75
     1
175
     1
 42
1.0
 92
        0
 66
   257
 43
1.0
 76
     1
 77
     6
 78
     2
 67
     7
 79
     5
170
     0
171
     0
290
     0
174
     0
 93
       13
 44
0.0
173
     0
291
     1
 45
0.0
1001
ACAD
1000
AcDbSavedByObjectVersion
1070
     0
  0
VISUALSTYLE
  5
3B5
102
{ACAD_REACTORS
330
3A7
102
}
330
3A7
100
AcDbVisualStyle
  2
Linepattern
 70
    14
 71
     2
 72
     2
 73
     0
 90
        0
 40
-0.6
 41
-30.0
 62
     5
 63
     7
 74
     1
 91
        4
 64
     7
 65
   257
 75
     7
175
     7
 42
1.0
 92
        8
 66
     7
 43
1.0
 76
     1
 77
     6
 78
     2
 67
     7
 79
     5
170
     0
171
     0
290
     0
174
     0
 93
        1
 44
0.0
173
     0
291
     1
 45
0.0
1001
ACAD
1000
AcDbSavedByObjectVersion
1070
     0
  0
VISUALSTYLE
  5
3B1
102
{ACAD_REACTORS
330
3A7
102
}
330
3A7
100
AcDbVisualStyle
  2
Realistic
 70
     8
 71
     2
 72
     2
 73
     0
 90
        0
 40
-0.6
 41
-30.0
 62
     5
 63
     7
 74
     1
 91
        0
 64
     7
 65
   257
 75
     1
175
     1
 42
1.0
 92
        8
 66
     8
 43
1.0
 76
     1
 77
     6
 78
     2
 67
     7
 79
     5
170
     0
171
     0
290
     0
174
     0
 93
       13
 44
0.0
173
     0
291
     0
 45
0.0
1001
ACAD
1000
AcDbSavedByObjectVersion
1070
     0
  0
VISUALSTYLE
  5
3B4
102
{ACAD_REACTORS
330
3A7
102
}
330
3A7
100
AcDbVisualStyle
  2
Thicken
 70
    13
 71
     2
 72
     2
 73
     0
 90
        0
 40
-0.6
 41
-30.0
 62
     5
 63
     7
 74
     1
 91
        4
 64
     7
 65
   257
 75
     1
175
     1
 42
1.0
 92
       12
 66
     7
 43
1.0
 76
     1
 77
     6
 78
     2
 67
     7
 79
     5
170
     0
171
     0
290
     0
174
     0
 93
        1
 44
0.0
173
     0
291
     1
 45
0.0
1001
ACAD
1000
AcDbSavedByObjectVersion
1070
     0
  0
DICTIONARYVAR
  5
3FD
102
{ACAD_REACTORS
330
3FC
102
}
330
3FC
100
DictionaryVariables
280
     0
  1
STANDARD
  0
DICTIONARYVAR
  5
400
102
{ACAD_REACTORS
330
3FC
102
}
330
3FC
100
DictionaryVariables
280
     0
  1
1
  0
DICTIONARYVAR
  5
3FF
102
{ACAD_REACTORS
330
3FC
102
}
330
3FC
100
DictionaryVariables
280
     0
  1
0
  0
DICTIONARYVAR
  5
3FE
102
{ACAD_REACTORS
330
3FC
102
}
330
3FC
100
DictionaryVariables
280
     0
  1
127
  0
XRECORD
  5
3D2
102
{ACAD_REACTORS
330
3D0
102
}
330
3D0
100
AcDbXrecord
280
     1
  0
DICTIONARY
  5
3CC
330
3BF
100
AcDbDictionary
280
     1
281
     1
  3
ACAD_XREC_ROUNDTRIP
360
41A
  3
ADSK_XREC_LAYOUTTHUMBNAIL
360
3CD
  0
DICTIONARY
  5
418
330
3BE
100
AcDbDictionary
280
     1
281
     1
  3
ACAD_XREC_ROUNDTRIP
360
419
  0
DICTIONARY
  5
412
330
3A5
100
AcDbDictionary
280
     1
281
     1
  3
ACAD_XREC_ROUNDTRIP
360
413
  0
DICTIONARY
  5
410
330
3A4
100
AcDbDictionary
280
     1
281
     1
  3
ACAD_XREC_ROUNDTRIP
360
411
  0
DICTIONARY
  5
414
330
3A6
100
AcDbDictionary
280
     1
281
     1
  3
ACAD_XREC_ROUNDTRIP
360
415
  0
DICTIONARY
  5
416
330
3BA
100
AcDbDictionary
280
     1
281
     1
  3
ACAD_XREC_ROUNDTRIP
360
417
  0
XRECORD
  5
41A
102
{ACAD_REACTORS
330
3CC
102
}
330
3CC
100
AcDbXrecord
280
     1
102
SHADEPLOT
 70
     0
102
SHADEPLOTRESLEVEL
 70
     2
102
SHADEPLOTCUSTOMDPI
 70
   300
  0
XRECORD
  5
3CD
102
{ACAD_REACTORS
330
3CC
102
}
330
3CC
100
AcDbXrecord
280
     1
310
28000000B40000008B0000000100080000000000BC61000000000000000000000001000000000000FFFFFF0000000000FFFFFF000000000000000000000000000000000000000000000000000000000000000000330000006600000099000000CC000000FF00000000330000333300006633000099330000CC330000FF3300
310
0000660000336600006666000099660000CC660000FF66000000990000339900006699000099990000CC990000FF99000000CC000033CC000066CC000099CC0000CCCC0000FFCC000000FF000033FF000066FF000099FF0000CCFF0000FFFF000000003300330033006600330099003300CC003300FF003300003333003333
310
33006633330099333300CC333300FF33330000663300336633006666330099663300CC663300FF66330000993300339933006699330099993300CC993300FF99330000CC330033CC330066CC330099CC3300CCCC3300FFCC330000FF330033FF330066FF330099FF3300CCFF3300FFFF330000006600330066006600660099
310
006600CC006600FF00660000336600333366006633660099336600CC336600FF33660000666600336666006666660099666600CC666600FF66660000996600339966006699660099996600CC996600FF99660000CC660033CC660066CC660099CC6600CCCC6600FFCC660000FF660033FF660066FF660099FF6600CCFF6600
310
FFFF660000009900330099006600990099009900CC009900FF00990000339900333399006633990099339900CC339900FF33990000669900336699006666990099669900CC669900FF66990000999900339999006699990099999900CC999900FF99990000CC990033CC990066CC990099CC9900CCCC9900FFCC990000FF99
310
0033FF990066FF990099FF9900CCFF9900FFFF99000000CC003300CC006600CC009900CC00CC00CC00FF00CC000033CC003333CC006633CC009933CC00CC33CC00FF33CC000066CC003366CC006666CC009966CC00CC66CC00FF66CC000099CC003399CC006699CC009999CC00CC99CC00FF99CC0000CCCC0033CCCC0066CC
310
CC0099CCCC00CCCCCC00FFCCCC0000FFCC0033FFCC0066FFCC0099FFCC00CCFFCC00FFFFCC000000FF003300FF006600FF009900FF00CC00FF00FF00FF000033FF003333FF006633FF009933FF00CC33FF00FF33FF000066FF003366FF006666FF009966FF00CC66FF00FF66FF000099FF003399FF006699FF009999FF00CC
310
99FF00FF99FF0000CCFF0033CCFF0066CCFF0099CCFF00CCCCFF00FFCCFF0000FFFF0033FFFF0066FFFF0099FFFF00CCFFFF00FFFFFF00000000000D0D0D001A1A1A00282828003535350043434300505050005D5D5D006B6B6B00787878008686860093939300A1A1A100AEAEAE00BBBBBB00C9C9C900D6D6D600E4E4E400
310
F1F1F100FFFFFF0000000000000000000000000000000000000000000000000000000000000000000000000000000000E2E2E2E2E2E2E2E2E2E2E2E2E2E2E2E2E2E2E2E2E2E2E2E2E2E2E2E2E2E2E2E2E2E2E2E2E2E2E2E2E2E2E2E2E2E2E2E2E2E2E2E2E2E2E2E2E2E2E2E2E2E2E2E2E2E2E2E2E2E2E2E2E2E2E2E2E2E2E2
310
E2E2E2E2E2E2E2E2E2E2E2E2E2E2E2E2E2E2E2E2E2E2E2E2E2E2E2E2E2E2E2E2E2E2E2E2E2E2E2E2E2E2E2E2E2E2E2E2E2E2E2E2E2E2E2E2E2E2E2E2E2E2E2E2E2E2E2E2E2E2E2E2E2E2E2E2E2E2E2E2E2E2E2E2E2E2E2E2E2E2E2E2E2E2E2E2E2E2E2E2E2E2F5F5F5F5F5F5F5F5F5F5F5F5F5F5F5F5F5F5F5F5F5F5F5F5F5
310
F5F5F5F5F5F5F5F5F5F5F5F5F5F5F5F5F5F5F5F5F5F5F5F5F5F5F5F5F5F5F5F5F5F5F5F5F5F5F5F5F5F5F5F5F5F5F5F5F5F5F5F5F5F5F5F5F5F5F5F5F5F5F5F5F5F5F5F5F5F5F5F5F5F5F5F5F5F5F5F5F5F5F5F5F5F5F5F5F5F5F5F5F5F5F5F5F5F5F5F5F5F5F5F5F5F5F5F5F5F5F5F5F5F5F5F5F5F5F5F5F5F5F5F5F5F5F5
310
F5F5F5F5F5F5F5F5F5F5F5F5F5F5F5F5F5F5F5F5F5F5F5F5F5E2E2E2F5F5F5F5F5F5F5F5F5F5F5F5F5F5F5F5F5F5F5F5F5F5F5F5F5F5F5F5F5F5F5F5F5F5F5F5F5F5F5F5F5F5F5F5F5F5F5F5F5F5F5F5F5F5F5F5F5F5F5F5F5F5F5F5F5F5F5F5F5F5F5F5F5F5F5F5F5F5F5F5F5F5F5F5F5F5F5F5F5F5F5F5F5F5F5F5F5F5F5
310
F5F5F5F5F5F5F5F5F5F5F5F5F5F5F5F5F5F5F5F5F5F5F5F5F5F5F5F5F5F5F5F5F5F5F5F5F5F5F5F5F5F5F5F5F5F5F5F5F5F5F5F5F5F5F5F5F5F5F5F5F5F5F5F5F5F5F5F5F5F5F5F5F5F5F5F5F5F5E2E2E2F5F5F5F5F5F5F5F5F5F5F5F5F5F5F5F5F5F5F5F5F5F5F5F5F5F5F5F5F5F5F5F5F5F5F5F5F5F5F5F5F5F5F5F5F5F5
310
F5F5F5F5F5F5F5F5F5F5F5F5F5F5F5F5F5F5F5F5F5F5F5F5F5F5F5F5F5F5F5F5F5F5F5F5F5F5F5F5F5F5F5F5F5F5F5F5F5F5F5F5F5F5F5F5F5F5F5F5F5F5F5F5F5F5F5F5F5F5F5F5F5F5F5F5F5F5F5F5F5F5F5F5F5F5F5F5F5F5F5F5F5F5F5F5F5F5F5F5F5F5F5F5F5F5F5F5F5F5F5F5F5F5F5F5F5F5F5F5F5F5F5F5F5F5F5
310
F5F5F5F5E2E2E2F5F5F5E2E2E2E2E2E2E2E2F5F5F5F5F5F5F5F5F5E2E2E2E2E2E2E2E2E2E2E2E2E2E2E2E2F5F5F5F5F5F5F5F5E2E2E2E2E2E2E2E2E2E2E2E2E2E2E2E2F5F5F5F5F5F5F5F5F5E2E2E2E2E2E2E2E2E2E2E2E2E2E2E2F5F5F5F5F5F5F5F5F5E2E2E2E2E2E2E2E2E2E2E2E2E2E2E2F5F5F5F5F5F5F5F5F5E2E2E2
310
E2E2E2E2E2E2E2E2E2E2E2E2E2F5F5F5F5F5F5F5F5E2E2E2E2E2E2E2E2E2E2E2E2E2E2E2E2F5F5F5F5F5F5F5F5F5E2E2E2E2E2E2E2E2F5F5F5E2E2E2F5F5F5E2F5F5F5F5F5F5F5F5F5F5F5F5F5F5F5F5F5F5F5F5F5F5F5F5F5F5F5F5F5F5F5F5F5F5F5F5F5F5F5F5F5F5F5F5F5F5F5F5F5F5F5F5F5F5F5F5F5F5F5F5F5F5F5
310
F5F5F5F5F5F5F5F5F5F5F5F5F5F5F5F5F5F5F5F5F5F5F5F5F5F5F5F5F5F5F5F5F5F5F5F5F5F5F5F5F5F5F5F5F5F5F5F5F5F5F5F5F5F5F5F5F5F5F5F5F5F5F5F5F5F5F5F5F5F5F5F5F5F5F5F5F5F5F5F5F5F5F5F5F5F5F5F5F5F5F5F5F5F5F5F5F5F5F5F5F5F5F5F5F5F5E2F5F5F5E2E2E2F5F5F5E2F5F5F5F5F5F5F5F5F5F5
310
F5F5F5F5F5F5F5F5F5F5F5F5F5F5F5F5F5F5F5F5F5F5F5F5F5F5F5F5F5F5F5F5F5F5F5F5F5F5F5F5F5F5F5F5F5F5F5F5F5F5F5F5F5F5F5F5F5F5F5F5F5F5F5F5F5F5F5F5F5F5F5F5F5F5F5F5F5F5F5F5F5F5F5F5F5F5F5F5F5F5F5F5F5F5F5F5F5F5F5F5F5F5F5F5F5F5F5F5F5F5F5F5F5F5F5F5F5F5F5F5F5F5F5F5F5F5F5
310
F5F5F5F5F5F5F5F5F5F5F5F5F5F5F5F5F5F5F5F5F5F5F5F5F5F5F5F5F5F5F5F5E2F5F5F5E2E2E2F5F5F5E2F5F5F5F5F5F5F5F5F5F5F5F5F5F5F5F5F5F5F5F5F5F5F5F5F5F5F5F5F5F5F5F5F5F5F5F5F5F5F5F5F5F5F5F5F5F5F5F5F5F5F5F5F5F5F5F5F5F5F5F5F5F5F5F5F5F5F5F5F5F5F5F5F5F5F5F5F5F5F5F5F5F5F5F5
310
F5F5F5F5F5F5F5F5F5F5F5F5F5F5F5F5F5F5F5F5F5F5F5F5F5F5F5F5F5F5F5F5F5F5F5F5F5F5F5F5F5F5F5F5F5F5F5F5F5F5F5F5F5F5F5F5F5F5F5F5F5F5F5F5F5F5F5F5F5F5F5F5F5F5F5F5F5F5F5F5F5F5F5F5F5E2F5F5F5E2E2E2F5F5F5E2F5F5F5F5F5F5F5F5F5F5F5F5F5F5F5F5F5F5F5F5F5F5F5F5F5F5F5F5F5F5F5
310
F5F5F5F5F5F5F5F5F5F5F5F5F5F5F5F5F5F5F5F5F5F5F5F5F5F5F5F5F5F5F5F5F5F5F5F5F5F5F5F5F5F5F5F5F5F5F5F5F5F5F5F5F5F5F5F5F5F5F5F5F5F5F5F5F5F5F5F5F5F5F5F5F5F5F5F5F5F5F5F5F5F5F5F5F5F5F5F5F5F5F5F5F5F5F5F5F5F5F5F5F5F5F5F5F5F5F5F5F5F5F5F5F5F5F5F5F5F5F5F5F5F5F5F5F5F5F5
310
F5F5F5F5F5F5F5F5F5F5F5E2F5F5F5E2E2E2F5F5F5E2F5F5F5F5F5F5F5F5F5F5F5F5F5F5F5F5F5F5F5F5F5F5F5F5F5F5F5F5F5F5F5F5F5F5F5F5F5F5F5F5F5F5F5F5F5F5F5F5F5F5F5F5F5F5F5F5F5F5F5F5F5F5F5F5F5F5F5F5F5F5F5F5F5F5F5F5F5F5F5F5F5F5F5F5F5F5F5F5F5F5F5F5F5F5F5F5F5F5F5F5F5F5F5F5F5
310
F5F5F5F5F5F5F5F5F5F5F5F5F5F5F5F5F5F5F5F5F5F5F5F5F5F5F5F5F5F5F5F5F5F5F5F5F5F5F5F5F5F5F5F5F5F5F5F5F5F5F5F5F5F5F5F5F5F5F5F5F5F5F5F5E2F5F5F5E2E2E2F5F5F5E2F5F5F5F5F5F5F5F5F5F5F5F5F5F5F5F5F5F5F5F5F5F5F5F5F5F5F5F5F5F5F5F5F5F5F5F5F5F5F5F5F5F5F5F5F5F5F5F5F5F5F5F5
310
F5F5F5F5F5F5F5F5F5F5F5F5F5F5F5F5F5F5F5F5F5F5F5F5F5F5F5F5F5F5F5F5F5F5F5F5F5F5F5F5F5F5F5F5F5F5F5F5F5F5F5F5F5F5F5F5F5F5F5F5F5F5F5F5F5F5F5F5F5F5F5F5F5F5F5F5F5F5F5F5F5F5F5F5F5F5F5F5F5F5F5F5F5F5F5F5F5F5F5F5F5F5F5F5F5F5F5F5F5F5F5F5F5F5F5F5F5E2F5F5F5E2E2E2F5F5F5
310
E2F5F5F5F5F5F5F5F5F5F5F5F5F5F5F5F5F5F5F5F5F5F5F5F5F5F5F5F5F5F5F5F5F5F5F5F5F5F5F5F5F5F5F5F5F5F5F5F5F5F5F5F5F5F5F5F5F5F5F5F5F5F5F5F5F5F5F5F5F5F5F5F5F5F5F5F5F5F5F5F5F5F5F5F5F5F5F5F5F5F5F5F5F5F5F5F5F5F5F5F5F5F5F5F5F5F5F5F5F5F5F5F5F5F5F5F5F5F5F5F5F5F5F5F5F5F5
310
F5F5F5F5F5F5F5F5F5F5F5F5F5F5F5F5F5F5F5F5F5F5F5F5F5F5F5F5F5F5F5F5F5F5F5F5F5F5F5F5F5F5F5E2F5F5F5E2E2E2F5F5F5E2F5F5F5F5F5F5F5F5F5F5F5F5F5F5F5F5F5F5F5F5F5F5F5F5F5F5F5F5F5F5F5F5F5F5F5F5F5F5F5F5F5F5F5F5F5F5F5F5F5F5F5F5F5F5F5F5F5F5F5F5F5F5F5F5F5F5F5F5F5F5F5F5F5
310
F5F5F5F5F5F5F5F5F5F5F5F5F5F5F5F5F5F5F5F5F5F5F5F5F5F5F5F5F5F5F5F5F5F5F5F5F5F5F5F5F5F5F5F5F5F5F5F5F5F5F5F5F5F5F5F5F5F5F5F5F5F5F5F5F5F5F5F5F5F5F5F5F5F5F5F5F5F5F5F5F5F5F5F5F5F5F5F5F5F5F5F5F5F5F5F5E2F5F5F5E2E2E2F5F5F5F5F5F5F5F5F5F5F5F5F5F5F5F5F5F5F5F5F5F5F5F5
310
F5F5F5F5F5F5F5F5F5F5F5F5F5F5F5F5F5F5F5F5F5F5F5F5F5F5F5F5F5F5F5F5F5F5F5F5F5F5F5F5F5F5F5F5F5F5F5F5F5F5F5F5F5F5F5F5F5F5F5F5F5F5F5F5F5F5F5F5F5F5F5F5F5F5F5F5F5F5F5F5F5F5F5F5F5F5F5F5F5F5F5F5F5F5F5F5F5F5F5F5F5F5F5F5F5F5F5F5F5F5F5F5F5F5F5F5F5F5F5F5F5F5F5F5F5F5F5
310
F5F5F5F5F5F5F5F5F5F5F5F5F5F5F5F5F5F5F5F5F5F5F5F5F5F5E2E2E2F5F5F5F5F5F5F5F5F5F5F5F5F5F5F5F5F5F5F5F5F5F5F5F5F5F5F5F5F5F5F5F5F5F5F5F5F5F5F5F5F5F5F5F5F5F5F5F5F5F5F5F5F5F5F5F5F5F5F5F5F5F5F5F5F5F5F5F5F5F5F5F5F5F5F5F5F5F5F5F5F5F5F5F5F5F5F5F5F5F5F5F5F5F5F5F5F5F5
310
F5F5F5F5F5F5F5F5F5F5F5F5F5F5F5F5F5F5F5F5F5F5F5F5F5F5F5F5F5F5F5F5F5F5F5F5F5F5F5F5F5F5F5F5F5F5F5F5F5F5F5F5F5F5F5F5F5F5F5F5F5F5F5F5F5F5F5F5F5F5F5F5F5F5F5F5F5F5F5E2E2E2F5F5F5F5F5F5F5F5F5F5F5F5F5F5F5F5F5F5F5F5F5F5F5F5F5F5F5F5F5F5F5F5F5F5F5F5F5F5F5F5F5F5F5F5F5
310
F5F5F5F5F5F5F5F5F5F5F5F5F5F5F5F5F5F5F5F5F5F5F5F5F5F5F5F5F5F5F5F5F5F5F5F5F5F5F5F5F5F5F5F5F5F5F5F5F5F5F5F5F5F5F5F5F5F5F5F5F5F5F5F5F5F5F5F5F5F5F5F5F5F5F5F5F5F5F5F5F5F5F5F5F5F5F5F5F5F5F5F5F5F5F5F5F5F5F5F5F5F5F5F5F5F5F5F5F5F5F5F5F5F5F5F5F5F5F5F5F5F5F5F5F5F5F5
310
F5F5F5F5F5E2E2E2F5F5F5F5F5F5F5F5F5F5F5F5F5F5F5F5F5F5F5F5F5F5F5F5F5F5F5F5F5F5F5F5F5F5F5F5F5F5F5F5F5F5F5F5F5F5F5F5F5F5F5F5F5F5F5F5F5F5F5F5F5F5F5F5F5F5F5F5F5F5F5F5F5F5F5F5F5F5F5F5F5F5F5F5F5F5F5F5F5F5F5F5F5F5F5F5F5F5F5F5F5F5F5F5F5F5F5F5F5F5F5F5F5F5F5F5F5F5F5
310
F5F5F5F5F5F5F5F5F5F5F5F5F5F5F5F5F5F5F5F5F5F5F5F5F5F5F5F5F5F5F5F5F5F5F5F5F5F5F5F5F5F5F5F5F5F5F5F5F5F5F5F5F5F5F5F5F5F5E2E2E2F5F5F5F5F5F5F5F5F5F5F5F5F5F5F5F5F5F5F5F5F5F5F5F5F5F5F5F5F5F5F5F5F5F5F5F5F5F5F5F5F5F5F5F5F5F5F5F5F5F5F5F5F5F5F5F5F5F5F5F5F5F5F5F5F5F5
310
F5F5F5F5F5F5F5F5F5F5F5F5F5F5F5F5F5F5F5F5F5F5F5F5F5F5F5F5F5F5F5F5F5F5F5F5F5F5F5F5F5F5F5F5F5F5F5F5F5F5F5F5F5F5F5F5F5F5F5F5F5F5F5F5F5F5F5F5F5F5F5F5F5F5F5F5F5F5F5F5F5F5F5F5F5F5F5F5F5F5F5F5F5F5F5F5F5F5F5F5F5F5F5F5F5F5F5F5F5F5F5E2E2E2F5F5F5F5F5F5F5F5F5F5F5F5F5
310
F5F5F5F5F5F5F5F5F5F5F5F5F5F5F5F5F5F5F5F5F5F5F5F5F5F5F5F5F5F5F5F5F5F5F5F5F5F5F5F5F5F5F5F5F5F5F5F5F5F5F5F5F5F5F5F5F5F5F5F5F5F5F5F5F5F5F5F5F5F5F5F5F5F5F5F5F5F5F5F5F5F5F5F5F5F5F5F5F5F5F5F5F5F5F5F5F5F5F5F5F5F5F5F5F5F5F5F5F5F5F5F5F5F5F5F5F5F5F5F5F5F5F5F5F5F5F5
310
F5F5F5F5F5F5F5F5F5F5F5F5F5F5F5F5F5F5F5F5F5F5F5F5F5F5F5F5F5F5F5F5F5F5F5F5F5E2E2E2F5F5F5F5F5F5F5F5F5F5F5F5F5F5F5F5F5F5F5F5F5F5F5F5F5F5F5F5F5F5F5F5F5F5F5F5F5F5F5F5F5F5F5F5F5F5F5F5F5F5F5F5F5F5F5F5F5F5F5F5F5F5F5F5F5F5F5F5F5F5F5F5F5F5F5F5F5F5F5F5F5F5F5F5F5F5F5
310
F5F5F5F5F5F5F5F5F5F5F5F5F5F5F5F5F5F5F5F5F5F5F5F5F5F5F5F5F5F5F5F5F5F5F5F5F5F5F5F5F5F5F5F5F5F5F5F5F5F5F5F5F5F5F5F5F5F5F5F5F5F5F5F5F5F5F5F5F5F5F5F5F5F5F5F5F5F5F5F5F5F5F5F5F5F5F5F5F5F5E2E2E2F5F5F5F5F5F5F5F5F5F5F5F5F5F5F5F5F5F5F5F5F5F5F5F5F5F5F5F5F5F5F5F5F5F5
310
F5F5F5F5F5F5F5F5F5F5F5F5F5F5F5F5F5F5F5F5F5F5F5F5F5F5F5F5F5F5F5F5F5F5F5F5F5F5F5F5F5F5F5F5F5F5F5F5F5F5F5F5F5F5F5F5F5F5F5F5F5F5F5F5F5F5F5F5F5F5F5F5F5F5F5F5F5F5F5F5F5F5F5F5F5F5F5F5F5F5F5F5F5F5F5F5F5F5F5F5F5F5F5F5F5F5F5F5F5F5F5F5F5F5F5F5F5F5F5F5F5F5F5F5F5F5F5
310
F5F5F5F5F5F5F5F5F5F5F5F5F5F5F5F5E2E2E2F5F5F5F5F5F5F5F5F5F5F5F5F5F5F5F5F5F5F5F5F5F5F5F5F5F5F5F5F5F5F5F5F5F5F5F5F5F5F5F5F5F5F5F5F5F5F5F5F5F5F5F5F5F5F5F5F5F5F5F5F5F5F5F5F5F5F5F5F5F5F5F5F5F5F5F5F5F5F5F5F5F5F5F5F5F5F5F5F5F5F5F5F5F5F5F5F5F5F5F5F5F5F5F5F5F5F5F5
310
F5F5F5F5F5F5F5F5F5F5F5F5F5F5F5F5F5F5F5F5F5F5F5F5F5F5F5F5F5F5F5F5F5F5F5F5F5F5F5F5F5F5F5F5F5F5F5F5F5F5F5F5F5F5F5F5F5F5F5F5F5F5F5F5F5F5F5F5F5E2E2E2F5F5F5E2F5F5F5F5F5F5F5F5F5F5F5F5F5F5F5F5F5F5F5F5F5F5F5F5F5F5F5F5F5F5F5F5F5F5F5F5F5F5F5F5F5F5F5F5F5F5F5F5F5F5F5
310
F5F5F5F5F5F5F5F5F5F5F5F5F5F5F5F5F5F5F5F5F5F5F5F5F5F5F5F5F5F5F5F5F5F5F5F5F5F5F5F5F5F5F5F5F5F5F5F5F5F5F5F5F5F5F5F5F5F5F5F5F5F5F5F5F5F5F5F5F5F5F5F5F5F5F5F5F5F5F5F5F5F5F5F5F5F5F5F5F5F5F5F5F5F5F5F5F5F5F5F5F5F5F5F5F5F5F5F5F5F5F5F5F5F5F5F5F5F5E2F5F5F5E2E2E2F5F5
310
F5E2F5F5F5F5F5F5F5F5F5F5F5F5F5F5F5F5F5F5F5F5F5F5F5F5F5F5F5F5F5F5F5F5F5F5F5F5F5F5F5F5F5F5F5F5F5F5F5F5F5F5F5F5F5F5F5F5F5F5F5F5F5F5F5F5F5F5F5F5F5F5F5F5F5F5F5F5F5F5F5F5F5F5F5F5F5F5F5F5F5F5F5F5F5F5F5F5F5F5F5F5F5F5F5F5F5F5F5F5F5F5F5F5F5F5F5F5F5F5F5F5F5F5F5F5F5
310
F5F5F5F5F5F5F5F5F5F5F5F5F5F5F5F5F5F5F5F5F5F5F5F5F5F5F5F5F5F5F5F5F5F5F5F5F5F5F5F5F5F5F5F5E2F5F5F5E2E2E2F5F5F5E2F5F5F5F5F5F5F5F5F5F5F5F5F5F5F5F5F5F5F5F5F5F5F5F5F5F5F5F5F5F5F5F5F5F5F5F5F5F5F5F5F5F5F5F5F5F5F5F5F5F5F5F5F5F5F5F5F5F5F5F5F5F5F5F5F5F5F5F5F5F5F5F5
310
F5F5F5F5F5F5F5F5F5F5F5F5F5F5F5F5F5F5F5F5F5F5F5F5F5F5F5F5F5F5F5F5F5F5F5F5F5F5F5F5F5F5F5F5F5F5F5F5F5F5F5F5F5F5F5F5F5F5F5F5F5F5F5F5F5F5F5F5F5F5F5F5F5F5F5F5F5F5F5F5F5F5F5F5F5F5F5F5F5F5F5F5F5F5F5F5F5E2F5F5F5E2E2E2F5F5F5E2F5F5F5F5F5F5F5F5F5F5F5F5F5F5F5F5F5F5F5
310
F5F5F5F5F5F5F5F5F5F5F5F5F5F5F5F5F5F5F5F5F5F5F5F5F5F5F5F5F5F5F5F5F5F5F5F5F5F5F5F5F5F5F5F5F5F5F5F5F5F5F5F5F5F5F5F5F5F5F5F5F5F5F5F5F5F5F5F5F5F5F5F5F5F5F5F5F5F5F5F5F5F5F5F5F5F5F5F5F5F5F5F5F5F5F5F5F5F5F5F5F5F5F5F5F5F5F5F5F5F5F5F5F5F5F5F5F5F5F5F5F5F5F5F5F5F5F5
310
F5F5F5F5F5F5F5F5F5F5F5F5F5F5F5F5F5F5F5F5F5F5F5E2F5F5F5E2E2E2F5F5F5E2F5F5F5F5F5F5F5F5F5F5F5F5F5F5F5F5F5F5F5F5F5F5F5F5F5F5F5F5F5F5F5F5F5F5F5F5F5F5F5F5F5F5F5F5F5F5F5F5F5F5F5F5F5F5F5F5F5F5F5F5F5F5F5F5F5F5F5F5F5F5F5F5F5F5F5F5F5F5F5F5F5F5F5F5F5F5F5F5F5F5F5F5F5
310
F5F5F5F5F5F5F5F5F5F5F5F5F5F5F5F5F5F5F5F5F5F5F5F5F5F5F5F5F5F5F5F5F5F5F5F5F5F5F5F5F5F5F5F5F5F5F5F5F5F5F5F5F5F5F5F5F5F5F5F5F5F5F5F5F5F5F5F5F5F5F5F5F5F5F5F5E2F5F5F5E2E2E2F5F5F5E2F5F5F5F5F5F5F5F5F5F5F5F5F5F5F5F5F5F5F5F5F5F5F5F5F5F5F5F5F5F5F5F5F5F5F5F5F5F5F5F5
310
F5F5F5F5F5F5F5F5F5F5F5F5F5F5F5F5F5F5F5F5F5F5F5F5F5F5F5F5F5F5F5F5F5F5F5F5F5F5F5F5F5F5F5F5F5F5F5F5F5F5F5F5F5F5F5F5F5F5F5F5F5F5F5F5F5F5F5F5F5F5F5F5F5F5F5F5F5F5F5F5F5F5F5F5F5F5F5F5F5F5F5F5F5F5F5F5F5F5F5F5F5F5F5F5F5F5F5F5F5F5F5F5F5F5F5F5F5F5F5F5F5F5F5F5F5F5F5
310
F5F5E2F5F5F5E2E2E2F5F5F5E2F5F5F5F5F5F5F5F5F5F5F5F5F5F5F5F5F5F5F5F5F5F5F5F5F5F5F5F5F5F5F5F5F5F5F5F5F5F5F5F5F5F5F5F5F5F5F5F5F5F5F5F5F5F5F5F5F5F5F5F5F5F5F5F5F5F5F5F5F5F5F5F5F5F5F5F5F5F5F5F5F5F5F5F5F5F5F5F5F5F5F5F5F5F5F5F5F5F5F5F5F5F5F5F5F5F5F5F5F5F5F5F5F5F5
310
F5F5F5F5F5F5F5F5F5F5F5F5F5F5F5F5F5F5F5F5F5F5F5F5F5F5F5F5F5F5F5F5F5F5F5F5F5F5F5F5F5F5F5F5F5F5F5F5F5F5F5F5F5F5F5E2F5F5F5E2E2E2F5F5F5E2F5F5F5F5F5F5F5F5F5F5F5F5F5F5F5F5F5F5F5F5F5F5F5F5F5F5F5F5F5F5F5F5F5F5F5F5F5F5F5F5F5F5F5F5F5F5F5F5F5F5F5F5F5F5F5F5F5F5F5F5F5
310
F5F5F5F5F5F5F5F5F5F5F5F5F5F5F5F5F5F5F5F5F5F5F5F5F5F5F5F5F5F5F5F5F5F5F5F5F5F5F5F5F5F5F5F5F5F5F5F5F5F5F5F5F5F5F5F5F5F5F5F5F5F5F5F5F5F5F5F5F5F5F5F5F5F5F5F5F5F5F5F5F5F5F5F5F5F5F5F5F5F5F5F5F5F5F5F5F5F5F5F5F5F5F5F5F5F5F5F5E2F5F5F5E2E2E2F5F5F5E2F5F5F5F5F5F5F5F5
310
F5F5F5F5F5F5F5F5F5F5F5F5F5F5F5F5F5F5F5F5F5F5F5F5F5F5F5F5F5F5F5F5F5F5F5F5F5F5F5F5F5F5F5F5F5F5F5F5F5F5F5F5F5F5F5F5F5F5F5F5F5F5F5F5F5F5F5F5F5F5F5F5F5F5F5F5F5F5F5F5F5F5F5F5F5F5F5F5F5F5F5F5F5F5F5F5F5F5F5F5F5F5F5F5F5F5F5F5F5F5F5F5F5F5F5F5F5F5F5F5F5F5F5F5F5F5F5
310
F5F5F5F5F5F5F5F5F5F5F5F5F5F5F5F5F5F5F5F5F5F5F5F5F5F5F5F5F5F5F5F5F5F5E2F5F5F5E2E2E2F5F5F5E2F5F5F5F5F5F5F5F5F5F5F5F5F5F5F5F5F5F5F5F5F5F5F5F5F5F5F5F5F5F5F5F5F5F5F5F5F5F5F5F5F5F5F5F5F5F5F5F5F5F5F5F5F5F5F5F5F5F5F5F5F5F5F5F5F5F5F5F5F5F5F5F5F5F5F5F5F5F5F5F5F5F5
310
F5F5F5F5F5F5F5F5F5F5F5F5F5F5F5F5F5F5F5F5F5F5F5F5F5F5F5F5F5F5F5F5F5F5F5F5F5F5F5F5F5F5F5F5F5F5F5F5F5F5F5F5F5F5F5F5F5F5F5F5F5F5F5F5F5F5F5F5F5F5F5F5F5F5F5F5F5F5F5F5F5F5F5F5F5F5F5E2F5F5F5E2E2E2F5F5F5E2F5F5F5F5F5F5F5F5F5F5F5F5F5F5F5F5F5F5F5F5F5F5F5F5F5F5F5F5F5
310
F5F5F5F5F5F5F5F5F5F5F5F5F5F5F5F5F5F5F5F5F5F5F5F5F5F5F5F5F5F5F5F5F5F5F5F5F5F5F5F5F5F5F5F5F5F5F5F5F5F5F5F5F5F5F5F5F5F5F5F5F5F5F5F5F5F5F5F5F5F5F5F5F5F5F5F5F5F5F5F5F5F5F5F5F5F5F5F5F5F5F5F5F5F5F5F5F5F5F5F5F5F5F5F5F5F5F5F5F5F5F5F5F5F5F5F5F5F5F5F5F5F5F5F5F5F5F5
310
F5F5F5F5F5F5F5F5F5F5F5F5F5E2F5F5F5E2E2E2F5F5F5E2F5F5F5F5F5F5F5F5F5F5F5F5F5F5F5F5F5F5F5F5F5F5F5F5F5F5F5F5F5F5F5F5F5F5F5F5F5F5F5F5F5F5F5F5F5F5F5F5F5F5F5F5F5F5F5F5F5F5F5F5F5F5F5F5F5F5F5F5F5F5F5F5F5F5F5F5F5F5F5F5F5F5F5F5F5F5F5F5F5F5F5F5F5F5F5F5F5F5F5F5F5F5F5
310
F5F5F5F5F5F5F5F5F5F5F5F5F5F5F5F5F5F5F5F5F5F5F5F5F5F5F5F5F5F5F5F5F5F5F5F5F5F5F5F5F5F5F5F5F5F5F5F5F5F5F5F5F5F5F5F5F5F5F5F5F5F5F5F5F5F5E2F5F5F5E2E2E2F5F5F5E2F5F5F5F5F5F5F5F5F5F5F5F5F5F5F5F5F5F5F5F5F5F5F5F5F5F5F5F5F5F5F5F5F5F5F5F5F5F5F5F5F5F5F5F5F5F5F5F5F5F5
310
F5F5F5F5F5F5F5F5F5F5F5F5F5F5F5F5F5F5F5F5F5F5F5F5F5F5F5F5F5F5F5F5F5F5F5F5F5F5F5F5F5F5F5F5F5F5F5F5F5F5F5F5F5F5F5F5F5F5F5F5F5F5F5F5F5F5F5F5F5F5F5F5F5F5F5F5F5F5F5F5F5F5F5F5F5F5F5F5F5F5F5F5F5F5F5F5F5F5F5F5F5F5F5F5F5F5F5F5F5F5F5F5F5F5F5F5F5F5F5E2F5F5F5E2E2E2F5
310
F5F5E2F5F5F5F5F5F5F5F5F5F5F5F5F5F5F5F5F5F5F5F5F5F5F5F5F5F5F5F5F5F5F5F5F5F5F5F5F5F5F5F5F5F5F5F5F5F5F5F5F5F5F5F5F5F5F5F5F5F5F5F5F5F5F5F5F5F5F5F5F5F5F5F5F5F5F5F5F5F5F5F5F5F5F5F5F5F5F5F5F5F5F5F5F5F5F5F5F5F5F5F5F5F5F5F5F5F5F5F5F5F5F5F5F5F5F5F5F5F5F5F5F5F5F5F5
310
F5F5F5F5F5F5F5F5F5F5F5F5F5F5F5F5F5F5F5F5F5F5F5F5F5F5F5F5F5F5F5F5F5F5F5F5F5F5F5F5F5F5F5F5F5E2F5F5F5E2E2E2F5F5F5E2F5F5F5F5F5F5F5F5F5F5F5F5F5F5F5F5F5F5F5F5F5F5F5F5F5F5F5F5F5F5F5F5F5F5F5F5F5F5F5F5F5F5F5F5F5F5F5F5F5F5F5F5F5F5F5F5F5F5F5F5F5F5F5F5F5F5F5F5F5F5F5
310
F5F5F5F5F5F5F5F5F5F5F5F5F5F5F5F5F5F5F5F5F5F5F5F5F5F5F5F5F5F5F5F5F5F5F5F5F5F5F5F5F5F5F5F5F5F5F5F5F5F5F5F5F5F5F5F5F5F5F5F5F5F5F5F5F5F5F5F5F5F5F5F5F5F5F5F5F5F5F5F5F5F5F5F5F5F5F5F5F5F5F5F5F5F5F5F5F5F5E2F5F5F5E2E2E2F5F5F5E2F5F5F5F5F5F5F5F5F5F5F5F5F5F5F5F5F5F5
310
F5F5F5F5F5F5F5F5F5F5F5F5F5F5F5F5F5F5F5F5F5F5F5F5F5F5F5F5F5F5F5F5F5F5F5F5F5F5F5F5F5F5F5F5F5F5F5F5F5F5F5F5F5F5F5F5F5F5F5F5F5F5F5F5F5F5F5F5F5F5F5F5F5F5F5F5F5F5F5F5F5F5F5F5F5F5F5F5F5F5F5F5F5F5F5F5F5F5F5F5F5F5F5F5F5F5F5F5F5F5F5F5F5F5F5F5F5F5F5F5F5F5F5F5F5F5F5
310
F5F5F5F5F5F5F5F5F5F5F5F5F5F5F5F5F5F5F5F5F5F5F5F5E2F5F5F5E2E2E2F5F5F5E2F5F5F5F5F5F5F5F5F5F5F5F5F5F5F5F5F5F5F5F5F5F5F5F5F5F5F5F5F5F5F5F5F5F5F5F5F5F5F5F5F5F5F5F5F5F5F5F5F5F5F5F5F5F5F5F5F5F5F5F5F5F5F5F5F5F5F5F5F5F5F5F5F5F5F5F5F5F5F5F5F5F5F5F5F5F5F5F5F5F5F5F5
310
F5F5F5F5F5F5F5F5F5F5F5F5F5F5F5F5F5F5F5F5F5F5F5F5F5F5F5F5F5F5F5F5F5F5F5F5F5F5F5F5F5F5F5F5F5F5F5F5F5F5F5F5F5F5F5F5F5F5F5F5F5F5F5F5F5F5F5F5F5F5F5F5F5F5F5F5F5E2F5F5F5E2E2E2F5F5F5F5F5F5F5F5F5F5F5F5F5F5F5F5F5F5F5F5F5F5F5F5F5F5F5F5F5F5F5F5F5F5F5F5F5F5F5F5F5F5F5
310
F5F5F5F5F5F5F5F5F5F5F5F5F5F5F5F5F5F5F5F5F5F5F5F5F5F5F5F5F5F5F5F5F5F5F5F5F5F5F5F5F5F5F5F5F5F5F5F5F5F5F5F5F5F5F5F5F5F5F5F5F5F5F5F5F5F5F5F5F5F5F5F5F5F5F5F5F5F5F5F5F5F5F5F5F5F5F5F5F5F5F5F5F5F5F5F5F5F5F5F5F5F5F5F5F5F5F5F5F5F5F5F5F5F5F5F5F5F5F5F5F5F5F5F5F5F5F5
310
F5F5F5F5F5F5F5E2E2E2F5F5F5F5F5F5F5F5F5F5F5F5F5F5F5F5F5F5F5F5F5F5F5F5F5F5F5F5F5F5F5F5F5F5F5F5F5F5F5F5F5F5F5F5F5F5F5F5F5F5F5F5F5F5F5F5F5F5F5F5F5F5F5F5F5F5F5F5F5F5F5F5F5F5F5F5F5F5F5F5F5F5F5F5F5F5F5F5F5F5F5F5F5F5F5F5F5F5F5F5F5F5F5F5F5F5F5F5F5F5F5F5F5F5F5F5F5
310
F5F5F5F5F5F5F5F5F5F5F5F5F5F5F5F5F5F5F5F5F5F5F5F5F5F5F5F5F5F5F5F5F5F5F5F5F5F5F5F5F5F5F5F5F5F5F5F5F5F5F5F5F5F5F5F5F5F5F5F5E2E2E2F5F5F5F5F5F5F5F5F5F5F5F5F5F5F5F5F5F5F5F5F5F5F5F5F5F5F5F5F5F5F5F5F5F5F5F5F5F5F5F5F5F5F5F5F5F5F5F5F5F5F5F5F5F5F5F5F5F5F5F5F5F5F5F5
310
F5F5F5F5F5F5F5F5F5F5F5F5F5F5F5F5F5F5F5F5F5F5F5F5F5F5F5F5F5F5F5F5F5F5F5F5F5F5F5F5F5F5F5F5F5F5F5F5F5F5F5F5F5F5F5F5F5F5F5F5F5F5F5F5F5F5F5F5F5F5F5F5F5F5F5F5F5F5F5F5F5F5F5F5F5F5F5F5F5F5F5F5F5F5F5F5F5F5F5F5F5F5F5F5F5F5F5F5F5F5F5F5F5E2E2E2F5F5F5F5F5F5F5F5F5F5F5
310
F5F5F5F5F5F5F5F5F5F5F5F5F5F5F5F5F5F5F5F5F5F5F5F5F5F5F5F5F5F5F5F5F5F5F5F5F5F5F5F5F5F5F5F5F5F5F5F5F5F5F5F5F5F5F5F5F5F5F5F5F5F5F5F5F5F5F5F5F5F5F5F5F5F5F5F5F5F5F5F5F5F5F5F5F5F5F5F5F5F5F5F5F5F5F5F5F5F5F5F5F5F5F5F5F5F5F5F5F5F5F5F5F5F5F5F5F5F5F5F5F5F5F5F5F5F5F5
310
F5F5F5F5F5F5F5F5F5F5F5F5F5F5F5F5F5F5F5F5F5F5F5F5F5F5F5F5F5F5F5F5F5F5F5F5F5F5F5E2E2E2F5F5F5F5F5F5F5F5F5F5F5F5F5F5F5F5F5F5F5F5F5F5F5F5F5F5F5F5F5F5F5F5F5F5F5F5F5F5F5F5F5F5F5F5F5F5F5F5F5F5F5F5F5F5F5F5F5F5F5F5F5F5F5F5F5F5F5F5F5F5F5F5F5F5F5F5F5F5F5F5F5F5F5F5F5
310
F5F5F5F5F5F5F5F5F5F5F5F5F5F5F5F5F5F5F5F5F5F5F5F5F5F5F5F5F5F5F5F5F5F5F5F5F5F5F5F5F5F5F5F5F5F5F5F5F5F5F5F5F5F5F5F5F5F5F5F5F5F5F5F5F5F5F5F5F5F5F5F5F5F5F5F5F5F5F5F5F5F5F5F5F5F5F5F5F5F5F5F5E2E2E2F5F5F5F5F5F5F5F5F5F5F5F5F5F5F5F5F5F5F5F5F5F5F5F5F5F5F5F5F5F5F5F5
310
F5F5F5F5F5F5F5F5F5F5F5F5F5F5F5F5F5F5F5F5F5F5F5F5F5F5F5F5F5F5F5F5F5F5F5F5F5F5F5F5F5F5F5F5F5F5F5F5F5F5F5F5F5F5F5F5F5F5F5F5F5F5F5F5F5F5F5F5F5F5F5F5F5F5F5F5F5F5F5F5F5F5F5F5F5F5F5F5F5F5F5F5F5F5F5F5F5F5F5F5F5F5F5F5F5F5F5F5F5F5F5F5F5F5F5F5F5F5F5F5F5F5F5F5F5F5F5
310
F5F5F5F5F5F5F5F5F5F5F5F5F5F5F5F5F5F5E2E2E2F5F5F5F5F5F5F5F5F5F5F5F5F5F5F5F5F5F5F5F5F5F5F5F5F5F5F5F5F5F5F5F5F5F5F5F5F5F5F5F5F5F5F5F5F5F5F5F5F5F5F5F5F5F5F5F5F5F5F5F5F5F5F5F5F5F5F5F5F5F5F5F5F5F5F5F5F5F5F5F5F5F5F5F5F5F5F5F5F5F5F5F5F5F5F5F5F5F5F5F5F5F5F5F5F5F5
310
F5F5F5F5F5F5F5F5F5F5F5F5F5F5F5F5F5F5F5F5F5F5F5F5F5F5F5F5F5F5F5F5F5F5F5F5F5F5F5F5F5F5F5F5F5F5F5F5F5F5F5F5F5F5F5F5F5F5F5F5F5F5F5F5F5F5F5F5F5F5F5E2E2E2F5F5F5F5F5F5F5F5F5F5F5F5F5F5F5F5F5F5F5F5F5F5F5F5F5F5F5F5F5F5F5F5F5F5F5F5F5F5F5F5F5F5F5F5F5F5F5F5F5F5F5F5F5
310
F5F5F5F5F5F5F5F5F5F5F5F5F5F5F5F5F5F5F5F5F5F5F5F5F5F5F5F5F5F5F5F5F5F5F5F5F5F5F5F5F5F5F5F5F5F5F5F5F5F5F5F5F5F5F5F5F5F5F5F5F5F5F5F5F5F5F5F5F5F5F5F5F5F5F5F5F5F5F5F5F5F5F5F5F5F5F5F5F5F5F5F5F5F5F5F5F5F5F5F5F5F5F5F5F5F5F5F5F5F5F5F5F5F5F5F5F5F5F5F5F5F5F5F5E2E2E2
310
F5F5F5F5F5F5F5F5F5F5F5F5F5F5F5F5F5F5F5F5F5F5F5F5F5F5F5F5F5F5F5F5F5F5F5F5F5F5F5F5F5F5F5F5F5F5F5F5F5F5F5F5F5F5F5F5F5F5F5F5F5F5F5F5F5F5F5F5F5F5F5F5F5F5F5F5F5F5F5F5F5F5F5F5F5F5F5F5F5F5F5F5F5F5F5F5F5F5F5F5F5F5F5F5F5F5F5F5F5F5F5F5F5F5F5F5F5F5F5F5F5F5F5F5F5F5F5
310
F5F5F5F5F5F5F5F5F5F5F5F5F5F5F5F5F5F5F5F5F5F5F5F5F5F5F5F5F5F5F5F5F5F5F5F5F5F5F5F5F5F5F5F5F5F5F5F5F5F5E2E2E2F5F5F5E2F5F5F5F5F5F5F5F5F5F5F5F5F5F5F5F5F5F5F5F5F5F5F5F5F5F5F5F5F5F5F5F5F5F5F5F5F5F5F5F5F5F5F5F5F5F5F5F5F5F5F5F5F5F5F5F5F5F5F5F5F5F5F5F5F5F5F5F5F5F5
310
F5F5F5F5F5F5F5F5F5F5F5F5F5F5F5F5F5F5F5F5F5F5F5F5F5F5F5F5F5F5F5F5F5F5F5F5F5F5F5F5F5F5F5F5F5F5F5F5F5F5F5F5F5F5F5F5F5F5F5F5F5F5F5F5F5F5F5F5F5F5F5F5F5F5F5F5F5F5F5F5F5F5F5F5F5F5F5F5F5F5F5F5F5F5F5F5F5F5F5E2F5F5F5E2E2E2F5F5F5E2F5F5F5F5F5F5F5F5F5F5F5F5F5F5F5F5F5
310
F5F5F5F5F5F5F5F5F5F5F5F5F5F5F5F5F5F5F5F5F5F5F5F5F5F5F5F5F5F5F5F5F5F5F5F5F5F5F5F5F5F5F5F5F5F5F5F5F5F5F5F5F5F5F5F5F5F5F5F5F5F5F5F5F5F5F5F5F5F5F5F5F5F5F5F5F5F5F5F5F5F5F5F5F5F5F5F5F5F5F5F5F5F5F5F5F5F5F5F5F5F5F5F5F5F5F5F5F5F5F5F5F5F5F5F5F5F5F5F5F5F5F5F5F5F5F5
310
F5F5F5F5F5F5F5F5F5F5F5F5F5F5F5F5F5F5F5F5F5F5F5F5F5E2F5F5F5E2E2E2F5F5F5E2F5F5F5F5F5F5F5F5F5F5F5F5F5F5F5F5F5F5F5F5F5F5F5F5F5F5F5F5F5F5F5F5F5F5F5F5F5F5F5F5F5F5F5F5F5F5F5F5F5F5F5F5F5F5F5F5F5F5F5F5F5F5F5F5F5F5F5F5F5F5F5F5F5F5F5F5F5F5F5F5F5F5F5F5F5F5F5F5F5F5F5
310
F5F5F5F5F5F5F5F5F5F5F5F5F5F5F5F5F5F5F5F5F5F5F5F5F5F5F5F5F5F5F5F5F5F5F5F5F5F5F5F5F5F5F5F5F5F5F5F5F5F5F5F5F5F5F5F5F5F5F5F5F5F5F5F5F5F5F5F5F5F5F5F5F5F5F5F5F5F5E2F5F5F5E2E2E2F5F5F5E2F5F5F5F5F5F5F5F5F5F5F5F5F5F5F5F5F5F5F5F5F5F5F5F5F5F5F5F5F5F5F5F5F5F5F5F5F5F5
310
F5F5F5F5F5F5F5F5F5F5F5F5F5F5F5F5F5F5F5F5F5F5F5F5F5F5F5F5F5F5F5F5F5F5F5F5F5F5F5F5F5F5F5F5F5F5F5F5F5F5F5F5F5F5F5F5F5F5F5F5F5F5F5F5F5F5F5F5F5F5F5F5F5F5F5F5F5F5F5F5F5F5F5F5F5F5F5F5F5F5F5F5F5F5F5F5F5F5F5F5F5F5F5F5F5F5F5F5F5F5F5F5F5F5F5F5F5F5F5F5F5F5F5F5F5F5F5
310
F5F5F5F5E2F5F5F5E2E2E2F5F5F5E2F5F5F5F5F5F5F5F5F5F5F5F5F5F5F5F5F5F5F5F5F5F5F5F5F5F5F5F5F5F5F5F5F5F5F5F5F5F5F5F5F5F5F5F5F5F5F5F5F5F5F5F5F5F5F5F5F5F5F5F5F5F5F5F5F5F5F5F5F5F5F5F5F5F5F5F5F5F5F5F5F5F5F5F5F5F5F5F5F5F5F5F5F5F5F5F5F5F5F5F5F5F5F5F5F5F5F5F5F5F5F5F5
310
F5F5F5F5F5F5F5F5F5F5F5F5F5F5F5F5F5F5F5F5F5F5F5F5F5F5F5F5F5F5F5F5F5F5F5F5F5F5F5F5F5F5F5F5F5F5F5F5F5F5F5F5F5F5F5F5F5E2F5F5F5E2E2E2F5F5F5E2F5F5F5F5F5F5F5F5F5F5F5F5F5F5F5F5F5F5F5F5F5F5F5F5F5F5F5F5F5F5F5F5F5F5F5F5F5F5F5F5F5F5F5F5F5F5F5F5F5F5F5F5F5F5F5F5F5F5F5
310
F5F5F5F5F5F5F5F5F5F5F5F5F5F5F5F5F5F5F5F5F5F5F5F5F5F5F5F5F5F5F5F5F5F5F5F5F5F5F5F5F5F5F5F5F5F5F5F5F5F5F5F5F5F5F5F5F5F5F5F5F5F5F5F5F5F5F5F5F5F5F5F5F5F5F5F5F5F5F5F5F5F5F5F5F5F5F5F5F5F5F5F5F5F5F5F5F5F5F5F5F5F5F5F5F5F5F5F5F5F5E2F5F5F5E2E2E2F5F5F5E2F5F5F5F5F5F5
310
F5F5F5F5F5F5F5F5F5F5F5F5F5F5F5F5F5F5F5F5F5F5F5F5F5F5F5F5F5F5F5F5F5F5F5F5F5F5F5F5F5F5F5F5F5F5F5F5F5F5F5F5F5F5F5F5F5F5F5F5F5F5F5F5F5F5F5F5F5F5F5F5F5F5F5F5F5F5F5F5F5F5F5F5F5F5F5F5F5F5F5F5F5F5F5F5F5F5F5F5F5F5F5F5F5F5F5F5F5F5F5F5F5F5F5F5F5F5F5F5F5F5F5F5F5F5F5
310
F5F5F5F5F5F5F5F5F5F5F5F5F5F5F5F5F5F5F5F5F5F5F5F5F5F5F5F5F5F5F5F5F5F5F5F5E2F5F5F5E2E2E2F5F5F5E2F5F5F5F5F5F5F5F5F5F5F5F5F5F5F5F5F5F5F5F5F5F5F5F5F5F5F5F5F5F5F5F5F5F5F5F5F5F5F5F5F5F5F5F5F5F5F5F5F5F5F5F5F5F5F5F5F5F5F5F5F5F5F5F5F5F5F5F5F5F5F5F5F5F5F5F5F5F5F5F5
310
F5F5F5F5F5F5F5F5F5F5F5F5F5F5F5F5F5F5F5F5F5F5F5F5F5F5F5F5F5F5F5F5F5F5F5F5F5F5F5F5F5F5F5F5F5F5F5F5F5F5F5F5F5F5F5F5F5F5F5F5F5F5F5F5F5F5F5F5F5F5F5F5F5F5F5F5F5F5F5F5F5F5F5F5F5F5F5F5F5E2F5F5F5E2E2E2F5F5F5E2F5F5F5F5F5F5F5F5F5F5F5F5F5F5F5F5F5F5F5F5F5F5F5F5F5F5F5
310
F5F5F5F5F5F5F5F5F5F5F5F5F5F5F5F5F5F5F5F5F5F5F5F5F5F5F5F5F5F5F5F5F5F5F5F5F5F5F5F5F5F5F5F5F5F5F5F5F5F5F5F5F5F5F5F5F5F5F5F5F5F5F5F5F5F5F5F5F5F5F5F5F5F5F5F5F5F5F5F5F5F5F5F5F5F5F5F5F5F5F5F5F5F5F5F5F5F5F5F5F5F5F5F5F5F5F5F5F5F5F5F5F5F5F5F5F5F5F5F5F5F5F5F5F5F5F5
310
F5F5F5F5F5F5F5F5F5F5F5F5F5F5F5E2F5F5F5E2E2E2F5F5F5E2F5F5F5F5F5F5F5F5F5F5F5F5F5F5F5F5F5F5F5F5F5F5F5F5F5F5F5F5F5F5F5F5F5F5F5F5F5F5F5F5F5F5F5F5F5F5F5F5F5F5F5F5F5F5F5F5F5F5F5F5F5F5F5F5F5F5F5F5F5F5F5F5F5F5F5F5F5F5F5F5F5F5F5F5F5F5F5F5F5F5F5F5F5F5F5F5F5F5F5F5F5
310
F5F5F5F5F5F5F5F5F5F5F5F5F5F5F5F5F5F5F5F5F5F5F5F5F5F5F5F5F5F5F5F5F5F5F5F5F5F5F5F5F5F5F5F5F5F5F5F5F5F5F5F5F5F5F5F5F5F5F5F5F5F5F5F5F5F5F5F5E2F5F5F5E2E2E2F5F5F5E2F5F5F5F5F5F5F5F5F5F5F5F5F5F5F5F5F5F5F5F5F5F5F5F5F5F5F5F5F5F5F5F5F5F5F5F5F5F5F5F5F5F5F5F5F5F5F5F5
310
F5F5F5F5F5F5F5F5F5F5F5F5F5F5F5F5F5F5F5F5F5F5F5F5F5F5F5F5F5F5F5F5F5F5F5F5F5F5F5F5F5F5F5F5F5F5F5F5F5F5F5F5F5F5F5F5F5F5F5F5F5F5F5F5F5F5F5F5F5F5F5F5F5F5F5F5F5F5F5F5F5F5F5F5F5F5F5F5F5F5F5F5F5F5F5F5F5F5F5F5F5F5F5F5F5F5F5F5F5F5F5F5F5F5F5F5F5F5F5F5F5E2F5F5F5E2E2
310
E2F5F5F5E2F5F5F5F5F5F5F5F5F5F5F5F5F5F5F5F5F5F5F5F5F5F5F5F5F5F5F5F5F5F5F5F5F5F5F5F5F5F5F5F5F5F5F5F5F5F5F5F5F5F5F5F5F5F5F5F5F5F5F5F5F5F5F5F5F5F5F5F5F5F5F5F5F5F5F5F5F5F5F5F5F5F5F5F5F5F5F5F5F5F5F5F5F5F5F5F5F5F5F5F5F5F5F5F5F5F5F5F5F5F5F5F5F5F5F5F5F5F5F5F5F5F5
310
F5F5F5F5F5F5F5F5F5F5F5F5F5F5F5F5F5F5F5F5F5F5F5F5F5F5F5F5F5F5F5F5F5F5F5F5F5F5F5F5F5F5F5F5F5F5F5E2F5F5F5E2E2E2F5F5F5E2F5F5F5F5F5F5F5F5F5F5F5F5F5F5F5F5F5F5F5F5F5F5F5F5F5F5F5F5F5F5F5F5F5F5F5F5F5F5F5F5F5F5F5F5F5F5F5F5F5F5F5F5F5F5F5F5F5F5F5F5F5F5F5F5F5F5F5F5F5
310
F5F5F5F5F5F5F5F5F5F5F5F5F5F5F5F5F5F5F5F5F5F5F5F5F5F5F5F5F5F5F5F5F5F5F5F5F5F5F5F5F5F5F5F5F5F5F5F5F5F5F5F5F5F5F5F5F5F5F5F5F5F5F5F5F5F5F5F5F5F5F5F5F5F5F5F5F5F5F5F5F5F5F5F5F5F5F5F5F5F5F5F5F5F5F5F5F5F5F5F5E2F5F5F5E2E2E2F5F5F5E2F5F5F5F5F5F5F5F5F5F5F5F5F5F5F5F5
310
F5F5F5F5F5F5F5F5F5F5F5F5F5F5F5F5F5F5F5F5F5F5F5F5F5F5F5F5F5F5F5F5F5F5F5F5F5F5F5F5F5F5F5F5F5F5F5F5F5F5F5F5F5F5F5F5F5F5F5F5F5F5F5F5F5F5F5F5F5F5F5F5F5F5F5F5F5F5F5F5F5F5F5F5F5F5F5F5F5F5F5F5F5F5F5F5F5F5F5F5F5F5F5F5F5F5F5F5F5F5F5F5F5F5F5F5F5F5F5F5F5F5F5F5F5F5F5
310
F5F5F5F5F5F5F5F5F5F5F5F5F5F5F5F5F5F5F5F5F5F5F5F5F5F5E2F5F5F5E2E2E2F5F5F5E2F5F5F5F5F5F5F5F5F5F5F5F5F5F5F5F5F5F5F5F5F5F5F5F5F5F5F5F5F5F5F5F5F5F5F5F5F5F5F5F5F5F5F5F5F5F5F5F5F5F5F5F5F5F5F5F5F5F5F5F5F5F5F5F5F5F5F5F5F5F5F5F5F5F5F5F5F5F5F5F5F5F5F5F5F5F5F5F5F5F5
310
F5F5F5F5F5F5F5F5F5F5F5F5F5F5F5F5F5F5F5F5F5F5F5F5F5F5F5F5F5F5F5F5F5F5F5F5F5F5F5F5F5F5F5F5F5F5F5F5F5F5F5F5F5F5F5F5F5F5F5F5F5F5F5F5F5F5F5F5F5F5F5F5F5F5F5F5F5F5F5E2F5F5F5E2E2E2F5F5F5E2F5F5F5F5F5F5F5F5F5F5F5F5F5F5F5F5F5F5F5F5F5F5F5F5F5F5F5F5F5F5F5F5F5F5F5F5F5
310
F5F5F5F5F5F5F5F5F5F5F5F5F5F5F5F5F5F5F5F5F5F5F5F5F5F5F5F5F5F5F5F5F5F5F5F5F5F5F5F5F5F5F5F5F5F5F5F5F5F5F5F5F5F5F5F5F5F5F5F5F5F5F5F5F5F5F5F5F5F5F5F5F5F5F5F5F5F5F5F5F5F5F5F5F5F5F5F5F5F5F5F5F5F5F5F5F5F5F5F5F5F5F5F5F5F5F5F5F5F5F5F5F5F5F5F5F5F5F5F5F5F5F5F5F5F5F5
310
F5F5F5F5F5E2F5F5F5E2E2E2F5F5F5E2F5F5F5F5F5F5F5F5F5F5F5F5F5F5F5F5F5F5F5F5F5F5F5F5F5F5F5F5F5F5F5F5F5F5F5F5F5F5F5F5F5F5F5F5F5F5F5F5F5F5F5F5F5F5F5F5F5F5F5F5F5F5F5F5F5F5F5F5F5F5F5F5F5F5F5F5F5F5F5F5F5F5F5F5F5F5F5F5F5F5F5F5F5F5F5F5F5F5F5F5F5F5F5F5F5F5F5F5F5F5F5
310
F5F5F5F5F5F5F5F5F5F5F5F5F5F5F5F5F5F5F5F5F5F5F5F5F5F5F5F5F5F5F5F5F5F5F5F5F5F5F5F5F5F5F5F5F5F5F5F5F5F5F5F5F5F5F5F5F5F5E2F5F5F5E2E2E2F5F5F5F5F5F5F5F5F5F5F5F5F5F5F5F5F5F5F5F5F5F5F5F5F5F5F5F5F5F5F5F5F5F5F5F5F5F5F5F5F5F5F5F5F5F5F5F5F5F5F5F5F5F5F5F5F5F5F5F5F5F5
310
F5F5F5F5F5F5F5F5F5F5F5F5F5F5F5F5F5F5F5F5F5F5F5F5F5F5F5F5F5F5F5F5F5F5F5F5F5F5F5F5F5F5F5F5F5F5F5F5F5F5F5F5F5F5F5F5F5F5F5F5F5F5F5F5F5F5F5F5F5F5F5F5F5F5F5F5F5F5F5F5F5F5F5F5F5F5F5F5F5F5F5F5F5F5F5F5F5F5F5F5F5F5F5F5F5F5F5F5F5F5F5F5F5F5F5E2E2E2F5F5F5F5F5F5F5F5F5
310
F5F5F5F5F5F5F5F5F5F5F5F5F5F5F5F5F5F5F5F5F5F5F5F5F5F5F5F5F5F5F5F5F5F5F5F5F5F5F5F5F5F5F5F5F5F5F5F5F5F5F5F5F5F5F5F5F5F5F5F5F5F5F5F5F5F5F5F5F5F5F5F5F5F5F5F5F5F5F5F5F5F5F5F5F5F5F5F5F5F5F5F5F5F5F5F5F5F5F5F5F5F5F5F5F5F5F5F5F5F5F5F5F5F5F5F5F5F5F5F5F5F5F5F5F5F5F5
310
F5F5F5F5F5F5F5F5F5F5F5F5F5F5F5F5F5F5F5F5F5F5F5F5F5F5F5F5F5F5F5F5F5F5F5F5F5F5F5F5F5E2E2E2F5F5F5F5F5F5F5F5F5F5F5F5F5F5F5F5F5F5F5F5F5F5F5F5F5F5F5F5F5F5F5F5F5F5F5F5F5F5F5F5F5F5F5F5F5F5F5F5F5F5F5F5F5F5F5F5F5F5F5F5F5F5F5F5F5F5F5F5F5F5F5F5F5F5F5F5F5F5F5F5F5F5F5
310
F5F5F5F5F5F5F5F5F5F5F5F5F5F5F5F5F5F5F5F5F5F5F5F5F5F5F5F5F5F5F5F5F5F5F5F5F5F5F5F5F5F5F5F5F5F5F5F5F5F5F5F5F5F5F5F5F5F5F5F5F5F5F5F5F5F5F5F5F5F5F5F5F5F5F5F5F5F5F5F5F5F5F5F5F5F5F5F5F5F5F5F5F5F5E2E2E2F5F5F5F5F5F5F5F5F5F5F5F5F5F5F5F5F5F5F5F5F5F5F5F5F5F5F5F5F5F5
310
F5F5F5F5F5F5F5F5F5F5F5F5F5F5F5F5F5F5F5F5F5F5F5F5F5F5F5F5F5F5F5F5F5F5F5F5F5F5F5F5F5F5F5F5F5F5F5F5F5F5F5F5F5F5F5F5F5F5F5F5F5F5F5F5F5F5F5F5F5F5F5F5F5F5F5F5F5F5F5F5F5F5F5F5F5F5F5F5F5F5F5F5F5F5F5F5F5F5F5F5F5F5F5F5F5F5F5F5F5F5F5F5F5F5F5F5F5F5F5F5F5F5F5F5F5F5F5
310
F5F5F5F5F5F5F5F5F5F5F5F5F5F5F5F5F5F5F5F5E2E2E2F5F5F5F5F5F5F5F5F5F5F5F5F5F5F5F5F5F5F5F5F5F5F5F5F5F5F5F5F5F5F5F5F5F5F5F5F5F5F5F5F5F5F5F5F5F5F5F5F5F5F5F5F5F5F5F5F5F5F5F5F5F5F5F5F5F5F5F5F5F5F5F5F5F5F5F5F5F5F5F5F5F5F5F5F5F5F5F5F5F5F5F5F5F5F5F5F5F5F5F5F5F5F5F5
310
F5F5F5F5F5F5F5F5F5F5F5F5F5F5F5F5F5F5F5F5F5F5F5F5F5F5F5F5F5F5F5F5F5F5F5F5F5F5F5F5F5F5F5F5F5F5F5F5F5F5F5F5F5F5F5F5F5F5F5F5F5F5F5F5F5F5F5F5F5F5F5F5F5E2E2E2F5F5F5F5F5F5F5F5F5F5F5F5F5F5F5F5F5F5F5F5F5F5F5F5F5F5F5F5F5F5F5F5F5F5F5F5F5F5F5F5F5F5F5F5F5F5F5F5F5F5F5
310
F5F5F5F5F5F5F5F5F5F5F5F5F5F5F5F5F5F5F5F5F5F5F5F5F5F5F5F5F5F5F5F5F5F5F5F5F5F5F5F5F5F5F5F5F5F5F5F5F5F5F5F5F5F5F5F5F5F5F5F5F5F5F5F5F5F5F5F5F5F5F5F5F5F5F5F5F5F5F5F5F5F5F5F5F5F5F5F5F5F5F5F5F5F5F5F5F5F5F5F5F5F5F5F5F5F5F5F5F5F5F5F5F5F5F5F5F5F5F5F5F5F5F5F5F5F5E2
310
E2E2F5F5F5F5F5F5F5F5F5F5F5F5F5F5F5F5F5F5F5F5F5F5F5F5F5F5F5F5F5F5F5F5F5F5F5F5F5F5F5F5F5F5F5F5F5F5F5F5F5F5F5F5F5F5F5F5F5F5F5F5F5F5F5F5F5F5F5F5F5F5F5F5F5F5F5F5F5F5F5F5F5F5F5F5F5F5F5F5F5F5F5F5F5F5F5F5F5F5F5F5F5F5F5F5F5F5F5F5F5F5F5F5F5F5F5F5F5F5F5F5F5F5F5F5F5
310
F5F5F5F5F5F5F5F5F5F5F5F5F5F5F5F5F5F5F5F5F5F5F5F5F5F5F5F5F5F5F5F5F5F5F5F5F5F5F5F5F5F5F5F5F5F5F5F5F5F5F5F5E2E2E2F5F5F5F5F5F5F5F5F5F5F5F5F5F5F5F5F5F5F5F5F5F5F5F5F5F5F5F5F5F5F5F5F5F5F5F5F5F5F5F5F5F5F5F5F5F5F5F5F5F5F5F5F5F5F5F5F5F5F5F5F5F5F5F5F5F5F5F5F5F5F5F5
310
F5F5F5F5F5F5F5F5F5F5F5F5F5F5F5F5F5F5F5F5F5F5F5F5F5F5F5F5F5F5F5F5F5F5F5F5F5F5F5F5F5F5F5F5F5F5F5F5F5F5F5F5F5F5F5F5F5F5F5F5F5F5F5F5F5F5F5F5F5F5F5F5F5F5F5F5F5F5F5F5F5F5F5F5F5F5F5F5F5F5F5F5F5F5F5F5F5F5F5F5F5F5F5F5F5E2E2E2F5F5F5F5F5F5F5F5F5F5F5F5F5F5F5F5F5F5F5
310
F5F5F5F5F5F5F5F5F5F5F5F5F5F5F5F5F5F5F5F5F5F5F5F5F5F5F5F5F5F5F5F5F5F5F5F5F5F5F5F5F5F5F5F5F5F5F5F5F5F5F5F5F5F5F5F5F5F5F5F5F5F5F5F5F5F5F5F5F5F5F5F5F5F5F5F5F5F5F5F5F5F5F5F5F5F5F5F5F5F5F5F5F5F5F5F5F5F5F5F5F5F5F5F5F5F5F5F5F5F5F5F5F5F5F5F5F5F5F5F5F5F5F5F5F5F5F5
310
F5F5F5F5F5F5F5F5F5F5F5F5F5F5F5F5F5F5F5F5F5F5F5F5F5F5F5F5F5F5F5E2E2E2F5F5F5E2F5F5F5F5F5F5F5F5F5F5F5F5F5F5F5F5F5F5F5F5F5F5F5F5F5F5F5F5F5F5F5F5F5F5F5F5F5F5F5F5F5F5F5F5F5F5F5F5F5F5F5F5F5F5F5F5F5F5F5F5F5F5F5F5F5F5F5F5F5F5F5F5F5F5F5F5F5F5F5F5F5F5F5F5F5F5F5F5F5
310
F5F5F5F5F5F5F5F5F5F5F5F5F5F5F5F5F5F5F5F5F5F5F5F5F5F5F5F5F5F5F5F5F5F5F5F5F5F5F5F5F5F5F5F5F5F5F5F5F5F5F5F5F5F5F5F5F5F5F5F5F5F5F5F5F5F5F5F5F5F5F5F5F5F5F5F5F5F5F5F5E2F5F5F5E2E2E2F5F5F5E2F5F5F5F5F5F5F5F5F5F5F5F5F5F5F5F5F5F5F5F5F5F5F5F5F5F5F5F5F5F5F5F5F5F5F5F5
310
F5F5F5F5F5F5F5F5F5F5F5F5F5F5F5F5F5F5F5F5F5F5F5F5F5F5F5F5F5F5F5F5F5F5F5F5F5F5F5F5F5F5F5F5F5F5F5F5F5F5F5F5F5F5F5F5F5F5F5F5F5F5F5F5F5F5F5F5F5F5F5F5F5F5F5F5F5F5F5F5F5F5F5F5F5F5F5F5F5F5F5F5F5F5F5F5F5F5F5F5F5F5F5F5F5F5F5F5F5F5F5F5F5F5F5F5F5F5F5F5F5F5F5F5F5F5F5
310
F5F5F5F5F5F5E2F5F5F5E2E2E2F5F5F5E2F5F5F5F5F5F5F5F5F5F5F5F5F5F5F5F5F5F5F5F5F5F5F5F5F5F5F5F5F5F5F5F5F5F5F5F5F5F5F5F5F5F5F5F5F5F5F5F5F5F5F5F5F5F5F5F5F5F5F5F5F5F5F5F5F5F5F5F5F5F5F5F5F5F5F5F5F5F5F5F5F5F5F5F5F5F5F5F5F5F5F5F5F5F5F5F5F5F5F5F5F5F5F5F5F5F5F5F5F5F5
310
F5F5F5F5F5F5F5F5F5F5F5F5F5F5F5F5F5F5F5F5F5F5F5F5F5F5F5F5F5F5F5F5F5F5F5F5F5F5F5F5F5F5F5F5F5F5F5F5F5F5F5F5F5F5F5F5F5F5F5E2F5F5F5E2E2E2F5F5F5E2F5F5F5F5F5F5F5F5F5F5F5F5F5F5F5F5F5F5F5F5F5F5F5F5F5F5F5F5F5F5F5F5F5F5F5F5F5F5F5F5F5F5F5F5F5F5F5F5F5F5F5F5F5F5F5F5F5
310
F5F5F5F5F5F5F5F5F5F5F5F5F5F5F5F5F5F5F5F5F5F5F5F5F5F5F5F5F5F5F5F5F5F5F5F5F5F5F5F5F5F5F5F5F5F5F5F5F5F5F5F5F5F5F5F5F5F5F5F5F5F5F5F5F5F5F5F5F5F5F5F5F5F5F5F5F5F5F5F5F5F5F5F5F5F5F5F5F5F5F5F5F5F5F5F5F5F5F5F5F5F5F5F5F5F5F5F5F5F5F5F5E2F5F5F5E2E2E2F5F5F5E2F5F5F5F5
310
F5F5F5F5F5F5F5F5F5F5F5F5F5F5F5F5F5F5F5F5F5F5F5F5F5F5F5F5F5F5F5F5F5F5F5F5F5F5F5F5F5F5F5F5F5F5F5F5F5F5F5F5F5F5F5F5F5F5F5F5F5F5F5F5F5F5F5F5F5F5F5F5F5F5F5F5F5F5F5F5F5F5F5F5F5F5F5F5F5F5F5F5F5F5F5F5F5F5F5F5F5F5F5F5F5F5F5F5F5F5F5F5F5F5F5F5F5F5F5F5F5F5F5F5F5F5F5
310
F5F5F5F5F5F5F5F5F5F5F5F5F5F5F5F5F5F5F5F5F5F5F5F5F5F5F5F5F5F5F5F5F5F5F5F5F5F5E2F5F5F5E2E2E2F5F5F5E2F5F5F5F5F5F5F5F5F5F5F5F5F5F5F5F5F5F5F5F5F5F5F5F5F5F5F5F5F5F5F5F5F5F5F5F5F5F5F5F5F5F5F5F5F5F5F5F5F5F5F5F5F5F5F5F5F5F5F5F5F5F5F5F5F5F5F5F5F5F5F5F5F5F5F5F5F5F5
310
F5F5F5F5F5F5F5F5F5F5F5F5F5F5F5F5F5F5F5F5F5F5F5F5F5F5F5F5F5F5F5F5F5F5F5F5F5F5F5F5F5F5F5F5F5F5F5F5F5F5F5F5F5F5F5F5F5F5F5F5F5F5F5F5F5F5F5F5F5F5F5F5F5F5F5F5F5F5F5F5F5F5F5F5F5F5F5F5F5F5F5E2F5F5F5E2E2E2F5F5F5E2F5F5F5F5F5F5F5F5F5F5F5F5F5F5F5F5F5F5F5F5F5F5F5F5F5
310
F5F5F5F5F5F5F5F5F5F5F5F5F5F5F5F5F5F5F5F5F5F5F5F5F5F5F5F5F5F5F5F5F5F5F5F5F5F5F5F5F5F5F5F5F5F5F5F5F5F5F5F5F5F5F5F5F5F5F5F5F5F5F5F5F5F5F5F5F5F5F5F5F5F5F5F5F5F5F5F5F5F5F5F5F5F5F5F5F5F5F5F5F5F5F5F5F5F5F5F5F5F5F5F5F5F5F5F5F5F5F5F5F5F5F5F5F5F5F5F5F5F5F5F5F5F5F5
310
F5F5F5F5F5F5F5F5F5F5F5F5F5F5F5F5F5E2F5F5F5E2E2E2F5F5F5E2F5F5F5F5F5F5F5F5F5F5F5F5F5F5F5F5F5F5F5F5F5F5F5F5F5F5F5F5F5F5F5F5F5F5F5F5F5F5F5F5F5F5F5F5F5F5F5F5F5F5F5F5F5F5F5F5F5F5F5F5F5F5F5F5F5F5F5F5F5F5F5F5F5F5F5F5F5F5F5F5F5F5F5F5F5F5F5F5F5F5F5F5F5F5F5F5F5F5F5
310
F5F5F5F5F5F5F5F5F5F5F5F5F5F5F5F5F5F5F5F5F5F5F5F5F5F5F5F5F5F5F5F5F5F5F5F5F5F5F5F5F5F5F5F5F5F5F5F5F5F5F5F5F5F5F5F5F5F5F5F5F5F5F5F5F5F5F5F5F5F5E2F5F5F5E2E2E2F5F5F5E2F5F5F5F5F5F5F5F5F5F5F5F5F5F5F5F5F5F5F5F5F5F5F5F5F5F5F5F5F5F5F5F5F5F5F5F5F5F5F5F5F5F5F5F5F5F5
310
F5F5F5F5F5F5F5F5F5F5F5F5F5F5F5F5F5F5F5F5F5F5F5F5F5F5F5F5F5F5F5F5F5F5F5F5F5F5F5F5F5F5F5F5F5F5F5F5F5F5F5F5F5F5F5F5F5F5F5F5F5F5F5F5F5F5F5F5F5F5F5F5F5F5F5F5F5F5F5F5F5F5F5F5F5F5F5F5F5F5F5F5F5F5F5F5F5F5F5F5F5F5F5F5F5F5F5F5F5F5F5F5F5F5F5F5F5F5F5F5F5F5F5E2F5F5F5
310
E2E2E2F5F5F5E2F5F5F5F5F5F5F5F5F5F5F5F5F5F5F5F5F5F5F5F5F5F5F5F5F5F5F5F5F5F5F5F5F5F5F5F5F5F5F5F5F5F5F5F5F5F5F5F5F5F5F5F5F5F5F5F5F5F5F5F5F5F5F5F5F5F5F5F5F5F5F5F5F5F5F5F5F5F5F5F5F5F5F5F5F5F5F5F5F5F5F5F5F5F5F5F5F5F5F5F5F5F5F5F5F5F5F5F5F5F5F5F5F5F5F5F5F5F5F5F5
310
F5F5F5F5F5F5F5F5F5F5F5F5F5F5F5F5F5F5F5F5F5F5F5F5F5F5F5F5F5F5F5F5F5F5F5F5F5F5F5F5F5F5F5F5F5F5F5F5F5E2F5F5F5E2E2E2F5F5F5E2F5F5F5F5F5F5F5F5F5F5F5F5F5F5F5F5F5F5F5F5F5F5F5F5F5F5F5F5F5F5F5F5F5F5F5F5F5F5F5F5F5F5F5F5F5F5F5F5F5F5F5F5F5F5F5F5F5F5F5F5F5F5F5F5F5F5F5
310
F5F5F5F5F5F5F5F5F5F5F5F5F5F5F5F5F5F5F5F5F5F5F5F5F5F5F5F5F5F5F5F5F5F5F5F5F5F5F5F5F5F5F5F5F5F5F5F5F5F5F5F5F5F5F5F5F5F5F5F5F5F5F5F5F5F5F5F5F5F5F5F5F5F5F5F5F5F5F5F5F5F5F5F5F5F5F5F5F5F5F5F5F5F5F5F5F5F5F5F5F5F5E2F5F5F5E2E2E2F5F5F5E2F5F5F5F5F5F5F5F5F5F5F5F5F5F5
310
F5F5F5F5F5F5F5F5F5F5F5F5F5F5F5F5F5F5F5F5F5F5F5F5F5F5F5F5F5F5F5F5F5F5F5F5F5F5F5F5F5F5F5F5F5F5F5F5F5F5F5F5F5F5F5F5F5F5F5F5F5F5F5F5F5F5F5F5F5F5F5F5F5F5F5F5F5F5F5F5F5F5F5F5F5F5F5F5F5F5F5F5F5F5F5F5F5F5F5F5F5F5F5F5F5F5F5F5F5F5F5F5F5F5F5F5F5F5F5F5F5F5F5F5F5F5F5
310
F5F5F5F5F5F5F5F5F5F5F5F5F5F5F5F5F5F5F5F5F5F5F5F5F5F5F5F5E2F5F5F5E2E2E2F5F5F5E2F5F5F5F5F5F5F5F5F5F5F5F5F5F5F5F5F5F5F5F5F5F5F5F5F5F5F5F5F5F5F5F5F5F5F5F5F5F5F5F5F5F5F5F5F5F5F5F5F5F5F5F5F5F5F5F5F5F5F5F5F5F5F5F5F5F5F5F5F5F5F5F5F5F5F5F5F5F5F5F5F5F5F5F5F5F5F5F5
310
F5F5F5F5F5F5F5F5F5F5F5F5F5F5F5F5F5F5F5F5F5F5F5F5F5F5F5F5F5F5F5F5F5F5F5F5F5F5F5F5F5F5F5F5F5F5F5F5F5F5F5F5F5F5F5F5F5F5F5F5F5F5F5F5F5F5F5F5F5F5F5F5F5F5F5F5F5F5F5F5F5E2F5F5F5E2E2E2F5F5F5E2F5F5F5F5F5F5F5F5F5F5F5F5F5F5F5F5F5F5F5F5F5F5F5F5F5F5F5F5F5F5F5F5F5F5F5
310
F5F5F5F5F5F5F5F5F5F5F5F5F5F5F5F5F5F5F5F5F5F5F5F5F5F5F5F5F5F5F5F5F5F5F5F5F5F5F5F5F5F5F5F5F5F5F5F5F5F5F5F5F5F5F5F5F5F5F5F5F5F5F5F5F5F5F5F5F5F5F5F5F5F5F5F5F5F5F5F5F5F5F5F5F5F5F5F5F5F5F5F5F5F5F5F5F5F5F5F5F5F5F5F5F5F5F5F5F5F5F5F5F5F5F5F5F5F5F5F5F5F5F5F5F5F5F5
310
F5F5F5F5F5F5F5E2F5F5F5E2E2E2F5F5F5E2F5F5F5F5F5F5F5F5F5F5F5F5F5F5F5F5F5F5F5F5F5F5F5F5F5F5F5F5F5F5F5F5F5F5F5F5F5F5F5F5F5F5F5F5F5F5F5F5F5F5F5F5F5F5F5F5F5F5F5F5F5F5F5F5F5F5F5F5F5F5F5F5F5F5F5F5F5F5F5F5F5F5F5F5F5F5F5F5F5F5F5F5F5F5F5F5F5F5F5F5F5F5F5F5F5F5F5F5F5
310
F5F5F5F5F5F5F5F5F5F5F5F5F5F5F5F5F5F5F5F5F5F5F5F5F5F5F5F5F5F5F5F5F5F5F5F5F5F5F5F5F5F5F5F5F5F5F5F5F5F5F5F5F5F5F5F5F5F5F5F5E2F5F5F5E2E2E2F5F5F5E2F5F5F5F5F5F5F5F5F5F5F5F5F5F5F5F5F5F5F5F5F5F5F5F5F5F5F5F5F5F5F5F5F5F5F5F5F5F5F5F5F5F5F5F5F5F5F5F5F5F5F5F5F5F5F5F5
310
F5F5F5F5F5F5F5F5F5F5F5F5F5F5F5F5F5F5F5F5F5F5F5F5F5F5F5F5F5F5F5F5F5F5F5F5F5F5F5F5F5F5F5F5F5F5F5F5F5F5F5F5F5F5F5F5F5F5F5F5F5F5F5F5F5F5F5F5F5F5F5F5F5F5F5F5F5F5F5F5F5F5F5F5F5F5F5F5F5F5F5F5F5F5F5F5F5F5F5F5F5F5F5F5F5F5F5F5F5F5F5F5F5E2F5F5F5E2E2E2F5F5F5E2F5F5F5
310
F5F5F5F5F5F5F5F5F5F5F5F5F5F5F5F5F5F5F5F5F5F5F5F5F5F5F5F5F5F5F5F5F5F5F5F5F5F5F5F5F5F5F5F5F5F5F5F5F5F5F5F5F5F5F5F5F5F5F5F5F5F5F5F5F5F5F5F5F5F5F5F5F5F5F5F5F5F5F5F5F5F5F5F5F5F5F5F5F5F5F5F5F5F5F5F5F5F5F5F5F5F5F5F5F5F5F5F5F5F5F5F5F5F5F5F5F5F5F5F5F5F5F5F5F5F5F5
310
F5F5F5F5F5F5F5F5F5F5F5F5F5F5F5F5F5F5F5F5F5F5F5F5F5F5F5F5F5F5F5F5F5F5F5F5F5F5F5E2F5F5F5E2E2E2F5F5F5F5F5F5F5F5F5F5F5F5F5F5F5F5F5F5F5F5F5F5F5F5F5F5F5F5F5F5F5F5F5F5F5F5F5F5F5F5F5F5F5F5F5F5F5F5F5F5F5F5F5F5F5F5F5F5F5F5F5F5F5F5F5F5F5F5F5F5F5F5F5F5F5F5F5F5F5F5F5
310
F5F5F5F5F5F5F5F5F5F5F5F5F5F5F5F5F5F5F5F5F5F5F5F5F5F5F5F5F5F5F5F5F5F5F5F5F5F5F5F5F5F5F5F5F5F5F5F5F5F5F5F5F5F5F5F5F5F5F5F5F5F5F5F5F5F5F5F5F5F5F5F5F5F5F5F5F5F5F5F5F5F5F5F5F5F5F5F5F5F5F5F5F5F5F5F5E2E2E2F5F5F5F5F5F5F5F5F5F5F5F5F5F5F5F5F5F5F5F5F5F5F5F5F5F5F5F5
310
F5F5F5F5F5F5F5F5F5F5F5F5F5F5F5F5F5F5F5F5F5F5F5F5F5F5F5F5F5F5F5F5F5F5F5F5F5F5F5F5F5F5F5F5F5F5F5F5F5F5F5F5F5F5F5F5F5F5F5F5F5F5F5F5F5F5F5F5F5F5F5F5F5F5F5F5F5F5F5F5F5F5F5F5F5F5F5F5F5F5F5F5F5F5F5F5F5F5F5F5F5F5F5F5F5F5F5F5F5F5F5F5F5F5F5F5F5F5F5F5F5F5F5F5F5F5F5
310
F5F5F5F5F5F5F5F5F5F5F5F5F5F5F5F5F5F5F5F5F5F5E2E2E2F5F5F5F5F5F5F5F5F5F5F5F5F5F5F5F5F5F5F5F5F5F5F5F5F5F5F5F5F5F5F5F5F5F5F5F5F5F5F5F5F5F5F5F5F5F5F5F5F5F5F5F5F5F5F5F5F5F5F5F5F5F5F5F5F5F5F5F5F5F5F5F5F5F5F5F5F5F5F5F5F5F5F5F5F5F5F5F5F5F5F5F5F5F5F5F5F5F5F5F5F5F5
310
F5F5F5F5F5F5F5F5F5F5F5F5F5F5F5F5F5F5F5F5F5F5F5F5F5F5F5F5F5F5F5F5F5F5F5F5F5F5F5F5F5F5F5F5F5F5F5F5F5F5F5F5F5F5F5F5F5F5F5F5F5F5F5F5F5F5F5F5F5F5F5F5F5F5F5E2E2E2F5F5F5F5F5F5F5F5F5F5F5F5F5F5F5F5F5F5F5F5F5F5F5F5F5F5F5F5F5F5F5F5F5F5F5F5F5F5F5F5F5F5F5F5F5F5F5F5F5
310
F5F5F5F5F5F5F5F5F5F5F5F5F5F5F5F5F5F5F5F5F5F5F5F5F5F5F5F5F5F5F5F5F5F5F5F5F5F5F5F5F5F5F5F5F5F5F5F5F5F5F5F5F5F5F5F5F5F5F5F5F5F5F5F5F5F5F5F5F5F5F5F5F5F5F5F5F5F5F5F5F5F5F5F5F5F5F5F5F5F5F5F5F5F5F5F5F5F5F5F5F5F5F5F5F5F5F5F5F5F5F5F5F5F5F5F5F5F5F5F5F5F5F5F5F5F5F5
310
F5E2E2E2F5F5F5F5F5F5F5F5F5F5F5F5F5F5F5F5F5F5F5F5F5F5F5F5F5F5F5F5F5F5F5F5F5F5F5F5F5F5F5F5F5F5F5F5F5F5F5F5F5F5F5F5F5F5F5F5F5F5F5F5F5F5F5F5F5F5F5F5F5F5F5F5F5F5F5F5F5F5F5F5F5F5F5F5F5F5F5F5F5F5F5F5F5F5F5F5F5F5F5F5F5F5F5F5F5F5F5F5F5F5F5F5F5F5F5F5F5F5F5F5F5F5F5
310
F5F5F5F5F5F5F5F5F5F5F5F5F5F5F5F5F5F5F5F5F5F5F5F5F5F5F5F5F5F5F5F5F5F5F5F5F5F5F5F5F5F5F5F5F5F5F5F5F5F5F5F5F5F5E2E2E2F5F5F5F5F5F5F5F5F5F5F5F5F5F5F5F5F5F5F5F5F5F5F5F5F5F5F5F5F5F5F5F5F5F5F5F5F5F5F5F5F5F5F5F5F5F5F5F5F5F5F5F5F5F5F5F5F5F5F5F5F5F5F5F5F5F5F5F5F5F5
310
F5F5F5F5F5F5F5F5F5F5F5F5F5F5F5F5F5F5F5F5F5F5F5F5F5F5F5F5F5F5F5F5F5F5F5F5F5F5F5F5F5F5F5F5F5F5F5F5F5F5F5F5F5F5F5F5F5F5F5F5F5F5F5F5F5F5F5F5F5F5F5F5F5F5F5F5F5F5F5F5F5F5F5F5F5F5F5F5F5F5F5F5F5F5F5F5F5F5F5F5F5F5F5F5F5F5F5E2E2E2F5F5F5F5F5F5F5F5F5F5F5F5F5F5F5F5F5
310
F5F5F5F5F5F5F5F5F5F5F5F5F5F5F5F5F5F5F5F5F5F5F5F5F5F5F5F5F5F5F5F5F5F5F5F5F5F5F5F5F5F5F5F5F5F5F5F5F5F5F5F5F5F5F5F5F5F5F5F5F5F5F5F5F5F5F5F5F5F5F5F5F5F5F5F5F5F5F5F5F5F5F5F5F5F5F5F5F5F5F5F5F5F5F5F5F5F5F5F5F5F5F5F5F5F5F5F5F5F5F5F5F5F5F5F5F5F5F5F5F5F5F5F5F5F5F5
310
F5F5F5F5F5F5F5F5F5F5F5F5F5F5F5F5F5F5F5F5F5F5F5F5F5F5F5F5F5F5F5F5F5E2E2E2F5F5F5F5F5F5F5F5F5F5F5F5F5F5F5F5F5F5F5F5F5F5F5F5F5F5F5F5F5F5F5F5F5F5F5F5F5F5F5F5F5F5F5F5F5F5F5F5F5F5F5F5F5F5F5F5F5F5F5F5F5F5F5F5F5F5F5F5F5F5F5F5F5F5F5F5F5F5F5F5F5F5F5F5F5F5F5F5F5F5F5
310
F5F5F5F5F5F5F5F5F5F5F5F5F5F5F5F5F5F5F5F5F5F5F5F5F5F5F5F5F5F5F5F5F5F5F5F5F5F5F5F5F5F5F5F5F5F5F5F5F5F5F5F5F5F5F5F5F5F5F5F5F5F5F5F5F5F5F5F5F5F5F5F5F5F5F5F5F5F5F5F5F5F5F5F5F5F5E2E2E2F5F5F5F5F5F5F5F5F5F5F5F5F5F5F5F5F5F5F5F5F5F5F5F5F5F5F5F5F5F5F5F5F5F5F5F5F5F5
310
F5F5F5F5F5F5F5F5F5F5F5F5F5F5F5F5F5F5F5F5F5F5F5F5F5F5F5F5F5F5F5F5F5F5F5F5F5F5F5F5F5F5F5F5F5F5F5F5F5F5F5F5F5F5F5F5F5F5F5F5F5F5F5F5F5F5F5F5F5F5F5F5F5F5F5F5F5F5F5F5F5F5F5F5F5F5F5F5F5F5F5F5F5F5F5F5F5F5F5F5F5F5F5F5F5F5F5F5F5F5F5F5F5F5F5F5F5F5F5F5F5F5F5F5F5F5F5
310
F5F5F5F5F5F5F5F5F5F5F5F5E2E2E2F5F5F5E2F5F5F5F5F5F5F5F5F5F5F5F5F5F5F5F5F5F5F5F5F5F5F5F5F5F5F5F5F5F5F5F5F5F5F5F5F5F5F5F5F5F5F5F5F5F5F5F5F5F5F5F5F5F5F5F5F5F5F5F5F5F5F5F5F5F5F5F5F5F5F5F5F5F5F5F5F5F5F5F5F5F5F5F5F5F5F5F5F5F5F5F5F5F5F5F5F5F5F5F5F5F5F5F5F5F5F5F5
310
F5F5F5F5F5F5F5F5F5F5F5F5F5F5F5F5F5F5F5F5F5F5F5F5F5F5F5F5F5F5F5F5F5F5F5F5F5F5F5F5F5F5F5F5F5F5F5F5F5F5F5F5F5F5F5F5F5F5F5F5F5E2F5F5F5E2E2E2F5F5F5E2F5F5F5F5F5F5F5F5F5F5F5F5F5F5F5F5F5F5F5F5F5F5F5F5F5F5F5F5F5F5F5F5F5F5F5F5F5F5F5F5F5F5F5F5F5F5F5F5F5F5F5F5F5F5F5
310
F5F5F5F5F5F5F5F5F5F5F5F5F5F5F5F5F5F5F5F5F5F5F5F5F5F5F5F5F5F5F5F5F5F5F5F5F5F5F5F5F5F5F5F5F5F5F5F5F5F5F5F5F5F5F5F5F5F5F5F5F5F5F5F5F5F5F5F5F5F5F5F5F5F5F5F5F5F5F5F5F5F5F5F5F5F5F5F5F5F5F5F5F5F5F5F5F5F5F5F5F5F5F5F5F5F5F5F5F5F5F5F5F5F5E2F5F5F5E2E2E2F5F5F5E2F5F5
310
F5F5F5F5F5F5F5F5F5F5F5F5F5F5F5F5F5F5F5F5F5F5F5F5F5F5F5F5F5F5F5F5F5F5F5F5F5F5F5F5F5F5F5F5F5F5F5F5F5F5F5F5F5F5F5F5F5F5F5F5F5F5F5F5F5F5F5F5F5F5F5F5F5F5F5F5F5F5F5F5F5F5F5F5F5F5F5F5F5F5F5F5F5F5F5F5F5F5F5F5F5F5F5F5F5F5F5F5F5F5F5F5F5F5F5F5F5F5F5F5F5F5F5F5F5F5F5
310
F5F5F5F5F5F5F5F5F5F5F5F5F5F5F5F5F5F5F5F5F5F5F5F5F5F5F5F5F5F5F5F5F5F5F5F5F5F5F5F5E2F5F5F5E2E2E2F5F5F5E2F5F5F5F5F5F5F5F5F5F5F5F5F5F5F5F5F5F5F5F5F5F5F5F5F5F5F5F5F5F5F5F5F5F5F5F5F5F5F5F5F5F5F5F5F5F5F5F5F5F5F5F5F5F5F5F5F5F5F5F5F5F5F5F5F5F5F5F5F5F5F5F5F5F5F5F5
310
F5F5F5F5F5F5F5F5F5F5F5F5F5F5F5F5F5F5F5F5F5F5F5F5F5F5F5F5F5F5F5F5F5F5F5F5F5F5F5F5F5F5F5F5F5F5F5F5F5F5F5F5F5F5F5F5F5F5F5F5F5F5F5F5F5F5F5F5F5F5F5F5F5F5F5F5F5F5F5F5F5F5F5F5F5F5F5F5F5F5F5F5F5E2F5F5F5E2E2E2F5F5F5E2F5F5F5F5F5F5F5F5F5F5F5F5F5F5F5F5F5F5F5F5F5F5F5
310
F5F5F5F5F5F5F5F5F5F5F5F5F5F5F5F5F5F5F5F5F5F5F5F5F5F5F5F5F5F5F5F5F5F5F5F5F5F5F5F5F5F5F5F5F5F5F5F5F5F5F5F5F5F5F5F5F5F5F5F5F5F5F5F5F5F5F5F5F5F5F5F5F5F5F5F5F5F5F5F5F5F5F5F5F5F5F5F5F5F5F5F5F5F5F5F5F5F5F5F5F5F5F5F5F5F5F5F5F5F5F5F5F5F5F5F5F5F5F5F5F5F5F5F5F5F5F5
310
F5F5F5F5F5F5F5F5F5F5F5F5F5F5F5F5F5F5F5E2F5F5F5E2E2E2F5F5F5E2F5F5F5F5F5F5F5F5F5F5F5F5F5F5F5F5F5F5F5F5F5F5F5F5F5F5F5F5F5F5F5F5F5F5F5F5F5F5F5F5F5F5F5F5F5F5F5F5F5F5F5F5F5F5F5F5F5F5F5F5F5F5F5F5F5F5F5F5F5F5F5F5F5F5F5F5F5F5F5F5F5F5F5F5F5F5F5F5F5F5F5F5F5F5F5F5F5
310
F5F5F5F5F5F5F5F5F5F5F5F5F5F5F5F5F5F5F5F5F5F5F5F5F5F5F5F5F5F5F5F5F5F5F5F5F5F5F5F5F5F5F5F5F5F5F5F5F5F5F5F5F5F5F5F5F5F5F5F5F5F5F5F5F5F5F5F5F5F5F5F5E2F5F5F5E2E2E2F5F5F5E2F5F5F5F5F5F5F5F5F5F5F5F5F5F5F5F5F5F5F5F5F5F5F5F5F5F5F5F5F5F5F5F5F5F5F5F5F5F5F5F5F5F5F5F5
310
F5F5F5F5F5F5F5F5F5F5F5F5F5F5F5F5F5F5F5F5F5F5F5F5F5F5F5F5F5F5F5F5F5F5F5F5F5F5F5F5F5F5F5F5F5F5F5F5F5F5F5F5F5F5F5F5F5F5F5F5F5F5F5F5F5F5F5F5F5F5F5F5F5F5F5F5F5F5F5F5F5F5F5F5F5F5F5F5F5F5F5F5F5F5F5F5F5F5F5F5F5F5F5F5F5F5F5F5F5F5F5F5F5F5F5F5F5F5F5F5F5F5F5F5F5E2F5
310
F5F5E2E2E2F5F5F5E2F5F5F5F5F5F5F5F5F5F5F5F5F5F5F5F5F5F5F5F5F5F5F5F5F5F5F5F5F5F5F5F5F5F5F5F5F5F5F5F5F5F5F5F5F5F5F5F5F5F5F5F5F5F5F5F5F5F5F5F5F5F5F5F5F5F5F5F5F5F5F5F5F5F5F5F5F5F5F5F5F5F5F5F5F5F5F5F5F5F5F5F5F5F5F5F5F5F5F5F5F5F5F5F5F5F5F5F5F5F5F5F5F5F5F5F5F5F5
310
F5F5F5F5F5F5F5F5F5F5F5F5F5F5F5F5F5F5F5F5F5F5F5F5F5F5F5F5F5F5F5F5F5F5F5F5F5F5F5F5F5F5F5F5F5F5F5F5F5F5F5E2F5F5F5E2E2E2F5F5F5E2F5F5F5F5F5F5F5F5F5F5F5F5F5F5F5F5F5F5F5F5F5F5F5F5F5F5F5F5F5F5F5F5F5F5F5F5F5F5F5F5F5F5F5F5F5F5F5F5F5F5F5F5F5F5F5F5F5F5F5F5F5F5F5F5F5
310
F5F5F5F5F5F5F5F5F5F5F5F5F5F5F5F5F5F5F5F5F5F5F5F5F5F5F5F5F5F5F5F5F5F5F5F5F5F5F5F5F5F5F5F5F5F5F5F5F5F5F5F5F5F5F5F5F5F5F5F5F5F5F5F5F5F5F5F5F5F5F5F5F5F5F5F5F5F5F5F5F5F5F5F5F5F5F5F5F5F5F5F5F5F5F5F5F5F5F5F5F5F5F5F5E2F5F5F5E2E2E2F5F5F5E2F5F5F5F5F5F5F5F5F5F5F5F5
310
F5F5F5F5F5F5F5F5F5F5F5F5F5F5F5F5F5F5F5F5F5F5F5F5F5F5F5F5F5F5F5F5F5F5F5F5F5F5F5F5F5F5F5F5F5F5F5F5F5F5F5F5F5F5F5F5F5F5F5F5F5F5F5F5F5F5F5F5F5F5F5F5F5F5F5F5F5F5F5F5F5F5F5F5F5F5F5F5F5F5F5F5F5F5F5F5F5F5F5F5F5F5F5F5F5F5F5F5F5F5F5F5F5F5F5F5F5F5F5F5F5F5F5F5F5F5F5
310
F5F5F5F5F5F5F5F5F5F5F5F5F5F5F5F5F5F5F5F5F5F5F5F5F5F5F5F5F5F5E2F5F5F5E2E2E2F5F5F5E2F5F5F5F5F5F5F5F5F5F5F5F5F5F5F5F5F5F5F5F5F5F5F5F5F5F5F5F5F5F5F5F5F5F5F5F5F5F5F5F5F5F5F5F5F5F5F5F5F5F5F5F5F5F5F5F5F5F5F5F5F5F5F5F5F5F5F5F5F5F5F5F5F5F5F5F5F5F5F5F5F5F5F5F5F5F5
310
F5F5F5F5F5F5F5F5F5F5F5F5F5F5F5F5F5F5F5F5F5F5F5F5F5F5F5F5F5F5F5F5F5F5F5F5F5F5F5F5F5F5F5F5F5F5F5F5F5F5F5F5F5F5F5F5F5F5F5F5F5F5F5F5F5F5F5F5F5F5F5F5F5F5F5F5F5F5F5F5F5F5F5E2F5F5F5E2E2E2F5F5F5E2F5F5F5F5F5F5F5F5F5F5F5F5F5F5F5F5F5F5F5F5F5F5F5F5F5F5F5F5F5F5F5F5F5
310
F5F5F5F5F5F5F5F5F5F5F5F5F5F5F5F5F5F5F5F5F5F5F5F5F5F5F5F5F5F5F5F5F5F5F5F5F5F5F5F5F5F5F5F5F5F5F5F5F5F5F5F5F5F5F5F5F5F5F5F5F5F5F5F5F5F5F5F5F5F5F5F5F5F5F5F5F5F5F5F5F5F5F5F5F5F5F5F5F5F5F5F5F5F5F5F5F5F5F5F5F5F5F5F5F5F5F5F5F5F5F5F5F5F5F5F5F5F5F5F5F5F5F5F5F5F5F5
310
F5F5F5F5F5F5F5F5F5E2F5F5F5E2E2E2F5F5F5E2F5F5F5F5F5F5F5F5F5F5F5F5F5F5F5F5F5F5F5F5F5F5F5F5F5F5F5F5F5F5F5F5F5F5F5F5F5F5F5F5F5F5F5F5F5F5F5F5F5F5F5F5F5F5F5F5F5F5F5F5F5F5F5F5F5F5F5F5F5F5F5F5F5F5F5F5F5F5F5F5F5F5F5F5F5F5F5F5F5F5F5F5F5F5F5F5F5F5F5F5F5F5F5F5F5F5F5
310
F5F5F5F5F5F5F5F5F5F5F5F5F5F5F5F5F5F5F5F5F5F5F5F5F5F5F5F5F5F5F5F5F5F5F5F5F5F5F5F5F5F5F5F5F5F5F5F5F5F5F5F5F5F5F5F5F5F5F5F5F5F5E2F5F5F5E2E2E2F5F5F5E2F5F5F5F5F5F5F5F5F5F5F5F5F5F5F5F5F5F5F5F5F5F5F5F5F5F5F5F5F5F5F5F5F5F5F5F5F5F5F5F5F5F5F5F5F5F5F5F5F5F5F5F5F5F5
310
F5F5F5F5F5F5F5F5F5F5F5F5F5F5F5F5F5F5F5F5F5F5F5F5F5F5F5F5F5F5F5F5F5F5F5F5F5F5F5F5F5F5F5F5F5F5F5F5F5F5F5F5F5F5F5F5F5F5F5F5F5F5F5F5F5F5F5F5F5F5F5F5F5F5F5F5F5F5F5F5F5F5F5F5F5F5F5F5F5F5F5F5F5F5F5F5F5F5F5F5F5F5F5F5F5F5F5F5F5F5F5F5F5F5F5E2F5F5F5E2E2E2F5F5F5E2F5
310
F5F5F5F5F5F5F5F5F5F5F5F5F5F5F5F5F5F5F5F5F5F5F5F5F5F5F5F5F5F5F5F5F5F5F5F5F5F5F5F5F5F5F5F5F5F5F5F5F5F5F5F5F5F5F5F5F5F5F5F5F5F5F5F5F5F5F5F5F5F5F5F5F5F5F5F5F5F5F5F5F5F5F5F5F5F5F5F5F5F5F5F5F5F5F5F5F5F5F5F5F5F5F5F5F5F5F5F5F5F5F5F5F5F5F5F5F5F5F5F5F5F5F5F5F5F5F5
310
F5F5F5F5F5F5F5F5F5F5F5F5F5F5F5F5F5F5F5F5F5F5F5F5F5F5F5F5F5F5F5F5F5F5F5F5F5F5F5F5F5E2F5F5F5E2E2E2F5F5F5E2F5F5F5F5F5F5F5F5F5F5F5F5F5F5F5F5F5F5F5F5F5F5F5F5F5F5F5F5F5F5F5F5F5F5F5F5F5F5F5F5F5F5F5F5F5F5F5F5F5F5F5F5F5F5F5F5F5F5F5F5F5F5F5F5F5F5F5F5F5F5F5F5F5F5F5
310
F5F5F5F5F5F5F5F5F5F5F5F5F5F5F5F5F5F5F5F5F5F5F5F5F5F5F5F5F5F5F5F5F5F5F5F5F5F5F5F5F5F5F5F5F5F5F5F5F5F5F5F5F5F5F5F5F5F5F5F5F5F5F5F5F5F5F5F5F5F5F5F5F5F5F5F5F5F5F5F5F5F5F5F5F5F5F5F5F5F5F5F5F5F5E2F5F5F5E2E2E2F5F5F5E2F5F5F5F5F5F5F5F5F5F5F5F5F5F5F5F5F5F5F5F5F5F5
310
F5F5F5F5F5F5F5F5F5F5F5F5F5F5F5F5F5F5F5F5F5F5F5F5F5F5F5F5F5F5F5F5F5F5F5F5F5F5F5F5F5F5F5F5F5F5F5F5F5F5F5F5F5F5F5F5F5F5F5F5F5F5F5F5F5F5F5F5F5F5F5F5F5F5F5F5F5F5F5F5F5F5F5F5F5F5F5F5F5F5F5F5F5F5F5F5F5F5F5F5F5F5F5F5F5F5F5F5F5F5F5F5F5F5F5F5F5F5F5F5F5F5F5F5F5F5F5
310
F5F5F5F5F5F5F5F5F5F5F5F5F5F5F5F5F5F5F5F5E2F5F5F5E2E2E2F5F5F5F5F5F5F5F5F5F5F5F5F5F5F5F5F5F5F5F5F5F5F5F5F5F5F5F5F5F5F5F5F5F5F5F5F5F5F5F5F5F5F5F5F5F5F5F5F5F5F5F5F5F5F5F5F5F5F5F5F5F5F5F5F5F5F5F5F5F5F5F5F5F5F5F5F5F5F5F5F5F5F5F5F5F5F5F5F5F5F5F5F5F5F5F5F5F5F5F5
310
F5F5F5F5F5F5F5F5F5F5F5F5F5F5F5F5F5F5F5F5F5F5F5F5F5F5F5F5F5F5F5F5F5F5F5F5F5F5F5F5F5F5F5F5F5F5F5F5F5F5F5F5F5F5F5F5F5F5F5F5F5F5F5F5F5F5F5F5F5F5F5F5F5F5F5F5F5E2E2E2F5F5F5F5F5F5F5F5F5F5F5F5F5F5F5F5F5F5F5F5F5F5F5F5F5F5F5F5F5F5F5F5F5F5F5F5F5F5F5F5F5F5F5F5F5F5F5
310
F5F5F5F5F5F5F5F5F5F5F5F5F5F5F5F5F5F5F5F5F5F5F5F5F5F5F5F5F5F5F5F5F5F5F5F5F5F5F5F5F5F5F5F5F5F5F5F5F5F5F5F5F5F5F5F5F5F5F5F5F5F5F5F5F5F5F5F5F5F5F5F5F5F5F5F5F5F5F5F5F5F5F5F5F5F5F5F5F5F5F5F5F5F5F5F5F5F5F5F5F5F5F5F5F5F5F5F5F5F5F5F5F5F5F5F5F5F5F5F5F5F5F5F5F5F5F5
310
F5F5F5E2E2E2F5F5F5F5F5F5F5F5F5F5F5F5F5F5F5F5F5F5F5F5F5F5F5F5F5F5F5F5F5F5F5F5F5F5F5F5F5F5F5F5F5F5F5F5F5F5F5F5F5F5F5F5F5F5F5F5F5F5F5F5F5F5F5F5F5F5F5F5F5F5F5F5F5F5F5F5F5F5F5F5F5F5F5F5F5F5F5F5F5F5F5F5F5F5F5F5F5F5F5F5F5F5F5F5F5F5F5F5F5F5F5F5F5F5F5F5F5F5F5F5F5
310
F5F5F5F5F5F5F5F5F5F5F5F5F5F5F5F5F5F5F5F5F5F5F5F5F5F5F5F5F5F5F5F5F5F5F5F5F5F5F5F5F5F5F5F5F5F5F5F5F5F5F5F5F5F5F5F5E2E2E2F5F5F5F5F5F5F5F5F5F5F5F5F5F5F5F5F5F5F5F5F5F5F5F5F5F5F5F5F5F5F5F5F5F5F5F5F5F5F5F5F5F5F5F5F5F5F5F5F5F5F5F5F5F5F5F5F5F5F5F5F5F5F5F5F5F5F5F5
310
F5F5F5F5F5F5F5F5F5F5F5F5F5F5F5F5F5F5F5F5F5F5F5F5F5F5F5F5F5F5F5F5F5F5F5F5F5F5F5F5F5F5F5F5F5F5F5F5F5F5F5F5F5F5F5F5F5F5F5F5F5F5F5F5F5F5F5F5F5F5F5F5F5F5F5F5F5F5F5F5F5F5F5F5F5F5F5F5F5F5F5F5F5F5F5F5F5F5F5F5F5F5F5F5F5F5F5F5F5E2E2E2F5F5F5F5F5F5F5F5F5F5F5F5F5F5F5
310
F5F5F5F5F5F5F5F5F5F5F5F5F5F5F5F5F5F5F5F5F5F5F5F5F5F5F5F5F5F5F5F5F5F5F5F5F5F5F5F5F5F5F5F5F5F5F5F5F5F5F5F5F5F5F5F5F5F5F5F5F5F5F5F5F5F5F5F5F5F5F5F5F5F5F5F5F5F5F5F5F5F5F5F5F5F5F5F5F5F5F5F5F5F5F5F5F5F5F5F5F5F5F5F5F5F5F5F5F5F5F5F5F5F5F5F5F5F5F5F5F5F5F5F5F5F5F5
310
F5F5F5F5F5F5F5F5F5F5F5F5F5F5F5F5F5F5F5F5F5F5F5F5F5F5F5F5F5F5F5F5F5F5F5E2E2E2F5F5F5F5F5F5F5F5F5F5F5F5F5F5F5F5F5F5F5F5F5F5F5F5F5F5F5F5F5F5F5F5F5F5F5F5F5F5F5F5F5F5F5F5F5F5F5F5F5F5F5F5F5F5F5F5F5F5F5F5F5F5F5F5F5F5F5F5F5F5F5F5F5F5F5F5F5F5F5F5F5F5F5F5F5F5F5F5F5
310
F5F5F5F5F5F5F5F5F5F5F5F5F5F5F5F5F5F5F5F5F5F5F5F5F5F5F5F5F5F5F5F5F5F5F5F5F5F5F5F5F5F5F5F5F5F5F5F5F5F5F5F5F5F5F5F5F5F5F5F5F5F5F5F5F5F5F5F5F5F5F5F5F5F5F5F5F5F5F5F5F5F5F5F5F5F5F5F5E2E2E2F5F5F5F5F5F5F5F5F5F5F5F5F5F5F5F5F5F5F5F5F5F5F5F5F5F5F5F5F5F5F5F5F5F5F5F5
310
F5F5F5F5F5F5F5F5F5F5F5F5F5F5F5F5F5F5F5F5F5F5F5F5F5F5F5F5F5F5F5F5F5F5F5F5F5F5F5F5F5F5F5F5F5F5F5F5F5F5F5F5F5F5F5F5F5F5F5F5F5F5F5F5F5F5F5F5F5F5F5F5F5F5F5F5F5F5F5F5F5F5F5F5F5F5F5F5F5F5F5F5F5F5F5F5F5F5F5F5F5F5F5F5F5F5F5F5F5F5F5F5F5F5F5F5F5F5F5F5F5F5F5F5F5F5F5
310
F5F5F5F5F5F5F5F5F5F5F5F5F5F5E2E2E2F5F5F5F5F5F5F5F5F5F5F5F5F5F5F5F5F5F5F5F5F5F5F5F5F5F5F5F5F5F5F5F5F5F5F5F5F5F5F5F5F5F5F5F5F5F5F5F5F5F5F5F5F5F5F5F5F5F5F5F5F5F5F5F5F5F5F5F5F5F5F5F5F5F5F5F5F5F5F5F5F5F5F5F5F5F5F5F5F5F5F5F5F5F5F5F5F5F5F5F5F5F5F5F5F5F5F5F5F5F5
310
F5F5F5F5F5F5F5F5F5F5F5F5F5F5F5F5F5F5F5F5F5F5F5F5F5F5F5F5F5F5F5F5F5F5F5F5F5F5F5F5F5F5F5F5F5F5F5F5F5F5F5F5F5F5F5F5F5F5F5F5F5F5F5F5F5F5F5E2E2E2F5F5F5F5F5F5F5F5F5F5F5F5F5F5F5F5F5F5F5F5F5F5F5F5F5F5F5F5F5F5F5F5F5F5F5F5F5F5F5F5F5F5F5F5F5F5F5F5F5F5F5F5F5F5F5F5F5
310
F5F5F5F5F5F5F5F5F5F5F5F5F5F5F5F5F5F5F5F5F5F5F5F5F5F5F5F5F5F5F5F5F5F5F5F5F5F5F5F5F5F5F5F5F5F5F5F5F5F5F5F5F5F5F5F5F5F5F5F5F5F5F5F5F5F5F5F5F5F5F5F5F5F5F5F5F5F5F5F5F5F5F5F5F5F5F5F5F5F5F5F5F5F5F5F5F5F5F5F5F5F5F5F5F5F5F5F5F5F5F5F5F5F5F5F5F5F5F5F5E2E2E2F5F5F5E2
310
F5F5F5F5F5F5F5F5F5F5F5F5F5F5F5F5F5F5F5F5F5F5F5F5F5F5F5F5F5F5F5F5F5F5F5F5F5F5F5F5F5F5F5F5F5F5F5F5F5F5F5F5F5F5F5F5F5F5F5F5F5F5F5F5F5F5F5F5F5F5F5F5F5F5F5F5F5F5F5F5F5F5F5F5F5F5F5F5F5F5F5F5F5F5F5F5F5F5F5F5F5F5F5F5F5F5F5F5F5F5F5F5F5F5F5F5F5F5F5F5F5F5F5F5F5F5F5
310
F5F5F5F5F5F5F5F5F5F5F5F5F5F5F5F5F5F5F5F5F5F5F5F5F5F5F5F5F5F5F5F5F5F5F5F5F5F5F5F5F5F5E2F5F5F5E2E2E2F5F5F5E2F5F5F5F5F5F5F5F5F5F5F5F5F5F5F5F5F5F5F5F5F5F5F5F5F5F5F5F5F5F5F5F5F5F5F5F5F5F5F5F5F5F5F5F5F5F5F5F5F5F5F5F5F5F5F5F5F5F5F5F5F5F5F5F5F5F5F5F5F5F5F5F5F5F5
310
F5F5F5F5F5F5F5F5F5F5F5F5F5F5F5F5F5F5F5F5F5F5F5F5F5F5F5F5F5F5F5F5F5F5F5F5F5F5F5F5F5F5F5F5F5F5F5F5F5F5F5F5F5F5F5F5F5F5F5F5F5F5F5F5F5F5F5F5F5F5F5F5F5F5F5F5F5F5F5F5F5F5F5F5F5F5F5F5F5F5F5F5F5F5F5E2F5F5F5E2E2E2F5F5F5E2F5F5F5F5F5F5F5F5F5F5F5F5F5F5F5F5F5F5F5F5F5
310
F5F5F5F5F5F5F5F5F5F5F5F5F5F5F5F5F5F5F5F5F5F5F5F5F5F5F5F5F5F5F5F5F5F5F5F5F5F5F5F5F5F5F5F5F5F5F5F5F5F5F5F5F5F5F5F5F5F5F5F5F5F5F5F5F5F5F5F5F5F5F5F5F5F5F5F5F5F5F5F5F5F5F5F5F5F5F5F5F5F5F5F5F5F5F5F5F5F5F5F5F5F5F5F5F5F5F5F5F5F5F5F5F5F5F5F5F5F5F5F5F5F5F5F5F5F5F5
310
F5F5F5F5F5F5F5F5F5F5F5F5F5F5F5F5F5F5F5F5F5E2F5F5F5E2E2E2F5F5F5E2F5F5F5F5F5F5F5F5F5F5F5F5F5F5F5F5F5F5F5F5F5F5F5F5F5F5F5F5F5F5F5F5F5F5F5F5F5F5F5F5F5F5F5F5F5F5F5F5F5F5F5F5F5F5F5F5F5F5F5F5F5F5F5F5F5F5F5F5F5F5F5F5F5F5F5F5F5F5F5F5F5F5F5F5F5F5F5F5F5F5F5F5F5F5F5
310
F5F5F5F5F5F5F5F5F5F5F5F5F5F5F5F5F5F5F5F5F5F5F5F5F5F5F5F5F5F5F5F5F5F5F5F5F5F5F5F5F5F5F5F5F5F5F5F5F5F5F5F5F5F5F5F5F5F5F5F5F5F5F5F5F5F5F5F5F5F5F5F5F5F5E2F5F5F5E2E2E2F5F5F5E2F5F5F5F5F5F5F5F5F5F5F5F5F5F5F5F5F5F5F5F5F5F5F5F5F5F5F5F5F5F5F5F5F5F5F5F5F5F5F5F5F5F5
310
F5F5F5F5F5F5F5F5F5F5F5F5F5F5F5F5F5F5F5F5F5F5F5F5F5F5F5F5F5F5F5F5F5F5F5F5F5F5F5F5F5F5F5F5F5F5F5F5F5F5F5F5F5F5F5F5F5F5F5F5F5F5F5F5F5F5F5F5F5F5F5F5F5F5F5F5F5F5F5F5F5F5F5F5F5F5F5F5F5F5F5F5F5F5F5F5F5F5F5F5F5F5F5F5F5F5F5F5F5F5F5F5F5F5F5F5F5F5F5F5F5F5F5F5F5F5F5
310
E2F5F5F5E2E2E2F5F5F5E2F5F5F5F5F5F5F5F5F5F5F5F5F5F5F5F5F5F5F5F5F5F5F5F5F5F5F5F5F5F5F5F5F5F5F5F5F5F5F5F5F5F5F5F5F5F5F5F5F5F5F5F5F5F5F5F5F5F5F5F5F5F5F5F5F5F5F5F5F5F5F5F5F5F5F5F5F5F5F5F5F5F5F5F5F5F5F5F5F5F5F5F5F5F5F5F5F5F5F5F5F5F5F5F5F5F5F5F5F5F5F5F5F5F5F5F5
310
F5F5F5F5F5F5F5F5F5F5F5F5F5F5F5F5F5F5F5F5F5F5F5F5F5F5F5F5F5F5F5F5F5F5F5F5F5F5F5F5F5F5F5F5F5F5F5F5F5F5F5F5F5E2F5F5F5E2E2E2F5F5F5E2F5F5F5F5F5F5F5F5F5F5F5F5F5F5F5F5F5F5F5F5F5F5F5F5F5F5F5F5F5F5F5F5F5F5F5F5F5F5F5F5F5F5F5F5F5F5F5F5F5F5F5F5F5F5F5F5F5F5F5F5F5F5F5
310
F5F5F5F5F5F5F5F5F5F5F5F5F5F5F5F5F5F5F5F5F5F5F5F5F5F5F5F5F5F5F5F5F5F5F5F5F5F5F5F5F5F5F5F5F5F5F5F5F5F5F5F5F5F5F5F5F5F5F5F5F5F5F5F5F5F5F5F5F5F5F5F5F5F5F5F5F5F5F5F5F5F5F5F5F5F5F5F5F5F5F5F5F5F5F5F5F5F5F5F5F5F5F5F5F5F5E2F5F5F5E2E2E2F5F5F5E2F5F5F5F5F5F5F5F5F5F5
310
F5F5F5F5F5F5F5F5F5F5F5F5F5F5F5F5F5F5F5F5F5F5F5F5F5F5F5F5F5F5F5F5F5F5F5F5F5F5F5F5F5F5F5F5F5F5F5F5F5F5F5F5F5F5F5F5F5F5F5F5F5F5F5F5F5F5F5F5F5F5F5F5F5F5F5F5F5F5F5F5F5F5F5F5F5F5F5F5F5F5F5F5F5F5F5F5F5F5F5F5F5F5F5F5F5F5F5F5F5F5F5F5F5F5F5F5F5F5F5F5F5F5F5F5F5F5F5
310
F5F5F5F5F5F5F5F5F5F5F5F5F5F5F5F5F5F5F5F5F5F5F5F5F5F5F5F5F5F5F5F5E2F5F5F5E2E2E2F5F5F5E2E2E2E2E2E2E2E2F5F5F5F5F5F5F5F5F5E2E2E2E2E2E2E2E2E2E2E2E2E2E2E2E2F5F5F5F5F5F5F5F5E2E2E2E2E2E2E2E2E2E2E2E2E2E2E2E2F5F5F5F5F5F5F5F5F5E2E2E2E2E2E2E2E2E2E2E2E2E2E2E2F5F5F5F5
310
F5F5F5F5F5E2E2E2E2E2E2E2E2E2E2E2E2E2E2E2F5F5F5F5F5F5F5F5F5E2E2E2E2E2E2E2E2E2E2E2E2E2E2E2E2F5F5F5F5F5F5F5F5E2E2E2E2E2E2E2E2E2E2E2E2E2E2E2E2F5F5F5F5F5F5F5F5F5E2E2E2E2E2E2E2E2F5F5F5E2E2E2F5F5F5F5F5F5F5F5F5F5F5F5F5F5F5F5F5F5F5F5F5F5F5F5F5F5F5F5F5F5F5F5F5F5F5
310
F5F5F5F5F5F5F5F5F5F5F5F5F5F5F5F5F5F5F5F5F5F5F5F5F5F5F5F5F5F5F5F5F5F5F5F5F5F5F5F5F5F5F5F5F5F5F5F5F5F5F5F5F5F5F5F5F5F5F5F5F5F5F5F5F5F5F5F5F5F5F5F5F5F5F5F5F5F5F5F5F5F5F5F5F5F5F5F5F5F5F5F5F5F5F5F5F5F5F5F5F5F5F5F5F5F5F5F5F5F5F5F5F5F5F5F5F5F5F5F5F5F5F5F5F5F5F5
310
F5F5F5F5F5F5F5F5F5F5F5F5F5F5F5E2E2E2F5F5F5F5F5F5F5F5F5F5F5F5F5F5F5F5F5F5F5F5F5F5F5F5F5F5F5F5F5F5F5F5F5F5F5F5F5F5F5F5F5F5F5F5F5F5F5F5F5F5F5F5F5F5F5F5F5F5F5F5F5F5F5F5F5F5F5F5F5F5F5F5F5F5F5F5F5F5F5F5F5F5F5F5F5F5F5F5F5F5F5F5F5F5F5F5F5F5F5F5F5F5F5F5F5F5F5F5F5
310
F5F5F5F5F5F5F5F5F5F5F5F5F5F5F5F5F5F5F5F5F5F5F5F5F5F5F5F5F5F5F5F5F5F5F5F5F5F5F5F5F5F5F5F5F5F5F5F5F5F5F5F5F5F5F5F5F5F5F5F5F5F5F5F5F5F5F5F5E2EFE2F5F5F5F5F5F5F5F5F5F5F5F5F5F5F5F5F5F5F5F5F5F5F5F5F5F5F5F5F5F5F5F5F5F5F5F5F5F5F5F5F5F5F5F5F5F5F5F5F5F5F5F5F5F5F5F5
310
F5F5F5F5F5F5F5F5F5F5F5F5F5F5F5F5F5F5F5F5F5F5F5F5F5F5F5F5F5F5F5F5F5F5F5F5F5F5F5F5F5F5F5F5F5F5F5F5F5F5F5F5F5F5F5F5F5F5F5F5F5F5F5F5F5F5F5F5F5F5F5F5F5F5F5F5F5F5F5F5F5F5F5F5F5F5F5F5F5F5F5F5F5F5F5F5F5F5F5F5F5F5F5F5F5F5F5F5F5F5F5F5F5F5F5F5F5F5F5F5F5E2EFE2E2E2E2
310
E2E2E2E2E2E2E2E2E2E2E2E2E2E2E2E2E2E2E2E2E2E2E2E2E2E2E2E2E2E2E2E2E2E2E2E2E2E2E2E2E2E2E2E2E2E2E2E2E2E2E2E2E2E2E2E2E2E2E2E2E2E2E2E2E2E2E2E2E2E2E2E2E2E2E2E2E2E2E2E2E2E2E2E2E2E2E2E2E2E2E2E2E2E2E2E2E2E2E2E2E2E2E2E2E2E2E2E2E2E2E2E2E2E2E2E2E2E2E2E2E2E2E2E2E2E2E2
310
E2E2E2E2E2E2E2E2E2E2E2E2E2E2E2E2E2E2E2E2E2E2E2E2E2E2E2E2E2E2E2E2E2E2E2E2E2E2E2E2E2E2E2E2E2E2E2E2EF
  0
XRECORD
  5
419
102
{ACAD_REACTORS
330
418
102
}
330
418
100
AcDbXrecord
280
     1
102
SHADEPLOT
 70
     0
102
SHADEPLOTRESLEVEL
 70
     2
102
SHADEPLOTCUSTOMDPI
 70
   300
  0
XRECORD
  5
413
102
{ACAD_REACTORS
330
412
102
}
330
412
100
AcDbXrecord
280
     1
102
MATERIAL
148
0.0
149
0.0
149
0.0
 93
        0
 94
       63
282
     0
 72
     1
 77
     1
171
     1
175
     1
179
     1
273
     0
  0
XRECORD
  5
411
102
{ACAD_REACTORS
330
410
102
}
330
410
100
AcDbXrecord
280
     1
102
MATERIAL
148
0.0
149
0.0
149
0.0
 93
        0
 94
       63
282
     0
 72
     1
 77
     1
171
     1
175
     1
179
     1
273
     0
  0
XRECORD
  5
415
102
{ACAD_REACTORS
330
414
102
}
330
414
100
AcDbXrecord
280
     1
102
MATERIAL
148
0.0
149
0.0
149
0.0
 93
        0
 94
       63
282
     0
 72
     1
 77
     1
171
     1
175
     1
179
     1
273
     0
  0
XRECORD
  5
417
102
{ACAD_REACTORS
330
416
102
}
330
416
100
AcDbXrecord
280
     1
102
ACAD_ROUNDTRIP_PRE2007_TABLESTYLE
 90
      512
 91
        0
  1

 92
      512
 93
        0
  2

 94
      512
 95
        0
  3

  0
ENDSEC
  0
EOF
