999
DXF file: C:\Users\sesa63760\Dev\_Creo\CAD\MCADPP0002984_3D-CAD\drw0001_1.dxf
999
Pro/ENGINEER 2019471 by Parametric Technology Corporation
  0
SECTION
  2
HEADER
  9
$ACADVER
  1
AC1024
  9
$DWGCODEPAGE
  3
ANSI_1252
  9
$EXTMAX
 10
112.4046713607
 20
158.9723209244
 30
0.0
  9
$EXTMIN
 10
0.0
 20
0.0
 30
0.0
  9
$LIMMIN
 10
0.0
 20
0.0
  9
$LIMMAX
 10
112.4046713607
 20
158.9723209244
  9
$VIEWCTR
 10
56.2023356803
 20
79.4861604622
  9
$VIEWSIZE
 40
158.9723209244
  9
$CLAYER
  8
0
  9
$LTSCALE
 40
10.3626401788
  9
$CELTYPE
  6
BYLAYER
  9
$DIMSCALE
 40
1.0
  9
$DIMASZ
 40
1.3381508495
  9
$DIMEXO
 40
1.0
  9
$DIMDLI
 40
7.1596423053
  9
$DIMEXE
 40
1.0
  9
$DIMCEN
 40
1.6957047565
  9
$DIMLFAC
 40
1.0
  9
$DIMBLK
  1
_FILLED
  9
$DIMALT
 70
0
  9
$DIMALTF
 40
0.0393700787
  9
$DIMTXT
 40
1.8734111893
  9
$DIMTOL
 70
1
  9
$DIMLIM
 70
0
  9
$DIMTFAC
 40
1.0
  9
$DIMTP
 40
0.01
  9
$DIMTM
 40
0.01
  9
$DIMGAP
 40
0.625
  9
$DIMDSEP
 70
46
  9
$AUNITS
 70
0
  9
$PDMODE
 70
3
  9
$PDSIZE
 40
0.3125
  9
$HANDSEED
  5
357
  9
$TILEMODE
 70
1
  9
$MEASUREMENT
 70
1
  9
$INSUNITS
 70
4
  0
ENDSEC
  0
SECTION
  2
CLASSES
  0
CLASS
  1
ACDBDICTIONARYWDFLT
  2
AcDbDictionaryWithDefault
  3
AutoCAD 2000
 90
0
 91
1
280
0
281
0
  0
CLASS
  1
ACDBPLACEHOLDER
  2
AcDbPlaceHolder
  3
AutoCAD 2000
 90
0
 91
1
280
0
281
0
  0
CLASS
  1
LAYOUT
  2
AcDbLayout
  3
AutoCAD 2000
 90
0
 91
0
280
0
281
0
  0
ENDSEC
  0
SECTION
  2
TABLES
  0
TABLE
  2
VPORT
  5
8
100
AcDbSymbolTable
 70
2
  0
VPORT
  5
1F4
100
AcDbSymbolTableRecord
100
AcDbViewportTableRecord
  2
*ACTIVE
 70
0
 10
0.0
 20
0.0
 11
1.0
 21
1.0
 12
56.2023356803
 22
79.4861604622
 13
0.0
 23
0.0
 14
1.0
 24
1.0
 15
0.0
 25
0.0
 16
0.0
 26
0.0
 36
1.0
 17
0.0
 27
0.0
 37
0.0
 40
158.9723209244
 41
0.7070707071
 42
50.0
 43
0.0
 44
0.0
 50
0.0
 51
0.0
 71
0
 72
100
 73
1
 74
1
 75
0
 76
0
 77
0
 78
0
  0
ENDTAB
  0
TABLE
  2
LTYPE
  5
5
100
AcDbSymbolTable
 70
6
  0
LTYPE
  5
14
100
AcDbSymbolTableRecord
100
AcDbLinetypeTableRecord
  2
BYBLOCK
 70
0
  3

 72
65
 73
0
 40
0.0
  0
LTYPE
  5
15
100
AcDbSymbolTableRecord
100
AcDbLinetypeTableRecord
  2
BYLAYER
 70
0
  3

 72
65
 73
0
 40
0.0
  0
LTYPE
  5
16
100
AcDbSymbolTableRecord
100
AcDbLinetypeTableRecord
  2
CONTINUOUS
 70
64
  3
Solid line
 72
65
 73
0
 40
0.0
  0
LTYPE
  5
1F5
100
AcDbSymbolTableRecord
100
AcDbLinetypeTableRecord
  2
CENTER
 70
64
  3
____ _ ____ _ ____ _ ____ _ ____ _ ____ _ ____
 72
65
 73
4
 40
0.6
 49
0.375
 74
0
 49
-0.075
 74
0
 49
0.075
 74
0
 49
-0.075
 74
0
  0
LTYPE
  5
1F6
100
AcDbSymbolTableRecord
100
AcDbLinetypeTableRecord
  2
HIDDEN
 70
64
  3
- - - - - - - - - - - - - - - - - - - -
 72
65
 73
2
 40
0.2
 49
0.1
 74
0
 49
-0.1
 74
0
  0
LTYPE
  5
1F7
100
AcDbSymbolTableRecord
100
AcDbLinetypeTableRecord
  2
PHANTOM
 70
64
  3
_____ _ _ _____ _ _ _____ _ _ _____
 72
65
 73
6
 40
0.8
 49
0.45
 74
0
 49
-0.05
 74
0
 49
0.1
 74
0
 49
-0.05
 74
0
 49
0.1
 74
0
 49
-0.05
 74
0
  0
LTYPE
  5
1F8
100
AcDbSymbolTableRecord
100
AcDbLinetypeTableRecord
  2
DOT
 70
64
  3
. . . . . . . . . . . . . . . . . . . .
 72
65
 73
2
 40
0.2
 49
0.1
 74
0
 49
-0.1
 74
0
  0
LTYPE
  5
1F9
100
AcDbSymbolTableRecord
100
AcDbLinetypeTableRecord
  2
DASHED
 70
64
  3
- - - - - - - - - - - - - - - - - - - -
 72
65
 73
2
 40
0.2
 49
0.1
 74
0
 49
-0.1
 74
0
  0
ENDTAB
  0
TABLE
  2
LAYER
  5
2
100
AcDbSymbolTable
 70
36
  0
LAYER
  5
10
100
AcDbSymbolTableRecord
100
AcDbLayerTableRecord
  2
0
 70
0
 62
7
  6
CONTINUOUS
370
-3
390
F
  0
LAYER
  5
1FA
100
AcDbSymbolTableRecord
100
AcDbLayerTableRecord
  2
DEFAULT_1
 70
0
 62
7
  6
CENTER
370
-3
390
F
  0
LAYER
  5
1FB
100
AcDbSymbolTableRecord
100
AcDbLayerTableRecord
  2
DEFAULT_2
 70
0
 62
8
  6
HIDDEN
370
-3
390
F
  0
LAYER
  5
1FC
100
AcDbSymbolTableRecord
100
AcDbLayerTableRecord
  2
DEFAULT_3
 70
0
 62
7
  6
PHANTOM
370
-3
390
F
  0
LAYER
  5
1FD
100
AcDbSymbolTableRecord
100
AcDbLayerTableRecord
  2
00_COMPONENTS
 70
0
 62
7
  6
CONTINUOUS
370
-3
390
F
  0
LAYER
  5
1FE
100
AcDbSymbolTableRecord
100
AcDbLayerTableRecord
  2
01_1_DEFAULT_DATUMS
 70
0
 62
7
  6
CONTINUOUS
370
-3
390
F
  0
LAYER
  5
1FF
100
AcDbSymbolTableRecord
100
AcDbLayerTableRecord
  2
01_PLANES
 70
0
 62
7
  6
CONTINUOUS
370
-3
390
F
  0
LAYER
  5
200
100
AcDbSymbolTableRecord
100
AcDbLayerTableRecord
  2
02_COORD_SYS
 70
0
 62
7
  6
CONTINUOUS
370
-3
390
F
  0
LAYER
  5
201
100
AcDbSymbolTableRecord
100
AcDbLayerTableRecord
  2
03_AXES
 70
0
 62
7
  6
CONTINUOUS
370
-3
390
F
  0
LAYER
  5
202
100
AcDbSymbolTableRecord
100
AcDbLayerTableRecord
  2
04_POINTS
 70
0
 62
7
  6
CONTINUOUS
370
-3
390
F
  0
LAYER
  5
203
100
AcDbSymbolTableRecord
100
AcDbLayerTableRecord
  2
05_CURVES
 70
0
 62
7
  6
CONTINUOUS
370
-3
390
F
  0
LAYER
  5
204
100
AcDbSymbolTableRecord
100
AcDbLayerTableRecord
  2
06_SURFS
 70
0
 62
7
  6
CONTINUOUS
370
-3
390
F
  0
LAYER
  5
205
100
AcDbSymbolTableRecord
100
AcDbLayerTableRecord
  2
07_COSMETICS
 70
0
 62
7
  6
CONTINUOUS
370
-3
390
F
  0
LAYER
  5
206
100
AcDbSymbolTableRecord
100
AcDbLayerTableRecord
  2
10_NOTES
 70
0
 62
7
  6
CONTINUOUS
370
-3
390
F
  0
LAYER
  5
207
100
AcDbSymbolTableRecord
100
AcDbLayerTableRecord
  2
11_NOTES_PUB
 70
0
 62
7
  6
CONTINUOUS
370
-3
390
F
  0
LAYER
  5
208
100
AcDbSymbolTableRecord
100
AcDbLayerTableRecord
  2
13_REF_GTOL
 70
0
 62
7
  6
CONTINUOUS
370
-3
390
F
  0
LAYER
  5
209
100
AcDbSymbolTableRecord
100
AcDbLayerTableRecord
  2
16_MISC
 70
0
 62
7
  6
CONTINUOUS
370
-3
390
F
  0
LAYER
  5
20A
100
AcDbSymbolTableRecord
100
AcDbLayerTableRecord
  2
17_NO_PRINT
 70
0
 62
7
  6
CONTINUOUS
370
-3
390
F
  0
LAYER
  5
20B
100
AcDbSymbolTableRecord
100
AcDbLayerTableRecord
  2
18_DATUM_CAMS_JOINTS
 70
0
 62
7
  6
CONTINUOUS
370
-3
390
F
  0
LAYER
  5
20C
100
AcDbSymbolTableRecord
100
AcDbLayerTableRecord
  2
19_DATUM_FUNCTIONAL
 70
0
 62
7
  6
CONTINUOUS
370
-3
390
F
  0
LAYER
  5
20D
100
AcDbSymbolTableRecord
100
AcDbLayerTableRecord
  2
20_DATUM_KINEMATIC_SCHEME
 70
0
 62
7
  6
CONTINUOUS
370
-3
390
F
  0
ENDTAB
  0
TABLE
  2
STYLE
  5
3
100
AcDbSymbolTable
 70
1
  0
STYLE
  5
11
100
AcDbSymbolTableRecord
100
AcDbTextStyleTableRecord
  2
STANDARD
 70
0
 40
0.0
 41
0.8
 50
0.0
 71
0
 42
0.2
  3
txt
  4

  0
STYLE
  5
20E
100
AcDbSymbolTableRecord
100
AcDbTextStyleTableRecord
  2
TEXTSTYLE_1
 70
0
 40
0.0
 41
0.8
 50
0.0
 71
0
 42
0.2
  3
gdt
  4

  0
ENDTAB
  0
TABLE
  2
VIEW
  5
6
100
AcDbSymbolTable
 70
0
  0
ENDTAB
  0
TABLE
  2
UCS
  5
7
100
AcDbSymbolTable
 70
0
  0
ENDTAB
  0
TABLE
  2
APPID
  5
9
100
AcDbSymbolTable
 70
1
  0
APPID
  5
20F
100
AcDbSymbolTableRecord
100
AcDbRegAppTableRecord
  2
ACAD
 70
0
  0
ENDTAB
  0
TABLE
  2
BLOCK_RECORD
  5
1
100
AcDbSymbolTable
 70
0
  0
BLOCK_RECORD
  5
210
100
AcDbSymbolTableRecord
100
AcDbBlockTableRecord
  2
*Model_Space
  0
BLOCK_RECORD
  5
211
100
AcDbSymbolTableRecord
100
AcDbBlockTableRecord
  2
*Paper_Space
  0
BLOCK_RECORD
  5
212
100
AcDbSymbolTableRecord
100
AcDbBlockTableRecord
  2
_FILLED
  0
ENDTAB
  0
TABLE
  2
DIMSTYLE
  5
A
100
AcDbSymbolTable
 70
1
100
AcDbDimStyleTable
 71
0
  0
DIMSTYLE
105
213
100
AcDbSymbolTableRecord
100
AcDbDimStyleTableRecord
  2
STANDARD
 70
0
  3

  4

 40
1.0
 41
1.3381508495
 42
1.0
 43
0.38
 44
1.0
 45
0.0
 46
0.0
 47
0.01
 48
0.01
140
1.8734111893
141
0.09
142
0.0
143
25.4
144
1.0
145
0.0
146
1.0
147
0.625
 71
1
 72
0
 73
0
 74
0
 75
0
 76
0
 77
1
 78
8
 79
2
170
0
171
1
172
0
173
0
174
0
175
0
176
0
177
0
178
0
270
2
179
2
271
2
272
2
273
2
274
2
275
0
280
0
281
0
282
0
283
1
284
8
285
0
286
0
287
3
288
0
340
11
278
46
341
212
342
212
343
212
344
212
  0
ENDTAB
  0
ENDSEC
  0
SECTION
  2
BLOCKS
  0
BLOCK
  5
20
100
AcDbEntity
  8
0
100
AcDbBlockBegin
  2
*Model_Space
 70
0
 10
0.0
 20
0.0
 30
0.0
  3
*Model_Space
  1

  0
ENDBLK
  5
21
100
AcDbEntity
  8
0
100
AcDbBlockEnd
  0
BLOCK
  5
1C
100
AcDbEntity
  8
0
100
AcDbBlockBegin
  2
*Paper_Space
 70
0
 10
0.0
 20
0.0
 30
0.0
  3
*Paper_Space
  1

  0
ENDBLK
  5
1D
100
AcDbEntity
  8
0
100
AcDbBlockEnd
  0
BLOCK
  5
214
100
AcDbEntity
  8
0
100
AcDbBlockBegin
  2
_FILLED
 70
64
 10
0.0
 20
0.0
  3
_FILLED
  1

  0
SOLID
  5
215
100
AcDbEntity
  8
0
  6
BYBLOCK
 62
0
100
AcDbTrace
 10
0.0
 20
0.0
 11
-1.0
 21
0.25
 12
-1.0
 22
-0.25
 13
-1.0
 23
-0.25
  0
ENDBLK
  5
216
100
AcDbEntity
  8
0
  6
BYBLOCK
 62
0
100
AcDbBlockEnd
  0
ENDSEC
  0
SECTION
  2
ENTITIES
  0
LINE
  5
217
100
AcDbEntity
  8
0
100
AcDbLine
 62
7
  6
CONTINUOUS
 10
13.0402357459
 20
51.0596542313
 11
14.1226086022
 21
50.4347601083
  0
LINE
  5
218
100
AcDbEntity
  8
0
100
AcDbLine
 62
7
  6
CONTINUOUS
 10
15.797963674
 20
49.4675152887
 11
48.4664329758
 21
30.6067924298
  0
LINE
  5
219
100
AcDbEntity
  8
0
100
AcDbLine
 62
7
  6
CONTINUOUS
 10
50.1417880476
 20
29.6395476101
 11
51.2241609039
 21
29.0146534872
  0
LINE
  5
21A
100
AcDbEntity
  8
0
100
AcDbLine
 62
7
  6
CONTINUOUS
 10
50.1417880476
 20
30.9979501339
 11
49.521343536
 21
31.356155836
  0
LINE
  5
21B
100
AcDbEntity
  8
0
100
AcDbLine
 62
7
  6
CONTINUOUS
 10
15.797963674
 20
50.8259178125
 11
14.8729670038
 21
51.3599528075
  0
LINE
  5
21C
100
AcDbEntity
  8
0
100
AcDbLine
 62
7
  6
CONTINUOUS
 10
14.4898092105
 20
52.206857181
 11
15.4797628257
 21
51.6353201246
  0
LINE
  5
21D
100
AcDbEntity
  8
0
100
AcDbLine
 62
7
  6
CONTINUOUS
 10
49.1381857427
 20
32.2030602095
 11
50.1281393579
 21
31.6315231531
  0
LINE
  5
21E
100
AcDbEntity
  8
0
100
AcDbLine
 62
7
  6
CONTINUOUS
 10
13.0402357459
 20
87.8022630021
 11
13.0402357459
 21
51.0596542313
  0
LINE
  5
21F
100
AcDbEntity
  8
0
100
AcDbLine
 62
7
  6
CONTINUOUS
 10
14.1226086022
 20
50.4347601083
 11
14.1226086022
 21
57.5791562582
  0
LINE
  5
220
100
AcDbEntity
  8
0
100
AcDbLine
 62
7
  6
CONTINUOUS
 10
14.4898092105
 20
52.206857181
 11
14.4898092105
 21
53.7563060081
  0
LINE
  5
221
100
AcDbEntity
  8
0
100
AcDbLine
 62
7
  6
CONTINUOUS
 10
15.183264358
 20
51.0471263391
 11
15.183264358
 21
51.1808065994
  0
LINE
  5
222
100
AcDbEntity
  8
0
100
AcDbLine
 62
7
  6
CONTINUOUS
 10
15.4797628257
 20
51.6353201246
 11
15.4797628257
 21
53.1847689518
  0
LINE
  5
223
100
AcDbEntity
  8
0
100
AcDbLine
 62
7
  6
CONTINUOUS
 10
15.797963674
 20
56.6119114385
 11
15.797963674
 21
49.4675152887
  0
LINE
  5
224
100
AcDbEntity
  8
0
100
AcDbLine
 62
7
  6
CONTINUOUS
 10
55.3604004032
 20
126.998039313
 11
40.8294165484
 21
118.4621927483
  0
LINE
  5
225
100
AcDbEntity
  8
0
100
AcDbLine
 62
7
  6
CONTINUOUS
 10
55.3604004032
 20
126.998039313
 11
61.1586518683
 21
130.3456413748
  0
LINE
  5
226
100
AcDbEntity
  8
0
100
AcDbLine
 62
7
  6
CONTINUOUS
 10
50.1281393579
 20
33.1809719803
 11
49.1381857427
 21
33.7525090366
  0
LINE
  5
227
100
AcDbEntity
  8
0
100
AcDbLine
 62
7
  6
CONTINUOUS
 10
14.4898092105
 20
53.7563060081
 11
15.4797628257
 21
53.1847689518
  0
LINE
  5
228
100
AcDbEntity
  8
0
100
AcDbLine
 62
7
  6
CONTINUOUS
 10
49.5270887316
 20
34.7137325542
 11
49.6516320491
 21
34.641829063
  0
LINE
  5
229
100
AcDbEntity
  8
0
100
AcDbLine
 62
7
  6
CONTINUOUS
 10
56.6287927378
 20
32.543251714
 11
56.9517019853
 21
32.3568241906
  0
LINE
  5
22A
100
AcDbEntity
  8
0
100
AcDbLine
 62
7
  6
CONTINUOUS
 10
18.7677768273
 20
90.9457443445
 11
18.7677768273
 21
91.2042879781
  0
LINE
  5
22B
100
AcDbEntity
  8
0
100
AcDbLine
 62
7
  6
CONTINUOUS
 10
27.2884967076
 20
51.1864227549
 11
21.6316189065
 21
54.4523487911
  0
LINE
  5
22C
100
AcDbEntity
  8
0
100
AcDbLine
 62
7
  6
CONTINUOUS
 10
21.6316189065
 20
55.1055507248
 11
27.2884967076
 21
51.8396246886
  0
LINE
  5
22D
100
AcDbEntity
  8
0
100
AcDbLine
 62
7
  6
CONTINUOUS
 10
50.1901965753
 20
113.0578661421
 11
63.4483945842
 21
120.8460467017
  0
LINE
  5
22E
100
AcDbEntity
  8
0
100
AcDbLine
 62
7
  6
CONTINUOUS
 10
40.8294794069
 20
106.1234651244
 11
26.4044982693
 21
97.6498861344
  0
LINE
  5
22F
100
AcDbEntity
  8
0
100
AcDbLine
 62
7
  6
CONTINUOUS
 10
66.4620230878
 20
120.5886594669
 11
72.2602745531
 21
123.9362615288
  0
LINE
  5
230
100
AcDbEntity
  8
0
100
AcDbLine
 62
7
  6
CONTINUOUS
 10
62.876389686
 20
35.7177205382
 11
64.5884234272
 21
34.7292997579
  0
LINE
  5
231
100
AcDbEntity
  8
0
100
AcDbLine
 62
7
  6
CONTINUOUS
 10
27.2884967076
 20
57.2285406417
 11
21.6316189065
 21
60.4944666779
  0
LINE
  5
232
100
AcDbEntity
  8
0
100
AcDbLine
 62
7
  6
CONTINUOUS
 10
21.6316189065
 20
61.1476686116
 11
27.2884967076
 21
57.8817425754
  0
LINE
  5
233
100
AcDbEntity
  8
0
100
AcDbLine
 62
7
  6
CONTINUOUS
 10
27.2884967076
 20
59.5147474097
 11
21.6316189065
 21
62.7806734458
  0
LINE
  5
234
100
AcDbEntity
  8
0
100
AcDbLine
 62
7
  6
CONTINUOUS
 10
21.6316189065
 20
63.4338753795
 11
27.2884967076
 21
60.1679493434
  0
LINE
  5
235
100
AcDbEntity
  8
0
100
AcDbLine
 62
7
  6
CONTINUOUS
 10
68.2334274131
 20
36.7970002434
 11
79.0133417064
 21
30.573354622
  0
LINE
  5
236
100
AcDbEntity
  8
0
100
AcDbLine
 62
7
  6
CONTINUOUS
 10
26.4044982693
 20
95.6902803333
 11
26.4044982693
 21
97.6498861344
  0
LINE
  5
237
100
AcDbEntity
  8
0
100
AcDbLine
 62
7
  6
CONTINUOUS
 10
66.462023088
 20
120.5886594671
 11
65.189236181
 21
119.8409940745
  0
LINE
  5
238
100
AcDbEntity
  8
0
100
AcDbLine
 62
7
  6
CONTINUOUS
 10
26.4044982693
 20
95.6902803333
 11
18.7677768273
 21
91.2042879781
  0
LINE
  5
239
100
AcDbEntity
  8
0
100
AcDbLine
 62
7
  6
CONTINUOUS
 10
72.2602745531
 20
122.2624315737
 11
65.189236181
 21
118.179990035
  0
LINE
  5
23A
100
AcDbEntity
  8
0
100
AcDbLine
 62
7
  6
CONTINUOUS
 10
50.1901715414
 20
109.2754634673
 11
63.448368666
 21
116.9300412503
  0
LINE
  5
23B
100
AcDbEntity
  8
0
100
AcDbLine
 62
7
  6
CONTINUOUS
 10
18.6263560581
 20
91.0273918166
 11
13.0402357459
 21
87.8022630021
  0
LINE
  5
23C
100
AcDbEntity
  8
0
100
AcDbLine
 62
7
  6
CONTINUOUS
 10
70.7753441303
 20
120.9968308736
 11
63.7043057582
 21
116.9143893349
  0
LINE
  5
23D
100
AcDbEntity
  8
0
100
AcDbLine
 62
7
  6
CONTINUOUS
 10
27.2884967076
 20
65.5568652964
 11
21.6316189065
 21
68.8227913326
  0
LINE
  5
23E
100
AcDbEntity
  8
0
100
AcDbLine
 62
7
  6
CONTINUOUS
 10
21.6316189065
 20
69.4759932663
 11
27.2884967076
 21
66.2100672301
  0
LINE
  5
23F
100
AcDbEntity
  8
0
100
AcDbLine
 62
7
  6
CONTINUOUS
 10
32.2437556216
 20
92.3190597963
 11
32.2437556216
 21
94.2786655974
  0
LINE
  5
240
100
AcDbEntity
  8
0
100
AcDbLine
 62
7
  6
CONTINUOUS
 10
33.3044202094
 20
91.7066986645
 11
33.3044202094
 21
93.6663044656
  0
LINE
  5
241
100
AcDbEntity
  8
0
100
AcDbLine
 62
7
  6
CONTINUOUS
 10
34.3559766004
 20
91.0995960336
 11
34.3559766004
 21
93.0592018347
  0
LINE
  5
242
100
AcDbEntity
  8
0
100
AcDbLine
 62
7
  6
CONTINUOUS
 10
15.797963674
 20
56.0221085808
 11
14.4898092105
 21
53.7563060081
  0
LINE
  5
243
100
AcDbEntity
  8
0
100
AcDbLine
 62
7
  6
CONTINUOUS
 10
15.4797628257
 20
53.1847689518
 11
15.797963674
 21
53.7359120475
  0
LINE
  5
244
100
AcDbEntity
  8
0
100
AcDbLine
 62
7
  6
CONTINUOUS
 10
32.2437556216
 20
94.2786655974
 11
46.6689253227
 21
102.7523559874
  0
LINE
  5
245
100
AcDbEntity
  8
0
100
AcDbLine
 62
7
  6
CONTINUOUS
 10
47.7296527689
 20
102.1400327303
 11
33.3044202094
 21
93.6663044656
  0
LINE
  5
246
100
AcDbEntity
  8
0
100
AcDbLine
 62
7
  6
CONTINUOUS
 10
34.3559766004
 20
93.0592018347
 11
48.7812091599
 21
101.5329300994
  0
LINE
  5
247
100
AcDbEntity
  8
0
100
AcDbLine
 62
7
  6
CONTINUOUS
 10
49.8418737476
 20
100.9205689676
 11
35.4166411881
 21
92.4468407029
  0
LINE
  5
248
100
AcDbEntity
  8
0
100
AcDbLine
 62
7
  6
CONTINUOUS
 10
73.4977697258
 20
119.4250732811
 11
74.3108603724
 21
119.8945085827
  0
LINE
  5
249
100
AcDbEntity
  8
0
100
AcDbLine
 62
7
  6
CONTINUOUS
 10
32.2437556216
 20
92.3190597963
 11
33.3044202094
 21
92.9314311261
  0
LINE
  5
24A
100
AcDbEntity
  8
0
100
AcDbLine
 62
7
  6
CONTINUOUS
 10
35.4166411881
 20
90.4872349018
 11
35.4166411881
 21
92.4468407029
  0
LINE
  5
24B
100
AcDbEntity
  8
0
100
AcDbLine
 62
7
  6
CONTINUOUS
 10
36.4790741391
 20
89.8738528281
 11
36.4790741391
 21
91.8334586292
  0
LINE
  5
24C
100
AcDbEntity
  8
0
100
AcDbLine
 62
7
  6
CONTINUOUS
 10
37.5397387268
 20
89.2614916963
 11
37.5397387268
 21
91.2210974974
  0
LINE
  5
24D
100
AcDbEntity
  8
0
100
AcDbLine
 62
7
  6
CONTINUOUS
 10
38.5986217844
 20
88.6501591082
 11
38.5986217844
 21
90.6097649093
  0
LINE
  5
24E
100
AcDbEntity
  8
0
100
AcDbLine
 62
7
  6
CONTINUOUS
 10
39.6592863721
 20
88.0377979764
 11
39.6592863721
 21
89.9974037775
  0
LINE
  5
24F
100
AcDbEntity
  8
0
100
AcDbLine
 62
7
  6
CONTINUOUS
 10
36.4790741391
 20
91.8334586292
 11
50.9043066986
 21
100.3071868939
  0
LINE
  5
250
100
AcDbEntity
  8
0
100
AcDbLine
 62
7
  6
CONTINUOUS
 10
76.7151141024
 20
114.6691685264
 11
75.4423271956
 21
113.921503134
  0
LINE
  5
251
100
AcDbEntity
  8
0
100
AcDbLine
 62
7
  6
CONTINUOUS
 10
51.9649712863
 20
99.6948257621
 11
37.5397387268
 21
91.2210974974
  0
LINE
  5
252
100
AcDbEntity
  8
0
100
AcDbLine
 62
7
  6
CONTINUOUS
 10
38.5986217844
 20
90.6097649093
 11
53.0238543439
 21
99.083493174
  0
LINE
  5
253
100
AcDbEntity
  8
0
100
AcDbLine
 62
7
  6
CONTINUOUS
 10
77.1831273138
 20
112.9164744539
 11
63.9249301629
 21
105.128293399
  0
LINE
  5
254
100
AcDbEntity
  8
0
100
AcDbLine
 62
7
  6
CONTINUOUS
 10
54.0845189316
 20
98.4711320422
 11
39.6592863721
 21
89.9974037775
  0
LINE
  5
255
100
AcDbEntity
  8
0
100
AcDbLine
 62
7
  6
CONTINUOUS
 10
80.8855331126
 20
113.9021640587
 11
75.0183953607
 21
110.4556673779
  0
LINE
  5
256
100
AcDbEntity
  8
0
100
AcDbLine
 62
7
  6
CONTINUOUS
 10
34.3559766004
 20
91.0995960336
 11
35.4166411881
 21
91.7119673634
  0
LINE
  5
257
100
AcDbEntity
  8
0
100
AcDbLine
 62
7
  6
CONTINUOUS
 10
76.7151141026
 20
114.6691685265
 11
82.5133655678
 21
118.0167705883
  0
LINE
  5
258
100
AcDbEntity
  8
0
100
AcDbLine
 62
7
  6
CONTINUOUS
 10
36.4790741391
 20
89.8738528281
 11
37.5397387268
 21
90.486224158
  0
LINE
  5
259
100
AcDbEntity
  8
0
100
AcDbLine
 62
7
  6
CONTINUOUS
 10
40.7173550772
 20
87.4269355442
 11
40.7173550772
 21
89.3865413454
  0
LINE
  5
25A
100
AcDbEntity
  8
0
100
AcDbLine
 62
7
  6
CONTINUOUS
 10
40.8294165484
 20
106.1234288333
 11
40.8294165484
 21
118.4621927483
  0
LINE
  5
25B
100
AcDbEntity
  8
0
100
AcDbLine
 62
7
  6
CONTINUOUS
 10
41.7780196649
 20
86.8145744125
 11
41.7780196649
 21
88.7741802136
  0
LINE
  5
25C
100
AcDbEntity
  8
0
100
AcDbLine
 62
7
  6
CONTINUOUS
 10
42.8461236982
 20
86.197918212
 11
42.8461236982
 21
88.1575240131
  0
LINE
  5
25D
100
AcDbEntity
  8
0
100
AcDbLine
 62
7
  6
CONTINUOUS
 10
43.9067882859
 20
85.5855570802
 11
43.9067882859
 21
87.5451628813
  0
LINE
  5
25E
100
AcDbEntity
  8
0
100
AcDbLine
 62
7
  6
CONTINUOUS
 10
87.2506241209
 20
117.0875241153
 11
85.8365241418
 21
116.2568480531
  0
LINE
  5
25F
100
AcDbEntity
  8
0
100
AcDbLine
 62
7
  6
CONTINUOUS
 10
40.7173550772
 20
89.3865413454
 11
55.1425876367
 21
97.86026961
  0
LINE
  5
260
100
AcDbEntity
  8
0
100
AcDbLine
 62
7
  6
CONTINUOUS
 10
56.2032522244
 20
97.2479084782
 11
41.7780196649
 21
88.7741802136
  0
LINE
  5
261
100
AcDbEntity
  8
0
100
AcDbLine
 62
7
  6
CONTINUOUS
 10
42.8461236982
 20
88.1575240131
 11
57.2713562577
 21
96.6312522777
  0
LINE
  5
262
100
AcDbEntity
  8
0
100
AcDbLine
 62
7
  6
CONTINUOUS
 10
58.3320208454
 20
96.018891146
 11
43.9067882859
 21
87.5451628813
  0
LINE
  5
263
100
AcDbEntity
  8
0
100
AcDbLine
 62
7
  6
CONTINUOUS
 10
38.5986217844
 20
88.6501591082
 11
39.6592863721
 21
89.2625304381
  0
LINE
  5
264
100
AcDbEntity
  8
0
100
AcDbLine
 62
7
  6
CONTINUOUS
 10
40.7173550772
 20
87.4269355442
 11
41.7780196649
 21
88.0393068741
  0
LINE
  5
265
100
AcDbEntity
  8
0
100
AcDbLine
 62
7
  6
CONTINUOUS
 10
51.2241607626
 20
65.7572623396
 11
13.0402351243
 21
87.802263361
  0
LINE
  5
266
100
AcDbEntity
  8
0
100
AcDbLine
 62
7
  6
CONTINUOUS
 10
46.6689253227
 20
102.7523559874
 11
46.6690359874
 21
101.5170009447
  0
LINE
  5
267
100
AcDbEntity
  8
0
100
AcDbLine
 62
7
  6
CONTINUOUS
 10
48.4664329758
 20
30.6067924298
 11
48.4664329758
 21
37.7511885797
  0
LINE
  5
268
100
AcDbEntity
  8
0
100
AcDbLine
 62
7
  6
CONTINUOUS
 10
42.8461236982
 20
86.197918212
 11
43.9067882859
 21
86.8102895418
  0
LINE
  5
269
100
AcDbEntity
  8
0
100
AcDbLine
 62
7
  6
CONTINUOUS
 10
21.0422820491
 20
69.5985876841
 11
19.9816262933
 21
68.9862214533
  0
LINE
  5
26A
100
AcDbEntity
  8
0
100
AcDbLine
 62
7
  6
CONTINUOUS
 10
56.8102815551
 20
68.9823908768
 11
18.6263541932
 21
91.0273928933
  0
LINE
  5
26B
100
AcDbEntity
  8
0
100
AcDbLine
 62
7
  6
CONTINUOUS
 10
18.7677768273
 20
91.2042879781
 11
56.9517019853
 21
69.1592872341
  0
LINE
  5
26C
100
AcDbEntity
  8
0
100
AcDbLine
 62
7
  6
CONTINUOUS
 10
48.7812091599
 20
101.5329300994
 11
48.7812829326
 21
100.2975524353
  0
LINE
  5
26D
100
AcDbEntity
  8
0
100
AcDbLine
 62
7
  6
CONTINUOUS
 10
49.1381857427
 20
32.2030602095
 11
49.1381857427
 21
33.7525090366
  0
LINE
  5
26E
100
AcDbEntity
  8
0
100
AcDbLine
 62
7
  6
CONTINUOUS
 10
49.2239752987
 20
82.5157471754
 11
49.2239752987
 21
84.4753529765
  0
LINE
  5
26F
100
AcDbEntity
  8
0
100
AcDbLine
 62
7
  6
CONTINUOUS
 10
49.5270887316
 20
34.4261125119
 11
49.5270887316
 21
38.0370265263
  0
LINE
  5
270
100
AcDbEntity
  8
0
100
AcDbLine
 62
7
  6
CONTINUOUS
 10
50.1281393579
 20
31.6315231531
 11
50.1281393579
 21
33.1809719803
  0
LINE
  5
271
100
AcDbEntity
  8
0
100
AcDbLine
 62
7
  6
CONTINUOUS
 10
50.1417880476
 20
36.78394376
 11
50.1417880476
 21
29.6395476101
  0
LINE
  5
272
100
AcDbEntity
  8
0
100
AcDbLine
 62
7
  6
CONTINUOUS
 10
50.1901917454
 20
113.0578689307
 11
50.1901715413
 21
109.2754498589
  0
LINE
  5
273
100
AcDbEntity
  8
0
100
AcDbLine
 62
7
  6
CONTINUOUS
 10
50.2846398865
 20
81.9033860436
 11
50.2846398865
 21
83.8629918447
  0
LINE
  5
274
100
AcDbEntity
  8
0
100
AcDbLine
 62
7
  6
CONTINUOUS
 10
50.9043066986
 20
100.3071868939
 11
50.9043804713
 21
99.0718092299
  0
LINE
  5
275
100
AcDbEntity
  8
0
100
AcDbLine
 62
7
  6
CONTINUOUS
 10
51.2241609039
 20
29.0146534872
 11
51.2241609039
 21
65.757262258
  0
LINE
  5
276
100
AcDbEntity
  8
0
100
AcDbLine
 62
7
  6
CONTINUOUS
 10
51.3356026544
 20
81.2966261334
 11
51.3356026544
 21
83.2562319345
  0
LINE
  5
277
100
AcDbEntity
  8
0
100
AcDbLine
 62
7
  6
CONTINUOUS
 10
52.2848166597
 20
29.627019718
 11
52.2848172813
 21
30.0352705677
  0
LINE
  5
278
100
AcDbEntity
  8
0
100
AcDbLine
 62
7
  6
CONTINUOUS
 10
52.3962672421
 20
80.6842650016
 11
52.3962672421
 21
82.6438708027
  0
LINE
  5
279
100
AcDbEntity
  8
0
100
AcDbLine
 62
7
  6
CONTINUOUS
 10
53.0238543439
 20
99.083493174
 11
53.0239281166
 21
97.8481155099
  0
LINE
  5
27A
100
AcDbEntity
  8
0
100
AcDbLine
 62
7
  6
CONTINUOUS
 10
49.2239752987
 20
84.4753529765
 11
63.6492078582
 21
92.9490812411
  0
LINE
  5
27B
100
AcDbEntity
  8
0
100
AcDbLine
 62
7
  6
CONTINUOUS
 10
64.709872446
 20
92.3367201094
 11
50.2846398865
 21
83.8629918447
  0
LINE
  5
27C
100
AcDbEntity
  8
0
100
AcDbLine
 62
7
  6
CONTINUOUS
 10
85.6319377265
 20
104.3280744606
 11
91.4990754784
 21
107.7745711414
  0
LINE
  5
27D
100
AcDbEntity
  8
0
100
AcDbLine
 62
7
  6
CONTINUOUS
 10
51.3356026544
 20
83.2562319345
 11
65.7608352139
 21
91.7299601991
  0
LINE
  5
27E
100
AcDbEntity
  8
0
100
AcDbLine
 62
7
  6
CONTINUOUS
 10
97.1502797442
 20
109.7249959808
 11
98.5643797233
 21
110.555672043
  0
LINE
  5
27F
100
AcDbEntity
  8
0
100
AcDbLine
 62
7
  6
CONTINUOUS
 10
85.6437412185
 20
102.7730856615
 11
91.5108789704
 21
106.2195823423
  0
LINE
  5
280
100
AcDbEntity
  8
0
100
AcDbLine
 62
7
  6
CONTINUOUS
 10
66.8214998016
 20
91.1175990674
 11
52.3962672421
 21
82.6438708027
  0
LINE
  5
281
100
AcDbEntity
  8
0
100
AcDbLine
 62
7
  6
CONTINUOUS
 10
22.197316462
 20
69.149395019
 11
21.6316189065
 21
68.8227913326
  0
LINE
  5
282
100
AcDbEntity
  8
0
100
AcDbLine
 62
7
  6
CONTINUOUS
 10
49.2239752987
 20
82.5157471754
 11
50.2846398865
 21
83.1281185052
  0
LINE
  5
283
100
AcDbEntity
  8
0
100
AcDbLine
 62
7
  6
CONTINUOUS
 10
51.3356026544
 20
81.2966261334
 11
52.3962672421
 21
81.9089974632
  0
LINE
  5
284
100
AcDbEntity
  8
0
100
AcDbLine
 62
7
  6
CONTINUOUS
 10
99.3425770263
 20
47.2254936151
 11
100.3928382691
 21
46.6191387214
  0
LINE
  5
285
100
AcDbEntity
  8
0
100
AcDbLine
 62
7
  6
CONTINUOUS
 10
53.4490555263
 20
80.0764511529
 11
53.4490555263
 21
82.036056954
  0
LINE
  5
286
100
AcDbEntity
  8
0
100
AcDbLine
 62
7
  6
CONTINUOUS
 10
54.509720114
 20
79.4640900211
 11
54.509720114
 21
81.4236958222
  0
LINE
  5
287
100
AcDbEntity
  8
0
100
AcDbLine
 62
7
  6
CONTINUOUS
 10
55.1425876367
 20
97.86026961
 11
55.1426614094
 21
96.624891946
  0
LINE
  5
288
100
AcDbEntity
  8
0
100
AcDbLine
 62
7
  6
CONTINUOUS
 10
55.5770177675
 20
78.8478993737
 11
55.5770177675
 21
80.8075051748
  0
LINE
  5
289
100
AcDbEntity
  8
0
100
AcDbLine
 62
7
  6
CONTINUOUS
 10
56.6376823552
 20
78.2355382419
 11
56.6376823552
 21
80.195144043
  0
LINE
  5
28A
100
AcDbEntity
  8
0
100
AcDbLine
 62
7
  6
CONTINUOUS
 10
56.810281216
 20
68.9823910725
 11
56.810281216
 21
32.6480335103
  0
LINE
  5
28B
100
AcDbEntity
  8
0
100
AcDbLine
 62
7
  6
CONTINUOUS
 10
56.9517019853
 20
32.3568241906
 11
56.9517019853
 21
69.1592872341
  0
LINE
  5
28C
100
AcDbEntity
  8
0
100
AcDbLine
 62
7
  6
CONTINUOUS
 10
57.2713562577
 20
96.6312522777
 11
57.2714300304
 21
95.3958746137
  0
LINE
  5
28D
100
AcDbEntity
  8
0
100
AcDbLine
 62
7
  6
CONTINUOUS
 10
53.4490555263
 20
82.036056954
 11
67.8742880858
 21
90.5097852187
  0
LINE
  5
28E
100
AcDbEntity
  8
0
100
AcDbLine
 62
7
  6
CONTINUOUS
 10
79.0133417064
 20
96.4171920042
 11
93.5443255611
 21
104.9530385689
  0
LINE
  5
28F
100
AcDbEntity
  8
0
100
AcDbLine
 62
7
  6
CONTINUOUS
 10
97.1703340861
 20
107.0830424779
 11
98.5844340652
 21
107.9137185401
  0
LINE
  5
290
100
AcDbEntity
  8
0
100
AcDbLine
 62
7
  6
CONTINUOUS
 10
68.9349526735
 20
89.8974240869
 11
54.509720114
 21
81.4236958222
  0
LINE
  5
291
100
AcDbEntity
  8
0
100
AcDbLine
 62
7
  6
CONTINUOUS
 10
55.5770177675
 20
80.8075051748
 11
70.002250327
 21
89.2812334394
  0
LINE
  5
292
100
AcDbEntity
  8
0
100
AcDbLine
 62
7
  6
CONTINUOUS
 10
71.0629149147
 20
88.6688723077
 11
56.6376823552
 21
80.195144043
  0
LINE
  5
293
100
AcDbEntity
  8
0
100
AcDbLine
 62
7
  6
CONTINUOUS
 10
57.7011146818
 20
79.5811849925
 11
72.1263472413
 21
88.0549132572
  0
LINE
  5
294
100
AcDbEntity
  8
0
100
AcDbLine
 62
7
  6
CONTINUOUS
 10
93.5443255611
 20
104.9530385689
 11
99.3425770263
 21
108.3006406307
  0
LINE
  5
295
100
AcDbEntity
  8
0
100
AcDbLine
 62
7
  6
CONTINUOUS
 10
22.197316462
 20
63.1072771322
 11
21.6316189065
 21
62.7806734458
  0
LINE
  5
296
100
AcDbEntity
  8
0
100
AcDbLine
 62
7
  6
CONTINUOUS
 10
27.2884967076
 20
65.5568652964
 11
27.5670341375
 21
65.7176779966
  0
LINE
  5
297
100
AcDbEntity
  8
0
100
AcDbLine
 62
7
  6
CONTINUOUS
 10
14.9602933757
 20
58.0627909008
 11
14.1226086022
 21
57.5791562582
  0
LINE
  5
298
100
AcDbEntity
  8
0
100
AcDbLine
 62
7
  6
CONTINUOUS
 10
53.4490555263
 20
80.0764511529
 11
54.509720114
 21
80.6888224828
  0
LINE
  5
299
100
AcDbEntity
  8
0
100
AcDbLine
 62
7
  6
CONTINUOUS
 10
21.0422820491
 20
61.2702630294
 11
19.9816262933
 21
60.6578967986
  0
LINE
  5
29A
100
AcDbEntity
  8
0
100
AcDbLine
 62
7
  6
CONTINUOUS
 10
22.197316462
 20
60.8210703642
 11
21.6316189065
 21
60.4944666779
  0
LINE
  5
29B
100
AcDbEntity
  8
0
100
AcDbLine
 62
7
  6
CONTINUOUS
 10
55.5770177675
 20
78.8478993737
 11
56.6376823552
 21
79.4602707035
  0
LINE
  5
29C
100
AcDbEntity
  8
0
100
AcDbLine
 62
7
  6
CONTINUOUS
 10
99.3425770263
 20
103.4015837998
 11
101.1103189555
 21
104.4221839864
  0
LINE
  5
29D
100
AcDbEntity
  8
0
100
AcDbLine
 62
7
  6
CONTINUOUS
 10
99.3425770263
 20
51.9618588544
 11
101.1103189555
 21
50.9412756644
  0
LINE
  5
29E
100
AcDbEntity
  8
0
100
AcDbLine
 62
7
  6
CONTINUOUS
 10
26.4044982693
 20
95.6902803333
 11
64.5884234272
 21
73.6452795892
  0
LINE
  5
29F
100
AcDbEntity
  8
0
100
AcDbLine
 62
7
  6
CONTINUOUS
 10
99.3425770263
 20
54.98300143
 11
100.3928382691
 21
54.3766465363
  0
LINE
  5
2A0
100
AcDbEntity
  8
0
100
AcDbLine
 62
7
  6
CONTINUOUS
 10
26.4044982693
 20
97.6498861344
 11
32.2437556216
 21
94.2786655974
  0
LINE
  5
2A1
100
AcDbEntity
  8
0
100
AcDbLine
 62
7
  6
CONTINUOUS
 10
33.3044202094
 20
93.6663044656
 11
34.3559766004
 21
93.0592018347
  0
LINE
  5
2A2
100
AcDbEntity
  8
0
100
AcDbLine
 62
7
  6
CONTINUOUS
 10
35.4166411881
 20
92.4468407029
 11
36.4790741391
 21
91.8334586292
  0
LINE
  5
2A3
100
AcDbEntity
  8
0
100
AcDbLine
 62
7
  6
CONTINUOUS
 10
37.5397387268
 20
91.2210974974
 11
38.5986217844
 21
90.6097649093
  0
LINE
  5
2A4
100
AcDbEntity
  8
0
100
AcDbLine
 62
7
  6
CONTINUOUS
 10
39.6592863721
 20
89.9974037775
 11
40.7173550772
 21
89.3865413454
  0
LINE
  5
2A5
100
AcDbEntity
  8
0
100
AcDbLine
 62
7
  6
CONTINUOUS
 10
41.7780196649
 20
88.7741802136
 11
42.8461236982
 21
88.1575240131
  0
LINE
  5
2A6
100
AcDbEntity
  8
0
100
AcDbLine
 62
7
  6
CONTINUOUS
 10
43.9067882859
 20
87.5451628813
 11
49.2239752987
 21
84.4753529765
  0
LINE
  5
2A7
100
AcDbEntity
  8
0
100
AcDbLine
 62
7
  6
CONTINUOUS
 10
50.2846398865
 20
83.8629918447
 11
51.3356026544
 21
83.2562319345
  0
LINE
  5
2A8
100
AcDbEntity
  8
0
100
AcDbLine
 62
7
  6
CONTINUOUS
 10
52.3962672421
 20
82.6438708027
 11
53.4490555263
 21
82.036056954
  0
LINE
  5
2A9
100
AcDbEntity
  8
0
100
AcDbLine
 62
7
  6
CONTINUOUS
 10
54.509720114
 20
81.4236958222
 11
55.5770177675
 21
80.8075051748
  0
LINE
  5
2AA
100
AcDbEntity
  8
0
100
AcDbLine
 62
7
  6
CONTINUOUS
 10
56.6376823552
 20
80.195144043
 11
57.7011146818
 21
79.5811849925
  0
LINE
  5
2AB
100
AcDbEntity
  8
0
100
AcDbLine
 62
7
  6
CONTINUOUS
 10
58.7617792696
 20
78.9688238608
 11
59.8154327825
 21
78.3605104834
  0
LINE
  5
2AC
100
AcDbEntity
  8
0
100
AcDbLine
 62
7
  6
CONTINUOUS
 10
60.8760973702
 20
77.7481493516
 11
64.5884234272
 21
75.6048853903
  0
LINE
  5
2AD
100
AcDbEntity
  8
0
100
AcDbLine
 62
7
  6
CONTINUOUS
 10
57.7011146818
 20
77.6215791914
 11
57.7011146818
 21
79.5811849925
  0
LINE
  5
2AE
100
AcDbEntity
  8
0
100
AcDbLine
 62
7
  6
CONTINUOUS
 10
58.7617792696
 20
77.0092180597
 11
58.7617792696
 21
78.9688238608
  0
LINE
  5
2AF
100
AcDbEntity
  8
0
100
AcDbLine
 62
7
  6
CONTINUOUS
 10
59.8154327825
 20
76.4009046822
 11
59.8154327825
 21
78.3605104834
  0
LINE
  5
2B0
100
AcDbEntity
  8
0
100
AcDbLine
 62
7
  6
CONTINUOUS
 10
60.8760973702
 20
75.7885435505
 11
60.8760973702
 21
77.7481493516
  0
LINE
  5
2B1
100
AcDbEntity
  8
0
100
AcDbLine
 62
7
  6
CONTINUOUS
 10
73.1870118291
 20
87.4425521254
 11
58.7617792696
 21
78.9688238608
  0
LINE
  5
2B2
100
AcDbEntity
  8
0
100
AcDbLine
 62
7
  6
CONTINUOUS
 10
59.8154327825
 20
78.3605104834
 11
74.240665342
 21
86.834238748
  0
LINE
  5
2B3
100
AcDbEntity
  8
0
100
AcDbLine
 62
7
  6
CONTINUOUS
 10
75.3012670712
 20
86.2218397416
 11
60.8760973702
 21
77.7481493516
  0
LINE
  5
2B4
100
AcDbEntity
  8
0
100
AcDbLine
 62
7
  6
CONTINUOUS
 10
100.0143523704
 20
102.5646775348
 11
101.1103189555
 21
103.1974303607
  0
LINE
  5
2B5
100
AcDbEntity
  8
0
100
AcDbLine
 62
7
  6
CONTINUOUS
 10
99.3321825133
 20
101.7337973119
 11
100.3928382691
 21
102.3461635427
  0
LINE
  5
2B6
100
AcDbEntity
  8
0
100
AcDbLine
 62
7
  6
CONTINUOUS
 10
57.7011146818
 20
77.6215791914
 11
58.7617792696
 21
78.2339505213
  0
LINE
  5
2B7
100
AcDbEntity
  8
0
100
AcDbLine
 62
7
  6
CONTINUOUS
 10
27.2884967076
 20
59.5147474097
 11
27.5670341375
 21
59.6755601099
  0
LINE
  5
2B8
100
AcDbEntity
  8
0
100
AcDbLine
 62
7
  6
CONTINUOUS
 10
99.3321825133
 20
100.9165600426
 11
100.3928382691
 21
101.5289262734
  0
LINE
  5
2B9
100
AcDbEntity
  8
0
100
AcDbLine
 62
7
  6
CONTINUOUS
 10
14.1226086022
 20
50.4347601083
 11
15.183264358
 21
51.0471263391
  0
LINE
  5
2BA
100
AcDbEntity
  8
0
100
AcDbLine
 62
7
  6
CONTINUOUS
 10
22.197316462
 20
54.7789524775
 11
21.6316189065
 21
54.4523487911
  0
LINE
  5
2BB
100
AcDbEntity
  8
0
100
AcDbLine
 62
7
  6
CONTINUOUS
 10
59.8154327825
 20
76.4009046822
 11
60.8760973702
 21
77.0132760121
  0
LINE
  5
2BC
100
AcDbEntity
  8
0
100
AcDbLine
 62
7
  6
CONTINUOUS
 10
27.2884967076
 20
57.2285406417
 11
27.5670341375
 21
57.3893533419
  0
LINE
  5
2BD
100
AcDbEntity
  8
0
100
AcDbLine
 62
7
  6
CONTINUOUS
 10
63.4483945842
 20
120.8460467017
 11
63.4483634822
 21
116.9300306347
  0
LINE
  5
2BE
100
AcDbEntity
  8
0
100
AcDbLine
 62
7
  6
CONTINUOUS
 10
63.6492078582
 20
92.9490812411
 11
63.649281631
 21
91.7137035771
  0
LINE
  5
2BF
100
AcDbEntity
  8
0
100
AcDbLine
 62
7
  6
CONTINUOUS
 10
63.7043057582
 20
116.9143893349
 11
63.7043057582
 21
119.0372956195
  0
LINE
  5
2C0
100
AcDbEntity
  8
0
100
AcDbLine
 62
7
  6
CONTINUOUS
 10
63.9249301629
 20
105.128293399
 11
63.9249244137
 21
101.3458115483
  0
LINE
  5
2C1
100
AcDbEntity
  8
0
100
AcDbLine
 62
7
  6
CONTINUOUS
 10
64.5884234272
 20
34.7292997579
 11
64.5884234272
 21
36.688905559
  0
LINE
  5
2C2
100
AcDbEntity
  8
0
100
AcDbLine
 62
7
  6
CONTINUOUS
 10
64.5884234272
 20
73.6452795892
 11
64.5884234272
 21
75.6048853903
  0
LINE
  5
2C3
100
AcDbEntity
  8
0
100
AcDbLine
 62
7
  6
CONTINUOUS
 10
65.189236181
 20
118.179990035
 11
65.189236181
 21
119.8409940745
  0
LINE
  5
2C4
100
AcDbEntity
  8
0
100
AcDbLine
 62
7
  6
CONTINUOUS
 10
65.7608352139
 20
91.7299601991
 11
65.7609089866
 21
90.4945825351
  0
LINE
  5
2C5
100
AcDbEntity
  8
0
100
AcDbLine
 62
7
  6
CONTINUOUS
 10
64.5884234272
 20
75.6048853903
 11
79.0134045648
 21
84.0784643803
  0
LINE
  5
2C6
100
AcDbEntity
  8
0
100
AcDbLine
 62
7
  6
CONTINUOUS
 10
56.9517019853
 20
69.1592872341
 11
64.5884234272
 21
73.6452795892
  0
LINE
  5
2C7
100
AcDbEntity
  8
0
100
AcDbLine
 62
7
  6
CONTINUOUS
 10
99.3321825133
 20
93.976289497
 11
100.3928382691
 21
94.5886557278
  0
LINE
  5
2C8
100
AcDbEntity
  8
0
100
AcDbLine
 62
7
  6
CONTINUOUS
 10
51.2241609039
 20
65.757262258
 11
56.810281216
 21
68.9823910725
  0
LINE
  5
2C9
100
AcDbEntity
  8
0
100
AcDbLine
 62
7
  6
CONTINUOUS
 10
99.3321825133
 20
93.1597870798
 11
100.3928382691
 21
93.7721533106
  0
LINE
  5
2CA
100
AcDbEntity
  8
0
100
AcDbLine
 62
7
  6
CONTINUOUS
 10
67.8742880858
 20
90.5097852187
 11
67.8743618585
 21
89.2744075546
  0
LINE
  5
2CB
100
AcDbEntity
  8
0
100
AcDbLine
 62
7
  6
CONTINUOUS
 10
70.002250327
 20
89.2812334394
 11
70.0023240998
 21
88.0458557754
  0
LINE
  5
2CC
100
AcDbEntity
  8
0
100
AcDbLine
 62
7
  6
CONTINUOUS
 10
70.7753441303
 20
120.9968308736
 11
70.7753441303
 21
121.4051117119
  0
LINE
  5
2CD
100
AcDbEntity
  8
0
100
AcDbLine
 62
7
  6
CONTINUOUS
 10
27.2884967076
 20
51.1864227549
 11
27.5670341375
 21
51.3472354551
  0
LINE
  5
2CE
100
AcDbEntity
  8
0
100
AcDbLine
 62
7
  6
CONTINUOUS
 10
99.7334307128
 20
91.7879568856
 11
99.3425770263
 21
91.5622987514
  0
LINE
  5
2CF
100
AcDbEntity
  8
0
100
AcDbLine
 62
7
  6
CONTINUOUS
 10
75.0301988527
 20
108.9006785788
 11
75.0183953607
 21
110.4556673779
  0
LINE
  5
2D0
100
AcDbEntity
  8
0
100
AcDbLine
 62
7
  6
CONTINUOUS
 10
72.1263472413
 20
88.0549132572
 11
72.1264210141
 21
86.8195355932
  0
LINE
  5
2D1
100
AcDbEntity
  8
0
100
AcDbLine
 62
7
  6
CONTINUOUS
 10
72.2602745531
 20
123.9362615288
 11
72.2602745531
 21
122.2624315737
  0
LINE
  5
2D2
100
AcDbEntity
  8
0
100
AcDbLine
 62
7
  6
CONTINUOUS
 10
74.240665342
 20
86.834238748
 11
74.2407391148
 21
85.5988602038
  0
LINE
  5
2D3
100
AcDbEntity
  8
0
100
AcDbLine
 62
7
  6
CONTINUOUS
 10
74.3108603724
 20
119.8945085827
 11
74.3108603724
 21
118.9556457973
  0
LINE
  5
2D4
100
AcDbEntity
  8
0
100
AcDbLine
 62
7
  6
CONTINUOUS
 10
75.4423271956
 20
112.2604990944
 11
75.4423271956
 21
113.921503134
  0
LINE
  5
2D5
100
AcDbEntity
  8
0
100
AcDbLine
 62
7
  6
CONTINUOUS
 10
50.1417880476
 20
35.4908088688
 11
49.1381857427
 21
33.7525090366
  0
LINE
  5
2D6
100
AcDbEntity
  8
0
100
AcDbLine
 62
7
  6
CONTINUOUS
 10
50.1281393579
 20
33.1809719803
 11
50.1417880476
 21
33.2046123355
  0
LINE
  5
2D7
100
AcDbEntity
  8
0
100
AcDbLine
 62
7
  6
CONTINUOUS
 10
47.729652788
 20
102.140030208
 11
48.781209179
 21
101.532927577
  0
LINE
  5
2D8
100
AcDbEntity
  8
0
100
AcDbLine
 62
7
  6
CONTINUOUS
 10
49.8418737667
 20
100.9205664453
 11
50.9043067177
 21
100.3071843716
  0
LINE
  5
2D9
100
AcDbEntity
  8
0
100
AcDbLine
 62
7
  6
CONTINUOUS
 10
51.9649713054
 20
99.6948232398
 11
53.023854363
 21
99.0834906516
  0
LINE
  5
2DA
100
AcDbEntity
  8
0
100
AcDbLine
 62
7
  6
CONTINUOUS
 10
54.0845189507
 20
98.4711295199
 11
55.1425876558
 21
97.8602670877
  0
LINE
  5
2DB
100
AcDbEntity
  8
0
100
AcDbLine
 62
7
  6
CONTINUOUS
 10
56.2032522435
 20
97.2479059559
 11
57.2713562768
 21
96.6312497554
  0
LINE
  5
2DC
100
AcDbEntity
  8
0
100
AcDbLine
 62
7
  6
CONTINUOUS
 10
58.3320208645
 20
96.0188886236
 11
63.6492078774
 21
92.9490787188
  0
LINE
  5
2DD
100
AcDbEntity
  8
0
100
AcDbLine
 62
7
  6
CONTINUOUS
 10
64.7098724651
 20
92.336717587
 11
65.760835233
 21
91.7299576768
  0
LINE
  5
2DE
100
AcDbEntity
  8
0
100
AcDbLine
 62
7
  6
CONTINUOUS
 10
66.8214998207
 20
91.117596545
 11
67.8742881049
 21
90.5097826963
  0
LINE
  5
2DF
100
AcDbEntity
  8
0
100
AcDbLine
 62
7
  6
CONTINUOUS
 10
68.9349526927
 20
89.8974215646
 11
70.0022503461
 21
89.2812309171
  0
LINE
  5
2E0
100
AcDbEntity
  8
0
100
AcDbLine
 62
7
  6
CONTINUOUS
 10
71.0629149339
 20
88.6688697853
 11
72.1263472605
 21
88.0549107349
  0
LINE
  5
2E1
100
AcDbEntity
  8
0
100
AcDbLine
 62
7
  6
CONTINUOUS
 10
73.1870118482
 20
87.4425496031
 11
74.2406653611
 21
86.8342362257
  0
LINE
  5
2E2
100
AcDbEntity
  8
0
100
AcDbLine
 62
7
  6
CONTINUOUS
 10
75.3012670832
 20
86.2218381652
 11
79.013404572
 21
84.0784634345
  0
LINE
  5
2E3
100
AcDbEntity
  8
0
100
AcDbLine
 62
7
  6
CONTINUOUS
 10
40.8294794141
 20
106.1234641786
 11
46.6689253346
 21
102.752354411
  0
LINE
  5
2E4
100
AcDbEntity
  8
0
100
AcDbLine
 62
7
  6
CONTINUOUS
 10
79.0134045648
 20
84.0784643803
 11
79.0133417064
 21
96.4171920042
  0
LINE
  5
2E5
100
AcDbEntity
  8
0
100
AcDbLine
 62
7
  6
CONTINUOUS
 10
79.0133417064
 20
30.573354622
 11
79.01340456
 21
42.9121551422
  0
LINE
  5
2E6
100
AcDbEntity
  8
0
100
AcDbLine
 62
7
  6
CONTINUOUS
 10
50.1901715413
 20
109.2754498589
 11
63.9249253719
 21
101.3458109951
  0
LINE
  5
2E7
100
AcDbEntity
  8
0
100
AcDbLine
 62
7
  6
CONTINUOUS
 10
95.7561743714
 20
107.0759452013
 11
97.1703340861
 21
107.0830424779
  0
LINE
  5
2E8
100
AcDbEntity
  8
0
100
AcDbLine
 62
7
  6
CONTINUOUS
 10
40.8294165484
 20
118.4621927483
 11
50.1901917454
 21
113.0578689307
  0
LINE
  5
2E9
100
AcDbEntity
  8
0
100
AcDbLine
 62
7
  6
CONTINUOUS
 10
63.9249292386
 20
105.1282939327
 11
79.0133417064
 21
96.4171920042
  0
LINE
  5
2EA
100
AcDbEntity
  8
0
100
AcDbLine
 62
7
  6
CONTINUOUS
 10
85.6437412185
 20
102.7730856615
 11
85.6319377265
 21
104.3280744606
  0
LINE
  5
2EB
100
AcDbEntity
  8
0
100
AcDbLine
 62
7
  6
CONTINUOUS
 10
85.8566382193
 20
112.7913157646
 11
85.8365838774
 21
115.4332692675
  0
LINE
  5
2EC
100
AcDbEntity
  8
0
100
AcDbLine
 62
7
  6
CONTINUOUS
 10
85.8365838774
 20
115.4332692675
 11
85.8365241418
 21
116.2568480531
  0
LINE
  5
2ED
100
AcDbEntity
  8
0
100
AcDbLine
 62
7
  6
CONTINUOUS
 10
97.1502797442
 20
109.7249959808
 11
95.7361200295
 21
109.7178987042
  0
LINE
  5
2EE
100
AcDbEntity
  8
0
100
AcDbLine
 62
7
  6
CONTINUOUS
 10
99.7334307128
 20
91.7879568856
 11
99.3425770263
 21
92.0136112617
  0
LINE
  5
2EF
100
AcDbEntity
  8
0
100
AcDbLine
 62
7
  6
CONTINUOUS
 10
91.5108789704
 20
106.2195823423
 11
91.4990754784
 21
107.7745711414
  0
LINE
  5
2F0
100
AcDbEntity
  8
0
100
AcDbLine
 62
7
  6
CONTINUOUS
 10
49.3041177493
 20
38.2348232223
 11
48.4664329758
 21
37.7511885797
  0
LINE
  5
2F1
100
AcDbEntity
  8
0
100
AcDbLine
 62
7
  6
CONTINUOUS
 10
75.0301988527
 20
108.9006785788
 11
85.6437412185
 21
102.7730856615
  0
LINE
  5
2F2
100
AcDbEntity
  8
0
100
AcDbLine
 62
7
  6
CONTINUOUS
 10
99.3425770263
 20
95.1950106215
 11
100.3928382691
 21
94.5886557278
  0
LINE
  5
2F3
100
AcDbEntity
  8
0
100
AcDbLine
 62
7
  6
CONTINUOUS
 10
63.448368666
 20
116.9300412503
 11
73.8209938603
 21
110.9414771169
  0
LINE
  5
2F4
100
AcDbEntity
  8
0
100
AcDbLine
 62
7
  6
CONTINUOUS
 10
73.9344692848
 20
111.0081352863
 11
63.7043057582
 21
116.9143893349
  0
LINE
  5
2F5
100
AcDbEntity
  8
0
100
AcDbLine
 62
7
  6
CONTINUOUS
 10
75.0183953607
 20
110.4556673779
 11
85.6319377265
 21
104.3280744606
  0
LINE
  5
2F6
100
AcDbEntity
  8
0
100
AcDbLine
 62
7
  6
CONTINUOUS
 10
95.7561743714
 20
107.0759452013
 11
95.7361200295
 21
109.7178987042
  0
LINE
  5
2F7
100
AcDbEntity
  8
0
100
AcDbLine
 62
7
  6
CONTINUOUS
 10
97.1703340861
 20
107.0830424779
 11
97.1502797442
 21
109.7249959808
  0
LINE
  5
2F8
100
AcDbEntity
  8
0
100
AcDbLine
 62
7
  6
CONTINUOUS
 10
99.7334307128
 20
91.7879568856
 11
99.3425770263
 21
90.5944311658
  0
LINE
  5
2F9
100
AcDbEntity
  8
0
100
AcDbLine
 62
7
  6
CONTINUOUS
 10
49.642860888
 20
31.2859993473
 11
48.4664329758
 21
30.6067924298
  0
LINE
  5
2FA
100
AcDbEntity
  8
0
100
AcDbLine
 62
7
  6
CONTINUOUS
 10
56.810281216
 20
32.6480335103
 11
52.2848166597
 21
30.0352709266
  0
LINE
  5
2FB
100
AcDbEntity
  8
0
100
AcDbLine
 62
7
  6
CONTINUOUS
 10
87.2506241209
 20
117.0875241153
 11
89.2304656422
 21
116.8503866668
  0
LINE
  5
2FC
100
AcDbEntity
  8
0
100
AcDbLine
 62
7
  6
CONTINUOUS
 10
63.7043057582
 20
119.0372956195
 11
65.189236181
 21
118.179990035
  0
LINE
  5
2FD
100
AcDbEntity
  8
0
100
AcDbLine
 62
7
  6
CONTINUOUS
 10
75.4423271956
 20
112.2604990944
 11
75.7570802759
 21
112.0787804298
  0
LINE
  5
2FE
100
AcDbEntity
  8
0
100
AcDbLine
 62
7
  6
CONTINUOUS
 10
63.4483892237
 20
120.8460497965
 11
65.189236181
 21
119.8409940745
  0
LINE
  5
2FF
100
AcDbEntity
  8
0
100
AcDbLine
 62
7
  6
CONTINUOUS
 10
75.4423271956
 20
113.921503134
 11
77.1831262879
 21
112.9164750462
  0
LINE
  5
300
100
AcDbEntity
  8
0
100
AcDbLine
 62
7
  6
CONTINUOUS
 10
55.3604004032
 20
126.998039313
 11
66.462023088
 21
120.5886594671
  0
LINE
  5
301
100
AcDbEntity
  8
0
100
AcDbLine
 62
7
  6
CONTINUOUS
 10
76.7151141026
 20
114.6691685265
 11
79.4768891848
 21
113.0746930112
  0
LINE
  5
302
100
AcDbEntity
  8
0
100
AcDbLine
 62
7
  6
CONTINUOUS
 10
91.4314125469
 20
106.1729018694
 11
93.5443255611
 21
104.9530385689
  0
LINE
  5
303
100
AcDbEntity
  8
0
100
AcDbLine
 62
7
  6
CONTINUOUS
 10
98.5844340652
 20
107.9137185401
 11
98.5643797233
 21
110.555672043
  0
LINE
  5
304
100
AcDbEntity
  8
0
100
AcDbLine
 62
7
  6
CONTINUOUS
 10
99.3425770263
 20
108.3006406307
 11
99.3425770263
 21
42.1639448432
  0
LINE
  5
305
100
AcDbEntity
  8
0
100
AcDbLine
 62
7
  6
CONTINUOUS
 10
100.3928382691
 20
102.3461635427
 11
100.3928382691
 21
101.5289262734
  0
LINE
  5
306
100
AcDbEntity
  8
0
100
AcDbLine
 62
7
  6
CONTINUOUS
 10
100.3928382691
 20
94.5886557278
 11
100.3928382691
 21
93.7721533106
  0
LINE
  5
307
100
AcDbEntity
  8
0
100
AcDbLine
 62
7
  6
CONTINUOUS
 10
100.3928382691
 20
54.3765458648
 11
100.3928382691
 21
53.559409267
  0
LINE
  5
308
100
AcDbEntity
  8
0
100
AcDbLine
 62
7
  6
CONTINUOUS
 10
100.3928382691
 20
46.6191387214
 11
100.3928382691
 21
45.8026363043
  0
LINE
  5
309
100
AcDbEntity
  8
0
100
AcDbLine
 62
7
  6
CONTINUOUS
 10
101.1103189555
 20
104.4221839864
 11
101.1103189555
 21
103.1974303607
  0
LINE
  5
30A
100
AcDbEntity
  8
0
100
AcDbLine
 62
7
  6
CONTINUOUS
 10
101.1103189555
 20
50.9412756644
 11
101.1103189555
 21
49.7165220387
  0
LINE
  5
30B
100
AcDbEntity
  8
0
100
AcDbLine
 62
7
  6
CONTINUOUS
 10
51.2241609039
 20
29.0146534872
 11
52.2848166597
 21
29.627019718
  0
LINE
  5
30C
100
AcDbEntity
  8
0
100
AcDbLine
 62
7
  6
CONTINUOUS
 10
99.3321825133
 20
52.9470430362
 11
100.3928382691
 21
53.559409267
  0
LINE
  5
30D
100
AcDbEntity
  8
0
100
AcDbLine
 62
7
  6
CONTINUOUS
 10
99.3321825133
 20
53.7642803055
 11
100.3928382691
 21
54.3765458648
  0
LINE
  5
30E
100
AcDbEntity
  8
0
100
AcDbLine
 62
7
  6
CONTINUOUS
 10
64.5884234272
 20
36.688905559
 11
56.9517019853
 21
32.3568241906
  0
LINE
  5
30F
100
AcDbEntity
  8
0
100
AcDbLine
 62
7
  6
CONTINUOUS
 10
79.01340456
 20
42.9121551422
 11
64.5884234272
 21
34.7292997579
  0
LINE
  5
310
100
AcDbEntity
  8
0
100
AcDbLine
 62
7
  6
CONTINUOUS
 10
99.3425770263
 20
102.9525184364
 11
100.3928382691
 21
102.3461635427
  0
LINE
  5
311
100
AcDbEntity
  8
0
100
AcDbLine
 62
7
  6
CONTINUOUS
 10
91.4990754784
 20
107.7745711414
 11
80.8855331126
 21
113.9021640587
  0
LINE
  5
312
100
AcDbEntity
  8
0
100
AcDbLine
 62
7
  6
CONTINUOUS
 10
79.2252485264
 20
116.1183866611
 11
70.7753441303
 21
120.9968308736
  0
LINE
  5
313
100
AcDbEntity
  8
0
100
AcDbLine
 62
7
  6
CONTINUOUS
 10
85.8566382193
 20
112.7913157646
 11
95.7561743714
 21
107.0759452013
  0
LINE
  5
314
100
AcDbEntity
  8
0
100
AcDbLine
 62
7
  6
CONTINUOUS
 10
71.2348481443
 20
121.6704048945
 11
74.3108603724
 21
119.8945085827
  0
LINE
  5
315
100
AcDbEntity
  8
0
100
AcDbLine
 62
7
  6
CONTINUOUS
 10
99.3425770263
 20
105.4427671764
 11
101.1103189555
 21
104.4221839864
  0
LINE
  5
316
100
AcDbEntity
  8
0
100
AcDbLine
 62
7
  6
CONTINUOUS
 10
85.8365838774
 20
115.4332692675
 11
95.7361200295
 21
109.7178987042
  0
LINE
  5
317
100
AcDbEntity
  8
0
100
AcDbLine
 62
7
  6
CONTINUOUS
 10
99.3425770263
 20
49.9206754778
 11
101.1103189555
 21
50.9412756644
  0
LINE
  5
318
100
AcDbEntity
  8
0
100
AcDbLine
 62
7
  6
CONTINUOUS
 10
99.3425770263
 20
48.6959218521
 11
101.1103189555
 21
49.7165220387
  0
LINE
  5
319
100
AcDbEntity
  8
0
100
AcDbLine
 62
7
  6
CONTINUOUS
 10
61.1586518683
 20
130.3456413748
 11
72.2602745531
 21
123.9362615288
  0
LINE
  5
31A
100
AcDbEntity
  8
0
100
AcDbLine
 62
7
  6
CONTINUOUS
 10
82.5133655678
 20
118.0167705883
 11
85.8365356502
 21
116.0981808509
  0
LINE
  5
31B
100
AcDbEntity
  8
0
100
AcDbLine
 62
7
  6
CONTINUOUS
 10
98.5781470019
 20
108.7419745267
 11
99.3425770263
 21
108.3006406307
  0
LINE
  5
31C
100
AcDbEntity
  8
0
100
AcDbLine
 62
7
  6
CONTINUOUS
 10
98.140048179
 20
111.7065531599
 11
89.2304656422
 21
116.8503866668
  0
LINE
  5
31D
100
AcDbEntity
  8
0
100
AcDbLine
 62
7
  6
CONTINUOUS
 10
98.140048179
 20
111.7065531599
 11
98.5643797233
 21
110.555672043
  0
LINE
  5
31E
100
AcDbEntity
  8
0
100
AcDbLine
 62
7
  6
CONTINUOUS
 10
99.3321825133
 20
46.0067724906
 11
100.3928382691
 21
46.6191387214
  0
LINE
  5
31F
100
AcDbEntity
  8
0
100
AcDbLine
 62
7
  6
CONTINUOUS
 10
99.3321825133
 20
45.1902700735
 11
100.3928382691
 21
45.8026363043
  0
LINE
  5
320
100
AcDbEntity
  8
0
100
AcDbLine
 62
7
  6
CONTINUOUS
 10
99.3425770263
 20
42.1639448432
 11
93.5443255611
 21
38.8163427814
  0
LINE
  5
321
100
AcDbEntity
  8
0
100
AcDbLine
 62
7
  6
CONTINUOUS
 10
93.5443255611
 20
38.8163427814
 11
79.0133417064
 21
30.573354622
  0
ARC
  5
322
100
AcDbEntity
  8
0
100
AcDbCircle
 62
7
  6
CONTINUOUS
 10
22.7118705933
 20
68.4883243107
 40
2.914814334
100
AcDbArc
 50
168.8714430234
 51
171.5148848458
  0
ARC
  5
323
100
AcDbEntity
  8
0
100
AcDbCircle
 62
7
  6
CONTINUOUS
 10
22.7118705933
 20
60.159999656
 40
2.914814334
100
AcDbArc
 50
168.8714430234
 51
171.5148848458
  0
ARC
  5
324
100
AcDbEntity
  8
0
100
AcDbCircle
 62
7
  6
CONTINUOUS
 10
20.1468506276
 20
67.0951849747
 40
2.7982887772
100
AcDbArc
 50
70.1669882945
 51
71.6304843107
  0
ARC
  5
325
100
AcDbEntity
  8
0
100
AcDbCircle
 62
7
  6
CONTINUOUS
 10
20.1468506277
 20
58.7668603202
 40
2.798288777
100
AcDbArc
 50
70.1669882945
 51
71.6304843107
  0
ARC
  5
326
100
AcDbEntity
  8
0
100
AcDbCircle
 62
7
  6
CONTINUOUS
 10
51.8086129033
 20
31.6312698779
 40
1.6804735645
100
AcDbArc
 50
179.9913645752
 51
181.9943405431
  0
ARC
  5
327
100
AcDbEntity
  8
0
100
AcDbCircle
 62
7
  6
CONTINUOUS
 10
21.5990993174
 20
68.6327881934
 40
1.1147929137
100
AcDbArc
 50
109.1473886419
 51
119.9649559239
  0
ARC
  5
328
100
AcDbEntity
  8
0
100
AcDbCircle
 62
7
  6
CONTINUOUS
 10
21.5990993174
 20
60.3044635387
 40
1.1147929137
100
AcDbArc
 50
109.1473886419
 51
119.9649559239
  0
SPLINE
  5
329
100
AcDbEntity
  8
0
100
AcDbSpline
 62
7
  6
CONTINUOUS
 70
0
 71
3
 72
15
 73
11
 74
0
 42
0.0000001
 43
0.0000001
 44
0.0000000001
 40
0.0
 40
0.0
 40
0.0
 40
0.0
 40
0.0869257989
 40
0.1863963846
 40
0.3037904265
 40
0.437600608
 40
0.5820977208
 40
0.7293814209
 40
0.8712025664
 40
1.0
 40
1.0
 40
1.0
 40
1.0
 10
27.4884872803
 20
51.1666277979
 30
0.0
 10
27.5084576743
 20
51.1781764695
 30
0.0
 10
27.5447502142
 20
51.2151641768
 30
0.0
 10
27.5711281043
 20
51.2932427765
 30
0.0
 10
27.5733489625
 20
51.387269058
 30
0.0
 10
27.5522289935
 20
51.4908634917
 30
0.0
 10
27.5096900365
 20
51.5960902441
 30
0.0
 10
27.4491583459
 20
51.6946084973
 30
0.0
 10
27.3755720935
 20
51.778284711
 30
0.0
 10
27.3180989309
 20
51.8225342237
 30
0.0
 10
27.2884967076
 20
51.8396246886
 30
0.0
  0
SPLINE
  5
32A
100
AcDbEntity
  8
0
100
AcDbSpline
 62
7
  6
CONTINUOUS
 70
0
 71
3
 72
15
 73
11
 74
0
 42
0.0000001
 43
0.0000001
 44
0.0000000001
 40
0.0
 40
0.0
 40
0.0
 40
0.0
 40
0.0869257989
 40
0.1863963846
 40
0.3037904265
 40
0.437600608
 40
0.5820977208
 40
0.7293814209
 40
0.8712025664
 40
1.0
 40
1.0
 40
1.0
 40
1.0
 10
27.4884872803
 20
57.2087456847
 30
0.0
 10
27.5084576743
 20
57.2202943563
 30
0.0
 10
27.5447502142
 20
57.2572820635
 30
0.0
 10
27.5711281043
 20
57.3353606632
 30
0.0
 10
27.5733489625
 20
57.4293869448
 30
0.0
 10
27.5522289935
 20
57.5329813785
 30
0.0
 10
27.5096900365
 20
57.6382081309
 30
0.0
 10
27.4491583459
 20
57.7367263841
 30
0.0
 10
27.3755720935
 20
57.8204025978
 30
0.0
 10
27.3180989309
 20
57.8646521104
 30
0.0
 10
27.2884967076
 20
57.8817425754
 30
0.0
  0
SPLINE
  5
32B
100
AcDbEntity
  8
0
100
AcDbSpline
 62
7
  6
CONTINUOUS
 70
0
 71
3
 72
15
 73
11
 74
0
 42
0.0000001
 43
0.0000001
 44
0.0000000001
 40
0.0
 40
0.0
 40
0.0
 40
0.0
 40
0.0869257989
 40
0.1863963846
 40
0.3037904265
 40
0.437600608
 40
0.5820977208
 40
0.7293814209
 40
0.8712025664
 40
1.0
 40
1.0
 40
1.0
 40
1.0
 10
27.4884872803
 20
59.4949524527
 30
0.0
 10
27.5084576743
 20
59.5065011242
 30
0.0
 10
27.5447502142
 20
59.5434888315
 30
0.0
 10
27.5711281043
 20
59.6215674312
 30
0.0
 10
27.5733489625
 20
59.7155937127
 30
0.0
 10
27.5522289935
 20
59.8191881464
 30
0.0
 10
27.5096900365
 20
59.9244148988
 30
0.0
 10
27.4491583459
 20
60.022933152
 30
0.0
 10
27.3755720935
 20
60.1066093657
 30
0.0
 10
27.3180989309
 20
60.1508588784
 30
0.0
 10
27.2884967076
 20
60.1679493434
 30
0.0
  0
SPLINE
  5
32C
100
AcDbEntity
  8
0
100
AcDbSpline
 62
7
  6
CONTINUOUS
 70
0
 71
3
 72
9
 73
5
 74
0
 42
0.0000001
 43
0.0000001
 44
0.0000000001
 40
0.0
 40
0.0
 40
0.0
 40
0.0
 40
0.5209745736
 40
1.0
 40
1.0
 40
1.0
 40
1.0
 10
19.8518647181
 20
69.050915633
 30
0.0
 10
19.8796325685
 20
69.1917559033
 30
0.0
 10
19.9537901074
 20
69.4586919641
 30
0.0
 10
20.0779077474
 20
69.7073116731
 30
0.0
 10
20.1501551335
 20
69.8177760503
 30
0.0
  0
SPLINE
  5
32D
100
AcDbEntity
  8
0
100
AcDbSpline
 62
7
  6
CONTINUOUS
 70
0
 71
3
 72
15
 73
11
 74
0
 42
0.0000001
 43
0.0000001
 44
0.0000000001
 40
0.0
 40
0.0
 40
0.0
 40
0.0
 40
0.0869257989
 40
0.1863963846
 40
0.3037904265
 40
0.437600608
 40
0.5820977208
 40
0.7293814209
 40
0.8712025664
 40
1.0
 40
1.0
 40
1.0
 40
1.0
 10
27.4884872803
 20
65.5370703394
 30
0.0
 10
27.5084576743
 20
65.548619011
 30
0.0
 10
27.5447502142
 20
65.5856067183
 30
0.0
 10
27.5711281043
 20
65.663685318
 30
0.0
 10
27.5733489625
 20
65.7577115995
 30
0.0
 10
27.5522289935
 20
65.8613060332
 30
0.0
 10
27.5096900365
 20
65.9665327856
 30
0.0
 10
27.4491583459
 20
66.0650510388
 30
0.0
 10
27.3755720935
 20
66.1487272525
 30
0.0
 10
27.3180989309
 20
66.1929767652
 30
0.0
 10
27.2884967076
 20
66.2100672301
 30
0.0
  0
SPLINE
  5
32E
100
AcDbEntity
  8
0
100
AcDbSpline
 62
7
  6
CONTINUOUS
 70
0
 71
3
 72
9
 73
5
 74
0
 42
0.0000001
 43
0.0000001
 44
0.0000000001
 40
0.0
 40
0.0
 40
0.0
 40
0.0
 40
0.5209745736
 40
1.0
 40
1.0
 40
1.0
 40
1.0
 10
19.8518647181
 20
60.7225909783
 30
0.0
 10
19.8796325685
 20
60.8634312486
 30
0.0
 10
19.9537901074
 20
61.1303673094
 30
0.0
 10
20.0779077474
 20
61.3789870184
 30
0.0
 10
20.1501551335
 20
61.4894513956
 30
0.0
  0
SPLINE
  5
32F
100
AcDbEntity
  8
0
100
AcDbSpline
 62
7
  6
CONTINUOUS
 70
0
 71
3
 72
13
 73
9
 74
0
 42
0.0000001
 43
0.0000001
 44
0.0000000001
 40
0.0
 40
0.0
 40
0.0
 40
0.0
 40
0.1142259181
 40
0.2375599982
 40
0.5000010158
 40
0.7624414734
 40
0.8857749255
 40
1.0
 40
1.0
 40
1.0
 40
1.0
 10
50.1417880476
 20
36.78394376
 30
0.0
 10
50.1417880476
 20
36.8501425588
 30
0.0
 10
50.1296429538
 20
36.9879557828
 30
0.0
 10
50.0638098927
 20
37.2708631885
 30
0.0
 10
49.9108080176
 20
37.6178524303
 30
0.0
 10
49.6868062952
 20
37.9238493231
 30
0.0
 10
49.474717416
 20
38.1223139869
 30
0.0
 10
49.361440254
 20
38.2017371649
 30
0.0
 10
49.3041105117
 20
38.2348357583
 30
0.0
  0
SPLINE
  5
330
100
AcDbEntity
  8
0
100
AcDbSpline
 62
7
  6
CONTINUOUS
 70
0
 71
3
 72
11
 73
7
 74
0
 42
0.0000001
 43
0.0000001
 44
0.0000000001
 40
0.0
 40
0.0
 40
0.0
 40
0.0
 40
0.289702329
 40
0.5490881649
 40
0.7822156415
 40
1.0
 40
1.0
 40
1.0
 40
1.0
 10
49.3041105117
 20
38.2348357583
 30
0.0
 10
49.2521294627
 20
38.264846352
 30
0.0
 10
49.1487223948
 20
38.3140391214
 30
0.0
 10
48.9897836738
 20
38.3524199749
 30
0.0
 10
48.8406526559
 20
38.3486440046
 30
0.0
 10
48.7508678204
 20
38.3160603925
 30
0.0
 10
48.7117911191
 20
38.2934995761
 30
0.0
  0
SPLINE
  5
331
100
AcDbEntity
  8
0
100
AcDbSpline
 62
7
  6
CONTINUOUS
 70
0
 71
3
 72
13
 73
9
 74
0
 42
0.0000001
 43
0.0000001
 44
0.0000000001
 40
0.0
 40
0.0
 40
0.0
 40
0.0
 40
0.1142259181
 40
0.2375599982
 40
0.5000010158
 40
0.7624414734
 40
0.8857749255
 40
1.0
 40
1.0
 40
1.0
 40
1.0
 10
15.797963674
 20
56.6119114385
 30
0.0
 10
15.797963674
 20
56.6781102373
 30
0.0
 10
15.7858185802
 20
56.8159234614
 30
0.0
 10
15.7199855191
 20
57.098830867
 30
0.0
 10
15.566983644
 20
57.4458201088
 30
0.0
 10
15.3429819216
 20
57.7518170016
 30
0.0
 10
15.1308930424
 20
57.9502816654
 30
0.0
 10
15.0176158804
 20
58.0297048435
 30
0.0
 10
14.9602861381
 20
58.0628034368
 30
0.0
  0
SPLINE
  5
332
100
AcDbEntity
  8
0
100
AcDbSpline
 62
7
  6
CONTINUOUS
 70
0
 71
3
 72
11
 73
7
 74
0
 42
0.0000001
 43
0.0000001
 44
0.0000000001
 40
0.0
 40
0.0
 40
0.0
 40
0.0
 40
0.289702329
 40
0.5490881649
 40
0.7822156415
 40
1.0
 40
1.0
 40
1.0
 40
1.0
 10
14.9602861381
 20
58.0628034368
 30
0.0
 10
14.9083050892
 20
58.0928140305
 30
0.0
 10
14.8048980212
 20
58.1420068
 30
0.0
 10
14.6459593003
 20
58.1803876534
 30
0.0
 10
14.4968282823
 20
58.1766116831
 30
0.0
 10
14.4070434468
 20
58.144028071
 30
0.0
 10
14.3679667455
 20
58.1214672547
 30
0.0
  0
SPLINE
  5
333
100
AcDbEntity
  8
0
100
AcDbSpline
 62
7
  6
CONTINUOUS
 70
0
 71
3
 72
9
 73
5
 74
0
 42
0.0000001
 43
0.0000001
 44
0.0000000001
 40
0.0
 40
0.0
 40
0.0
 40
0.0
 40
0.2592093062
 40
1.0
 40
1.0
 40
1.0
 40
1.0
 10
21.6316189065
 20
69.4759932663
 30
0.0
 10
21.5873268365
 20
69.5015647263
 30
0.0
 10
21.4145166344
 20
69.5967773349
 30
0.0
 10
21.2337521178
 20
69.6779171701
 30
0.0
 10
21.096253945
 20
69.7274944971
 30
0.0
  0
SPLINE
  5
334
100
AcDbEntity
  8
0
100
AcDbSpline
 62
7
  6
CONTINUOUS
 70
0
 71
3
 72
11
 73
7
 74
0
 42
0.0000001
 43
0.0000001
 44
0.0000000001
 40
0.0
 40
0.0
 40
0.0
 40
0.0
 40
0.2766006332
 40
0.5317424921
 40
0.7704184737
 40
1.0
 40
1.0
 40
1.0
 40
1.0
 10
21.0287149414
 20
69.7508836422
 30
0.0
 10
20.8982595333
 20
69.7941895725
 30
0.0
 10
20.6405491202
 20
69.8588911341
 30
0.0
 10
20.2559248128
 20
69.8825991702
 30
0.0
 10
19.8976543951
 20
69.8271567591
 30
0.0
 10
19.6804455615
 20
69.7360650439
 30
0.0
 10
19.5816351688
 20
69.6790305374
 30
0.0
  0
SPLINE
  5
335
100
AcDbEntity
  8
0
100
AcDbSpline
 62
7
  6
CONTINUOUS
 70
0
 71
3
 72
20
 73
16
 74
0
 42
0.0000001
 43
0.0000001
 44
0.0000000001
 40
0.0
 40
0.0
 40
0.0
 40
0.0
 40
0.0623990873
 40
0.1288066115
 40
0.2702994801
 40
0.4173588432
 40
0.5616127852
 40
0.6302518905
 40
0.6953770725
 40
0.7563610223
 40
0.8128325654
 40
0.8647627915
 40
0.9125666458
 40
0.9571682735
 40
1.0
 40
1.0
 40
1.0
 40
1.0
 10
21.6316189065
 20
63.4338753795
 30
0.0
 10
21.5130945439
 20
63.5023039041
 30
0.0
 10
21.2775517592
 20
63.6597552255
 30
0.0
 10
20.8232629678
 20
64.0420361043
 30
0.0
 10
20.3060448106
 20
64.6305398907
 30
0.0
 10
19.8068249158
 20
65.4425770192
 30
0.0
 10
19.509178552
 20
66.1787547242
 30
0.0
 10
19.3621688024
 20
66.7714183382
 30
0.0
 10
19.3022198063
 20
67.195194128
 30
0.0
 10
19.2919910941
 20
67.5965203415
 30
0.0
 10
19.3319598807
 20
67.9671661097
 30
0.0
 10
19.4217882187
 20
68.2994871399
 30
0.0
 10
19.5604550119
 20
68.5865054619
 30
0.0
 10
19.7460476994
 20
68.8212002084
 30
0.0
 10
19.9002829018
 20
68.939227446
 30
0.0
 10
19.9816384844
 20
68.9862003443
 30
0.0
  0
SPLINE
  5
336
100
AcDbEntity
  8
0
100
AcDbSpline
 62
7
  6
CONTINUOUS
 70
0
 71
3
 72
9
 73
5
 74
0
 42
0.0000001
 43
0.0000001
 44
0.0000000001
 40
0.0
 40
0.0
 40
0.0
 40
0.0
 40
0.2592093062
 40
1.0
 40
1.0
 40
1.0
 40
1.0
 10
21.6316189065
 20
61.1476686116
 30
0.0
 10
21.5873268365
 20
61.1732400716
 30
0.0
 10
21.4145166344
 20
61.2684526802
 30
0.0
 10
21.2337521178
 20
61.3495925154
 30
0.0
 10
21.096253945
 20
61.3991698424
 30
0.0
  0
SPLINE
  5
337
100
AcDbEntity
  8
0
100
AcDbSpline
 62
7
  6
CONTINUOUS
 70
0
 71
3
 72
11
 73
7
 74
0
 42
0.0000001
 43
0.0000001
 44
0.0000000001
 40
0.0
 40
0.0
 40
0.0
 40
0.0
 40
0.2766006332
 40
0.5317424921
 40
0.7704184737
 40
1.0
 40
1.0
 40
1.0
 40
1.0
 10
21.0287149414
 20
61.4225589875
 30
0.0
 10
20.8982595333
 20
61.4658649178
 30
0.0
 10
20.6405491202
 20
61.5305664793
 30
0.0
 10
20.2559248128
 20
61.5542745155
 30
0.0
 10
19.8976543951
 20
61.4988321044
 30
0.0
 10
19.6804455615
 20
61.4077403891
 30
0.0
 10
19.5816351688
 20
61.3507058827
 30
0.0
  0
SPLINE
  5
338
100
AcDbEntity
  8
0
100
AcDbSpline
 62
7
  6
CONTINUOUS
 70
0
 71
3
 72
20
 73
16
 74
0
 42
0.0000001
 43
0.0000001
 44
0.0000000001
 40
0.0
 40
0.0
 40
0.0
 40
0.0
 40
0.0623990873
 40
0.1288066115
 40
0.2702994801
 40
0.4173588432
 40
0.5616127852
 40
0.6302518905
 40
0.6953770725
 40
0.7563610223
 40
0.8128325654
 40
0.8647627915
 40
0.9125666458
 40
0.9571682735
 40
1.0
 40
1.0
 40
1.0
 40
1.0
 10
21.6316189065
 20
55.1055507248
 30
0.0
 10
21.5130945439
 20
55.1739792494
 30
0.0
 10
21.2775517592
 20
55.3314305708
 30
0.0
 10
20.8232629678
 20
55.7137114496
 30
0.0
 10
20.3060448106
 20
56.3022152359
 30
0.0
 10
19.8068249158
 20
57.1142523645
 30
0.0
 10
19.509178552
 20
57.8504300695
 30
0.0
 10
19.3621688024
 20
58.4430936834
 30
0.0
 10
19.3022198063
 20
58.8668694732
 30
0.0
 10
19.2919910941
 20
59.2681956868
 30
0.0
 10
19.3319598807
 20
59.6388414549
 30
0.0
 10
19.4217882187
 20
59.9711624852
 30
0.0
 10
19.5604550119
 20
60.2581808072
 30
0.0
 10
19.7460476994
 20
60.4928755537
 30
0.0
 10
19.9002829018
 20
60.6109027913
 30
0.0
 10
19.9816384844
 20
60.6578756895
 30
0.0
  0
SPLINE
  5
339
100
AcDbEntity
  8
0
100
AcDbSpline
 62
7
  6
CONTINUOUS
 70
0
 71
3
 72
11
 73
7
 74
0
 42
0.0000001
 43
0.0000001
 44
0.0000000001
 40
0.0
 40
0.0
 40
0.0
 40
0.0
 40
0.2893955969
 40
0.5491264745
 40
0.7823127214
 40
1.0
 40
1.0
 40
1.0
 40
1.0
 10
27.2884967076
 20
51.1864227549
 30
0.0
 10
27.3060291771
 20
51.1763006079
 30
0.0
 10
27.3409596858
 20
51.1597265799
 30
0.0
 10
27.3946157357
 20
51.1467042485
 30
0.0
 10
27.4449945469
 20
51.1479953474
 30
0.0
 10
27.4753045597
 20
51.1590043675
 30
0.0
 10
27.4884872803
 20
51.1666277979
 30
0.0
  0
SPLINE
  5
33A
100
AcDbEntity
  8
0
100
AcDbSpline
 62
7
  6
CONTINUOUS
 70
0
 71
3
 72
11
 73
7
 74
0
 42
0.0000001
 43
0.0000001
 44
0.0000000001
 40
0.0
 40
0.0
 40
0.0
 40
0.0
 40
0.2177833598
 40
0.4509104088
 40
0.7102966711
 40
1.0
 40
1.0
 40
1.0
 40
1.0
 10
48.7117911191
 20
38.2934995761
 30
0.0
 10
48.6727135524
 20
38.2709382602
 30
0.0
 10
48.5996010314
 20
38.2094727097
 30
0.0
 10
48.5217640876
 20
38.0822057623
 30
0.0
 10
48.4755335203
 20
37.9253655691
 30
0.0
 10
48.4664329758
 20
37.8112125969
 30
0.0
 10
48.4664329758
 20
37.7511885797
 30
0.0
  0
SPLINE
  5
33B
100
AcDbEntity
  8
0
100
AcDbSpline
 62
7
  6
CONTINUOUS
 70
0
 71
3
 72
11
 73
7
 74
0
 42
0.0000001
 43
0.0000001
 44
0.0000000001
 40
0.0
 40
0.0
 40
0.0
 40
0.0
 40
0.2177833598
 40
0.4509104088
 40
0.7102966711
 40
1.0
 40
1.0
 40
1.0
 40
1.0
 10
14.3679667455
 20
58.1214672547
 30
0.0
 10
14.3288891789
 20
58.0989059387
 30
0.0
 10
14.2557766579
 20
58.0374403882
 30
0.0
 10
14.177939714
 20
57.9101734408
 30
0.0
 10
14.1317091468
 20
57.7533332476
 30
0.0
 10
14.1226086022
 20
57.6391802755
 30
0.0
 10
14.1226086022
 20
57.5791562582
 30
0.0
  0
SPLINE
  5
33C
100
AcDbEntity
  8
0
100
AcDbSpline
 62
7
  6
CONTINUOUS
 70
0
 71
3
 72
12
 73
8
 74
0
 42
0.0000001
 43
0.0000001
 44
0.0000000001
 40
0.0
 40
0.0
 40
0.0
 40
0.0
 40
0.1081605889
 40
0.218368814
 40
0.4513515276
 40
0.7104504877
 40
1.0
 40
1.0
 40
1.0
 40
1.0
 10
19.9816384844
 20
60.6578756895
 30
0.0
 10
20.0357402855
 20
60.6891128625
 30
0.0
 10
20.1506153959
 20
60.7429299377
 30
0.0
 10
20.4028826294
 20
60.8126906441
 30
0.0
 10
20.7562139387
 20
60.8221654541
 30
0.0
 10
21.1986857424
 20
60.7151194861
 30
0.0
 10
21.4867840374
 20
60.5780852368
 30
0.0
 10
21.6316189065
 20
60.4944666779
 30
0.0
  0
SPLINE
  5
33D
100
AcDbEntity
  8
0
100
AcDbSpline
 62
7
  6
CONTINUOUS
 70
0
 71
3
 72
21
 73
17
 74
0
 42
0.0000001
 43
0.0000001
 44
0.0000000001
 40
0.0
 40
0.0
 40
0.0
 40
0.0
 40
0.0428256631
 40
0.087419801
 40
0.1352164443
 40
0.1871408508
 40
0.2436021654
 40
0.3045754956
 40
0.3696915794
 40
0.4383177104
 40
0.582548926
 40
0.7295863475
 40
0.801596186
 40
0.8712123526
 40
0.9376038362
 40
1.0
 40
1.0
 40
1.0
 40
1.0
 10
19.5816351688
 20
69.6790305374
 30
0.0
 10
19.4805487907
 20
69.6206823059
 30
0.0
 10
19.2889628573
 20
69.4739887167
 30
0.0
 10
19.0583447439
 20
69.1824388375
 30
0.0
 10
18.8860394399
 20
68.8258380268
 30
0.0
 10
18.7744912086
 20
68.4129389584
 30
0.0
 10
18.7248053764
 20
67.9524500553
 30
0.0
 10
18.7374837496
 20
67.4538336772
 30
0.0
 10
18.8120132641
 20
66.9273454623
 30
0.0
 10
18.9946368702
 20
66.1909795867
 30
0.0
 10
19.3643583605
 20
65.2765663507
 30
0.0
 10
19.8853691906
 20
64.4288422055
 30
0.0
 10
20.3810879987
 20
63.8167936235
 30
0.0
 10
20.7772654468
 20
63.4100060327
 30
0.0
 10
21.1917133584
 20
63.0613069131
 30
0.0
 10
21.4843460155
 20
62.8656995655
 30
0.0
 10
21.6316189065
 20
62.7806734458
 30
0.0
  0
SPLINE
  5
33E
100
AcDbEntity
  8
0
100
AcDbSpline
 62
7
  6
CONTINUOUS
 70
0
 71
3
 72
11
 73
7
 74
0
 42
0.0000001
 43
0.0000001
 44
0.0000000001
 40
0.0
 40
0.0
 40
0.0
 40
0.0
 40
0.2893955969
 40
0.5491264745
 40
0.7823127214
 40
1.0
 40
1.0
 40
1.0
 40
1.0
 10
27.2884967076
 20
65.5568652964
 30
0.0
 10
27.3060291771
 20
65.5467431494
 30
0.0
 10
27.3409596858
 20
65.5301691214
 30
0.0
 10
27.3946157357
 20
65.51714679
 30
0.0
 10
27.4449945469
 20
65.5184378889
 30
0.0
 10
27.4753045597
 20
65.529446909
 30
0.0
 10
27.4884872803
 20
65.5370703394
 30
0.0
  0
SPLINE
  5
33F
100
AcDbEntity
  8
0
100
AcDbSpline
 62
7
  6
CONTINUOUS
 70
0
 71
3
 72
21
 73
17
 74
0
 42
0.0000001
 43
0.0000001
 44
0.0000000001
 40
0.0
 40
0.0
 40
0.0
 40
0.0
 40
0.0428256631
 40
0.087419801
 40
0.1352164443
 40
0.1871408508
 40
0.2436021654
 40
0.3045754956
 40
0.3696915794
 40
0.4383177104
 40
0.582548926
 40
0.7295863475
 40
0.801596186
 40
0.8712123526
 40
0.9376038362
 40
1.0
 40
1.0
 40
1.0
 40
1.0
 10
19.5816351688
 20
61.3507058827
 30
0.0
 10
19.4805487907
 20
61.2923576512
 30
0.0
 10
19.2889628573
 20
61.145664062
 30
0.0
 10
19.0583447439
 20
60.8541141827
 30
0.0
 10
18.8860394399
 20
60.4975133721
 30
0.0
 10
18.7744912086
 20
60.0846143037
 30
0.0
 10
18.7248053764
 20
59.6241254005
 30
0.0
 10
18.7374837496
 20
59.1255090225
 30
0.0
 10
18.8120132641
 20
58.5990208076
 30
0.0
 10
18.9946368702
 20
57.862654932
 30
0.0
 10
19.3643583605
 20
56.9482416959
 30
0.0
 10
19.8853691906
 20
56.1005175507
 30
0.0
 10
20.3810879987
 20
55.4884689688
 30
0.0
 10
20.7772654468
 20
55.081681378
 30
0.0
 10
21.1917133584
 20
54.7329822584
 30
0.0
 10
21.4843460155
 20
54.5373749108
 30
0.0
 10
21.6316189065
 20
54.4523487911
 30
0.0
  0
SPLINE
  5
340
100
AcDbEntity
  8
0
100
AcDbSpline
 62
7
  6
CONTINUOUS
 70
0
 71
3
 72
11
 73
7
 74
0
 42
0.0000001
 43
0.0000001
 44
0.0000000001
 40
0.0
 40
0.0
 40
0.0
 40
0.0
 40
0.2893955969
 40
0.5491264745
 40
0.7823127214
 40
1.0
 40
1.0
 40
1.0
 40
1.0
 10
27.2884967076
 20
59.5147474097
 30
0.0
 10
27.3060291771
 20
59.5046252627
 30
0.0
 10
27.3409596858
 20
59.4880512346
 30
0.0
 10
27.3946157357
 20
59.4750289032
 30
0.0
 10
27.4449945469
 20
59.4763200022
 30
0.0
 10
27.4753045597
 20
59.4873290222
 30
0.0
 10
27.4884872803
 20
59.4949524527
 30
0.0
  0
SPLINE
  5
341
100
AcDbEntity
  8
0
100
AcDbSpline
 62
7
  6
CONTINUOUS
 70
0
 71
3
 72
12
 73
8
 74
0
 42
0.0000001
 43
0.0000001
 44
0.0000000001
 40
0.0
 40
0.0
 40
0.0
 40
0.0
 40
0.1081605889
 40
0.218368814
 40
0.4513515276
 40
0.7104504877
 40
1.0
 40
1.0
 40
1.0
 40
1.0
 10
19.9816384844
 20
68.9862003443
 30
0.0
 10
20.0357402855
 20
69.0174375172
 30
0.0
 10
20.1506153959
 20
69.0712545925
 30
0.0
 10
20.4028826294
 20
69.1410152989
 30
0.0
 10
20.7562139387
 20
69.1504901088
 30
0.0
 10
21.1986857424
 20
69.0434441409
 30
0.0
 10
21.4867840374
 20
68.9064098915
 30
0.0
 10
21.6316189065
 20
68.8227913326
 30
0.0
  0
SPLINE
  5
342
100
AcDbEntity
  8
0
100
AcDbSpline
 62
7
  6
CONTINUOUS
 70
0
 71
3
 72
11
 73
7
 74
0
 42
0.0000001
 43
0.0000001
 44
0.0000000001
 40
0.0
 40
0.0
 40
0.0
 40
0.0
 40
0.2893955969
 40
0.5491264745
 40
0.7823127214
 40
1.0
 40
1.0
 40
1.0
 40
1.0
 10
27.2884967076
 20
57.2285406417
 30
0.0
 10
27.3060291771
 20
57.2184184947
 30
0.0
 10
27.3409596858
 20
57.2018444667
 30
0.0
 10
27.3946157357
 20
57.1888221352
 30
0.0
 10
27.4449945469
 20
57.1901132342
 30
0.0
 10
27.4753045597
 20
57.2011222543
 30
0.0
 10
27.4884872803
 20
57.2087456847
 30
0.0
  0
SPLINE
  5
343
100
AcDbEntity
  8
0
100
AcDbSpline
 62
7
  6
CONTINUOUS
 70
0
 71
3
 72
17
 73
13
 74
0
 42
0.0000001
 43
0.0000001
 44
0.0000000001
 40
0.0
 40
0.0
 40
0.0
 40
0.0
 40
0.0428579803
 40
0.0874855365
 40
0.1353182087
 40
0.1872817653
 40
0.3045429422
 40
0.4382107634
 40
0.5825533132
 40
0.729712045
 40
0.871310822
 40
1.0
 40
1.0
 40
1.0
 40
1.0
 10
76.0535049355
 20
37.1456445179
 30
0.0
 10
76.1028217113
 20
37.1740909932
 30
0.0
 10
76.1962759346
 20
37.2456485254
 30
0.0
 10
76.3087653687
 20
37.3878594078
 30
0.0
 10
76.3928054983
 20
37.561816128
 30
0.0
 10
76.4683143374
 20
37.8414827268
 30
0.0
 10
76.4777821886
 20
38.2492572701
 30
0.0
 10
76.3722325997
 20
38.7667591328
 30
0.0
 10
76.1595638107
 20
39.2931259478
 30
0.0
 10
75.856796769
 20
39.7855631358
 30
0.0
 10
75.4889660088
 20
40.2040470435
 30
0.0
 10
75.2015764685
 20
40.4251974032
 30
0.0
 10
75.0535272455
 20
40.5106717283
 30
0.0
  0
SPLINE
  5
344
100
AcDbEntity
  8
0
100
AcDbSpline
 62
7
  6
CONTINUOUS
 70
0
 71
3
 72
11
 73
7
 74
0
 42
0.0000001
 43
0.0000001
 44
0.0000000001
 40
0.0
 40
0.0
 40
0.0
 40
0.0
 40
0.2177239861
 40
0.4508730345
 40
0.7104683317
 40
1.0
 40
1.0
 40
1.0
 40
1.0
 10
63.3146016969
 20
95.9501529823
 30
0.0
 10
63.3640684092
 20
95.9787098924
 30
0.0
 10
63.4567005479
 20
96.0564446654
 30
0.0
 10
63.5552753319
 20
96.2176559316
 30
0.0
 10
63.6137028241
 20
96.4162823212
 30
0.0
 10
63.6253023185
 20
96.5608191115
 30
0.0
 10
63.6253023185
 20
96.6367750808
 30
0.0
  0
SPLINE
  5
345
100
AcDbEntity
  8
0
100
AcDbSpline
 62
7
  6
CONTINUOUS
 70
0
 71
3
 72
11
 73
7
 74
0
 42
0.0000001
 43
0.0000001
 44
0.0000000001
 40
0.0
 40
0.0
 40
0.0
 40
0.0
 40
0.2177239861
 40
0.4508730345
 40
0.7104683317
 40
1.0
 40
1.0
 40
1.0
 40
1.0
 10
47.2362583158
 20
109.5529493904
 30
0.0
 10
47.2857250281
 20
109.5815063004
 30
0.0
 10
47.3783571667
 20
109.6592410735
 30
0.0
 10
47.4769319507
 20
109.8204523397
 30
0.0
 10
47.5353594429
 20
110.0190787292
 30
0.0
 10
47.5469589373
 20
110.1636155195
 30
0.0
 10
47.5469589373
 20
110.2395714888
 30
0.0
  0
SPLINE
  5
346
100
AcDbEntity
  8
0
100
AcDbSpline
 62
7
  6
CONTINUOUS
 70
0
 71
3
 72
11
 73
7
 74
0
 42
0.0000001
 43
0.0000001
 44
0.0000000001
 40
0.0
 40
0.0
 40
0.0
 40
0.0
 40
0.2177239861
 40
0.4508730345
 40
0.7104683317
 40
1.0
 40
1.0
 40
1.0
 40
1.0
 10
44.7613742778
 20
110.9817920312
 30
0.0
 10
44.8108409901
 20
111.0103489412
 30
0.0
 10
44.9034731287
 20
111.0880837143
 30
0.0
 10
45.0020479127
 20
111.2492949805
 30
0.0
 10
45.0604754049
 20
111.4479213701
 30
0.0
 10
45.0720748993
 20
111.5924581603
 30
0.0
 10
45.0720748993
 20
111.6684141296
 30
0.0
  0
SPLINE
  5
347
100
AcDbEntity
  8
0
100
AcDbSpline
 62
7
  6
CONTINUOUS
 70
0
 71
3
 72
17
 73
13
 74
0
 42
0.0000001
 43
0.0000001
 44
0.0000000001
 40
0.0
 40
0.0
 40
0.0
 40
0.0
 40
0.1286846513
 40
0.2703032228
 40
0.4174430309
 40
0.5617811216
 40
0.695448235
 40
0.8127121431
 40
0.8646788239
 40
0.9125086207
 40
0.9571391214
 40
1.0
 40
1.0
 40
1.0
 40
1.0
 10
63.6253023185
 20
96.6367750808
 30
0.0
 10
63.6253023185
 20
96.7649823262
 30
0.0
 10
63.5894077315
 20
97.0345853063
 30
0.0
 10
63.4555669706
 20
97.4304316615
 30
0.0
 10
63.2492278713
 20
97.8117236168
 30
0.0
 10
62.987129605
 20
98.1472254869
 30
0.0
 10
62.6905864098
 20
98.4098559283
 30
0.0
 10
62.4221707273
 20
98.5565656964
 30
0.0
 10
62.2122245637
 20
98.6125034021
 30
0.0
 10
62.067720675
 20
98.623059931
 30
0.0
 10
61.9331450271
 20
98.603430087
 30
0.0
 10
61.8516555454
 20
98.5694688582
 30
0.0
 10
61.8146737645
 20
98.5481194428
 30
0.0
  0
SPLINE
  5
348
100
AcDbEntity
  8
0
100
AcDbSpline
 62
7
  6
CONTINUOUS
 70
0
 71
3
 72
17
 73
13
 74
0
 42
0.0000001
 43
0.0000001
 44
0.0000000001
 40
0.0
 40
0.0
 40
0.0
 40
0.0
 40
0.1286846513
 40
0.2703032228
 40
0.4174430309
 40
0.5617811216
 40
0.695448235
 40
0.8127121431
 40
0.8646788239
 40
0.9125086207
 40
0.9571391214
 40
1.0
 40
1.0
 40
1.0
 40
1.0
 10
47.5469589373
 20
110.2395714888
 30
0.0
 10
47.5469589373
 20
110.3677787342
 30
0.0
 10
47.5110643503
 20
110.6373817144
 30
0.0
 10
47.3772235895
 20
111.0332280695
 30
0.0
 10
47.1708844902
 20
111.4145200248
 30
0.0
 10
46.9087862239
 20
111.7500218949
 30
0.0
 10
46.6122430286
 20
112.0126523364
 30
0.0
 10
46.3438273462
 20
112.1593621044
 30
0.0
 10
46.1338811826
 20
112.2152998101
 30
0.0
 10
45.9893772939
 20
112.2258563391
 30
0.0
 10
45.8548016459
 20
112.2062264951
 30
0.0
 10
45.7733121643
 20
112.1722652662
 30
0.0
 10
45.7363303834
 20
112.1509158508
 30
0.0
  0
SPLINE
  5
349
100
AcDbEntity
  8
0
100
AcDbSpline
 62
7
  6
CONTINUOUS
 70
0
 71
3
 72
17
 73
13
 74
0
 42
0.0000001
 43
0.0000001
 44
0.0000000001
 40
0.0
 40
0.0
 40
0.0
 40
0.0
 40
0.1286846513
 40
0.2703032228
 40
0.4174430309
 40
0.5617811216
 40
0.695448235
 40
0.8127121431
 40
0.8646788239
 40
0.9125086207
 40
0.9571391214
 40
1.0
 40
1.0
 40
1.0
 40
1.0
 10
45.0720748993
 20
111.6684141296
 30
0.0
 10
45.0720748993
 20
111.7966213751
 30
0.0
 10
45.0361803123
 20
112.0662243552
 30
0.0
 10
44.9023395514
 20
112.4620707104
 30
0.0
 10
44.6960004522
 20
112.8433626657
 30
0.0
 10
44.4339021858
 20
113.1788645357
 30
0.0
 10
44.1373589906
 20
113.4414949772
 30
0.0
 10
43.8689433082
 20
113.5882047453
 30
0.0
 10
43.6589971446
 20
113.644142451
 30
0.0
 10
43.5144932559
 20
113.6546989799
 30
0.0
 10
43.3799176079
 20
113.6350691359
 30
0.0
 10
43.2984281263
 20
113.601107907
 30
0.0
 10
43.2614463454
 20
113.5797584916
 30
0.0
  0
SPLINE
  5
34A
100
AcDbEntity
  8
0
100
AcDbSpline
 62
7
  6
CONTINUOUS
 70
0
 71
3
 72
11
 73
7
 74
0
 42
0.0000001
 43
0.0000001
 44
0.0000000001
 40
0.0
 40
0.0
 40
0.0
 40
0.0
 40
0.2897042895
 40
0.5490907647
 40
0.7822174449
 40
1.0
 40
1.0
 40
1.0
 40
1.0
 10
49.1381857427
 20
32.2030602095
 30
0.0
 10
49.1381857427
 20
32.1093237192
 30
0.0
 10
49.1523974949
 20
31.9310569691
 30
0.0
 10
49.2245932101
 20
31.6861280476
 30
0.0
 10
49.3461468867
 20
31.4873826609
 30
0.0
 10
49.4603228359
 20
31.3913959851
 30
0.0
 10
49.5213481516
 20
31.3561638306
 30
0.0
  0
SPLINE
  5
34B
100
AcDbEntity
  8
0
100
AcDbSpline
 62
7
  6
CONTINUOUS
 70
0
 71
3
 72
11
 73
7
 74
0
 42
0.0000001
 43
0.0000001
 44
0.0000000001
 40
0.0
 40
0.0
 40
0.0
 40
0.0
 40
0.2897042895
 40
0.5490907647
 40
0.7822174449
 40
1.0
 40
1.0
 40
1.0
 40
1.0
 10
14.4898092105
 20
52.206857181
 30
0.0
 10
14.4898092105
 20
52.1131206907
 30
0.0
 10
14.5040209627
 20
51.9348539406
 30
0.0
 10
14.5762166779
 20
51.6899250191
 30
0.0
 10
14.6977703545
 20
51.4911796324
 30
0.0
 10
14.8119463037
 20
51.3951929566
 30
0.0
 10
14.8729716194
 20
51.3599608021
 30
0.0
  0
SPLINE
  5
34C
100
AcDbEntity
  8
0
100
AcDbSpline
 62
7
  6
CONTINUOUS
 70
0
 71
3
 72
11
 73
7
 74
0
 42
0.0000001
 43
0.0000001
 44
0.0000000001
 40
0.0
 40
0.0
 40
0.0
 40
0.0
 40
0.2177239861
 40
0.4508730345
 40
0.7104683317
 40
1.0
 40
1.0
 40
1.0
 40
1.0
 10
45.7363303834
 20
112.1509158508
 30
0.0
 10
45.6868636711
 20
112.1223589408
 30
0.0
 10
45.5942315325
 20
112.0446241677
 30
0.0
 10
45.4956567485
 20
111.8834129015
 30
0.0
 10
45.4372292563
 20
111.6847865119
 30
0.0
 10
45.4256297619
 20
111.5402497217
 30
0.0
 10
45.4256297619
 20
111.4642937524
 30
0.0
  0
SPLINE
  5
34D
100
AcDbEntity
  8
0
100
AcDbSpline
 62
7
  6
CONTINUOUS
 70
0
 71
3
 72
11
 73
7
 74
0
 42
0.0000001
 43
0.0000001
 44
0.0000000001
 40
0.0
 40
0.0
 40
0.0
 40
0.0
 40
0.2177239861
 40
0.4508730345
 40
0.7104683317
 40
1.0
 40
1.0
 40
1.0
 40
1.0
 10
43.2614463454
 20
113.5797584916
 30
0.0
 10
43.2119796331
 20
113.5512015816
 30
0.0
 10
43.1193474944
 20
113.4734668085
 30
0.0
 10
43.0207727105
 20
113.3122555423
 30
0.0
 10
42.9623452182
 20
113.1136291528
 30
0.0
 10
42.9507457239
 20
112.9690923625
 30
0.0
 10
42.9507457239
 20
112.8931363932
 30
0.0
  0
SPLINE
  5
34E
100
AcDbEntity
  8
0
100
AcDbSpline
 62
7
  6
CONTINUOUS
 70
0
 71
3
 72
11
 73
7
 74
0
 42
0.0000001
 43
0.0000001
 44
0.0000000001
 40
0.0
 40
0.0
 40
0.0
 40
0.0
 40
0.2182190615
 40
0.453534886
 40
0.7133839226
 40
1.0
 40
1.0
 40
1.0
 40
1.0
 10
15.7906724167
 20
50.8372577369
 30
0.0
 10
15.740034295
 20
50.8769208297
 30
0.0
 10
15.6472458332
 20
50.9762265079
 30
0.0
 10
15.5496281714
 20
51.1647869019
 30
0.0
 10
15.4914229919
 20
51.3893418332
 30
0.0
 10
15.4797628257
 20
51.5508368799
 30
0.0
 10
15.4797628257
 20
51.6353201246
 30
0.0
  0
SPLINE
  5
34F
100
AcDbEntity
  8
0
100
AcDbSpline
 62
7
  6
CONTINUOUS
 70
0
 71
3
 72
13
 73
9
 74
0
 42
0.0000001
 43
0.0000001
 44
0.0000000001
 40
0.0
 40
0.0
 40
0.0
 40
0.0
 40
0.1096853819
 40
0.2302066984
 40
0.4923143248
 40
0.758681789
 40
0.8842015284
 40
1.0
 40
1.0
 40
1.0
 40
1.0
 10
73.6486570557
 20
39.8760672727
 30
0.0
 10
73.6366487471
 20
39.7627662755
 30
0.0
 10
73.636897915
 20
39.5219918842
 30
0.0
 10
73.7214335776
 20
39.0160007391
 30
0.0
 10
73.9716226874
 20
38.3816345552
 30
0.0
 10
74.3632560024
 20
37.817847611
 30
0.0
 10
74.7439298731
 20
37.4508638576
 30
0.0
 10
74.9493563218
 20
37.30480381
 30
0.0
 10
75.0535272455
 20
37.2446620598
 30
0.0
  0
SPLINE
  5
350
100
AcDbEntity
  8
0
100
AcDbSpline
 62
7
  6
CONTINUOUS
 70
0
 71
3
 72
17
 73
13
 74
0
 42
0.0000001
 43
0.0000001
 44
0.0000000001
 40
0.0
 40
0.0
 40
0.0
 40
0.0
 40
0.1286846513
 40
0.2703032228
 40
0.4174430309
 40
0.5617811216
 40
0.695448235
 40
0.8127121431
 40
0.8646788239
 40
0.9125086207
 40
0.9571391214
 40
1.0
 40
1.0
 40
1.0
 40
1.0
 10
61.503973143
 20
97.8614973443
 30
0.0
 10
61.503973143
 20
97.7332900989
 30
0.0
 10
61.53986773
 20
97.4636871188
 30
0.0
 10
61.6737084909
 20
97.0678407636
 30
0.0
 10
61.8800475902
 20
96.6865488083
 30
0.0
 10
62.1421458565
 20
96.3510469382
 30
0.0
 10
62.4386890517
 20
96.0884164967
 30
0.0
 10
62.7071047341
 20
95.9417067287
 30
0.0
 10
62.9170508977
 20
95.885769023
 30
0.0
 10
63.0615547865
 20
95.875212494
 30
0.0
 10
63.1961304344
 20
95.8948423381
 30
0.0
 10
63.2776199161
 20
95.9288035669
 30
0.0
 10
63.3146016969
 20
95.9501529823
 30
0.0
  0
SPLINE
  5
351
100
AcDbEntity
  8
0
100
AcDbSpline
 62
7
  6
CONTINUOUS
 70
0
 71
3
 72
11
 73
7
 74
0
 42
0.0000001
 43
0.0000001
 44
0.0000000001
 40
0.0
 40
0.0
 40
0.0
 40
0.0
 40
0.2896403952
 40
0.5491094116
 40
0.7822346475
 40
1.0
 40
1.0
 40
1.0
 40
1.0
 10
75.0535272455
 20
37.2446620598
 30
0.0
 10
75.1412659646
 20
37.1940072326
 30
0.0
 10
75.3158654688
 20
37.1109859581
 30
0.0
 10
75.5841804382
 20
37.046144028
 30
0.0
 10
75.8359978759
 20
37.0524768118
 30
0.0
 10
75.9875237962
 20
37.1075858489
 30
0.0
 10
76.0535049355
 20
37.1456445179
 30
0.0
  0
SPLINE
  5
352
100
AcDbEntity
  8
0
100
AcDbSpline
 62
7
  6
CONTINUOUS
 70
0
 71
3
 72
17
 73
13
 74
0
 42
0.0000001
 43
0.0000001
 44
0.0000000001
 40
0.0
 40
0.0
 40
0.0
 40
0.0
 40
0.1286846513
 40
0.2703032228
 40
0.4174430309
 40
0.5617811216
 40
0.695448235
 40
0.8127121431
 40
0.8646788239
 40
0.9125086207
 40
0.9571391214
 40
1.0
 40
1.0
 40
1.0
 40
1.0
 10
45.4256297619
 20
111.4642937524
 30
0.0
 10
45.4256297619
 20
111.3360865069
 30
0.0
 10
45.4615243489
 20
111.0664835268
 30
0.0
 10
45.5953651097
 20
110.6706371716
 30
0.0
 10
45.801704209
 20
110.2893452163
 30
0.0
 10
46.0638024753
 20
109.9538433463
 30
0.0
 10
46.3603456706
 20
109.6912129048
 30
0.0
 10
46.628761353
 20
109.5445031367
 30
0.0
 10
46.8387075166
 20
109.488565431
 30
0.0
 10
46.9832114053
 20
109.4780089021
 30
0.0
 10
47.1177870533
 20
109.4976387461
 30
0.0
 10
47.1992765349
 20
109.531599975
 30
0.0
 10
47.2362583158
 20
109.5529493904
 30
0.0
  0
SPLINE
  5
353
100
AcDbEntity
  8
0
100
AcDbSpline
 62
7
  6
CONTINUOUS
 70
0
 71
3
 72
17
 73
13
 74
0
 42
0.0000001
 43
0.0000001
 44
0.0000000001
 40
0.0
 40
0.0
 40
0.0
 40
0.0
 40
0.1286846513
 40
0.2703032228
 40
0.4174430309
 40
0.5617811216
 40
0.695448235
 40
0.8127121431
 40
0.8646788239
 40
0.9125086207
 40
0.9571391214
 40
1.0
 40
1.0
 40
1.0
 40
1.0
 10
42.9507457239
 20
112.8931363932
 30
0.0
 10
42.9507457239
 20
112.7649291478
 30
0.0
 10
42.9866403108
 20
112.4953261676
 30
0.0
 10
43.1204810717
 20
112.0994798125
 30
0.0
 10
43.326820171
 20
111.7181878572
 30
0.0
 10
43.5889184373
 20
111.3826859871
 30
0.0
 10
43.8854616326
 20
111.1200555456
 30
0.0
 10
44.153877315
 20
110.9733457776
 30
0.0
 10
44.3638234786
 20
110.9174080719
 30
0.0
 10
44.5083273673
 20
110.9068515429
 30
0.0
 10
44.6429030152
 20
110.9264813869
 30
0.0
 10
44.7243924969
 20
110.9604426158
 30
0.0
 10
44.7613742778
 20
110.9817920312
 30
0.0
  0
SPLINE
  5
354
100
AcDbEntity
  8
0
100
AcDbSpline
 62
7
  6
CONTINUOUS
 70
0
 71
3
 72
11
 73
7
 74
0
 42
0.0000001
 43
0.0000001
 44
0.0000000001
 40
0.0
 40
0.0
 40
0.0
 40
0.0
 40
0.2177239861
 40
0.4508730345
 40
0.7104683317
 40
1.0
 40
1.0
 40
1.0
 40
1.0
 10
61.8146737645
 20
98.5481194428
 30
0.0
 10
61.7652070522
 20
98.5195625327
 30
0.0
 10
61.6725749136
 20
98.4418277596
 30
0.0
 10
61.5740001296
 20
98.2806164934
 30
0.0
 10
61.5155726374
 20
98.0819901039
 30
0.0
 10
61.503973143
 20
97.9374533136
 30
0.0
 10
61.503973143
 20
97.8614973443
 30
0.0
  0
ENDSEC
  0
SECTION
  2
OBJECTS
  0
DICTIONARY
  5
C
100
AcDbDictionary
280
0
281
1
  3
ACAD_GROUP
350
D
  3
ACAD_MLINESTYLE
350
17
  3
ACAD_LAYOUT
350
1A
  3
ACAD_PLOTSETTINGS
350
19
  3
ACAD_PLOTSTYLENAME
350
E
  0
DICTIONARY
  5
D
102
{ACAD_REACTORS
330
C
102
}
100
AcDbDictionary
280
0
281
1
  0
ACDBDICTIONARYWDFLT
  5
E
102
{ACAD_REACTORS
330
C
102
}
100
AcDbDictionary
281
1
  3
Normal
350
F
100
AcDbDictionaryWithDefault
340
F
  0
DICTIONARY
  5
17
102
{ACAD_REACTORS
330
C
102
}
100
AcDbDictionary
280
0
281
1
  3
Standard
350
18
  0
DICTIONARY
  5
19
102
{ACAD_REACTORS
330
C
102
}
100
AcDbDictionary
281
1
  0
DICTIONARY
  5
1A
102
{ACAD_REACTORS
330
C
102
}
100
AcDbDictionary
281
1
  3
Model
350
355
  3
Layout1
350
356
  0
ACDBPLACEHOLDER
  5
F
102
{ACAD_REACTORS
330
E
102
}
  0
MLINESTYLE
  5
18
102
{ACAD_REACTORS
330
17
102
}
100
AcDbMlineStyle
  2
STANDARD
 70
0
  3

 62
256
 51
90.0
 52
90.0
 71
2
 49
0.5
 62
256
  6
BYLAYER
 49
-0.5
 62
256
  6
BYLAYER
  0
LAYOUT
  5
355
102
{ACAD_REACTORS
330
1A
102
}
100
AcDbPlotSettings
  1

  2
none_device
  4

  6

 40
0.0
 41
0.0
 42
0.0
 43
0.0
 44
210.0
 45
297.0
 46
0.0
 47
0.0
 48
0.0
 49
0.0
140
0.0
141
0.0
142
1.0
143
1.0
 70
1024
 72
1
 73
0
 74
0
  7

 75
0
147
1.0
148
0.0
149
0.0
100
AcDbLayout
  1
Model
 70
0
 71
0
 10
0.0
 20
0.0
 11
210.0
 21
297.0
 12
0.0
 22
0.0
 32
0.0
 14
0.0
 24
0.0
 34
0.0
 15
0.0
 25
0.0
 35
0.0
146
0.0
 13
0.0
 23
0.0
 33
0.0
 16
1.0
 26
0.0
 36
0.0
 17
0.0
 27
1.0
 37
0.0
 76
0
330
210
345
0
346
0
  0
LAYOUT
  5
356
102
{ACAD_REACTORS
330
1A
102
}
100
AcDbPlotSettings
  1

  2
none_device
  4

  6

 40
0.0
 41
0.0
 42
0.0
 43
0.0
 44
210.0
 45
297.0
 46
0.0
 47
0.0
 48
0.0
 49
0.0
140
0.0
141
0.0
142
1.0
143
1.0
 70
0
 72
1
 73
0
 74
0
  7

 75
0
147
1.0
148
0.0
149
0.0
100
AcDbLayout
  1
Layout1
 70
0
 71
1
 10
0.0
 20
0.0
 11
210.0
 21
297.0
 12
0.0
 22
0.0
 32
0.0
 14
0.0
 24
0.0
 34
0.0
 15
0.0
 25
0.0
 35
0.0
146
0.0
 13
0.0
 23
0.0
 33
0.0
 16
1.0
 26
0.0
 36
0.0
 17
0.0
 27
1.0
 37
0.0
 76
0
330
211
345
0
346
0
  0
ENDSEC
  0
EOF
