  0
SECTION
  2
HEADER
  9
$ACADVER
  1
AC1012
  9
$DWGCODEPAGE
  3
ANSI_1252
  9
$INSBASE
 10
0.0
 20
0.0
 30
0.0
  9
$EXTMIN
 10
0.8703003219215901
 20
2.863723779171383
 30
-0.0000000000112498
  9
$EXTMAX
 10
5.953308126369151
 20
7.370178241713645
 30
0.0000000000002956
  9
$LIMMIN
 10
0.0
 20
0.0
  9
$LIMMAX
 10
12.0
 20
9.0
  9
$ORTHOMODE
 70
     0
  9
$REGENMODE
 70
     1
  9
$FILLMODE
 70
     1
  9
$QTEXTMODE
 70
     0
  9
$MIRRTEXT
 70
     1
  9
$DRAGMODE
 70
     2
  9
$LTSCALE
 40
1.0
  9
$OSMODE
 70
   547
  9
$ATTMODE
 70
     1
  9
$TEXTSIZE
 40
0.2
  9
$TRACEWID
 40
0.05
  9
$TEXTSTYLE
  7
STANDARD
  9
$CLAYER
  8
0
  9
$CELTYPE
  6
BYLAYER
  9
$CECOLOR
 62
   256
  9
$CELTSCALE
 40
1.0
  9
$DELOBJ
 70
     1
  9
$DISPSILH
 70
     0
  9
$DIMSCALE
 40
1.0
  9
$DIMASZ
 40
0.18
  9
$DIMEXO
 40
0.0625
  9
$DIMDLI
 40
0.38
  9
$DIMRND
 40
0.0
  9
$DIMDLE
 40
0.0
  9
$DIMEXE
 40
0.18
  9
$DIMTP
 40
0.0
  9
$DIMTM
 40
0.0
  9
$DIMTXT
 40
0.18
  9
$DIMCEN
 40
0.09
  9
$DIMTSZ
 40
0.0
  9
$DIMTOL
 70
     0
  9
$DIMLIM
 70
     0
  9
$DIMTIH
 70
     1
  9
$DIMTOH
 70
     1
  9
$DIMSE1
 70
     0
  9
$DIMSE2
 70
     0
  9
$DIMTAD
 70
     0
  9
$DIMZIN
 70
     0
  9
$DIMBLK
  1

  9
$DIMASO
 70
     1
  9
$DIMSHO
 70
     1
  9
$DIMPOST
  1

  9
$DIMAPOST
  1

  9
$DIMALT
 70
     0
  9
$DIMALTD
 70
     2
  9
$DIMALTF
 40
25.4
  9
$DIMLFAC
 40
1.0
  9
$DIMTOFL
 70
     0
  9
$DIMTVP
 40
0.0
  9
$DIMTIX
 70
     0
  9
$DIMSOXD
 70
     0
  9
$DIMSAH
 70
     0
  9
$DIMBLK1
  1

  9
$DIMBLK2
  1

  9
$DIMSTYLE
  2
STANDARD
  9
$DIMCLRD
 70
     0
  9
$DIMCLRE
 70
     0
  9
$DIMCLRT
 70
     0
  9
$DIMTFAC
 40
1.0
  9
$DIMGAP
 40
0.09
  9
$DIMJUST
 70
     0
  9
$DIMSD1
 70
     0
  9
$DIMSD2
 70
     0
  9
$DIMTOLJ
 70
     1
  9
$DIMTZIN
 70
     0
  9
$DIMALTZ
 70
     0
  9
$DIMALTTZ
 70
     0
  9
$DIMFIT
 70
     5
  9
$DIMUPT
 70
     0
  9
$DIMUNIT
 70
     2
  9
$DIMDEC
 70
     4
  9
$DIMTDEC
 70
     4
  9
$DIMALTU
 70
     2
  9
$DIMALTTD
 70
     2
  9
$DIMTXSTY
  7
STANDARD
  9
$DIMAUNIT
 70
     0
  9
$LUNITS
 70
     2
  9
$LUPREC
 70
     4
  9
$SKETCHINC
 40
0.1
  9
$FILLETRAD
 40
0.0
  9
$AUNITS
 70
     0
  9
$AUPREC
 70
     0
  9
$MENU
  1
acad
  9
$ELEVATION
 40
0.0
  9
$PELEVATION
 40
0.0
  9
$THICKNESS
 40
0.0
  9
$LIMCHECK
 70
     0
  9
$BLIPMODE
 70
     0
  9
$CHAMFERA
 40
0.0
  9
$CHAMFERB
 40
0.0
  9
$CHAMFERC
 40
0.0
  9
$CHAMFERD
 40
0.0
  9
$SKPOLY
 70
     0
  9
$TDCREATE
 40
2453529.594583333
  9
$TDUPDATE
 40
2453944.471525254
  9
$TDINDWG
 40
0.0021783796
  9
$TDUSRTIMER
 40
0.0021783796
  9
$USRTIMER
 70
     1
  9
$ANGBASE
 50
0.0
  9
$ANGDIR
 70
     0
  9
$PDMODE
 70
     0
  9
$PDSIZE
 40
0.0
  9
$PLINEWID
 40
0.0
  9
$COORDS
 70
     1
  9
$SPLFRAME
 70
     0
  9
$SPLINETYPE
 70
     6
  9
$SPLINESEGS
 70
     8
  9
$ATTDIA
 70
     0
  9
$ATTREQ
 70
     1
  9
$HANDLING
 70
  4097
  9
$HANDSEED
  5
5126
  9
$SURFTAB1
 70
     6
  9
$SURFTAB2
 70
     6
  9
$SURFTYPE
 70
     6
  9
$SURFU
 70
     6
  9
$SURFV
 70
     6
  9
$UCSNAME
  2

  9
$UCSORG
 10
0.0
 20
0.0
 30
0.0
  9
$UCSXDIR
 10
1.0
 20
0.0
 30
0.0
  9
$UCSYDIR
 10
0.0
 20
1.0
 30
0.0
  9
$PUCSNAME
  2

  9
$PUCSORG
 10
0.0
 20
0.0
 30
0.0
  9
$PUCSXDIR
 10
1.0
 20
0.0
 30
0.0
  9
$PUCSYDIR
 10
0.0
 20
1.0
 30
0.0
  9
$USERI1
 70
     0
  9
$USERI2
 70
     0
  9
$USERI3
 70
     0
  9
$USERI4
 70
     0
  9
$USERI5
 70
     0
  9
$USERR1
 40
0.0
  9
$USERR2
 40
0.0
  9
$USERR3
 40
0.0
  9
$USERR4
 40
0.0
  9
$USERR5
 40
0.0
  9
$WORLDVIEW
 70
     1
  9
$SHADEDGE
 70
     3
  9
$SHADEDIF
 70
    70
  9
$TILEMODE
 70
     1
  9
$MAXACTVP
 70
    16
  9
$PINSBASE
 10
0.0
 20
0.0
 30
0.0
  9
$PLIMCHECK
 70
     0
  9
$PEXTMIN
 10
1.000000000000000E+20
 20
1.000000000000000E+20
 30
1.000000000000000E+20
  9
$PEXTMAX
 10
-1.000000000000000E+20
 20
-1.000000000000000E+20
 30
-1.000000000000000E+20
  9
$PLIMMIN
 10
0.0
 20
0.0
  9
$PLIMMAX
 10
12.0
 20
9.0
  9
$UNITMODE
 70
     0
  9
$VISRETAIN
 70
     0
  9
$PLINEGEN
 70
     0
  9
$PSLTSCALE
 70
     1
  9
$TREEDEPTH
 70
  3020
  9
$PICKSTYLE
 70
     1
  9
$CMLSTYLE
  2
STANDARD
  9
$CMLJUST
 70
     0
  9
$CMLSCALE
 40
1.0
  9
$SAVEIMAGES
 70
     1
  0
ENDSEC
  0
SECTION
  2
CLASSES
  0
CLASS
  1
ACDBDICTIONARYWDFLT
  2
AcDbDictionaryWithDefault
  3
AutoCAD 2000
 90
    32768
280
     0
281
     0
  0
CLASS
  1
ACDBPLACEHOLDER
  2
AcDbPlaceHolder
  3
AutoCAD 2000
 90
    32768
280
     0
281
     0
  0
CLASS
  1
LAYOUT
  2
AcDbLayout
  3
AutoCAD 2000
 90
    32768
280
     0
281
     0
  0
CLASS
  1
LONG_TRANSACTION
  2
AcDbLongTransaction
  3
AutoCAD 2000
 90
    32768
280
     0
281
     0
  0
CLASS
  1
LWPOLYLINE
  2
AcDbPolyline
  3
AutoCAD 2000
 90
    32768
280
     0
281
     1
  0
CLASS
  1
HATCH
  2
AcDbHatch
  3
AutoCAD 2000
 90
    32768
280
     0
281
     1
  0
CLASS
  1
XRECORD
  2
AcDbXrecord
  3
AutoCAD 2000
 90
    32768
280
     0
281
     0
  0
CLASS
  1
LONG_TRANSACTION
  2
AcDbLongTransaction
  3
AutoCAD 2000
 90
    32768
280
     0
281
     0
  0
CLASS
  1
LWPOLYLINE
  2
AcDbPolyline
  3
AutoCAD 2000
 90
    32768
280
     0
281
     1
  0
CLASS
  1
HATCH
  2
AcDbHatch
  3
AutoCAD 2000
 90
    32768
280
     0
281
     1
  0
CLASS
  1
XRECORD
  2
AcDbXrecord
  3
AutoCAD 2000
 90
    32768
280
     0
281
     0
  0
CLASS
  1
LONG_TRANSACTION
  2
AcDbLongTransaction
  3
AutoCAD 2000
 90
    32768
280
     0
281
     0
  0
CLASS
  1
LWPOLYLINE
  2
AcDbPolyline
  3
AutoCAD 2000
 90
    32768
280
     0
281
     1
  0
CLASS
  1
HATCH
  2
AcDbHatch
  3
AutoCAD 2000
 90
    32768
280
     0
281
     1
  0
CLASS
  1
XRECORD
  2
AcDbXrecord
  3
AutoCAD 2000
 90
    32768
280
     0
281
     0
  0
ENDSEC
  0
SECTION
  2
TABLES
  0
TABLE
  2
VPORT
  5
8
330
0
100
AcDbSymbolTable
 70
     3
  0
VPORT
  5
5123
330
8
100
AcDbSymbolTableRecord
100
AcDbViewportTableRecord
  2
*ACTIVE
 70
     0
 10
0.0
 20
0.0
 11
1.0
 21
1.0
 12
3.41180422414537
 22
5.116951010442514
 13
0.0
 23
0.0
 14
1.0
 24
1.0
 15
0.0
 25
0.0
 16
0.0
 26
0.0
 36
1.0
 17
0.0
 27
0.0
 37
0.0
 40
4.553315340835595
 41
1.647569444444444
 42
50.0
 43
0.0
 44
0.0
 50
0.0
 51
0.0
 71
     0
 72
   100
 73
     1
 74
     1
 75
     0
 76
     0
 77
     0
 78
     0
  0
ENDTAB
  0
TABLE
  2
LTYPE
  5
5
330
0
100
AcDbSymbolTable
 70
    25
  0
LTYPE
  5
13
330
5
100
AcDbSymbolTableRecord
100
AcDbLinetypeTableRecord
  2
BYBLOCK
 70
     0
  3

 72
    65
 73
     0
 40
0.0
  0
LTYPE
  5
14
330
5
100
AcDbSymbolTableRecord
100
AcDbLinetypeTableRecord
  2
BYLAYER
 70
     0
  3

 72
    65
 73
     0
 40
0.0
  0
LTYPE
  5
15
330
5
100
AcDbSymbolTableRecord
100
AcDbLinetypeTableRecord
  2
CONTINUOUS
 70
     0
  3
Solid line
 72
    65
 73
     0
 40
0.0
  0
LTYPE
  5
22
330
5
100
AcDbSymbolTableRecord
100
AcDbLinetypeTableRecord
  2
BORDER
 70
     0
  3
__ __ . __ __ . __ __ . __ __ . __ __ . __ __ .
 72
    65
 73
     6
 40
1.75
 49
0.5
 74
     0
 49
-0.25
 74
     0
 49
0.5
 74
     0
 49
-0.25
 74
     0
 49
0.5
 74
     0
 49
-0.25
 74
     0
  0
LTYPE
  5
23
330
5
100
AcDbSymbolTableRecord
100
AcDbLinetypeTableRecord
  2
BORDER2
 70
     0
  3
__.__.__.__.__.__.__.__.__.__.__.__.__.__.__.__
 72
    65
 73
     6
 40
0.875
 49
0.25
 74
     0
 49
-0.125
 74
     0
 49
0.25
 74
     0
 49
-0.125
 74
     0
 49
0.25
 74
     0
 49
-0.125
 74
     0
  0
LTYPE
  5
24
330
5
100
AcDbSymbolTableRecord
100
AcDbLinetypeTableRecord
  2
BORDERX2
 70
     0
  3
____  ____  .  ____  ____  .  
 72
    65
 73
     6
 40
3.5
 49
1.0
 74
     0
 49
-0.5
 74
     0
 49
1.0
 74
     0
 49
-0.5
 74
     0
 49
1.0
 74
     0
 49
-0.5
 74
     0
  0
LTYPE
  5
25
330
5
100
AcDbSymbolTableRecord
100
AcDbLinetypeTableRecord
  2
CENTER
 70
     0
  3
____ _ ____ _ ____ _ ____ _ ____ _ ____ _ ____
 72
    65
 73
     4
 40
2.0
 49
1.25
 74
     0
 49
-0.25
 74
     0
 49
0.25
 74
     0
 49
-0.25
 74
     0
  0
LTYPE
  5
26
330
5
100
AcDbSymbolTableRecord
100
AcDbLinetypeTableRecord
  2
CENTER2
 70
     0
  3
____ _ ____ _ ____ _ ____ _ ____ _ ____ _ ____
 72
    65
 73
     4
 40
1.125
 49
0.75
 74
     0
 49
-0.125
 74
     0
 49
0.125
 74
     0
 49
-0.125
 74
     0
  0
LTYPE
  5
27
330
5
100
AcDbSymbolTableRecord
100
AcDbLinetypeTableRecord
  2
CENTERX2
 70
     0
  3
________  __  ________  __  ________  __  
 72
    65
 73
     4
 40
4.0
 49
2.5
 74
     0
 49
-0.5
 74
     0
 49
0.5
 74
     0
 49
-0.5
 74
     0
  0
LTYPE
  5
28
330
5
100
AcDbSymbolTableRecord
100
AcDbLinetypeTableRecord
  2
DASHDOT
 70
     0
  3
__ . __ . __ . __ . __ . __ . __ . 
 72
    65
 73
     4
 40
1.0
 49
0.5
 74
     0
 49
-0.25
 74
     0
 49
0.0
 74
     0
 49
-0.25
 74
     0
  0
LTYPE
  5
29
330
5
100
AcDbSymbolTableRecord
100
AcDbLinetypeTableRecord
  2
DASHDOT2
 70
     0
  3
_._._._._._._._._._._._._._._._.
 72
    65
 73
     4
 40
0.5
 49
0.25
 74
     0
 49
-0.125
 74
     0
 49
0.0
 74
     0
 49
-0.125
 74
     0
  0
LTYPE
  5
2A
330
5
100
AcDbSymbolTableRecord
100
AcDbLinetypeTableRecord
  2
DASHDOTX2
 70
     0
  3
____  .  ____  .  ____  .  ____  .  
 72
    65
 73
     4
 40
2.0
 49
1.0
 74
     0
 49
-0.5
 74
     0
 49
0.0
 74
     0
 49
-0.5
 74
     0
  0
LTYPE
  5
2B
330
5
100
AcDbSymbolTableRecord
100
AcDbLinetypeTableRecord
  2
DASHED
 70
     0
  3
__ __ __ __ __ __ __ __ __ __ __ __ 
 72
    65
 73
     2
 40
0.75
 49
0.5
 74
     0
 49
-0.25
 74
     0
  0
LTYPE
  5
2C
330
5
100
AcDbSymbolTableRecord
100
AcDbLinetypeTableRecord
  2
DASHED2
 70
     0
  3
_ _ _ _ _ _ _ _ _ _ _ _ _ _ _ _ _ _ 
 72
    65
 73
     2
 40
0.375
 49
0.25
 74
     0
 49
-0.125
 74
     0
  0
LTYPE
  5
2D
330
5
100
AcDbSymbolTableRecord
100
AcDbLinetypeTableRecord
  2
DASHEDX2
 70
     0
  3
____  ____  ____  ____  ____  ____  
 72
    65
 73
     2
 40
1.5
 49
1.0
 74
     0
 49
-0.5
 74
     0
  0
LTYPE
  5
2E
330
5
100
AcDbSymbolTableRecord
100
AcDbLinetypeTableRecord
  2
DIVIDE
 70
     0
  3
____ . . ____ . . ____ . . ____ . . 
 72
    65
 73
     6
 40
1.25
 49
0.5
 74
     0
 49
-0.25
 74
     0
 49
0.0
 74
     0
 49
-0.25
 74
     0
 49
0.0
 74
     0
 49
-0.25
 74
     0
  0
LTYPE
  5
2F
330
5
100
AcDbSymbolTableRecord
100
AcDbLinetypeTableRecord
  2
DIVIDE2
 70
     0
  3
__..__..__..__..__..__..__..__..__..
 72
    65
 73
     6
 40
0.625
 49
0.25
 74
     0
 49
-0.125
 74
     0
 49
0.0
 74
     0
 49
-0.125
 74
     0
 49
0.0
 74
     0
 49
-0.125
 74
     0
  0
LTYPE
  5
30
330
5
100
AcDbSymbolTableRecord
100
AcDbLinetypeTableRecord
  2
DIVIDEX2
 70
     0
  3
________  .  .  ________  .  .  ________  .  . 
 72
    65
 73
     6
 40
2.5
 49
1.0
 74
     0
 49
-0.5
 74
     0
 49
0.0
 74
     0
 49
-0.5
 74
     0
 49
0.0
 74
     0
 49
-0.5
 74
     0
  0
LTYPE
  5
31
330
5
100
AcDbSymbolTableRecord
100
AcDbLinetypeTableRecord
  2
DOT
 70
     0
  3
. . . . . . . . . . . . . . . . . . 
 72
    65
 73
     2
 40
0.25
 49
0.0
 74
     0
 49
-0.25
 74
     0
  0
LTYPE
  5
32
330
5
100
AcDbSymbolTableRecord
100
AcDbLinetypeTableRecord
  2
DOT2
 70
     0
  3
....................................
 72
    65
 73
     2
 40
0.125
 49
0.0
 74
     0
 49
-0.125
 74
     0
  0
LTYPE
  5
33
330
5
100
AcDbSymbolTableRecord
100
AcDbLinetypeTableRecord
  2
DOTX2
 70
     0
  3
.  .  .  .  .  .  .  .  .  .  .  .  .  
 72
    65
 73
     2
 40
0.5
 49
0.0
 74
     0
 49
-0.5
 74
     0
  0
LTYPE
  5
34
330
5
100
AcDbSymbolTableRecord
100
AcDbLinetypeTableRecord
  2
HIDDEN
 70
     0
  3
__ __ __ __ __ __ __ __ __ __ __ __ 
 72
    65
 73
     2
 40
0.375
 49
0.25
 74
     0
 49
-0.125
 74
     0
  0
LTYPE
  5
35
330
5
100
AcDbSymbolTableRecord
100
AcDbLinetypeTableRecord
  2
HIDDEN2
 70
     0
  3
_ _ _ _ _ _ _ _ _ _ _ _ _ _ _ _ _ _ 
 72
    65
 73
     2
 40
0.1875
 49
0.125
 74
     0
 49
-0.0625
 74
     0
  0
LTYPE
  5
36
330
5
100
AcDbSymbolTableRecord
100
AcDbLinetypeTableRecord
  2
HIDDENX2
 70
     0
  3
____ ____ ____ ____ ____ ____ ____ 
 72
    65
 73
     2
 40
0.75
 49
0.5
 74
     0
 49
-0.25
 74
     0
  0
LTYPE
  5
37
330
5
100
AcDbSymbolTableRecord
100
AcDbLinetypeTableRecord
  2
PHANTOM
 70
     0
  3
______  __  __  ______  __  __  
 72
    65
 73
     6
 40
2.5
 49
1.25
 74
     0
 49
-0.25
 74
     0
 49
0.25
 74
     0
 49
-0.25
 74
     0
 49
0.25
 74
     0
 49
-0.25
 74
     0
  0
LTYPE
  5
38
330
5
100
AcDbSymbolTableRecord
100
AcDbLinetypeTableRecord
  2
PHANTOM2
 70
     0
  3
___ _ _ ___ _ _ ___ _ _ ___ _ _ 
 72
    65
 73
     6
 40
1.25
 49
0.625
 74
     0
 49
-0.125
 74
     0
 49
0.125
 74
     0
 49
-0.125
 74
     0
 49
0.125
 74
     0
 49
-0.125
 74
     0
  0
LTYPE
  5
39
330
5
100
AcDbSymbolTableRecord
100
AcDbLinetypeTableRecord
  2
PHANTOMX2
 70
     0
  3
___ _ _ ___ _ _ ___ _ _ ___ _ _ 
 72
    65
 73
     6
 40
5.0
 49
2.5
 74
     0
 49
-0.5
 74
     0
 49
0.5
 74
     0
 49
-0.5
 74
     0
 49
0.5
 74
     0
 49
-0.5
 74
     0
  0
ENDTAB
  0
TABLE
  2
LAYER
  5
2
330
0
100
AcDbSymbolTable
 70
   256
  0
LAYER
  5
10
330
2
100
AcDbSymbolTableRecord
100
AcDbLayerTableRecord
  2
0
 70
     0
 62
     7
  6
CONTINUOUS
  0
LAYER
  5
3A
330
2
100
AcDbSymbolTableRecord
100
AcDbLayerTableRecord
  2
1
 70
     0
 62
     1
  6
CONTINUOUS
  0
LAYER
  5
3B
330
2
100
AcDbSymbolTableRecord
100
AcDbLayerTableRecord
  2
2
 70
     0
 62
     2
  6
CONTINUOUS
  0
LAYER
  5
3C
330
2
100
AcDbSymbolTableRecord
100
AcDbLayerTableRecord
  2
3
 70
     0
 62
     3
  6
CONTINUOUS
  0
LAYER
  5
3D
330
2
100
AcDbSymbolTableRecord
100
AcDbLayerTableRecord
  2
4
 70
     0
 62
     4
  6
CONTINUOUS
  0
LAYER
  5
3E
330
2
100
AcDbSymbolTableRecord
100
AcDbLayerTableRecord
  2
5
 70
     0
 62
     5
  6
CONTINUOUS
  0
LAYER
  5
3F
330
2
100
AcDbSymbolTableRecord
100
AcDbLayerTableRecord
  2
6
 70
     0
 62
     6
  6
CONTINUOUS
  0
LAYER
  5
40
330
2
100
AcDbSymbolTableRecord
100
AcDbLayerTableRecord
  2
7
 70
     0
 62
     7
  6
CONTINUOUS
  0
LAYER
  5
41
330
2
100
AcDbSymbolTableRecord
100
AcDbLayerTableRecord
  2
8
 70
     0
 62
     8
  6
CONTINUOUS
  0
LAYER
  5
42
330
2
100
AcDbSymbolTableRecord
100
AcDbLayerTableRecord
  2
9
 70
     0
 62
     9
  6
CONTINUOUS
  0
LAYER
  5
43
330
2
100
AcDbSymbolTableRecord
100
AcDbLayerTableRecord
  2
10
 70
     0
 62
    10
  6
CONTINUOUS
  0
LAYER
  5
44
330
2
100
AcDbSymbolTableRecord
100
AcDbLayerTableRecord
  2
11
 70
     0
 62
    11
  6
CONTINUOUS
  0
LAYER
  5
45
330
2
100
AcDbSymbolTableRecord
100
AcDbLayerTableRecord
  2
12
 70
     0
 62
    12
  6
CONTINUOUS
  0
LAYER
  5
46
330
2
100
AcDbSymbolTableRecord
100
AcDbLayerTableRecord
  2
13
 70
     0
 62
    13
  6
CONTINUOUS
  0
LAYER
  5
47
330
2
100
AcDbSymbolTableRecord
100
AcDbLayerTableRecord
  2
14
 70
     0
 62
    14
  6
CONTINUOUS
  0
LAYER
  5
48
330
2
100
AcDbSymbolTableRecord
100
AcDbLayerTableRecord
  2
15
 70
     0
 62
    15
  6
CONTINUOUS
  0
LAYER
  5
49
330
2
100
AcDbSymbolTableRecord
100
AcDbLayerTableRecord
  2
16
 70
     0
 62
    16
  6
CONTINUOUS
  0
LAYER
  5
4A
330
2
100
AcDbSymbolTableRecord
100
AcDbLayerTableRecord
  2
17
 70
     0
 62
    17
  6
CONTINUOUS
  0
LAYER
  5
4B
330
2
100
AcDbSymbolTableRecord
100
AcDbLayerTableRecord
  2
18
 70
     0
 62
    18
  6
CONTINUOUS
  0
LAYER
  5
4C
330
2
100
AcDbSymbolTableRecord
100
AcDbLayerTableRecord
  2
19
 70
     0
 62
    19
  6
CONTINUOUS
  0
LAYER
  5
4D
330
2
100
AcDbSymbolTableRecord
100
AcDbLayerTableRecord
  2
20
 70
     0
 62
    20
  6
CONTINUOUS
  0
LAYER
  5
4E
330
2
100
AcDbSymbolTableRecord
100
AcDbLayerTableRecord
  2
21
 70
     0
 62
    21
  6
CONTINUOUS
  0
LAYER
  5
4F
330
2
100
AcDbSymbolTableRecord
100
AcDbLayerTableRecord
  2
22
 70
     0
 62
    22
  6
CONTINUOUS
  0
LAYER
  5
50
330
2
100
AcDbSymbolTableRecord
100
AcDbLayerTableRecord
  2
23
 70
     0
 62
    23
  6
CONTINUOUS
  0
LAYER
  5
51
330
2
100
AcDbSymbolTableRecord
100
AcDbLayerTableRecord
  2
24
 70
     0
 62
    24
  6
CONTINUOUS
  0
LAYER
  5
52
330
2
100
AcDbSymbolTableRecord
100
AcDbLayerTableRecord
  2
25
 70
     0
 62
    25
  6
CONTINUOUS
  0
LAYER
  5
53
330
2
100
AcDbSymbolTableRecord
100
AcDbLayerTableRecord
  2
26
 70
     0
 62
    26
  6
CONTINUOUS
  0
LAYER
  5
54
330
2
100
AcDbSymbolTableRecord
100
AcDbLayerTableRecord
  2
27
 70
     0
 62
    27
  6
CONTINUOUS
  0
LAYER
  5
55
330
2
100
AcDbSymbolTableRecord
100
AcDbLayerTableRecord
  2
28
 70
     0
 62
    28
  6
CONTINUOUS
  0
LAYER
  5
56
330
2
100
AcDbSymbolTableRecord
100
AcDbLayerTableRecord
  2
29
 70
     0
 62
    29
  6
CONTINUOUS
  0
LAYER
  5
57
330
2
100
AcDbSymbolTableRecord
100
AcDbLayerTableRecord
  2
30
 70
     0
 62
    30
  6
CONTINUOUS
  0
LAYER
  5
58
330
2
100
AcDbSymbolTableRecord
100
AcDbLayerTableRecord
  2
31
 70
     0
 62
    31
  6
CONTINUOUS
  0
LAYER
  5
59
330
2
100
AcDbSymbolTableRecord
100
AcDbLayerTableRecord
  2
32
 70
     0
 62
    32
  6
CONTINUOUS
  0
LAYER
  5
5A
330
2
100
AcDbSymbolTableRecord
100
AcDbLayerTableRecord
  2
33
 70
     0
 62
    33
  6
CONTINUOUS
  0
LAYER
  5
5B
330
2
100
AcDbSymbolTableRecord
100
AcDbLayerTableRecord
  2
34
 70
     0
 62
    34
  6
CONTINUOUS
  0
LAYER
  5
5C
330
2
100
AcDbSymbolTableRecord
100
AcDbLayerTableRecord
  2
35
 70
     0
 62
    35
  6
CONTINUOUS
  0
LAYER
  5
5D
330
2
100
AcDbSymbolTableRecord
100
AcDbLayerTableRecord
  2
36
 70
     0
 62
    36
  6
CONTINUOUS
  0
LAYER
  5
5E
330
2
100
AcDbSymbolTableRecord
100
AcDbLayerTableRecord
  2
37
 70
     0
 62
    37
  6
CONTINUOUS
  0
LAYER
  5
5F
330
2
100
AcDbSymbolTableRecord
100
AcDbLayerTableRecord
  2
38
 70
     0
 62
    38
  6
CONTINUOUS
  0
LAYER
  5
60
330
2
100
AcDbSymbolTableRecord
100
AcDbLayerTableRecord
  2
39
 70
     0
 62
    39
  6
CONTINUOUS
  0
LAYER
  5
61
330
2
100
AcDbSymbolTableRecord
100
AcDbLayerTableRecord
  2
40
 70
     0
 62
    40
  6
CONTINUOUS
  0
LAYER
  5
62
330
2
100
AcDbSymbolTableRecord
100
AcDbLayerTableRecord
  2
41
 70
     0
 62
    41
  6
CONTINUOUS
  0
LAYER
  5
63
330
2
100
AcDbSymbolTableRecord
100
AcDbLayerTableRecord
  2
42
 70
     0
 62
    42
  6
CONTINUOUS
  0
LAYER
  5
64
330
2
100
AcDbSymbolTableRecord
100
AcDbLayerTableRecord
  2
43
 70
     0
 62
    43
  6
CONTINUOUS
  0
LAYER
  5
65
330
2
100
AcDbSymbolTableRecord
100
AcDbLayerTableRecord
  2
44
 70
     0
 62
    44
  6
CONTINUOUS
  0
LAYER
  5
66
330
2
100
AcDbSymbolTableRecord
100
AcDbLayerTableRecord
  2
45
 70
     0
 62
    45
  6
CONTINUOUS
  0
LAYER
  5
67
330
2
100
AcDbSymbolTableRecord
100
AcDbLayerTableRecord
  2
46
 70
     0
 62
    46
  6
CONTINUOUS
  0
LAYER
  5
68
330
2
100
AcDbSymbolTableRecord
100
AcDbLayerTableRecord
  2
47
 70
     0
 62
    47
  6
CONTINUOUS
  0
LAYER
  5
69
330
2
100
AcDbSymbolTableRecord
100
AcDbLayerTableRecord
  2
48
 70
     0
 62
    48
  6
CONTINUOUS
  0
LAYER
  5
6A
330
2
100
AcDbSymbolTableRecord
100
AcDbLayerTableRecord
  2
49
 70
     0
 62
    49
  6
CONTINUOUS
  0
LAYER
  5
6B
330
2
100
AcDbSymbolTableRecord
100
AcDbLayerTableRecord
  2
50
 70
     0
 62
    50
  6
CONTINUOUS
  0
LAYER
  5
6C
330
2
100
AcDbSymbolTableRecord
100
AcDbLayerTableRecord
  2
51
 70
     0
 62
    51
  6
CONTINUOUS
  0
LAYER
  5
6D
330
2
100
AcDbSymbolTableRecord
100
AcDbLayerTableRecord
  2
52
 70
     0
 62
    52
  6
CONTINUOUS
  0
LAYER
  5
6E
330
2
100
AcDbSymbolTableRecord
100
AcDbLayerTableRecord
  2
53
 70
     0
 62
    53
  6
CONTINUOUS
  0
LAYER
  5
6F
330
2
100
AcDbSymbolTableRecord
100
AcDbLayerTableRecord
  2
54
 70
     0
 62
    54
  6
CONTINUOUS
  0
LAYER
  5
70
330
2
100
AcDbSymbolTableRecord
100
AcDbLayerTableRecord
  2
55
 70
     0
 62
    55
  6
CONTINUOUS
  0
LAYER
  5
71
330
2
100
AcDbSymbolTableRecord
100
AcDbLayerTableRecord
  2
56
 70
     0
 62
    56
  6
CONTINUOUS
  0
LAYER
  5
72
330
2
100
AcDbSymbolTableRecord
100
AcDbLayerTableRecord
  2
57
 70
     0
 62
    57
  6
CONTINUOUS
  0
LAYER
  5
73
330
2
100
AcDbSymbolTableRecord
100
AcDbLayerTableRecord
  2
58
 70
     0
 62
    58
  6
CONTINUOUS
  0
LAYER
  5
74
330
2
100
AcDbSymbolTableRecord
100
AcDbLayerTableRecord
  2
59
 70
     0
 62
    59
  6
CONTINUOUS
  0
LAYER
  5
75
330
2
100
AcDbSymbolTableRecord
100
AcDbLayerTableRecord
  2
60
 70
     0
 62
    60
  6
CONTINUOUS
  0
LAYER
  5
76
330
2
100
AcDbSymbolTableRecord
100
AcDbLayerTableRecord
  2
61
 70
     0
 62
    61
  6
CONTINUOUS
  0
LAYER
  5
77
330
2
100
AcDbSymbolTableRecord
100
AcDbLayerTableRecord
  2
62
 70
     0
 62
    62
  6
CONTINUOUS
  0
LAYER
  5
78
330
2
100
AcDbSymbolTableRecord
100
AcDbLayerTableRecord
  2
63
 70
     0
 62
    63
  6
CONTINUOUS
  0
LAYER
  5
79
330
2
100
AcDbSymbolTableRecord
100
AcDbLayerTableRecord
  2
64
 70
     0
 62
    64
  6
CONTINUOUS
  0
LAYER
  5
7A
330
2
100
AcDbSymbolTableRecord
100
AcDbLayerTableRecord
  2
65
 70
     0
 62
    65
  6
CONTINUOUS
  0
LAYER
  5
7B
330
2
100
AcDbSymbolTableRecord
100
AcDbLayerTableRecord
  2
66
 70
     0
 62
    66
  6
CONTINUOUS
  0
LAYER
  5
7C
330
2
100
AcDbSymbolTableRecord
100
AcDbLayerTableRecord
  2
67
 70
     0
 62
    67
  6
CONTINUOUS
  0
LAYER
  5
7D
330
2
100
AcDbSymbolTableRecord
100
AcDbLayerTableRecord
  2
68
 70
     0
 62
    68
  6
CONTINUOUS
  0
LAYER
  5
7E
330
2
100
AcDbSymbolTableRecord
100
AcDbLayerTableRecord
  2
69
 70
     0
 62
    69
  6
CONTINUOUS
  0
LAYER
  5
7F
330
2
100
AcDbSymbolTableRecord
100
AcDbLayerTableRecord
  2
70
 70
     0
 62
    70
  6
CONTINUOUS
  0
LAYER
  5
80
330
2
100
AcDbSymbolTableRecord
100
AcDbLayerTableRecord
  2
71
 70
     0
 62
    71
  6
CONTINUOUS
  0
LAYER
  5
81
330
2
100
AcDbSymbolTableRecord
100
AcDbLayerTableRecord
  2
72
 70
     0
 62
    72
  6
CONTINUOUS
  0
LAYER
  5
82
330
2
100
AcDbSymbolTableRecord
100
AcDbLayerTableRecord
  2
73
 70
     0
 62
    73
  6
CONTINUOUS
  0
LAYER
  5
83
330
2
100
AcDbSymbolTableRecord
100
AcDbLayerTableRecord
  2
74
 70
     0
 62
    74
  6
CONTINUOUS
  0
LAYER
  5
84
330
2
100
AcDbSymbolTableRecord
100
AcDbLayerTableRecord
  2
75
 70
     0
 62
    75
  6
CONTINUOUS
  0
LAYER
  5
85
330
2
100
AcDbSymbolTableRecord
100
AcDbLayerTableRecord
  2
76
 70
     0
 62
    76
  6
CONTINUOUS
  0
LAYER
  5
86
330
2
100
AcDbSymbolTableRecord
100
AcDbLayerTableRecord
  2
77
 70
     0
 62
    77
  6
CONTINUOUS
  0
LAYER
  5
87
330
2
100
AcDbSymbolTableRecord
100
AcDbLayerTableRecord
  2
78
 70
     0
 62
    78
  6
CONTINUOUS
  0
LAYER
  5
88
330
2
100
AcDbSymbolTableRecord
100
AcDbLayerTableRecord
  2
79
 70
     0
 62
    79
  6
CONTINUOUS
  0
LAYER
  5
89
330
2
100
AcDbSymbolTableRecord
100
AcDbLayerTableRecord
  2
80
 70
     0
 62
    80
  6
CONTINUOUS
  0
LAYER
  5
8A
330
2
100
AcDbSymbolTableRecord
100
AcDbLayerTableRecord
  2
81
 70
     0
 62
    81
  6
CONTINUOUS
  0
LAYER
  5
8B
330
2
100
AcDbSymbolTableRecord
100
AcDbLayerTableRecord
  2
82
 70
     0
 62
    82
  6
CONTINUOUS
  0
LAYER
  5
8C
330
2
100
AcDbSymbolTableRecord
100
AcDbLayerTableRecord
  2
83
 70
     0
 62
    83
  6
CONTINUOUS
  0
LAYER
  5
8D
330
2
100
AcDbSymbolTableRecord
100
AcDbLayerTableRecord
  2
84
 70
     0
 62
    84
  6
CONTINUOUS
  0
LAYER
  5
8E
330
2
100
AcDbSymbolTableRecord
100
AcDbLayerTableRecord
  2
85
 70
     0
 62
    85
  6
CONTINUOUS
  0
LAYER
  5
8F
330
2
100
AcDbSymbolTableRecord
100
AcDbLayerTableRecord
  2
86
 70
     0
 62
    86
  6
CONTINUOUS
  0
LAYER
  5
90
330
2
100
AcDbSymbolTableRecord
100
AcDbLayerTableRecord
  2
87
 70
     0
 62
    87
  6
CONTINUOUS
  0
LAYER
  5
91
330
2
100
AcDbSymbolTableRecord
100
AcDbLayerTableRecord
  2
88
 70
     0
 62
    88
  6
CONTINUOUS
  0
LAYER
  5
92
330
2
100
AcDbSymbolTableRecord
100
AcDbLayerTableRecord
  2
89
 70
     0
 62
    89
  6
CONTINUOUS
  0
LAYER
  5
93
330
2
100
AcDbSymbolTableRecord
100
AcDbLayerTableRecord
  2
90
 70
     0
 62
    90
  6
CONTINUOUS
  0
LAYER
  5
94
330
2
100
AcDbSymbolTableRecord
100
AcDbLayerTableRecord
  2
91
 70
     0
 62
    91
  6
CONTINUOUS
  0
LAYER
  5
95
330
2
100
AcDbSymbolTableRecord
100
AcDbLayerTableRecord
  2
92
 70
     0
 62
    92
  6
CONTINUOUS
  0
LAYER
  5
96
330
2
100
AcDbSymbolTableRecord
100
AcDbLayerTableRecord
  2
93
 70
     0
 62
    93
  6
CONTINUOUS
  0
LAYER
  5
97
330
2
100
AcDbSymbolTableRecord
100
AcDbLayerTableRecord
  2
94
 70
     0
 62
    94
  6
CONTINUOUS
  0
LAYER
  5
98
330
2
100
AcDbSymbolTableRecord
100
AcDbLayerTableRecord
  2
95
 70
     0
 62
    95
  6
CONTINUOUS
  0
LAYER
  5
99
330
2
100
AcDbSymbolTableRecord
100
AcDbLayerTableRecord
  2
96
 70
     0
 62
    96
  6
CONTINUOUS
  0
LAYER
  5
9A
330
2
100
AcDbSymbolTableRecord
100
AcDbLayerTableRecord
  2
97
 70
     0
 62
    97
  6
CONTINUOUS
  0
LAYER
  5
9B
330
2
100
AcDbSymbolTableRecord
100
AcDbLayerTableRecord
  2
98
 70
     0
 62
    98
  6
CONTINUOUS
  0
LAYER
  5
9C
330
2
100
AcDbSymbolTableRecord
100
AcDbLayerTableRecord
  2
99
 70
     0
 62
    99
  6
CONTINUOUS
  0
LAYER
  5
9D
330
2
100
AcDbSymbolTableRecord
100
AcDbLayerTableRecord
  2
100
 70
     0
 62
   100
  6
CONTINUOUS
  0
LAYER
  5
9E
330
2
100
AcDbSymbolTableRecord
100
AcDbLayerTableRecord
  2
101
 70
     0
 62
   101
  6
CONTINUOUS
  0
LAYER
  5
9F
330
2
100
AcDbSymbolTableRecord
100
AcDbLayerTableRecord
  2
102
 70
     0
 62
   102
  6
CONTINUOUS
  0
LAYER
  5
A0
330
2
100
AcDbSymbolTableRecord
100
AcDbLayerTableRecord
  2
103
 70
     0
 62
   103
  6
CONTINUOUS
  0
LAYER
  5
A1
330
2
100
AcDbSymbolTableRecord
100
AcDbLayerTableRecord
  2
104
 70
     0
 62
   104
  6
CONTINUOUS
  0
LAYER
  5
A2
330
2
100
AcDbSymbolTableRecord
100
AcDbLayerTableRecord
  2
105
 70
     0
 62
   105
  6
CONTINUOUS
  0
LAYER
  5
A3
330
2
100
AcDbSymbolTableRecord
100
AcDbLayerTableRecord
  2
106
 70
     0
 62
   106
  6
CONTINUOUS
  0
LAYER
  5
A4
330
2
100
AcDbSymbolTableRecord
100
AcDbLayerTableRecord
  2
107
 70
     0
 62
   107
  6
CONTINUOUS
  0
LAYER
  5
A5
330
2
100
AcDbSymbolTableRecord
100
AcDbLayerTableRecord
  2
108
 70
     0
 62
   108
  6
CONTINUOUS
  0
LAYER
  5
A6
330
2
100
AcDbSymbolTableRecord
100
AcDbLayerTableRecord
  2
109
 70
     0
 62
   109
  6
CONTINUOUS
  0
LAYER
  5
A7
330
2
100
AcDbSymbolTableRecord
100
AcDbLayerTableRecord
  2
110
 70
     0
 62
   110
  6
CONTINUOUS
  0
LAYER
  5
A8
330
2
100
AcDbSymbolTableRecord
100
AcDbLayerTableRecord
  2
111
 70
     0
 62
   111
  6
CONTINUOUS
  0
LAYER
  5
A9
330
2
100
AcDbSymbolTableRecord
100
AcDbLayerTableRecord
  2
112
 70
     0
 62
   112
  6
CONTINUOUS
  0
LAYER
  5
AA
330
2
100
AcDbSymbolTableRecord
100
AcDbLayerTableRecord
  2
113
 70
     0
 62
   113
  6
CONTINUOUS
  0
LAYER
  5
AB
330
2
100
AcDbSymbolTableRecord
100
AcDbLayerTableRecord
  2
114
 70
     0
 62
   114
  6
CONTINUOUS
  0
LAYER
  5
AC
330
2
100
AcDbSymbolTableRecord
100
AcDbLayerTableRecord
  2
115
 70
     0
 62
   115
  6
CONTINUOUS
  0
LAYER
  5
AD
330
2
100
AcDbSymbolTableRecord
100
AcDbLayerTableRecord
  2
116
 70
     0
 62
   116
  6
CONTINUOUS
  0
LAYER
  5
AE
330
2
100
AcDbSymbolTableRecord
100
AcDbLayerTableRecord
  2
117
 70
     0
 62
   117
  6
CONTINUOUS
  0
LAYER
  5
AF
330
2
100
AcDbSymbolTableRecord
100
AcDbLayerTableRecord
  2
118
 70
     0
 62
   118
  6
CONTINUOUS
  0
LAYER
  5
B0
330
2
100
AcDbSymbolTableRecord
100
AcDbLayerTableRecord
  2
119
 70
     0
 62
   119
  6
CONTINUOUS
  0
LAYER
  5
B1
330
2
100
AcDbSymbolTableRecord
100
AcDbLayerTableRecord
  2
120
 70
     0
 62
   120
  6
CONTINUOUS
  0
LAYER
  5
B2
330
2
100
AcDbSymbolTableRecord
100
AcDbLayerTableRecord
  2
121
 70
     0
 62
   121
  6
CONTINUOUS
  0
LAYER
  5
B3
330
2
100
AcDbSymbolTableRecord
100
AcDbLayerTableRecord
  2
122
 70
     0
 62
   122
  6
CONTINUOUS
  0
LAYER
  5
B4
330
2
100
AcDbSymbolTableRecord
100
AcDbLayerTableRecord
  2
123
 70
     0
 62
   123
  6
CONTINUOUS
  0
LAYER
  5
B5
330
2
100
AcDbSymbolTableRecord
100
AcDbLayerTableRecord
  2
124
 70
     0
 62
   124
  6
CONTINUOUS
  0
LAYER
  5
B6
330
2
100
AcDbSymbolTableRecord
100
AcDbLayerTableRecord
  2
125
 70
     0
 62
   125
  6
CONTINUOUS
  0
LAYER
  5
B7
330
2
100
AcDbSymbolTableRecord
100
AcDbLayerTableRecord
  2
126
 70
     0
 62
   126
  6
CONTINUOUS
  0
LAYER
  5
B8
330
2
100
AcDbSymbolTableRecord
100
AcDbLayerTableRecord
  2
127
 70
     0
 62
   127
  6
CONTINUOUS
  0
LAYER
  5
B9
330
2
100
AcDbSymbolTableRecord
100
AcDbLayerTableRecord
  2
128
 70
     0
 62
   128
  6
CONTINUOUS
  0
LAYER
  5
BA
330
2
100
AcDbSymbolTableRecord
100
AcDbLayerTableRecord
  2
129
 70
     0
 62
   129
  6
CONTINUOUS
  0
LAYER
  5
BB
330
2
100
AcDbSymbolTableRecord
100
AcDbLayerTableRecord
  2
130
 70
     0
 62
   130
  6
CONTINUOUS
  0
LAYER
  5
BC
330
2
100
AcDbSymbolTableRecord
100
AcDbLayerTableRecord
  2
131
 70
     0
 62
   131
  6
CONTINUOUS
  0
LAYER
  5
BD
330
2
100
AcDbSymbolTableRecord
100
AcDbLayerTableRecord
  2
132
 70
     0
 62
   132
  6
CONTINUOUS
  0
LAYER
  5
BE
330
2
100
AcDbSymbolTableRecord
100
AcDbLayerTableRecord
  2
133
 70
     0
 62
   133
  6
CONTINUOUS
  0
LAYER
  5
BF
330
2
100
AcDbSymbolTableRecord
100
AcDbLayerTableRecord
  2
134
 70
     0
 62
   134
  6
CONTINUOUS
  0
LAYER
  5
C0
330
2
100
AcDbSymbolTableRecord
100
AcDbLayerTableRecord
  2
135
 70
     0
 62
   135
  6
CONTINUOUS
  0
LAYER
  5
C1
330
2
100
AcDbSymbolTableRecord
100
AcDbLayerTableRecord
  2
136
 70
     0
 62
   136
  6
CONTINUOUS
  0
LAYER
  5
C2
330
2
100
AcDbSymbolTableRecord
100
AcDbLayerTableRecord
  2
137
 70
     0
 62
   137
  6
CONTINUOUS
  0
LAYER
  5
C3
330
2
100
AcDbSymbolTableRecord
100
AcDbLayerTableRecord
  2
138
 70
     0
 62
   138
  6
CONTINUOUS
  0
LAYER
  5
C4
330
2
100
AcDbSymbolTableRecord
100
AcDbLayerTableRecord
  2
139
 70
     0
 62
   139
  6
CONTINUOUS
  0
LAYER
  5
C5
330
2
100
AcDbSymbolTableRecord
100
AcDbLayerTableRecord
  2
140
 70
     0
 62
   140
  6
CONTINUOUS
  0
LAYER
  5
C6
330
2
100
AcDbSymbolTableRecord
100
AcDbLayerTableRecord
  2
141
 70
     0
 62
   141
  6
CONTINUOUS
  0
LAYER
  5
C7
330
2
100
AcDbSymbolTableRecord
100
AcDbLayerTableRecord
  2
142
 70
     0
 62
   142
  6
CONTINUOUS
  0
LAYER
  5
C8
330
2
100
AcDbSymbolTableRecord
100
AcDbLayerTableRecord
  2
143
 70
     0
 62
   143
  6
CONTINUOUS
  0
LAYER
  5
C9
330
2
100
AcDbSymbolTableRecord
100
AcDbLayerTableRecord
  2
144
 70
     0
 62
   144
  6
CONTINUOUS
  0
LAYER
  5
CA
330
2
100
AcDbSymbolTableRecord
100
AcDbLayerTableRecord
  2
145
 70
     0
 62
   145
  6
CONTINUOUS
  0
LAYER
  5
CB
330
2
100
AcDbSymbolTableRecord
100
AcDbLayerTableRecord
  2
146
 70
     0
 62
   146
  6
CONTINUOUS
  0
LAYER
  5
CC
330
2
100
AcDbSymbolTableRecord
100
AcDbLayerTableRecord
  2
147
 70
     0
 62
   147
  6
CONTINUOUS
  0
LAYER
  5
CD
330
2
100
AcDbSymbolTableRecord
100
AcDbLayerTableRecord
  2
148
 70
     0
 62
   148
  6
CONTINUOUS
  0
LAYER
  5
CE
330
2
100
AcDbSymbolTableRecord
100
AcDbLayerTableRecord
  2
149
 70
     0
 62
   149
  6
CONTINUOUS
  0
LAYER
  5
CF
330
2
100
AcDbSymbolTableRecord
100
AcDbLayerTableRecord
  2
150
 70
     0
 62
   150
  6
CONTINUOUS
  0
LAYER
  5
D0
330
2
100
AcDbSymbolTableRecord
100
AcDbLayerTableRecord
  2
151
 70
     0
 62
   151
  6
CONTINUOUS
  0
LAYER
  5
D1
330
2
100
AcDbSymbolTableRecord
100
AcDbLayerTableRecord
  2
152
 70
     0
 62
   152
  6
CONTINUOUS
  0
LAYER
  5
D2
330
2
100
AcDbSymbolTableRecord
100
AcDbLayerTableRecord
  2
153
 70
     0
 62
   153
  6
CONTINUOUS
  0
LAYER
  5
D3
330
2
100
AcDbSymbolTableRecord
100
AcDbLayerTableRecord
  2
154
 70
     0
 62
   154
  6
CONTINUOUS
  0
LAYER
  5
D4
330
2
100
AcDbSymbolTableRecord
100
AcDbLayerTableRecord
  2
155
 70
     0
 62
   155
  6
CONTINUOUS
  0
LAYER
  5
D5
330
2
100
AcDbSymbolTableRecord
100
AcDbLayerTableRecord
  2
156
 70
     0
 62
   156
  6
CONTINUOUS
  0
LAYER
  5
D6
330
2
100
AcDbSymbolTableRecord
100
AcDbLayerTableRecord
  2
157
 70
     0
 62
   157
  6
CONTINUOUS
  0
LAYER
  5
D7
330
2
100
AcDbSymbolTableRecord
100
AcDbLayerTableRecord
  2
158
 70
     0
 62
   158
  6
CONTINUOUS
  0
LAYER
  5
D8
330
2
100
AcDbSymbolTableRecord
100
AcDbLayerTableRecord
  2
159
 70
     0
 62
   159
  6
CONTINUOUS
  0
LAYER
  5
D9
330
2
100
AcDbSymbolTableRecord
100
AcDbLayerTableRecord
  2
160
 70
     0
 62
   160
  6
CONTINUOUS
  0
LAYER
  5
DA
330
2
100
AcDbSymbolTableRecord
100
AcDbLayerTableRecord
  2
161
 70
     0
 62
   161
  6
CONTINUOUS
  0
LAYER
  5
DB
330
2
100
AcDbSymbolTableRecord
100
AcDbLayerTableRecord
  2
162
 70
     0
 62
   162
  6
CONTINUOUS
  0
LAYER
  5
DC
330
2
100
AcDbSymbolTableRecord
100
AcDbLayerTableRecord
  2
163
 70
     0
 62
   163
  6
CONTINUOUS
  0
LAYER
  5
DD
330
2
100
AcDbSymbolTableRecord
100
AcDbLayerTableRecord
  2
164
 70
     0
 62
   164
  6
CONTINUOUS
  0
LAYER
  5
DE
330
2
100
AcDbSymbolTableRecord
100
AcDbLayerTableRecord
  2
165
 70
     0
 62
   165
  6
CONTINUOUS
  0
LAYER
  5
DF
330
2
100
AcDbSymbolTableRecord
100
AcDbLayerTableRecord
  2
166
 70
     0
 62
   166
  6
CONTINUOUS
  0
LAYER
  5
E0
330
2
100
AcDbSymbolTableRecord
100
AcDbLayerTableRecord
  2
167
 70
     0
 62
   167
  6
CONTINUOUS
  0
LAYER
  5
E1
330
2
100
AcDbSymbolTableRecord
100
AcDbLayerTableRecord
  2
168
 70
     0
 62
   168
  6
CONTINUOUS
  0
LAYER
  5
E2
330
2
100
AcDbSymbolTableRecord
100
AcDbLayerTableRecord
  2
169
 70
     0
 62
   169
  6
CONTINUOUS
  0
LAYER
  5
E3
330
2
100
AcDbSymbolTableRecord
100
AcDbLayerTableRecord
  2
170
 70
     0
 62
   170
  6
CONTINUOUS
  0
LAYER
  5
E4
330
2
100
AcDbSymbolTableRecord
100
AcDbLayerTableRecord
  2
171
 70
     0
 62
   171
  6
CONTINUOUS
  0
LAYER
  5
E5
330
2
100
AcDbSymbolTableRecord
100
AcDbLayerTableRecord
  2
172
 70
     0
 62
   172
  6
CONTINUOUS
  0
LAYER
  5
E6
330
2
100
AcDbSymbolTableRecord
100
AcDbLayerTableRecord
  2
173
 70
     0
 62
   173
  6
CONTINUOUS
  0
LAYER
  5
E7
330
2
100
AcDbSymbolTableRecord
100
AcDbLayerTableRecord
  2
174
 70
     0
 62
   174
  6
CONTINUOUS
  0
LAYER
  5
E8
330
2
100
AcDbSymbolTableRecord
100
AcDbLayerTableRecord
  2
175
 70
     0
 62
   175
  6
CONTINUOUS
  0
LAYER
  5
E9
330
2
100
AcDbSymbolTableRecord
100
AcDbLayerTableRecord
  2
176
 70
     0
 62
   176
  6
CONTINUOUS
  0
LAYER
  5
EA
330
2
100
AcDbSymbolTableRecord
100
AcDbLayerTableRecord
  2
177
 70
     0
 62
   177
  6
CONTINUOUS
  0
LAYER
  5
EB
330
2
100
AcDbSymbolTableRecord
100
AcDbLayerTableRecord
  2
178
 70
     0
 62
   178
  6
CONTINUOUS
  0
LAYER
  5
EC
330
2
100
AcDbSymbolTableRecord
100
AcDbLayerTableRecord
  2
179
 70
     0
 62
   179
  6
CONTINUOUS
  0
LAYER
  5
ED
330
2
100
AcDbSymbolTableRecord
100
AcDbLayerTableRecord
  2
180
 70
     0
 62
   180
  6
CONTINUOUS
  0
LAYER
  5
EE
330
2
100
AcDbSymbolTableRecord
100
AcDbLayerTableRecord
  2
181
 70
     0
 62
   181
  6
CONTINUOUS
  0
LAYER
  5
EF
330
2
100
AcDbSymbolTableRecord
100
AcDbLayerTableRecord
  2
182
 70
     0
 62
   182
  6
CONTINUOUS
  0
LAYER
  5
F0
330
2
100
AcDbSymbolTableRecord
100
AcDbLayerTableRecord
  2
183
 70
     0
 62
   183
  6
CONTINUOUS
  0
LAYER
  5
F1
330
2
100
AcDbSymbolTableRecord
100
AcDbLayerTableRecord
  2
184
 70
     0
 62
   184
  6
CONTINUOUS
  0
LAYER
  5
F2
330
2
100
AcDbSymbolTableRecord
100
AcDbLayerTableRecord
  2
185
 70
     0
 62
   185
  6
CONTINUOUS
  0
LAYER
  5
F3
330
2
100
AcDbSymbolTableRecord
100
AcDbLayerTableRecord
  2
186
 70
     0
 62
   186
  6
CONTINUOUS
  0
LAYER
  5
F4
330
2
100
AcDbSymbolTableRecord
100
AcDbLayerTableRecord
  2
187
 70
     0
 62
   187
  6
CONTINUOUS
  0
LAYER
  5
F5
330
2
100
AcDbSymbolTableRecord
100
AcDbLayerTableRecord
  2
188
 70
     0
 62
   188
  6
CONTINUOUS
  0
LAYER
  5
F6
330
2
100
AcDbSymbolTableRecord
100
AcDbLayerTableRecord
  2
189
 70
     0
 62
   189
  6
CONTINUOUS
  0
LAYER
  5
F7
330
2
100
AcDbSymbolTableRecord
100
AcDbLayerTableRecord
  2
190
 70
     0
 62
   190
  6
CONTINUOUS
  0
LAYER
  5
F8
330
2
100
AcDbSymbolTableRecord
100
AcDbLayerTableRecord
  2
191
 70
     0
 62
   191
  6
CONTINUOUS
  0
LAYER
  5
F9
330
2
100
AcDbSymbolTableRecord
100
AcDbLayerTableRecord
  2
192
 70
     0
 62
   192
  6
CONTINUOUS
  0
LAYER
  5
FA
330
2
100
AcDbSymbolTableRecord
100
AcDbLayerTableRecord
  2
193
 70
     0
 62
   193
  6
CONTINUOUS
  0
LAYER
  5
FB
330
2
100
AcDbSymbolTableRecord
100
AcDbLayerTableRecord
  2
194
 70
     0
 62
   194
  6
CONTINUOUS
  0
LAYER
  5
FC
330
2
100
AcDbSymbolTableRecord
100
AcDbLayerTableRecord
  2
195
 70
     0
 62
   195
  6
CONTINUOUS
  0
LAYER
  5
FD
330
2
100
AcDbSymbolTableRecord
100
AcDbLayerTableRecord
  2
196
 70
     0
 62
   196
  6
CONTINUOUS
  0
LAYER
  5
FE
330
2
100
AcDbSymbolTableRecord
100
AcDbLayerTableRecord
  2
197
 70
     0
 62
   197
  6
CONTINUOUS
  0
LAYER
  5
FF
330
2
100
AcDbSymbolTableRecord
100
AcDbLayerTableRecord
  2
198
 70
     0
 62
   198
  6
CONTINUOUS
  0
LAYER
  5
100
330
2
100
AcDbSymbolTableRecord
100
AcDbLayerTableRecord
  2
199
 70
     0
 62
   199
  6
CONTINUOUS
  0
LAYER
  5
101
330
2
100
AcDbSymbolTableRecord
100
AcDbLayerTableRecord
  2
200
 70
     0
 62
   200
  6
CONTINUOUS
  0
LAYER
  5
102
330
2
100
AcDbSymbolTableRecord
100
AcDbLayerTableRecord
  2
201
 70
     0
 62
   201
  6
CONTINUOUS
  0
LAYER
  5
103
330
2
100
AcDbSymbolTableRecord
100
AcDbLayerTableRecord
  2
202
 70
     0
 62
   202
  6
CONTINUOUS
  0
LAYER
  5
104
330
2
100
AcDbSymbolTableRecord
100
AcDbLayerTableRecord
  2
203
 70
     0
 62
   203
  6
CONTINUOUS
  0
LAYER
  5
105
330
2
100
AcDbSymbolTableRecord
100
AcDbLayerTableRecord
  2
204
 70
     0
 62
   204
  6
CONTINUOUS
  0
LAYER
  5
106
330
2
100
AcDbSymbolTableRecord
100
AcDbLayerTableRecord
  2
205
 70
     0
 62
   205
  6
CONTINUOUS
  0
LAYER
  5
107
330
2
100
AcDbSymbolTableRecord
100
AcDbLayerTableRecord
  2
206
 70
     0
 62
   206
  6
CONTINUOUS
  0
LAYER
  5
108
330
2
100
AcDbSymbolTableRecord
100
AcDbLayerTableRecord
  2
207
 70
     0
 62
   207
  6
CONTINUOUS
  0
LAYER
  5
109
330
2
100
AcDbSymbolTableRecord
100
AcDbLayerTableRecord
  2
208
 70
     0
 62
   208
  6
CONTINUOUS
  0
LAYER
  5
10A
330
2
100
AcDbSymbolTableRecord
100
AcDbLayerTableRecord
  2
209
 70
     0
 62
   209
  6
CONTINUOUS
  0
LAYER
  5
10B
330
2
100
AcDbSymbolTableRecord
100
AcDbLayerTableRecord
  2
210
 70
     0
 62
   210
  6
CONTINUOUS
  0
LAYER
  5
10C
330
2
100
AcDbSymbolTableRecord
100
AcDbLayerTableRecord
  2
211
 70
     0
 62
   211
  6
CONTINUOUS
  0
LAYER
  5
10D
330
2
100
AcDbSymbolTableRecord
100
AcDbLayerTableRecord
  2
212
 70
     0
 62
   212
  6
CONTINUOUS
  0
LAYER
  5
10E
330
2
100
AcDbSymbolTableRecord
100
AcDbLayerTableRecord
  2
213
 70
     0
 62
   213
  6
CONTINUOUS
  0
LAYER
  5
10F
330
2
100
AcDbSymbolTableRecord
100
AcDbLayerTableRecord
  2
214
 70
     0
 62
   214
  6
CONTINUOUS
  0
LAYER
  5
110
330
2
100
AcDbSymbolTableRecord
100
AcDbLayerTableRecord
  2
215
 70
     0
 62
   215
  6
CONTINUOUS
  0
LAYER
  5
111
330
2
100
AcDbSymbolTableRecord
100
AcDbLayerTableRecord
  2
216
 70
     0
 62
   216
  6
CONTINUOUS
  0
LAYER
  5
112
330
2
100
AcDbSymbolTableRecord
100
AcDbLayerTableRecord
  2
217
 70
     0
 62
   217
  6
CONTINUOUS
  0
LAYER
  5
113
330
2
100
AcDbSymbolTableRecord
100
AcDbLayerTableRecord
  2
218
 70
     0
 62
   218
  6
CONTINUOUS
  0
LAYER
  5
114
330
2
100
AcDbSymbolTableRecord
100
AcDbLayerTableRecord
  2
219
 70
     0
 62
   219
  6
CONTINUOUS
  0
LAYER
  5
115
330
2
100
AcDbSymbolTableRecord
100
AcDbLayerTableRecord
  2
220
 70
     0
 62
   220
  6
CONTINUOUS
  0
LAYER
  5
116
330
2
100
AcDbSymbolTableRecord
100
AcDbLayerTableRecord
  2
221
 70
     0
 62
   221
  6
CONTINUOUS
  0
LAYER
  5
117
330
2
100
AcDbSymbolTableRecord
100
AcDbLayerTableRecord
  2
222
 70
     0
 62
   222
  6
CONTINUOUS
  0
LAYER
  5
118
330
2
100
AcDbSymbolTableRecord
100
AcDbLayerTableRecord
  2
223
 70
     0
 62
   223
  6
CONTINUOUS
  0
LAYER
  5
119
330
2
100
AcDbSymbolTableRecord
100
AcDbLayerTableRecord
  2
224
 70
     0
 62
   224
  6
CONTINUOUS
  0
LAYER
  5
11A
330
2
100
AcDbSymbolTableRecord
100
AcDbLayerTableRecord
  2
225
 70
     0
 62
   225
  6
CONTINUOUS
  0
LAYER
  5
11B
330
2
100
AcDbSymbolTableRecord
100
AcDbLayerTableRecord
  2
226
 70
     0
 62
   226
  6
CONTINUOUS
  0
LAYER
  5
11C
330
2
100
AcDbSymbolTableRecord
100
AcDbLayerTableRecord
  2
227
 70
     0
 62
   227
  6
CONTINUOUS
  0
LAYER
  5
11D
330
2
100
AcDbSymbolTableRecord
100
AcDbLayerTableRecord
  2
228
 70
     0
 62
   228
  6
CONTINUOUS
  0
LAYER
  5
11E
330
2
100
AcDbSymbolTableRecord
100
AcDbLayerTableRecord
  2
229
 70
     0
 62
   229
  6
CONTINUOUS
  0
LAYER
  5
11F
330
2
100
AcDbSymbolTableRecord
100
AcDbLayerTableRecord
  2
230
 70
     0
 62
   230
  6
CONTINUOUS
  0
LAYER
  5
120
330
2
100
AcDbSymbolTableRecord
100
AcDbLayerTableRecord
  2
231
 70
     0
 62
   231
  6
CONTINUOUS
  0
LAYER
  5
121
330
2
100
AcDbSymbolTableRecord
100
AcDbLayerTableRecord
  2
232
 70
     0
 62
   232
  6
CONTINUOUS
  0
LAYER
  5
122
330
2
100
AcDbSymbolTableRecord
100
AcDbLayerTableRecord
  2
233
 70
     0
 62
   233
  6
CONTINUOUS
  0
LAYER
  5
123
330
2
100
AcDbSymbolTableRecord
100
AcDbLayerTableRecord
  2
234
 70
     0
 62
   234
  6
CONTINUOUS
  0
LAYER
  5
124
330
2
100
AcDbSymbolTableRecord
100
AcDbLayerTableRecord
  2
235
 70
     0
 62
   235
  6
CONTINUOUS
  0
LAYER
  5
125
330
2
100
AcDbSymbolTableRecord
100
AcDbLayerTableRecord
  2
236
 70
     0
 62
   236
  6
CONTINUOUS
  0
LAYER
  5
126
330
2
100
AcDbSymbolTableRecord
100
AcDbLayerTableRecord
  2
237
 70
     0
 62
   237
  6
CONTINUOUS
  0
LAYER
  5
127
330
2
100
AcDbSymbolTableRecord
100
AcDbLayerTableRecord
  2
238
 70
     0
 62
   238
  6
CONTINUOUS
  0
LAYER
  5
128
330
2
100
AcDbSymbolTableRecord
100
AcDbLayerTableRecord
  2
239
 70
     0
 62
   239
  6
CONTINUOUS
  0
LAYER
  5
129
330
2
100
AcDbSymbolTableRecord
100
AcDbLayerTableRecord
  2
240
 70
     0
 62
   240
  6
CONTINUOUS
  0
LAYER
  5
12A
330
2
100
AcDbSymbolTableRecord
100
AcDbLayerTableRecord
  2
241
 70
     0
 62
   241
  6
CONTINUOUS
  0
LAYER
  5
12B
330
2
100
AcDbSymbolTableRecord
100
AcDbLayerTableRecord
  2
242
 70
     0
 62
   242
  6
CONTINUOUS
  0
LAYER
  5
12C
330
2
100
AcDbSymbolTableRecord
100
AcDbLayerTableRecord
  2
243
 70
     0
 62
   243
  6
CONTINUOUS
  0
LAYER
  5
12D
330
2
100
AcDbSymbolTableRecord
100
AcDbLayerTableRecord
  2
244
 70
     0
 62
   244
  6
CONTINUOUS
  0
LAYER
  5
12E
330
2
100
AcDbSymbolTableRecord
100
AcDbLayerTableRecord
  2
245
 70
     0
 62
   245
  6
CONTINUOUS
  0
LAYER
  5
12F
330
2
100
AcDbSymbolTableRecord
100
AcDbLayerTableRecord
  2
246
 70
     0
 62
   246
  6
CONTINUOUS
  0
LAYER
  5
130
330
2
100
AcDbSymbolTableRecord
100
AcDbLayerTableRecord
  2
247
 70
     0
 62
   247
  6
CONTINUOUS
  0
LAYER
  5
131
330
2
100
AcDbSymbolTableRecord
100
AcDbLayerTableRecord
  2
248
 70
     0
 62
   248
  6
CONTINUOUS
  0
LAYER
  5
132
330
2
100
AcDbSymbolTableRecord
100
AcDbLayerTableRecord
  2
249
 70
     0
 62
   249
  6
CONTINUOUS
  0
LAYER
  5
133
330
2
100
AcDbSymbolTableRecord
100
AcDbLayerTableRecord
  2
250
 70
     0
 62
   250
  6
CONTINUOUS
  0
LAYER
  5
134
330
2
100
AcDbSymbolTableRecord
100
AcDbLayerTableRecord
  2
251
 70
     0
 62
   251
  6
CONTINUOUS
  0
LAYER
  5
135
330
2
100
AcDbSymbolTableRecord
100
AcDbLayerTableRecord
  2
252
 70
     0
 62
   252
  6
CONTINUOUS
  0
LAYER
  5
136
330
2
100
AcDbSymbolTableRecord
100
AcDbLayerTableRecord
  2
253
 70
     0
 62
   253
  6
CONTINUOUS
  0
LAYER
  5
137
330
2
100
AcDbSymbolTableRecord
100
AcDbLayerTableRecord
  2
254
 70
     0
 62
   254
  6
CONTINUOUS
  0
LAYER
  5
138
330
2
100
AcDbSymbolTableRecord
100
AcDbLayerTableRecord
  2
255
 70
     0
 62
   255
  6
CONTINUOUS
  0
ENDTAB
  0
TABLE
  2
STYLE
  5
3
330
0
100
AcDbSymbolTable
 70
     1
  0
STYLE
  5
11
330
3
100
AcDbSymbolTableRecord
100
AcDbTextStyleTableRecord
  2
STANDARD
 70
     0
 40
0.0
 41
1.0
 50
0.0
 71
     0
 42
0.2
  3
monotxt
  4

  0
ENDTAB
  0
TABLE
  2
VIEW
  5
6
330
0
100
AcDbSymbolTable
 70
     0
  0
ENDTAB
  0
TABLE
  2
UCS
  5
7
330
0
100
AcDbSymbolTable
 70
     0
  0
ENDTAB
  0
TABLE
  2
APPID
  5
9
330
0
100
AcDbSymbolTable
 70
     1
  0
APPID
  5
12
330
9
100
AcDbSymbolTableRecord
100
AcDbRegAppTableRecord
  2
ACAD
 70
     0
  0
ENDTAB
  0
TABLE
  2
DIMSTYLE
  5
A
330
0
100
AcDbSymbolTable
 70
     1
  0
DIMSTYLE
105
3951
330
A
100
AcDbSymbolTableRecord
100
AcDbDimStyleTableRecord
  2
STANDARD
 70
     0
  3

  4

  5

  6

  7

 40
1.0
 41
0.18
 42
0.0625
 43
0.38
 44
0.18
 45
0.0
 46
0.0
 47
0.0
 48
0.0
140
0.18
141
0.09
142
0.0
143
25.4
144
1.0
145
0.0
146
1.0
147
0.09
 71
     0
 72
     0
 73
     1
 74
     1
 75
     0
 76
     0
 77
     0
 78
     0
170
     0
171
     2
172
     0
173
     0
174
     0
175
     0
176
     0
177
     0
178
     0
270
     2
271
     4
272
     4
273
     2
274
     2
340
11
275
     0
280
     0
281
     0
282
     0
283
     1
284
     0
285
     0
286
     0
287
     3
288
     0
  0
ENDTAB
  0
TABLE
  2
BLOCK_RECORD
  5
1
330
0
100
AcDbSymbolTable
 70
     0
  0
BLOCK_RECORD
  5
1E
102
{ACAD_XDICTIONARY
360
50B3
102
}
330
1
100
AcDbSymbolTableRecord
100
AcDbBlockTableRecord
  2
*MODEL_SPACE
  0
BLOCK_RECORD
  5
1A
102
{ACAD_XDICTIONARY
360
50B5
102
}
330
1
100
AcDbSymbolTableRecord
100
AcDbBlockTableRecord
  2
*PAPER_SPACE
  0
ENDTAB
  0
ENDSEC
  0
SECTION
  2
BLOCKS
  0
BLOCK
  5
13B
330
1E
100
AcDbEntity
  8
0
100
AcDbBlockBegin
  2
*MODEL_SPACE
 70
     0
 10
0.0
 20
0.0
 30
0.0
  3
*MODEL_SPACE
  1

  0
ENDBLK
  5
13C
330
1E
100
AcDbEntity
  8
0
100
AcDbBlockEnd
  0
BLOCK
  5
139
330
1A
100
AcDbEntity
 67
     1
  8
0
100
AcDbBlockBegin
  2
*PAPER_SPACE
 70
     0
 10
0.0
 20
0.0
 30
0.0
  3
*PAPER_SPACE
  1

  0
ENDBLK
  5
13A
330
1A
100
AcDbEntity
 67
     1
  8
0
100
AcDbBlockEnd
  0
ENDSEC
  0
SECTION
  2
ENTITIES
  0
LINE
  5
280F
330
1E
100
AcDbEntity
  8
7
100
AcDbLine
 10
3.279178278543306
 20
6.983949713393727
 30
0.0
 11
3.279178278543306
 21
6.531166212409475
 31
0.0
  0
LINE
  5
281F
330
1E
100
AcDbEntity
  8
7
100
AcDbLine
 10
3.624343672047244
 20
7.336989602566955
 30
0.0
 11
3.624343672047244
 21
7.302866788000025
 31
0.0
  0
LINE
  5
2828
330
1E
100
AcDbEntity
  8
7
100
AcDbLine
 10
3.560035290748031
 20
7.367175169299238
 30
0.0
 11
3.59415810531496
 21
7.367175169299238
 31
0.0
  0
LINE
  5
2829
330
1E
100
AcDbEntity
  8
7
100
AcDbLine
 10
3.437980607874015
 20
7.246432902370104
 30
0.0
 11
3.560035290748031
 21
7.367175169299238
 31
0.0
  0
LINE
  5
282A
330
1E
100
AcDbEntity
  8
7
100
AcDbLine
 10
3.624343672047244
 20
7.302866788000025
 30
0.0
 11
3.502288989173228
 21
7.182124521070892
 31
0.0
  0
LINE
  5
282B
330
1E
100
AcDbEntity
  8
7
100
AcDbLine
 10
3.437980607874015
 20
3.051951542527585
 30
0.0
 11
3.437980607874015
 21
7.182124521070892
 31
0.0
  0
LINE
  5
2831
330
1E
100
AcDbEntity
  8
7
100
AcDbLine
 10
3.502288989173228
 20
7.182124521070892
 30
0.0
 11
3.502288989173228
 21
3.051951542527585
 31
0.0
  0
LINE
  5
2832
330
1E
100
AcDbEntity
  8
7
100
AcDbLine
 10
3.624343672047244
 20
2.931209275598451
 30
0.0
 11
3.502288989173228
 21
3.051951542527585
 31
0.0
  0
LINE
  5
2833
330
1E
100
AcDbEntity
  8
7
100
AcDbLine
 10
3.624343672047244
 20
7.302866788000025
 30
0.0
 11
3.624343672047244
 21
2.931209275598451
 31
0.0
  0
LINE
  5
2834
330
1E
100
AcDbEntity
  8
7
100
AcDbLine
 10
3.624343672047244
 20
2.897086461031522
 30
0.0
 11
3.624343672047244
 21
2.931209275598451
 31
0.0
  0
LINE
  5
2835
330
1E
100
AcDbEntity
  8
7
100
AcDbLine
 10
1.248870811811023
 20
7.01413528012601
 30
0.0
 11
3.248992711811023
 21
7.01413528012601
 31
0.0
  0
LINE
  5
2836
330
1E
100
AcDbEntity
  8
7
100
AcDbLine
 10
0.9378282328740151
 20
7.367175169299238
 30
0.0
 11
3.560035290748031
 21
7.367175169299238
 31
0.0
  0
LINE
  5
2841
330
1E
100
AcDbEntity
  8
7
100
AcDbLine
 10
3.437980607874015
 20
7.182124521070892
 30
0.0
 11
1.058570499803149
 21
7.182124521070892
 31
0.0
  0
LINE
  5
2842
330
1E
100
AcDbEntity
  8
7
100
AcDbLine
 10
1.826333827559055
 20
3.733095417921286
 30
0.0
 11
2.101941175984251
 21
3.733095417921286
 31
0.0
  0
LINE
  5
284D
330
1E
100
AcDbEntity
  8
7
100
AcDbLine
 10
2.14918815
 20
3.752781657094513
 30
0.0
 11
2.146563318110236
 21
3.752781657094513
 31
0.0
  0
LINE
  5
2853
330
1E
100
AcDbEntity
  8
7
100
AcDbLine
 10
2.174124052952755
 20
3.737032665755931
 30
0.0
 11
2.322427054724409
 21
3.737032665755931
 31
0.0
  0
LINE
  5
2859
330
1E
100
AcDbEntity
  8
7
100
AcDbLine
 10
2.348675373622047
 20
3.752781657094513
 30
0.0
 11
2.349987789566929
 21
3.752781657094513
 31
0.0
  0
LINE
  5
2864
330
1E
100
AcDbEntity
  8
7
100
AcDbLine
 10
2.394609931692913
 20
3.733095417921286
 30
0.0
 11
2.671529696062991
 21
3.733095417921286
 31
0.0
  0
LINE
  5
286A
330
1E
100
AcDbEntity
  8
7
100
AcDbLine
 10
2.701715262795275
 20
3.761968568708687
 30
0.0
 11
2.701715262795275
 21
3.796091383275617
 31
0.0
  0
LINE
  5
2873
330
1E
100
AcDbEntity
  8
7
100
AcDbLine
 10
3.006195762007874
 20
3.796091383275617
 30
0.0
 11
2.76077398031496
 21
3.796091383275617
 31
0.0
  0
LINE
  5
287C
330
1E
100
AcDbEntity
  8
7
100
AcDbLine
 10
3.06656689547244
 20
3.761968568708687
 30
0.0
 11
3.06656689547244
 21
3.796091383275617
 31
0.0
  0
LINE
  5
2882
330
1E
100
AcDbEntity
  8
7
100
AcDbLine
 10
3.096752462204723
 20
3.733095417921286
 30
0.0
 11
3.248992711811023
 21
3.733095417921286
 31
0.0
  0
LINE
  5
2888
330
1E
100
AcDbEntity
  8
7
100
AcDbLine
 10
3.279178278543306
 20
3.25012635020475
 30
0.0
 11
3.279178278543306
 21
3.702909851189002
 31
0.0
  0
LINE
  5
288E
330
1E
100
AcDbEntity
  8
7
100
AcDbLine
 10
1.248870811811023
 20
3.219940783472466
 30
0.0
 11
3.248992711811023
 21
3.219940783472466
 31
0.0
  0
LINE
  5
2894
330
1E
100
AcDbEntity
  8
7
100
AcDbLine
 10
1.218685245078739
 20
3.25012635020475
 30
0.0
 11
1.218685245078739
 21
3.702909851189002
 31
0.0
  0
LINE
  5
289A
330
1E
100
AcDbEntity
  8
7
100
AcDbLine
 10
1.248870811811023
 20
3.733095417921286
 30
0.0
 11
1.401111061417323
 21
3.733095417921286
 31
0.0
  0
LINE
  5
28A0
330
1E
100
AcDbEntity
  8
7
100
AcDbLine
 10
1.431296628149606
 20
3.761968568708687
 30
0.0
 11
1.431296628149606
 21
3.796091383275617
 31
0.0
  0
LINE
  5
28A9
330
1E
100
AcDbEntity
  8
7
100
AcDbLine
 10
1.491667761614173
 20
3.796091383275617
 30
0.0
 11
1.735777127362204
 21
3.796091383275617
 31
0.0
  0
LINE
  5
28B5
330
1E
100
AcDbEntity
  8
7
100
AcDbLine
 10
1.796148260826771
 20
3.761968568708687
 30
0.0
 11
1.796148260826771
 21
3.796091383275617
 31
0.0
  0
LINE
  5
28BB
330
1E
100
AcDbEntity
  8
7
100
AcDbLine
 10
2.125564662992125
 20
6.491793734063017
 30
0.0
 11
2.134751574606299
 21
6.485231654338608
 31
0.0
  0
LINE
  5
28BC
330
1E
100
AcDbEntity
  8
7
100
AcDbLine
 10
2.134751574606299
 20
6.485231654338608
 30
0.0
 11
2.146563318110236
 21
6.482606822448845
 31
0.0
  0
LINE
  5
28C2
330
1E
100
AcDbEntity
  8
7
100
AcDbLine
 10
1.90639120019685
 20
6.502293061622072
 30
0.0
 11
2.101941175984251
 21
6.502293061622072
 31
0.0
  0
LINE
  5
28C8
330
1E
100
AcDbEntity
  8
7
100
AcDbLine
 10
1.876205633464566
 20
6.47210749488979
 30
0.0
 11
1.876205633464566
 21
6.439297096267742
 31
0.0
  0
LINE
  5
28D1
330
1E
100
AcDbEntity
  8
7
100
AcDbLine
 10
1.571725134251968
 20
6.439297096267742
 30
0.0
 11
1.8158345
 21
6.439297096267742
 31
0.0
  0
LINE
  5
28DA
330
1E
100
AcDbEntity
  8
7
100
AcDbLine
 10
1.511354000787401
 20
6.47210749488979
 30
0.0
 11
1.511354000787401
 21
6.439297096267742
 31
0.0
  0
LINE
  5
28E0
330
1E
100
AcDbEntity
  8
7
100
AcDbLine
 10
1.248870811811023
 20
6.502293061622072
 30
0.0
 11
1.481168434055117
 21
6.502293061622072
 31
0.0
  0
LINE
  5
28E6
330
1E
100
AcDbEntity
  8
7
100
AcDbLine
 10
1.218685245078739
 20
6.983949713393727
 30
0.0
 11
1.218685245078739
 21
6.531166212409475
 31
0.0
  0
LINE
  5
28E7
330
1E
100
AcDbEntity
  8
7
100
AcDbLine
 10
1.248870811811023
 20
7.012822864181128
 30
0.0
 11
1.227872156692913
 21
7.004948368511837
 31
0.0
  0
LINE
  5
28E8
330
1E
100
AcDbEntity
  8
7
100
AcDbLine
 10
1.227872156692913
 20
7.004948368511837
 30
0.0
 11
1.219997661023621
 21
6.983949713393727
 31
0.0
  0
LINE
  5
28F3
330
1E
100
AcDbEntity
  8
7
100
AcDbLine
 10
3.016695089566929
 20
6.502293061622072
 30
0.0
 11
3.248992711811023
 21
6.502293061622072
 31
0.0
  0
LINE
  5
28F9
330
1E
100
AcDbEntity
  8
7
100
AcDbLine
 10
2.986509522834645
 20
6.47210749488979
 30
0.0
 11
2.986509522834645
 21
6.439297096267742
 31
0.0
  0
LINE
  5
2905
330
1E
100
AcDbEntity
  8
7
100
AcDbLine
 10
2.926138389370078
 20
6.439297096267742
 30
0.0
 11
2.680716607677165
 21
6.439297096267742
 31
0.0
  0
LINE
  5
290E
330
1E
100
AcDbEntity
  8
7
100
AcDbLine
 10
2.62165789015748
 20
6.47210749488979
 30
0.0
 11
2.62165789015748
 21
6.439297096267742
 31
0.0
  0
LINE
  5
2914
330
1E
100
AcDbEntity
  8
7
100
AcDbLine
 10
2.394609931692913
 20
6.502293061622072
 30
0.0
 11
2.591472323425196
 21
6.502293061622072
 31
0.0
  0
LINE
  5
291F
330
1E
100
AcDbEntity
  8
7
100
AcDbLine
 10
2.348675373622047
 20
6.481294406503963
 30
0.0
 11
2.349987789566929
 21
6.481294406503963
 31
0.0
  0
LINE
  5
2925
330
1E
100
AcDbEntity
  8
7
100
AcDbLine
 10
2.174124052952755
 20
6.497043397842545
 30
0.0
 11
2.322427054724409
 21
6.497043397842545
 31
0.0
  0
LINE
  5
292B
330
1E
100
AcDbEntity
  8
7
100
AcDbLine
 10
2.14918815
 20
6.481294406503963
 30
0.0
 11
2.146563318110236
 21
6.481294406503963
 31
0.0
  0
LINE
  5
292C
330
1E
100
AcDbEntity
  8
7
100
AcDbLine
 10
1.058570499803149
 20
3.051951542527585
 30
0.0
 11
1.058570499803149
 21
7.182124521070892
 31
0.0
  0
LINE
  5
292D
330
1E
100
AcDbEntity
  8
7
100
AcDbLine
 10
3.437980607874015
 20
3.051951542527585
 30
0.0
 11
1.058570499803149
 21
3.051951542527585
 31
0.0
  0
LINE
  5
292E
330
1E
100
AcDbEntity
  8
7
100
AcDbLine
 10
3.141374604330708
 20
5.394614004141758
 30
0.0
 11
3.18468433051181
 21
5.394614004141758
 31
0.0
  0
LINE
  5
2934
330
1E
100
AcDbEntity
  8
7
100
AcDbLine
 10
3.128250444881889
 20
5.38280226063782
 30
0.0
 11
3.128250444881889
 21
5.342117366346482
 31
0.0
  0
LINE
  5
293A
330
1E
100
AcDbEntity
  8
7
100
AcDbLine
 10
2.650531040944881
 20
5.330305622842545
 30
0.0
 11
3.116438701377952
 21
5.330305622842545
 31
0.0
  0
LINE
  5
2940
330
1E
100
AcDbEntity
  8
7
100
AcDbLine
 10
2.638719297440944
 20
5.38280226063782
 30
0.0
 11
2.638719297440944
 21
5.342117366346482
 31
0.0
  0
LINE
  5
2946
330
1E
100
AcDbEntity
  8
7
100
AcDbLine
 10
2.506165287007874
 20
5.394614004141758
 30
0.0
 11
2.626907553937007
 21
5.394614004141758
 31
0.0
  0
LINE
  5
294C
330
1E
100
AcDbEntity
  8
7
100
AcDbLine
 10
2.494353543503936
 20
5.38280226063782
 30
0.0
 11
2.494353543503936
 21
5.342117366346482
 31
0.0
  0
LINE
  5
2952
330
1E
100
AcDbEntity
  8
7
100
AcDbLine
 10
2.015321723622046
 20
5.330305622842545
 30
0.0
 11
2.481229384055117
 21
5.330305622842545
 31
0.0
  0
LINE
  5
2958
330
1E
100
AcDbEntity
  8
7
100
AcDbLine
 10
2.00350998011811
 20
5.38280226063782
 30
0.0
 11
2.00350998011811
 21
5.342117366346482
 31
0.0
  0
LINE
  5
295E
330
1E
100
AcDbEntity
  8
7
100
AcDbLine
 10
1.870955969685039
 20
5.394614004141758
 30
0.0
 11
1.991698236614173
 21
5.394614004141758
 31
0.0
  0
LINE
  5
2964
330
1E
100
AcDbEntity
  8
7
100
AcDbLine
 10
1.859144226181101
 20
5.38280226063782
 30
0.0
 11
1.859144226181101
 21
5.342117366346482
 31
0.0
  0
LINE
  5
296A
330
1E
100
AcDbEntity
  8
7
100
AcDbLine
 10
1.380112406299212
 20
5.330305622842545
 30
0.0
 11
1.847332482677165
 21
5.330305622842545
 31
0.0
  0
LINE
  5
2970
330
1E
100
AcDbEntity
  8
7
100
AcDbLine
 10
1.368300662795275
 20
5.38280226063782
 30
0.0
 11
1.368300662795275
 21
5.342117366346482
 31
0.0
  0
LINE
  5
2976
330
1E
100
AcDbEntity
  8
7
100
AcDbLine
 10
1.356488919291338
 20
5.394614004141758
 30
0.0
 11
1.313179193110236
 21
5.394614004141758
 31
0.0
  0
LINE
  5
297C
330
1E
100
AcDbEntity
  8
7
100
AcDbLine
 10
1.301367449606299
 20
6.042947480913412
 30
0.0
 11
1.301367449606299
 21
5.406425747645695
 31
0.0
  0
LINE
  5
2982
330
1E
100
AcDbEntity
  8
7
100
AcDbLine
 10
3.18468433051181
 20
6.054759224417348
 30
0.0
 11
1.313179193110236
 21
6.054759224417348
 31
0.0
  0
LINE
  5
2988
330
1E
100
AcDbEntity
  8
7
100
AcDbLine
 10
3.196496074015747
 20
6.042947480913412
 30
0.0
 11
3.196496074015747
 21
5.406425747645695
 31
0.0
  0
LINE
  5
298E
330
1E
100
AcDbEntity
  8
7
100
AcDbLine
 10
1.368300662795275
 20
4.233125892921286
 30
0.0
 11
1.368300662795275
 21
4.191128582685065
 31
0.0
  0
LINE
  5
2994
330
1E
100
AcDbEntity
  8
7
100
AcDbLine
 10
1.356488919291338
 20
4.244937636425222
 30
0.0
 11
1.313179193110236
 21
4.244937636425222
 31
0.0
  0
LINE
  5
299A
330
1E
100
AcDbEntity
  8
7
100
AcDbLine
 10
1.301367449606299
 20
4.893271113196876
 30
0.0
 11
1.301367449606299
 21
4.256749379929159
 31
0.0
  0
LINE
  5
29A0
330
1E
100
AcDbEntity
  8
7
100
AcDbLine
 10
3.18468433051181
 20
4.905082856700813
 30
0.0
 11
1.313179193110236
 21
4.905082856700813
 31
0.0
  0
LINE
  5
29A6
330
1E
100
AcDbEntity
  8
7
100
AcDbLine
 10
3.196496074015747
 20
4.893271113196876
 30
0.0
 11
3.196496074015747
 21
4.256749379929159
 31
0.0
  0
LINE
  5
29AC
330
1E
100
AcDbEntity
  8
7
100
AcDbLine
 10
3.141374604330708
 20
4.244937636425222
 30
0.0
 11
3.18468433051181
 21
4.244937636425222
 31
0.0
  0
LINE
  5
29B2
330
1E
100
AcDbEntity
  8
7
100
AcDbLine
 10
3.128250444881889
 20
4.233125892921286
 30
0.0
 11
3.128250444881889
 21
4.191128582685065
 31
0.0
  0
LINE
  5
29B3
330
1E
100
AcDbEntity
  8
7
100
AcDbLine
 10
3.116438701377952
 20
4.179316839181128
 30
0.0
 11
3.124313197047244
 21
4.183254087015773
 31
0.0
  0
LINE
  5
29B4
330
1E
100
AcDbEntity
  8
7
100
AcDbLine
 10
3.124313197047244
 20
4.183254087015773
 30
0.0
 11
3.128250444881889
 21
4.191128582685065
 31
0.0
  0
LINE
  5
29B5
330
1E
100
AcDbEntity
  8
7
100
AcDbLine
 10
2.650531040944881
 20
4.179316839181128
 30
0.0
 11
3.116438701377952
 21
4.179316839181128
 31
0.0
  0
LINE
  5
29BB
330
1E
100
AcDbEntity
  8
7
100
AcDbLine
 10
2.638719297440944
 20
4.233125892921286
 30
0.0
 11
2.638719297440944
 21
4.191128582685065
 31
0.0
  0
LINE
  5
29BC
330
1E
100
AcDbEntity
  8
7
100
AcDbLine
 10
2.638719297440944
 20
4.233125892921286
 30
0.0
 11
2.634782049606299
 21
4.241000388590577
 31
0.0
  0
LINE
  5
29BD
330
1E
100
AcDbEntity
  8
7
100
AcDbLine
 10
2.634782049606299
 20
4.241000388590577
 30
0.0
 11
2.626907553937007
 21
4.244937636425222
 31
0.0
  0
LINE
  5
29BE
330
1E
100
AcDbEntity
  8
7
100
AcDbLine
 10
2.506165287007874
 20
4.244937636425222
 30
0.0
 11
2.626907553937007
 21
4.244937636425222
 31
0.0
  0
LINE
  5
29C4
330
1E
100
AcDbEntity
  8
7
100
AcDbLine
 10
2.494353543503936
 20
4.233125892921286
 30
0.0
 11
2.494353543503936
 21
4.191128582685065
 31
0.0
  0
LINE
  5
29CA
330
1E
100
AcDbEntity
  8
7
100
AcDbLine
 10
2.015321723622046
 20
4.179316839181128
 30
0.0
 11
2.481229384055117
 21
4.179316839181128
 31
0.0
  0
LINE
  5
29D0
330
1E
100
AcDbEntity
  8
7
100
AcDbLine
 10
2.00350998011811
 20
4.233125892921286
 30
0.0
 11
2.00350998011811
 21
4.191128582685065
 31
0.0
  0
LINE
  5
29D6
330
1E
100
AcDbEntity
  8
7
100
AcDbLine
 10
1.870955969685039
 20
4.244937636425222
 30
0.0
 11
1.991698236614173
 21
4.244937636425222
 31
0.0
  0
LINE
  5
29DC
330
1E
100
AcDbEntity
  8
7
100
AcDbLine
 10
1.859144226181101
 20
4.233125892921286
 30
0.0
 11
1.859144226181101
 21
4.191128582685065
 31
0.0
  0
LINE
  5
29E2
330
1E
100
AcDbEntity
  8
7
100
AcDbLine
 10
1.380112406299212
 20
4.179316839181128
 30
0.0
 11
1.847332482677165
 21
4.179316839181128
 31
0.0
  0
LINE
  5
29E8
330
1E
100
AcDbEntity
  8
7
100
AcDbLine
 10
0.9037054183070868
 20
7.367175169299238
 30
0.0
 11
0.9378282328740151
 21
7.367175169299238
 31
0.0
  0
LINE
  5
29E9
330
1E
100
AcDbEntity
  8
7
100
AcDbLine
 10
2.680716607677165
 20
6.4931061500079
 30
0.0
 11
2.926138389370078
 21
6.4931061500079
 31
0.0
  0
LINE
  5
29EF
330
1E
100
AcDbEntity
  8
7
100
AcDbLine
 10
2.926138389370078
 20
6.485231654338608
 30
0.0
 11
2.926138389370078
 21
6.4931061500079
 31
0.0
  0
LINE
  5
29F6
330
1E
100
AcDbEntity
  8
7
100
AcDbLine
 10
2.28830424015748
 20
6.678156798236246
 30
0.0
 11
2.208246867519684
 21
6.678156798236246
 31
0.0
  0
LINE
  5
29F7
330
1E
100
AcDbEntity
  8
7
100
AcDbLine
 10
2.318489806889763
 20
6.569226274811049
 30
0.0
 11
2.318489806889763
 21
6.649283647448845
 31
0.0
  0
LINE
  5
29F8
330
1E
100
AcDbEntity
  8
7
100
AcDbLine
 10
2.179373716732283
 20
6.569226274811049
 30
0.0
 11
2.179373716732283
 21
6.649283647448845
 31
0.0
  0
LINE
  5
29FE
330
1E
100
AcDbEntity
  8
7
100
AcDbLine
 10
2.318489806889763
 20
6.569226274811049
 30
0.0
 11
2.179373716732283
 21
6.569226274811049
 31
0.0
  0
LINE
  5
2A0E
330
1E
100
AcDbEntity
  8
7
100
AcDbLine
 10
2.318489806889763
 20
6.550852451582703
 30
0.0
 11
2.179373716732283
 21
6.550852451582703
 31
0.0
  0
LINE
  5
2A23
330
1E
100
AcDbEntity
  8
7
100
AcDbLine
 10
1.8158345
 20
6.4931061500079
 30
0.0
 11
1.571725134251968
 21
6.4931061500079
 31
0.0
  0
LINE
  5
2A2A
330
1E
100
AcDbEntity
  8
7
100
AcDbLine
 10
1.571725134251968
 20
6.439297096267742
 30
0.0
 11
1.571725134251968
 21
6.465545415165379
 31
0.0
  0
LINE
  5
2A42
330
1E
100
AcDbEntity
  8
7
100
AcDbLine
 10
0.8735198515748031
 20
7.302866788000025
 30
0.0
 11
0.8735198515748031
 21
7.336989602566955
 31
0.0
  0
LINE
  5
2A43
330
1E
100
AcDbEntity
  8
7
100
AcDbLine
 10
0.9942621185039367
 20
7.182124521070892
 30
0.0
 11
0.8735198515748031
 21
7.302866788000025
 31
0.0
  0
LINE
  5
2A44
330
1E
100
AcDbEntity
  8
7
100
AcDbLine
 10
0.8735198515748031
 20
2.931209275598451
 30
0.0
 11
0.8735198515748031
 21
2.897086461031522
 31
0.0
  0
LINE
  5
2A45
330
1E
100
AcDbEntity
  8
7
100
AcDbLine
 10
0.8735198515748031
 20
7.302866788000025
 30
0.0
 11
0.8735198515748031
 21
2.931209275598451
 31
0.0
  0
LINE
  5
2A46
330
1E
100
AcDbEntity
  8
7
100
AcDbLine
 10
0.9942621185039367
 20
3.051951542527585
 30
0.0
 11
0.8735198515748031
 21
2.931209275598451
 31
0.0
  0
LINE
  5
2A63
330
1E
100
AcDbEntity
  8
7
100
AcDbLine
 10
3.437980607874015
 20
2.987643161228372
 30
0.0
 11
3.560035290748031
 21
2.866900894299238
 31
0.0
  0
LINE
  5
2A6F
330
1E
100
AcDbEntity
  8
7
100
AcDbLine
 10
0.9378282328740151
 20
2.866900894299238
 30
0.0
 11
1.058570499803149
 21
2.987643161228372
 31
0.0
  0
LINE
  5
2AA6
330
1E
100
AcDbEntity
  8
7
100
AcDbLine
 10
2.318489806889763
 20
3.683223612015773
 30
0.0
 11
2.179373716732283
 21
3.683223612015773
 31
0.0
  0
LINE
  5
2AB8
330
1E
100
AcDbEntity
  8
7
100
AcDbLine
 10
2.318489806889763
 20
3.66616220473231
 30
0.0
 11
2.318489806889763
 21
3.586104832094513
 31
0.0
  0
LINE
  5
2ABE
330
1E
100
AcDbEntity
  8
7
100
AcDbLine
 10
2.28830424015748
 20
3.55591926536223
 30
0.0
 11
2.208246867519684
 21
3.55591926536223
 31
0.0
  0
LINE
  5
2AC4
330
1E
100
AcDbEntity
  8
7
100
AcDbLine
 10
3.185996746456693
 20
6.953764146661443
 30
0.0
 11
3.185996746456693
 21
6.561351779141759
 31
0.0
  0
LINE
  5
2AC5
330
1E
100
AcDbEntity
  8
7
100
AcDbLine
 10
3.185996746456693
 20
6.953764146661443
 30
0.0
 11
3.185996746456693
 21
6.561351779141759
 31
0.0
  0
LINE
  5
2AC6
330
1E
100
AcDbEntity
  8
7
100
AcDbLine
 10
3.176809834842519
 20
6.964263474220498
 30
0.0
 11
3.176809834842519
 21
6.962951058275616
 31
0.0
  0
LINE
  5
2ACC
330
1E
100
AcDbEntity
  8
7
100
AcDbLine
 10
3.185996746456693
 20
6.953764146661443
 30
0.0
 11
3.183371914566929
 21
6.960326226385852
 31
0.0
  0
LINE
  5
2ACD
330
1E
100
AcDbEntity
  8
7
100
AcDbLine
 10
3.183371914566929
 20
6.960326226385852
 30
0.0
 11
3.176809834842519
 21
6.962951058275616
 31
0.0
  0
LINE
  5
2ACE
330
1E
100
AcDbEntity
  8
7
100
AcDbLine
 10
3.176809834842519
 20
6.552164867527585
 30
0.0
 11
3.13612494055118
 21
6.552164867527585
 31
0.0
  0
LINE
  5
2AD4
330
1E
100
AcDbEntity
  8
7
100
AcDbLine
 10
3.13612494055118
 20
6.962951058275616
 30
0.0
 11
3.176809834842519
 21
6.962951058275616
 31
0.0
  0
LINE
  5
2AD5
330
1E
100
AcDbEntity
  8
7
100
AcDbLine
 10
3.176809834842519
 20
6.552164867527585
 30
0.0
 11
3.183371914566929
 21
6.554789699417348
 31
0.0
  0
LINE
  5
2AD6
330
1E
100
AcDbEntity
  8
7
100
AcDbLine
 10
3.183371914566929
 20
6.554789699417348
 30
0.0
 11
3.185996746456693
 21
6.561351779141759
 31
0.0
  0
LINE
  5
2AD7
330
1E
100
AcDbEntity
  8
7
100
AcDbLine
 10
3.624343672047244
 20
2.897086461031522
 30
0.0
 11
3.626968503937007
 21
2.894461629141758
 31
0.0
  0
LINE
  5
2AD8
330
1E
100
AcDbEntity
  8
7
100
AcDbLine
 10
3.626968503937007
 20
7.340926850401601
 30
0.0
 11
3.626968503937007
 21
2.894461629141758
 31
0.0
  0
LINE
  5
2AD9
330
1E
100
AcDbEntity
  8
7
100
AcDbLine
 10
3.626968503937007
 20
7.340926850401601
 30
0.0
 11
3.624343672047244
 21
7.336989602566955
 31
0.0
  0
LINE
  5
2ADA
330
1E
100
AcDbEntity
  8
7
100
AcDbLine
 10
3.269991366929133
 20
6.973450385834672
 30
0.0
 11
3.269991366929133
 21
6.54166553996853
 31
0.0
  0
LINE
  5
2AE6
330
1E
100
AcDbEntity
  8
7
100
AcDbLine
 10
1.361738583070865
 20
6.962951058275616
 30
0.0
 11
3.13612494055118
 21
6.962951058275616
 31
0.0
  0
LINE
  5
2AE7
330
1E
100
AcDbEntity
  8
7
100
AcDbLine
 10
1.361738583070865
 20
6.962951058275616
 30
0.0
 11
1.361738583070865
 21
6.553477283472466
 31
0.0
  0
LINE
  5
2AFE
330
1E
100
AcDbEntity
  8
7
100
AcDbLine
 10
2.30930289527559
 20
6.909142004535459
 30
0.0
 11
2.188560628346456
 21
6.909142004535459
 31
0.0
  0
LINE
  5
2B42
330
1E
100
AcDbEntity
  8
7
100
AcDbLine
 10
2.326364302559055
 20
3.719971258472466
 30
0.0
 11
2.318489806889763
 21
3.719971258472466
 31
0.0
  0
LINE
  5
2B48
330
1E
100
AcDbEntity
  8
7
100
AcDbLine
 10
2.326364302559055
 20
3.709471930913411
 30
0.0
 11
2.326364302559055
 21
3.719971258472466
 31
0.0
  0
LINE
  5
2B53
330
1E
100
AcDbEntity
  8
7
100
AcDbLine
 10
2.328989134448819
 20
6.511479973236246
 30
0.0
 11
3.23980580019685
 21
6.511479973236246
 31
0.0
  0
LINE
  5
2B54
330
1E
100
AcDbEntity
  8
7
100
AcDbLine
 10
2.328989134448819
 20
6.511479973236246
 30
0.0
 11
2.328989134448819
 21
6.489168902173254
 31
0.0
  0
LINE
  5
2B55
330
1E
100
AcDbEntity
  8
7
100
AcDbLine
 10
2.168874389173228
 20
6.489168902173254
 30
0.0
 11
2.168874389173228
 21
6.511479973236246
 31
0.0
  0
LINE
  5
2B56
330
1E
100
AcDbEntity
  8
7
100
AcDbLine
 10
1.258057723425196
 20
6.511479973236246
 30
0.0
 11
2.168874389173228
 21
6.511479973236246
 31
0.0
  0
LINE
  5
2B80
330
1E
100
AcDbEntity
  8
7
100
AcDbLine
 10
1.817146915944881
 20
6.445859175992151
 30
0.0
 11
1.8158345
 21
6.445859175992151
 31
0.0
  0
LINE
  5
2BA2
330
1E
100
AcDbEntity
  8
7
100
AcDbLine
 10
1.258057723425196
 20
3.230440111031521
 30
0.0
 11
3.23980580019685
 21
3.230440111031521
 31
0.0
  0
LINE
  5
2BAF
330
1E
100
AcDbEntity
  8
7
100
AcDbLine
 10
3.129562860826771
 20
4.234438308866168
 30
0.0
 11
3.129562860826771
 21
4.244937636425222
 31
0.0
  0
LINE
  5
2BB0
330
1E
100
AcDbEntity
  8
7
100
AcDbLine
 10
2.638719297440944
 20
4.244937636425222
 30
0.0
 11
2.638719297440944
 21
4.234438308866168
 31
0.0
  0
LINE
  5
2BB1
330
1E
100
AcDbEntity
  8
7
100
AcDbLine
 10
2.638719297440944
 20
4.244937636425222
 30
0.0
 11
2.629532385826771
 21
4.244937636425222
 31
0.0
  0
LINE
  5
2BB2
330
1E
100
AcDbEntity
  8
7
100
AcDbLine
 10
2.50354045511811
 20
4.244937636425222
 30
0.0
 11
2.494353543503936
 21
4.244937636425222
 31
0.0
  0
LINE
  5
2BB3
330
1E
100
AcDbEntity
  8
7
100
AcDbLine
 10
2.494353543503936
 20
4.234438308866168
 30
0.0
 11
2.494353543503936
 21
4.244937636425222
 31
0.0
  0
LINE
  5
2BB4
330
1E
100
AcDbEntity
  8
7
100
AcDbLine
 10
2.00350998011811
 20
4.244937636425222
 30
0.0
 11
2.00350998011811
 21
4.234438308866168
 31
0.0
  0
LINE
  5
2BB5
330
1E
100
AcDbEntity
  8
7
100
AcDbLine
 10
2.00350998011811
 20
4.244937636425222
 30
0.0
 11
1.994323068503936
 21
4.244937636425222
 31
0.0
  0
LINE
  5
2BB6
330
1E
100
AcDbEntity
  8
7
100
AcDbLine
 10
1.868331137795275
 20
4.244937636425222
 30
0.0
 11
1.859144226181101
 21
4.244937636425222
 31
0.0
  0
LINE
  5
2BB7
330
1E
100
AcDbEntity
  8
7
100
AcDbLine
 10
1.859144226181101
 20
4.234438308866168
 30
0.0
 11
1.859144226181101
 21
4.244937636425222
 31
0.0
  0
LINE
  5
2BB8
330
1E
100
AcDbEntity
  8
7
100
AcDbLine
 10
1.368300662795275
 20
4.244937636425222
 30
0.0
 11
1.368300662795275
 21
4.234438308866168
 31
0.0
  0
LINE
  5
2BB9
330
1E
100
AcDbEntity
  8
7
100
AcDbLine
 10
1.368300662795275
 20
4.244937636425222
 30
0.0
 11
1.359113751181102
 21
4.244937636425222
 31
0.0
  0
LINE
  5
2BBA
330
1E
100
AcDbEntity
  8
7
100
AcDbLine
 10
3.138749772440944
 20
4.244937636425222
 30
0.0
 11
3.129562860826771
 21
4.244937636425222
 31
0.0
  0
LINE
  5
2BBB
330
1E
100
AcDbEntity
  8
7
100
AcDbLine
 10
3.129562860826771
 20
5.385427092527585
 30
0.0
 11
3.129562860826771
 21
5.394614004141758
 31
0.0
  0
LINE
  5
2BBC
330
1E
100
AcDbEntity
  8
7
100
AcDbLine
 10
2.638719297440944
 20
5.394614004141758
 30
0.0
 11
2.638719297440944
 21
5.385427092527585
 31
0.0
  0
LINE
  5
2BBD
330
1E
100
AcDbEntity
  8
7
100
AcDbLine
 10
2.638719297440944
 20
5.394614004141758
 30
0.0
 11
2.629532385826771
 21
5.394614004141758
 31
0.0
  0
LINE
  5
2BBE
330
1E
100
AcDbEntity
  8
7
100
AcDbLine
 10
2.50354045511811
 20
5.394614004141758
 30
0.0
 11
2.494353543503936
 21
5.394614004141758
 31
0.0
  0
LINE
  5
2BBF
330
1E
100
AcDbEntity
  8
7
100
AcDbLine
 10
2.494353543503936
 20
5.385427092527585
 30
0.0
 11
2.494353543503936
 21
5.394614004141758
 31
0.0
  0
LINE
  5
2BC0
330
1E
100
AcDbEntity
  8
7
100
AcDbLine
 10
2.00350998011811
 20
5.394614004141758
 30
0.0
 11
2.00350998011811
 21
5.385427092527585
 31
0.0
  0
LINE
  5
2BC1
330
1E
100
AcDbEntity
  8
7
100
AcDbLine
 10
2.00350998011811
 20
5.394614004141758
 30
0.0
 11
1.994323068503936
 21
5.394614004141758
 31
0.0
  0
LINE
  5
2BC2
330
1E
100
AcDbEntity
  8
7
100
AcDbLine
 10
1.868331137795275
 20
5.394614004141758
 30
0.0
 11
1.859144226181101
 21
5.394614004141758
 31
0.0
  0
LINE
  5
2BC3
330
1E
100
AcDbEntity
  8
7
100
AcDbLine
 10
1.859144226181101
 20
5.385427092527585
 30
0.0
 11
1.859144226181101
 21
5.394614004141758
 31
0.0
  0
LINE
  5
2BC4
330
1E
100
AcDbEntity
  8
7
100
AcDbLine
 10
1.368300662795275
 20
5.394614004141758
 30
0.0
 11
1.368300662795275
 21
5.385427092527585
 31
0.0
  0
LINE
  5
2BC5
330
1E
100
AcDbEntity
  8
7
100
AcDbLine
 10
1.368300662795275
 20
5.394614004141758
 30
0.0
 11
1.359113751181102
 21
5.394614004141758
 31
0.0
  0
LINE
  5
2BC6
330
1E
100
AcDbEntity
  8
7
100
AcDbLine
 10
3.138749772440944
 20
5.394614004141758
 30
0.0
 11
3.129562860826771
 21
5.394614004141758
 31
0.0
  0
LINE
  5
2BEC
330
1E
100
AcDbEntity
  8
7
100
AcDbLine
 10
0.9010805864173224
 20
7.369800001189002
 30
0.0
 11
3.596782937204724
 21
7.369800001189002
 31
0.0
  0
LINE
  5
2BED
330
1E
100
AcDbEntity
  8
7
100
AcDbLine
 10
0.9010805864173224
 20
7.369800001189002
 30
0.0
 11
0.9037054183070868
 21
7.367175169299238
 31
0.0
  0
LINE
  5
2BEE
330
1E
100
AcDbEntity
  8
7
100
AcDbLine
 10
3.59415810531496
 20
7.367175169299238
 30
0.0
 11
3.596782937204724
 21
7.369800001189002
 31
0.0
  0
LINE
  5
2BF5
330
1E
100
AcDbEntity
  8
7
100
AcDbLine
 10
0.9010805864173224
 20
2.864276062409475
 30
0.0
 11
3.596782937204724
 21
2.864276062409475
 31
0.0
  0
LINE
  5
2BFC
330
1E
100
AcDbEntity
  8
7
100
AcDbLine
 10
0.8708950196850388
 20
7.340926850401601
 30
0.0
 11
0.8708950196850388
 21
2.894461629141758
 31
0.0
  0
LINE
  5
2C0E
330
1E
100
AcDbEntity
  8
7
100
AcDbLine
 10
1.258057723425196
 20
7.003635952566956
 30
0.0
 11
1.259370139370078
 21
7.003635952566956
 31
0.0
  0
LINE
  5
2C1B
330
1E
100
AcDbEntity
  8
7
100
AcDbLine
 10
1.229184572637795
 20
6.542977955913412
 30
0.0
 11
1.229184572637795
 21
6.973450385834672
 31
0.0
  0
LINE
  5
2C1C
330
1E
100
AcDbEntity
  8
7
100
AcDbLine
 10
1.229184572637795
 20
6.542977955913412
 30
0.0
 11
1.23312182047244
 21
6.527228964574828
 31
0.0
  0
LINE
  5
2C22
330
1E
100
AcDbEntity
  8
7
100
AcDbLine
 10
2.167561973228346
 20
6.512792389181128
 30
0.0
 11
1.259370139370078
 21
6.512792389181128
 31
0.0
  0
LINE
  5
2C23
330
1E
100
AcDbEntity
  8
7
100
AcDbLine
 10
2.167561973228346
 20
6.552164867527585
 30
0.0
 11
2.167561973228346
 21
6.512792389181128
 31
0.0
  0
LINE
  5
2C24
330
1E
100
AcDbEntity
  8
7
100
AcDbLine
 10
1.321053688779527
 20
6.552164867527585
 30
0.0
 11
2.167561973228346
 21
6.552164867527585
 31
0.0
  0
LINE
  5
2C2A
330
1E
100
AcDbEntity
  8
7
100
AcDbLine
 10
1.311866777165354
 20
6.953764146661443
 30
0.0
 11
1.311866777165354
 21
6.561351779141759
 31
0.0
  0
LINE
  5
2C30
330
1E
100
AcDbEntity
  8
7
100
AcDbLine
 10
1.321053688779527
 20
6.964263474220498
 30
0.0
 11
3.176809834842519
 21
6.964263474220498
 31
0.0
  0
LINE
  5
2C31
330
1E
100
AcDbEntity
  8
7
100
AcDbLine
 10
2.3303015503937
 20
6.552164867527585
 30
0.0
 11
2.3303015503937
 21
6.512792389181128
 31
0.0
  0
LINE
  5
2C32
330
1E
100
AcDbEntity
  8
7
100
AcDbLine
 10
3.238493384251968
 20
6.512792389181128
 30
0.0
 11
2.3303015503937
 21
6.512792389181128
 31
0.0
  0
LINE
  5
2C39
330
1E
100
AcDbEntity
  8
7
100
AcDbLine
 10
3.23980580019685
 20
6.511479973236246
 30
0.0
 11
3.238493384251968
 21
6.512792389181128
 31
0.0
  0
LINE
  5
2C3A
330
1E
100
AcDbEntity
  8
7
100
AcDbLine
 10
2.328989134448819
 20
6.511479973236246
 30
0.0
 11
2.3303015503937
 21
6.512792389181128
 31
0.0
  0
LINE
  5
2C40
330
1E
100
AcDbEntity
  8
7
100
AcDbLine
 10
2.674154527952755
 20
6.462920583275616
 30
0.0
 11
2.682029023622046
 21
6.455046087606325
 31
0.0
  0
LINE
  5
2C41
330
1E
100
AcDbEntity
  8
7
100
AcDbLine
 10
2.865767255905511
 20
6.494418565952781
 30
0.0
 11
2.864454839960629
 21
6.4931061500079
 31
0.0
  0
LINE
  5
2C42
330
1E
100
AcDbEntity
  8
7
100
AcDbLine
 10
2.741087741141732
 20
6.494418565952781
 30
0.0
 11
2.742400157086613
 21
6.4931061500079
 31
0.0
  0
LINE
  5
2C43
330
1E
100
AcDbEntity
  8
7
100
AcDbLine
 10
2.926138389370078
 20
6.455046087606325
 30
0.0
 11
2.934012885039369
 21
6.462920583275616
 31
0.0
  0
LINE
  5
2C49
330
1E
100
AcDbEntity
  8
7
100
AcDbLine
 10
2.92745080531496
 20
6.453733671661443
 30
0.0
 11
2.935325300984251
 21
6.461608167330734
 31
0.0
  0
LINE
  5
2C50
330
1E
100
AcDbEntity
  8
7
100
AcDbLine
 10
2.934012885039369
 20
6.462920583275616
 30
0.0
 11
2.934012885039369
 21
6.48654407028349
 31
0.0
  0
LINE
  5
2C57
330
1E
100
AcDbEntity
  8
7
100
AcDbLine
 10
2.674154527952755
 20
6.48654407028349
 30
0.0
 11
2.674154527952755
 21
6.462920583275616
 31
0.0
  0
LINE
  5
2C58
330
1E
100
AcDbEntity
  8
7
100
AcDbLine
 10
2.672842112007874
 20
6.461608167330734
 30
0.0
 11
2.680716607677165
 21
6.453733671661443
 31
0.0
  0
LINE
  5
2C59
330
1E
100
AcDbEntity
  8
7
100
AcDbLine
 10
2.680716607677165
 20
6.499668229732309
 30
0.0
 11
2.682029023622046
 21
6.494418565952781
 31
0.0
  0
LINE
  5
2C5A
330
1E
100
AcDbEntity
  8
7
100
AcDbLine
 10
2.680716607677165
 20
6.499668229732309
 30
0.0
 11
2.672842112007874
 21
6.491793734063017
 31
0.0
  0
LINE
  5
2C5B
330
1E
100
AcDbEntity
  8
7
100
AcDbLine
 10
2.73321324547244
 20
6.494418565952781
 30
0.0
 11
2.741087741141732
 21
6.494418565952781
 31
0.0
  0
LINE
  5
2C5C
330
1E
100
AcDbEntity
  8
7
100
AcDbLine
 10
2.865767255905511
 20
6.494418565952781
 30
0.0
 11
2.873641751574803
 21
6.494418565952781
 31
0.0
  0
LINE
  5
2C62
330
1E
100
AcDbEntity
  8
7
100
AcDbLine
 10
2.935325300984251
 20
6.491793734063017
 30
0.0
 11
2.92745080531496
 21
6.499668229732309
 31
0.0
  0
LINE
  5
2C63
330
1E
100
AcDbEntity
  8
7
100
AcDbLine
 10
2.92745080531496
 20
6.445859175992151
 30
0.0
 11
2.92745080531496
 21
6.451108839771679
 31
0.0
  0
LINE
  5
2C64
330
1E
100
AcDbEntity
  8
7
100
AcDbLine
 10
2.92745080531496
 20
6.451108839771679
 30
0.0
 11
2.92745080531496
 21
6.453733671661443
 31
0.0
  0
LINE
  5
2C79
330
1E
100
AcDbEntity
  8
7
100
AcDbLine
 10
2.672842112007874
 20
6.491793734063017
 30
0.0
 11
2.67021728011811
 21
6.491793734063017
 31
0.0
  0
LINE
  5
2C7A
330
1E
100
AcDbEntity
  8
7
100
AcDbLine
 10
2.67021728011811
 20
6.491793734063017
 30
0.0
 11
2.664967616338582
 21
6.491793734063017
 31
0.0
  0
LINE
  5
2C8A
330
1E
100
AcDbEntity
  8
7
100
AcDbLine
 10
2.167561973228346
 20
6.552164867527585
 30
0.0
 11
2.168874389173228
 21
6.553477283472466
 31
0.0
  0
LINE
  5
2C8B
330
1E
100
AcDbEntity
  8
7
100
AcDbLine
 10
1.259370139370078
 20
6.512792389181128
 30
0.0
 11
1.258057723425196
 21
6.511479973236246
 31
0.0
  0
LINE
  5
2C8C
330
1E
100
AcDbEntity
  8
7
100
AcDbLine
 10
2.167561973228346
 20
6.512792389181128
 30
0.0
 11
2.168874389173228
 21
6.511479973236246
 31
0.0
  0
LINE
  5
2C9E
330
1E
100
AcDbEntity
  8
7
100
AcDbLine
 10
2.172811637007874
 20
6.608598753157506
 30
0.0
 11
2.172811637007874
 21
6.682094046070892
 31
0.0
  0
LINE
  5
2CAC
330
1E
100
AcDbEntity
  8
7
100
AcDbLine
 10
2.30930289527559
 20
6.835646711622072
 30
0.0
 11
2.188560628346456
 21
6.835646711622072
 31
0.0
  0
LINE
  5
2CBA
330
1E
100
AcDbEntity
  8
7
100
AcDbLine
 10
2.325051886614172
 20
6.682094046070892
 30
0.0
 11
2.325051886614172
 21
6.608598753157506
 31
0.0
  0
LINE
  5
2CCC
330
1E
100
AcDbEntity
  8
7
100
AcDbLine
 10
2.30930289527559
 20
6.907829588590576
 30
0.0
 11
2.188560628346456
 21
6.907829588590576
 31
0.0
  0
LINE
  5
2CCD
330
1E
100
AcDbEntity
  8
7
100
AcDbLine
 10
2.325051886614172
 20
6.608598753157506
 30
0.0
 11
2.328989134448819
 21
6.607286337212624
 31
0.0
  0
LINE
  5
2CCE
330
1E
100
AcDbEntity
  8
7
100
AcDbLine
 10
2.30930289527559
 20
6.909142004535459
 30
0.0
 11
2.30930289527559
 21
6.907829588590576
 31
0.0
  0
LINE
  5
2CCF
330
1E
100
AcDbEntity
  8
7
100
AcDbLine
 10
2.188560628346456
 20
6.907829588590576
 30
0.0
 11
2.188560628346456
 21
6.909142004535459
 31
0.0
  0
LINE
  5
2CD0
330
1E
100
AcDbEntity
  8
7
100
AcDbLine
 10
2.168874389173228
 20
6.607286337212624
 30
0.0
 11
2.172811637007874
 21
6.608598753157506
 31
0.0
  0
LINE
  5
2CD6
330
1E
100
AcDbEntity
  8
7
100
AcDbLine
 10
2.171499221062991
 20
6.535103460244121
 30
0.0
 11
2.174124052952755
 21
6.536415876189002
 31
0.0
  0
LINE
  5
2CD7
330
1E
100
AcDbEntity
  8
7
100
AcDbLine
 10
2.323739470669291
 20
6.536415876189002
 30
0.0
 11
2.325051886614172
 21
6.535103460244121
 31
0.0
  0
LINE
  5
2CEF
330
1E
100
AcDbEntity
  8
7
100
AcDbLine
 10
2.14262607027559
 20
6.697843037409475
 30
0.0
 11
2.355237453346456
 21
6.697843037409475
 31
0.0
  0
LINE
  5
2CF0
330
1E
100
AcDbEntity
  8
7
100
AcDbLine
 10
2.14262607027559
 20
6.817272888393727
 30
0.0
 11
2.355237453346456
 21
6.817272888393727
 31
0.0
  0
LINE
  5
2CF1
330
1E
100
AcDbEntity
  8
7
100
AcDbLine
 10
2.344738125787401
 20
6.689968541740183
 30
0.0
 11
2.153125397834645
 21
6.689968541740183
 31
0.0
  0
LINE
  5
2CF2
330
1E
100
AcDbEntity
  8
7
100
AcDbLine
 10
2.355237453346456
 20
6.697843037409475
 30
0.0
 11
2.344738125787401
 21
6.689968541740183
 31
0.0
  0
LINE
  5
2CF3
330
1E
100
AcDbEntity
  8
7
100
AcDbLine
 10
2.153125397834645
 20
6.689968541740183
 30
0.0
 11
2.14262607027559
 21
6.697843037409475
 31
0.0
  0
LINE
  5
2CF4
330
1E
100
AcDbEntity
  8
7
100
AcDbLine
 10
2.344738125787401
 20
6.825147384063018
 30
0.0
 11
2.153125397834645
 21
6.825147384063018
 31
0.0
  0
LINE
  5
2CFA
330
1E
100
AcDbEntity
  8
7
100
AcDbLine
 10
2.30930289527559
 20
6.834334295677191
 30
0.0
 11
2.188560628346456
 21
6.834334295677191
 31
0.0
  0
LINE
  5
2CFB
330
1E
100
AcDbEntity
  8
7
100
AcDbLine
 10
2.188560628346456
 20
6.834334295677191
 30
0.0
 11
2.17018680511811
 21
6.831709463787428
 31
0.0
  0
LINE
  5
2CFC
330
1E
100
AcDbEntity
  8
7
100
AcDbLine
 10
2.17018680511811
 20
6.831709463787428
 30
0.0
 11
2.153125397834645
 21
6.825147384063018
 31
0.0
  0
LINE
  5
2CFD
330
1E
100
AcDbEntity
  8
7
100
AcDbLine
 10
2.344738125787401
 20
6.825147384063018
 30
0.0
 11
2.355237453346456
 21
6.817272888393727
 31
0.0
  0
LINE
  5
2CFE
330
1E
100
AcDbEntity
  8
7
100
AcDbLine
 10
2.14262607027559
 20
6.817272888393727
 30
0.0
 11
2.153125397834645
 21
6.825147384063018
 31
0.0
  0
LINE
  5
2D04
330
1E
100
AcDbEntity
  8
7
100
AcDbLine
 10
2.30930289527559
 20
6.680781630126011
 30
0.0
 11
2.188560628346456
 21
6.680781630126011
 31
0.0
  0
LINE
  5
2D1D
330
1E
100
AcDbEntity
  8
7
100
AcDbLine
 10
2.323739470669291
 20
6.683406462015773
 30
0.0
 11
2.325051886614172
 21
6.682094046070892
 31
0.0
  0
LINE
  5
2D1E
330
1E
100
AcDbEntity
  8
7
100
AcDbLine
 10
2.30930289527559
 20
6.835646711622072
 30
0.0
 11
2.30930289527559
 21
6.834334295677191
 31
0.0
  0
LINE
  5
2D1F
330
1E
100
AcDbEntity
  8
7
100
AcDbLine
 10
2.188560628346456
 20
6.835646711622072
 30
0.0
 11
2.188560628346456
 21
6.834334295677191
 31
0.0
  0
LINE
  5
2D20
330
1E
100
AcDbEntity
  8
7
100
AcDbLine
 10
2.172811637007874
 20
6.682094046070892
 30
0.0
 11
2.174124052952755
 21
6.683406462015773
 31
0.0
  0
LINE
  5
2D26
330
1E
100
AcDbEntity
  8
7
100
AcDbLine
 10
2.188560628346456
 20
6.680781630126011
 30
0.0
 11
2.30930289527559
 21
6.680781630126011
 31
0.0
  0
LINE
  5
2D27
330
1E
100
AcDbEntity
  8
7
100
AcDbLine
 10
2.168874389173228
 20
6.512792389181128
 30
0.0
 11
2.171499221062991
 21
6.515417221070892
 31
0.0
  0
LINE
  5
2D28
330
1E
100
AcDbEntity
  8
7
100
AcDbLine
 10
2.168874389173228
 20
6.512792389181128
 30
0.0
 11
2.179373716732283
 21
6.512792389181128
 31
0.0
  0
LINE
  5
2D2E
330
1E
100
AcDbEntity
  8
7
100
AcDbLine
 10
2.323739470669291
 20
6.683406462015773
 30
0.0
 11
2.323739470669291
 21
6.536415876189002
 31
0.0
  0
LINE
  5
2D39
330
1E
100
AcDbEntity
  8
7
100
AcDbLine
 10
2.174124052952755
 20
6.683406462015773
 30
0.0
 11
2.174124052952755
 21
6.536415876189002
 31
0.0
  0
LINE
  5
2D3A
330
1E
100
AcDbEntity
  8
7
100
AcDbLine
 10
1.563850638582676
 20
6.462920583275616
 30
0.0
 11
1.571725134251968
 21
6.455046087606325
 31
0.0
  0
LINE
  5
2D3B
330
1E
100
AcDbEntity
  8
7
100
AcDbLine
 10
1.755463366535432
 20
6.494418565952781
 30
0.0
 11
1.755463366535432
 21
6.4931061500079
 31
0.0
  0
LINE
  5
2D3C
330
1E
100
AcDbEntity
  8
7
100
AcDbLine
 10
1.632096267716535
 20
6.494418565952781
 30
0.0
 11
1.632096267716535
 21
6.4931061500079
 31
0.0
  0
LINE
  5
2D3D
330
1E
100
AcDbEntity
  8
7
100
AcDbLine
 10
1.8158345
 20
6.455046087606325
 30
0.0
 11
1.823708995669291
 21
6.462920583275616
 31
0.0
  0
LINE
  5
2D3E
330
1E
100
AcDbEntity
  8
7
100
AcDbLine
 10
1.817146915944881
 20
6.453733671661443
 30
0.0
 11
1.8158345
 21
6.453733671661443
 31
0.0
  0
LINE
  5
2D3F
330
1E
100
AcDbEntity
  8
7
100
AcDbLine
 10
1.817146915944881
 20
6.453733671661443
 30
0.0
 11
1.825021411614173
 21
6.461608167330734
 31
0.0
  0
LINE
  5
2D46
330
1E
100
AcDbEntity
  8
7
100
AcDbLine
 10
1.823708995669291
 20
6.462920583275616
 30
0.0
 11
1.823708995669291
 21
6.48654407028349
 31
0.0
  0
LINE
  5
2D4C
330
1E
100
AcDbEntity
  8
7
100
AcDbLine
 10
1.562538222637794
 20
6.461608167330734
 30
0.0
 11
1.563850638582676
 21
6.462920583275616
 31
0.0
  0
LINE
  5
2D4D
330
1E
100
AcDbEntity
  8
7
100
AcDbLine
 10
1.563850638582676
 20
6.48654407028349
 30
0.0
 11
1.563850638582676
 21
6.462920583275616
 31
0.0
  0
LINE
  5
2D4E
330
1E
100
AcDbEntity
  8
7
100
AcDbLine
 10
1.562538222637794
 20
6.461608167330734
 30
0.0
 11
1.570412718307086
 21
6.453733671661443
 31
0.0
  0
LINE
  5
2D54
330
1E
100
AcDbEntity
  8
7
100
AcDbLine
 10
1.8158345
 20
6.453733671661443
 30
0.0
 11
1.817146915944881
 21
6.453733671661443
 31
0.0
  0
LINE
  5
2D55
330
1E
100
AcDbEntity
  8
7
100
AcDbLine
 10
1.570412718307086
 20
6.499668229732309
 30
0.0
 11
1.571725134251968
 21
6.494418565952781
 31
0.0
  0
LINE
  5
2D56
330
1E
100
AcDbEntity
  8
7
100
AcDbLine
 10
1.570412718307086
 20
6.499668229732309
 30
0.0
 11
1.562538222637794
 21
6.491793734063017
 31
0.0
  0
LINE
  5
2D57
330
1E
100
AcDbEntity
  8
7
100
AcDbLine
 10
1.622909356102361
 20
6.494418565952781
 30
0.0
 11
1.632096267716535
 21
6.494418565952781
 31
0.0
  0
LINE
  5
2D58
330
1E
100
AcDbEntity
  8
7
100
AcDbLine
 10
1.755463366535432
 20
6.494418565952781
 30
0.0
 11
1.764650278149606
 21
6.494418565952781
 31
0.0
  0
LINE
  5
2D5E
330
1E
100
AcDbEntity
  8
7
100
AcDbLine
 10
1.825021411614173
 20
6.491793734063017
 30
0.0
 11
1.817146915944881
 21
6.499668229732309
 31
0.0
  0
LINE
  5
2D8C
330
1E
100
AcDbEntity
  8
7
100
AcDbLine
 10
1.311866777165354
 20
6.561351779141759
 30
0.0
 11
1.311866777165354
 21
6.953764146661443
 31
0.0
  0
LINE
  5
2D8D
330
1E
100
AcDbEntity
  8
7
100
AcDbLine
 10
0.8708950196850388
 20
2.894461629141758
 30
0.0
 11
0.8735198515748031
 21
2.897086461031522
 31
0.0
  0
LINE
  5
2D8E
330
1E
100
AcDbEntity
  8
7
100
AcDbLine
 10
0.8735198515748031
 20
7.336989602566955
 30
0.0
 11
0.8708950196850388
 21
7.340926850401601
 31
0.0
  0
LINE
  5
2D8F
330
1E
100
AcDbEntity
  8
7
100
AcDbLine
 10
1.229184572637795
 20
6.973450385834672
 30
0.0
 11
1.227872156692913
 21
6.973450385834672
 31
0.0
  0
LINE
  5
2D90
330
1E
100
AcDbEntity
  8
7
100
AcDbLine
 10
1.227872156692913
 20
6.54166553996853
 30
0.0
 11
1.229184572637795
 21
6.542977955913412
 31
0.0
  0
LINE
  5
2D96
330
1E
100
AcDbEntity
  8
7
100
AcDbLine
 10
2.14262607027559
 20
3.41680317520475
 30
0.0
 11
2.355237453346456
 21
3.41680317520475
 31
0.0
  0
LINE
  5
2D97
330
1E
100
AcDbEntity
  8
7
100
AcDbLine
 10
2.14262607027559
 20
3.536233026189002
 30
0.0
 11
2.355237453346456
 21
3.536233026189002
 31
0.0
  0
LINE
  5
2D98
330
1E
100
AcDbEntity
  8
7
100
AcDbLine
 10
2.796209210826771
 20
6.016699162015774
 30
0.0
 11
2.970760531496062
 21
6.016699162015774
 31
0.0
  0
LINE
  5
2D99
330
1E
100
AcDbEntity
  8
7
100
AcDbLine
 10
2.160999893503936
 20
6.016699162015774
 30
0.0
 11
2.33686363011811
 21
6.016699162015774
 31
0.0
  0
LINE
  5
2D9A
330
1E
100
AcDbEntity
  8
7
100
AcDbLine
 10
1.525790576181102
 20
6.016699162015774
 30
0.0
 11
1.701654312795275
 21
6.016699162015774
 31
0.0
  0
LINE
  5
2D9B
330
1E
100
AcDbEntity
  8
7
100
AcDbLine
 10
1.716090888188976
 20
5.356553941740183
 30
0.0
 11
1.511354000787401
 21
5.356553941740183
 31
0.0
  0
LINE
  5
2D9C
330
1E
100
AcDbEntity
  8
7
100
AcDbLine
 10
1.716090888188976
 20
5.36836568524412
 30
0.0
 11
1.716090888188976
 21
5.356553941740183
 31
0.0
  0
LINE
  5
2DA7
330
1E
100
AcDbEntity
  8
7
100
AcDbLine
 10
1.511354000787401
 20
5.403800915755931
 30
0.0
 11
1.716090888188976
 21
5.403800915755931
 31
0.0
  0
LINE
  5
2DB2
330
1E
100
AcDbEntity
  8
7
100
AcDbLine
 10
1.511354000787401
 20
5.403800915755931
 30
0.0
 11
1.510041584842519
 21
5.409050579535458
 31
0.0
  0
LINE
  5
2DB8
330
1E
100
AcDbEntity
  8
7
100
AcDbLine
 10
1.717403304133858
 20
5.43792373032286
 30
0.0
 11
1.717403304133858
 21
5.409050579535458
 31
0.0
  0
LINE
  5
2DB9
330
1E
100
AcDbEntity
  8
7
100
AcDbLine
 10
2.35130020551181
 20
5.356553941740183
 30
0.0
 11
2.146563318110236
 21
5.356553941740183
 31
0.0
  0
LINE
  5
2DBA
330
1E
100
AcDbEntity
  8
7
100
AcDbLine
 10
2.35130020551181
 20
5.36836568524412
 30
0.0
 11
2.35130020551181
 21
5.356553941740183
 31
0.0
  0
LINE
  5
2DC5
330
1E
100
AcDbEntity
  8
7
100
AcDbLine
 10
2.145250902165353
 20
5.403800915755931
 30
0.0
 11
2.35130020551181
 21
5.403800915755931
 31
0.0
  0
LINE
  5
2DD0
330
1E
100
AcDbEntity
  8
7
100
AcDbLine
 10
2.145250902165353
 20
5.403800915755931
 30
0.0
 11
2.145250902165353
 21
5.409050579535458
 31
0.0
  0
LINE
  5
2DD6
330
1E
100
AcDbEntity
  8
7
100
AcDbLine
 10
2.35130020551181
 20
5.43792373032286
 30
0.0
 11
2.35130020551181
 21
5.409050579535458
 31
0.0
  0
LINE
  5
2DD7
330
1E
100
AcDbEntity
  8
7
100
AcDbLine
 10
2.986509522834645
 20
5.356553941740183
 30
0.0
 11
2.78177263543307
 21
5.356553941740183
 31
0.0
  0
LINE
  5
2DD8
330
1E
100
AcDbEntity
  8
7
100
AcDbLine
 10
2.986509522834645
 20
5.36836568524412
 30
0.0
 11
2.986509522834645
 21
5.356553941740183
 31
0.0
  0
LINE
  5
2DE3
330
1E
100
AcDbEntity
  8
7
100
AcDbLine
 10
2.780460219488189
 20
5.403800915755931
 30
0.0
 11
2.986509522834645
 21
5.403800915755931
 31
0.0
  0
LINE
  5
2DEE
330
1E
100
AcDbEntity
  8
7
100
AcDbLine
 10
2.780460219488189
 20
5.403800915755931
 30
0.0
 11
2.780460219488189
 21
5.409050579535458
 31
0.0
  0
LINE
  5
2DF4
330
1E
100
AcDbEntity
  8
7
100
AcDbLine
 10
2.986509522834645
 20
5.43792373032286
 30
0.0
 11
2.986509522834645
 21
5.409050579535458
 31
0.0
  0
LINE
  5
2DF5
330
1E
100
AcDbEntity
  8
7
100
AcDbLine
 10
2.796209210826771
 20
4.865710378354356
 30
0.0
 11
2.970760531496062
 21
4.865710378354356
 31
0.0
  0
LINE
  5
2DF6
330
1E
100
AcDbEntity
  8
7
100
AcDbLine
 10
2.160999893503936
 20
4.865710378354356
 30
0.0
 11
2.33686363011811
 21
4.865710378354356
 31
0.0
  0
LINE
  5
2DF7
330
1E
100
AcDbEntity
  8
7
100
AcDbLine
 10
1.525790576181102
 20
4.865710378354356
 30
0.0
 11
1.701654312795275
 21
4.865710378354356
 31
0.0
  0
LINE
  5
2DF8
330
1E
100
AcDbEntity
  8
7
100
AcDbLine
 10
1.716090888188976
 20
4.206877574023648
 30
0.0
 11
1.511354000787401
 21
4.206877574023648
 31
0.0
  0
LINE
  5
2DF9
330
1E
100
AcDbEntity
  8
7
100
AcDbLine
 10
1.716090888188976
 20
4.217376901582703
 30
0.0
 11
1.716090888188976
 21
4.206877574023648
 31
0.0
  0
LINE
  5
2E04
330
1E
100
AcDbEntity
  8
7
100
AcDbLine
 10
1.511354000787401
 20
4.254124548039396
 30
0.0
 11
1.716090888188976
 21
4.254124548039396
 31
0.0
  0
LINE
  5
2E0F
330
1E
100
AcDbEntity
  8
7
100
AcDbLine
 10
1.511354000787401
 20
4.254124548039396
 30
0.0
 11
1.510041584842519
 21
4.259374211818924
 31
0.0
  0
LINE
  5
2E15
330
1E
100
AcDbEntity
  8
7
100
AcDbLine
 10
1.717403304133858
 20
4.288247362606325
 30
0.0
 11
1.717403304133858
 21
4.259374211818924
 31
0.0
  0
LINE
  5
2E16
330
1E
100
AcDbEntity
  8
7
100
AcDbLine
 10
2.35130020551181
 20
4.206877574023648
 30
0.0
 11
2.146563318110236
 21
4.206877574023648
 31
0.0
  0
LINE
  5
2E17
330
1E
100
AcDbEntity
  8
7
100
AcDbLine
 10
2.35130020551181
 20
4.217376901582703
 30
0.0
 11
2.35130020551181
 21
4.206877574023648
 31
0.0
  0
LINE
  5
2E22
330
1E
100
AcDbEntity
  8
7
100
AcDbLine
 10
2.145250902165353
 20
4.254124548039396
 30
0.0
 11
2.35130020551181
 21
4.254124548039396
 31
0.0
  0
LINE
  5
2E2D
330
1E
100
AcDbEntity
  8
7
100
AcDbLine
 10
2.145250902165353
 20
4.254124548039396
 30
0.0
 11
2.145250902165353
 21
4.259374211818924
 31
0.0
  0
LINE
  5
2E33
330
1E
100
AcDbEntity
  8
7
100
AcDbLine
 10
2.35130020551181
 20
4.288247362606325
 30
0.0
 11
2.35130020551181
 21
4.259374211818924
 31
0.0
  0
LINE
  5
2E34
330
1E
100
AcDbEntity
  8
7
100
AcDbLine
 10
2.986509522834645
 20
4.206877574023648
 30
0.0
 11
2.78177263543307
 21
4.206877574023648
 31
0.0
  0
LINE
  5
2E35
330
1E
100
AcDbEntity
  8
7
100
AcDbLine
 10
2.986509522834645
 20
4.217376901582703
 30
0.0
 11
2.986509522834645
 21
4.206877574023648
 31
0.0
  0
LINE
  5
2E40
330
1E
100
AcDbEntity
  8
7
100
AcDbLine
 10
2.780460219488189
 20
4.254124548039396
 30
0.0
 11
2.986509522834645
 21
4.254124548039396
 31
0.0
  0
LINE
  5
2E4B
330
1E
100
AcDbEntity
  8
7
100
AcDbLine
 10
2.780460219488189
 20
4.254124548039396
 30
0.0
 11
2.780460219488189
 21
4.259374211818924
 31
0.0
  0
LINE
  5
2E51
330
1E
100
AcDbEntity
  8
7
100
AcDbLine
 10
2.986509522834645
 20
4.288247362606325
 30
0.0
 11
2.986509522834645
 21
4.259374211818924
 31
0.0
  0
LINE
  5
2E58
330
1E
100
AcDbEntity
  8
7
100
AcDbLine
 10
2.12162741515748
 20
3.44436391004727
 30
0.0
 11
2.14262607027559
 21
3.418115591149632
 31
0.0
  0
LINE
  5
2E5E
330
1E
100
AcDbEntity
  8
7
100
AcDbLine
 10
1.321053688779527
 20
3.683223612015773
 30
0.0
 11
1.321053688779527
 21
3.681911196070892
 31
0.0
  0
LINE
  5
2E7D
330
1E
100
AcDbEntity
  8
7
100
AcDbLine
 10
3.185996746456693
 20
3.672724284456719
 30
0.0
 11
3.185996746456693
 21
3.280311916937034
 31
0.0
  0
LINE
  5
2E7E
330
1E
100
AcDbEntity
  8
7
100
AcDbLine
 10
3.185996746456693
 20
3.672724284456719
 30
0.0
 11
3.185996746456693
 21
3.280311916937034
 31
0.0
  0
LINE
  5
2E7F
330
1E
100
AcDbEntity
  8
7
100
AcDbLine
 10
3.176809834842519
 20
3.683223612015773
 30
0.0
 11
3.176809834842519
 21
3.681911196070892
 31
0.0
  0
LINE
  5
2E8A
330
1E
100
AcDbEntity
  8
7
100
AcDbLine
 10
2.30930289527559
 20
3.326246475007899
 30
0.0
 11
2.30930289527559
 21
3.324934059063018
 31
0.0
  0
LINE
  5
2E8B
330
1E
100
AcDbEntity
  8
7
100
AcDbLine
 10
2.188560628346456
 20
3.326246475007899
 30
0.0
 11
2.30930289527559
 21
3.326246475007899
 31
0.0
  0
LINE
  5
2E8C
330
1E
100
AcDbEntity
  8
7
100
AcDbLine
 10
2.188560628346456
 20
3.324934059063018
 30
0.0
 11
2.188560628346456
 21
3.326246475007899
 31
0.0
  0
LINE
  5
2E8D
330
1E
100
AcDbEntity
  8
7
100
AcDbLine
 10
2.188560628346456
 20
3.324934059063018
 30
0.0
 11
2.30930289527559
 21
3.324934059063018
 31
0.0
  0
LINE
  5
2E8E
330
1E
100
AcDbEntity
  8
7
100
AcDbLine
 10
2.30930289527559
 20
3.399741767921285
 30
0.0
 11
2.30930289527559
 21
3.398429351976404
 31
0.0
  0
LINE
  5
2E94
330
1E
100
AcDbEntity
  8
7
100
AcDbLine
 10
2.30930289527559
 20
3.398429351976404
 30
0.0
 11
2.188560628346456
 21
3.398429351976404
 31
0.0
  0
LINE
  5
2E9F
330
1E
100
AcDbEntity
  8
7
100
AcDbLine
 10
2.344738125787401
 20
3.408928679535459
 30
0.0
 11
2.153125397834645
 21
3.408928679535459
 31
0.0
  0
LINE
  5
2EA0
330
1E
100
AcDbEntity
  8
7
100
AcDbLine
 10
2.355237453346456
 20
3.41680317520475
 30
0.0
 11
2.344738125787401
 21
3.408928679535459
 31
0.0
  0
LINE
  5
2EA1
330
1E
100
AcDbEntity
  8
7
100
AcDbLine
 10
2.153125397834645
 20
3.408928679535459
 30
0.0
 11
2.14262607027559
 21
3.41680317520475
 31
0.0
  0
LINE
  5
2EA9
330
1E
100
AcDbEntity
  8
7
100
AcDbLine
 10
2.344738125787401
 20
3.544107521858293
 30
0.0
 11
2.355237453346456
 21
3.536233026189002
 31
0.0
  0
LINE
  5
2EAA
330
1E
100
AcDbEntity
  8
7
100
AcDbLine
 10
2.344738125787401
 20
3.544107521858293
 30
0.0
 11
2.153125397834645
 21
3.544107521858293
 31
0.0
  0
LINE
  5
2EAB
330
1E
100
AcDbEntity
  8
7
100
AcDbLine
 10
2.14262607027559
 20
3.536233026189002
 30
0.0
 11
2.153125397834645
 21
3.544107521858293
 31
0.0
  0
LINE
  5
2EB1
330
1E
100
AcDbEntity
  8
7
100
AcDbLine
 10
2.30930289527559
 20
3.553294433472466
 30
0.0
 11
2.188560628346456
 21
3.553294433472466
 31
0.0
  0
LINE
  5
2EB7
330
1E
100
AcDbEntity
  8
7
100
AcDbLine
 10
2.30930289527559
 20
3.553294433472466
 30
0.0
 11
2.188560628346456
 21
3.553294433472466
 31
0.0
  0
LINE
  5
2EB8
330
1E
100
AcDbEntity
  8
7
100
AcDbLine
 10
1.525790576181102
 20
4.905082856700813
 30
0.0
 11
1.525790576181102
 21
4.865710378354356
 31
0.0
  0
LINE
  5
2EB9
330
1E
100
AcDbEntity
  8
7
100
AcDbLine
 10
1.701654312795275
 20
4.905082856700813
 30
0.0
 11
1.701654312795275
 21
4.865710378354356
 31
0.0
  0
LINE
  5
2EBA
330
1E
100
AcDbEntity
  8
7
100
AcDbLine
 10
2.160999893503936
 20
4.905082856700813
 30
0.0
 11
2.160999893503936
 21
4.865710378354356
 31
0.0
  0
LINE
  5
2EBB
330
1E
100
AcDbEntity
  8
7
100
AcDbLine
 10
2.33686363011811
 20
4.905082856700813
 30
0.0
 11
2.33686363011811
 21
4.865710378354356
 31
0.0
  0
LINE
  5
2EBC
330
1E
100
AcDbEntity
  8
7
100
AcDbLine
 10
2.796209210826771
 20
4.905082856700813
 30
0.0
 11
2.796209210826771
 21
4.865710378354356
 31
0.0
  0
LINE
  5
2EBD
330
1E
100
AcDbEntity
  8
7
100
AcDbLine
 10
2.970760531496062
 20
4.905082856700813
 30
0.0
 11
2.970760531496062
 21
4.865710378354356
 31
0.0
  0
LINE
  5
2EBE
330
1E
100
AcDbEntity
  8
7
100
AcDbLine
 10
1.525790576181102
 20
6.054759224417348
 30
0.0
 11
1.525790576181102
 21
6.016699162015774
 31
0.0
  0
LINE
  5
2EBF
330
1E
100
AcDbEntity
  8
7
100
AcDbLine
 10
1.701654312795275
 20
6.054759224417348
 30
0.0
 11
1.701654312795275
 21
6.016699162015774
 31
0.0
  0
LINE
  5
2EC0
330
1E
100
AcDbEntity
  8
7
100
AcDbLine
 10
2.160999893503936
 20
6.054759224417348
 30
0.0
 11
2.160999893503936
 21
6.016699162015774
 31
0.0
  0
LINE
  5
2EC1
330
1E
100
AcDbEntity
  8
7
100
AcDbLine
 10
2.33686363011811
 20
6.054759224417348
 30
0.0
 11
2.33686363011811
 21
6.016699162015774
 31
0.0
  0
LINE
  5
2EC2
330
1E
100
AcDbEntity
  8
7
100
AcDbLine
 10
2.796209210826771
 20
6.054759224417348
 30
0.0
 11
2.796209210826771
 21
6.016699162015774
 31
0.0
  0
LINE
  5
2EC3
330
1E
100
AcDbEntity
  8
7
100
AcDbLine
 10
2.970760531496062
 20
6.054759224417348
 30
0.0
 11
2.970760531496062
 21
6.016699162015774
 31
0.0
  0
LINE
  5
2EC4
330
1E
100
AcDbEntity
  8
7
100
AcDbLine
 10
1.743651623031496
 20
3.77115548032286
 30
0.0
 11
1.735777127362204
 21
3.779029975992151
 31
0.0
  0
LINE
  5
2EC5
330
1E
100
AcDbEntity
  8
7
100
AcDbLine
 10
1.55203889507874
 20
3.739657497645695
 30
0.0
 11
1.55203889507874
 21
3.740969913590577
 31
0.0
  0
LINE
  5
2EC6
330
1E
100
AcDbEntity
  8
7
100
AcDbLine
 10
1.675405993897637
 20
3.739657497645695
 30
0.0
 11
1.675405993897637
 21
3.740969913590577
 31
0.0
  0
LINE
  5
2EC7
330
1E
100
AcDbEntity
  8
7
100
AcDbLine
 10
1.491667761614173
 20
3.779029975992151
 30
0.0
 11
1.483793265944881
 21
3.77115548032286
 31
0.0
  0
LINE
  5
2EC8
330
1E
100
AcDbEntity
  8
7
100
AcDbLine
 10
1.361738583070865
 20
3.27112500532286
 30
0.0
 11
1.321053688779527
 21
3.27112500532286
 31
0.0
  0
LINE
  5
2EC9
330
1E
100
AcDbEntity
  8
7
100
AcDbLine
 10
1.321053688779527
 20
3.681911196070892
 30
0.0
 11
1.361738583070865
 21
3.681911196070892
 31
0.0
  0
LINE
  5
2ECA
330
1E
100
AcDbEntity
  8
7
100
AcDbLine
 10
1.361738583070865
 20
3.27112500532286
 30
0.0
 11
3.13612494055118
 21
3.27112500532286
 31
0.0
  0
LINE
  5
2ED0
330
1E
100
AcDbEntity
  8
7
100
AcDbLine
 10
3.13612494055118
 20
3.681911196070892
 30
0.0
 11
3.176809834842519
 21
3.681911196070892
 31
0.0
  0
LINE
  5
2ED1
330
1E
100
AcDbEntity
  8
7
100
AcDbLine
 10
3.014070257677165
 20
3.77115548032286
 30
0.0
 11
3.006195762007874
 21
3.779029975992151
 31
0.0
  0
LINE
  5
2ED2
330
1E
100
AcDbEntity
  8
7
100
AcDbLine
 10
2.821145113779527
 20
3.739657497645695
 30
0.0
 11
2.822457529724409
 21
3.740969913590577
 31
0.0
  0
LINE
  5
2ED3
330
1E
100
AcDbEntity
  8
7
100
AcDbLine
 10
2.945824628543306
 20
3.739657497645695
 30
0.0
 11
2.944512212598425
 21
3.740969913590577
 31
0.0
  0
LINE
  5
2ED4
330
1E
100
AcDbEntity
  8
7
100
AcDbLine
 10
2.762086396259842
 20
3.779029975992151
 30
0.0
 11
2.754211900590551
 21
3.77115548032286
 31
0.0
  0
LINE
  5
2ED5
330
1E
100
AcDbEntity
  8
7
100
AcDbLine
 10
2.76077398031496
 20
3.781654807881915
 30
0.0
 11
2.76077398031496
 21
3.780342391937034
 31
0.0
  0
LINE
  5
2ED6
330
1E
100
AcDbEntity
  8
7
100
AcDbLine
 10
2.76077398031496
 20
3.781654807881915
 30
0.0
 11
2.752899484645668
 21
3.772467896267742
 31
0.0
  0
LINE
  5
2EDD
330
1E
100
AcDbEntity
  8
7
100
AcDbLine
 10
2.754211900590551
 20
3.77115548032286
 30
0.0
 11
2.754211900590551
 21
3.747531993314986
 31
0.0
  0
LINE
  5
2EE4
330
1E
100
AcDbEntity
  8
7
100
AcDbLine
 10
3.014070257677165
 20
3.747531993314986
 30
0.0
 11
3.014070257677165
 21
3.77115548032286
 31
0.0
  0
LINE
  5
2EE5
330
1E
100
AcDbEntity
  8
7
100
AcDbLine
 10
3.015382673622046
 20
3.772467896267742
 30
0.0
 11
3.007508177952755
 21
3.781654807881915
 31
0.0
  0
LINE
  5
2EF0
330
1E
100
AcDbEntity
  8
7
100
AcDbLine
 10
1.490355345669291
 20
3.781654807881915
 30
0.0
 11
1.482480849999999
 21
3.772467896267742
 31
0.0
  0
LINE
  5
2EF7
330
1E
100
AcDbEntity
  8
7
100
AcDbLine
 10
1.483793265944881
 20
3.77115548032286
 30
0.0
 11
1.483793265944881
 21
3.747531993314986
 31
0.0
  0
LINE
  5
2EFE
330
1E
100
AcDbEntity
  8
7
100
AcDbLine
 10
1.743651623031496
 20
3.747531993314986
 30
0.0
 11
1.743651623031496
 21
3.77115548032286
 31
0.0
  0
LINE
  5
2EFF
330
1E
100
AcDbEntity
  8
7
100
AcDbLine
 10
1.744964038976377
 20
3.772467896267742
 30
0.0
 11
1.737089543307086
 21
3.781654807881915
 31
0.0
  0
LINE
  5
2F05
330
1E
100
AcDbEntity
  8
7
100
AcDbLine
 10
3.128250444881889
 20
5.394614004141758
 30
0.0
 11
3.141374604330708
 21
5.394614004141758
 31
0.0
  0
LINE
  5
2F06
330
1E
100
AcDbEntity
  8
7
100
AcDbLine
 10
1.356488919291338
 20
5.394614004141758
 30
0.0
 11
1.368300662795275
 21
5.394614004141758
 31
0.0
  0
LINE
  5
2F07
330
1E
100
AcDbEntity
  8
7
100
AcDbLine
 10
1.368300662795275
 20
5.38280226063782
 30
0.0
 11
1.368300662795275
 21
5.394614004141758
 31
0.0
  0
LINE
  5
2F14
330
1E
100
AcDbEntity
  8
7
100
AcDbLine
 10
1.741026791141732
 20
5.330305622842545
 30
0.0
 11
1.717403304133858
 21
5.342117366346482
 31
0.0
  0
LINE
  5
2F15
330
1E
100
AcDbEntity
  8
7
100
AcDbLine
 10
1.859144226181101
 20
5.394614004141758
 30
0.0
 11
1.859144226181101
 21
5.38280226063782
 31
0.0
  0
LINE
  5
2F16
330
1E
100
AcDbEntity
  8
7
100
AcDbLine
 10
1.859144226181101
 20
5.394614004141758
 30
0.0
 11
1.870955969685039
 21
5.394614004141758
 31
0.0
  0
LINE
  5
2F17
330
1E
100
AcDbEntity
  8
7
100
AcDbLine
 10
1.991698236614173
 20
5.394614004141758
 30
0.0
 11
2.00350998011811
 21
5.394614004141758
 31
0.0
  0
LINE
  5
2F18
330
1E
100
AcDbEntity
  8
7
100
AcDbLine
 10
2.00350998011811
 20
5.38280226063782
 30
0.0
 11
2.00350998011811
 21
5.394614004141758
 31
0.0
  0
LINE
  5
2F25
330
1E
100
AcDbEntity
  8
7
100
AcDbLine
 10
2.376236108464566
 20
5.330305622842545
 30
0.0
 11
2.352612621456692
 21
5.342117366346482
 31
0.0
  0
LINE
  5
2F26
330
1E
100
AcDbEntity
  8
7
100
AcDbLine
 10
2.494353543503936
 20
5.394614004141758
 30
0.0
 11
2.494353543503936
 21
5.38280226063782
 31
0.0
  0
LINE
  5
2F27
330
1E
100
AcDbEntity
  8
7
100
AcDbLine
 10
2.494353543503936
 20
5.394614004141758
 30
0.0
 11
2.506165287007874
 21
5.394614004141758
 31
0.0
  0
LINE
  5
2F28
330
1E
100
AcDbEntity
  8
7
100
AcDbLine
 10
2.626907553937007
 20
5.394614004141758
 30
0.0
 11
2.638719297440944
 21
5.394614004141758
 31
0.0
  0
LINE
  5
2F29
330
1E
100
AcDbEntity
  8
7
100
AcDbLine
 10
2.638719297440944
 20
5.38280226063782
 30
0.0
 11
2.638719297440944
 21
5.394614004141758
 31
0.0
  0
LINE
  5
2F36
330
1E
100
AcDbEntity
  8
7
100
AcDbLine
 10
3.011445425787401
 20
5.330305622842545
 30
0.0
 11
2.986509522834645
 21
5.342117366346482
 31
0.0
  0
LINE
  5
2F37
330
1E
100
AcDbEntity
  8
7
100
AcDbLine
 10
3.128250444881889
 20
5.394614004141758
 30
0.0
 11
3.128250444881889
 21
5.38280226063782
 31
0.0
  0
LINE
  5
2F38
330
1E
100
AcDbEntity
  8
7
100
AcDbLine
 10
3.128250444881889
 20
4.244937636425222
 30
0.0
 11
3.141374604330708
 21
4.244937636425222
 31
0.0
  0
LINE
  5
2F39
330
1E
100
AcDbEntity
  8
7
100
AcDbLine
 10
1.356488919291338
 20
4.244937636425222
 30
0.0
 11
1.368300662795275
 21
4.244937636425222
 31
0.0
  0
LINE
  5
2F3A
330
1E
100
AcDbEntity
  8
7
100
AcDbLine
 10
1.368300662795275
 20
4.233125892921286
 30
0.0
 11
1.368300662795275
 21
4.244937636425222
 31
0.0
  0
LINE
  5
2F47
330
1E
100
AcDbEntity
  8
7
100
AcDbLine
 10
1.741026791141732
 20
4.179316839181128
 30
0.0
 11
1.717403304133858
 21
4.191128582685065
 31
0.0
  0
LINE
  5
2F48
330
1E
100
AcDbEntity
  8
7
100
AcDbLine
 10
1.859144226181101
 20
4.244937636425222
 30
0.0
 11
1.859144226181101
 21
4.233125892921286
 31
0.0
  0
LINE
  5
2F49
330
1E
100
AcDbEntity
  8
7
100
AcDbLine
 10
1.859144226181101
 20
4.244937636425222
 30
0.0
 11
1.870955969685039
 21
4.244937636425222
 31
0.0
  0
LINE
  5
2F4A
330
1E
100
AcDbEntity
  8
7
100
AcDbLine
 10
1.991698236614173
 20
4.244937636425222
 30
0.0
 11
2.00350998011811
 21
4.244937636425222
 31
0.0
  0
LINE
  5
2F4B
330
1E
100
AcDbEntity
  8
7
100
AcDbLine
 10
2.00350998011811
 20
4.233125892921286
 30
0.0
 11
2.00350998011811
 21
4.244937636425222
 31
0.0
  0
LINE
  5
2F57
330
1E
100
AcDbEntity
  8
7
100
AcDbLine
 10
2.35130020551181
 20
4.196378246464593
 30
0.0
 11
2.35130020551181
 21
4.206877574023648
 31
0.0
  0
LINE
  5
2F58
330
1E
100
AcDbEntity
  8
7
100
AcDbLine
 10
2.376236108464566
 20
4.179316839181128
 30
0.0
 11
2.352612621456692
 21
4.191128582685065
 31
0.0
  0
LINE
  5
2F59
330
1E
100
AcDbEntity
  8
7
100
AcDbLine
 10
2.494353543503936
 20
4.244937636425222
 30
0.0
 11
2.494353543503936
 21
4.233125892921286
 31
0.0
  0
LINE
  5
2F5A
330
1E
100
AcDbEntity
  8
7
100
AcDbLine
 10
2.494353543503936
 20
4.244937636425222
 30
0.0
 11
2.506165287007874
 21
4.244937636425222
 31
0.0
  0
LINE
  5
2F5B
330
1E
100
AcDbEntity
  8
7
100
AcDbLine
 10
2.626907553937007
 20
4.244937636425222
 30
0.0
 11
2.638719297440944
 21
4.244937636425222
 31
0.0
  0
LINE
  5
2F5C
330
1E
100
AcDbEntity
  8
7
100
AcDbLine
 10
2.638719297440944
 20
4.233125892921286
 30
0.0
 11
2.638719297440944
 21
4.244937636425222
 31
0.0
  0
LINE
  5
2F62
330
1E
100
AcDbEntity
  8
7
100
AcDbLine
 10
2.78177263543307
 20
4.196378246464593
 30
0.0
 11
2.78177263543307
 21
4.206877574023648
 31
0.0
  0
LINE
  5
2F69
330
1E
100
AcDbEntity
  8
7
100
AcDbLine
 10
3.011445425787401
 20
4.179316839181128
 30
0.0
 11
2.986509522834645
 21
4.191128582685065
 31
0.0
  0
LINE
  5
2F6A
330
1E
100
AcDbEntity
  8
7
100
AcDbLine
 10
3.128250444881889
 20
4.244937636425222
 30
0.0
 11
3.128250444881889
 21
4.233125892921286
 31
0.0
  0
LINE
  5
2F6B
330
1E
100
AcDbEntity
  8
7
100
AcDbLine
 10
2.174124052952755
 20
3.697660187409475
 30
0.0
 11
2.171499221062991
 21
3.698972603354356
 31
0.0
  0
LINE
  5
2F76
330
1E
100
AcDbEntity
  8
7
100
AcDbLine
 10
2.174124052952755
 20
3.551982017527585
 30
0.0
 11
2.172811637007874
 21
3.551982017527585
 31
0.0
  0
LINE
  5
2F77
330
1E
100
AcDbEntity
  8
7
100
AcDbLine
 10
2.172811637007874
 20
3.553294433472466
 30
0.0
 11
2.14262607027559
 21
3.540170274023648
 31
0.0
  0
LINE
  5
2F92
330
1E
100
AcDbEntity
  8
7
100
AcDbLine
 10
2.172811637007874
 20
3.62547731044097
 30
0.0
 11
2.168874389173228
 21
3.626789726385852
 31
0.0
  0
LINE
  5
2F93
330
1E
100
AcDbEntity
  8
7
100
AcDbLine
 10
2.168874389173228
 20
3.626789726385852
 30
0.0
 11
2.129501910826771
 21
3.616290398826797
 31
0.0
  0
LINE
  5
2FA1
330
1E
100
AcDbEntity
  8
7
100
AcDbLine
 10
1.361738583070865
 20
3.681911196070892
 30
0.0
 11
2.168874389173228
 21
3.681911196070892
 31
0.0
  0
LINE
  5
2FA2
330
1E
100
AcDbEntity
  8
7
100
AcDbLine
 10
2.168874389173228
 20
3.681911196070892
 30
0.0
 11
2.167561973228346
 21
3.683223612015773
 31
0.0
  0
LINE
  5
2FA3
330
1E
100
AcDbEntity
  8
7
100
AcDbLine
 10
1.321053688779527
 20
3.683223612015773
 30
0.0
 11
2.167561973228346
 21
3.683223612015773
 31
0.0
  0
LINE
  5
2FA4
330
1E
100
AcDbEntity
  8
7
100
AcDbLine
 10
1.259370139370078
 20
3.721283674417348
 30
0.0
 11
2.167561973228346
 21
3.721283674417348
 31
0.0
  0
LINE
  5
2FAB
330
1E
100
AcDbEntity
  8
7
100
AcDbLine
 10
1.229184572637795
 20
3.261938093708687
 30
0.0
 11
1.229184572637795
 21
3.692410523629947
 31
0.0
  0
LINE
  5
2FB2
330
1E
100
AcDbEntity
  8
7
100
AcDbLine
 10
3.238493384251968
 20
3.231752526976404
 30
0.0
 11
1.259370139370078
 21
3.231752526976404
 31
0.0
  0
LINE
  5
2FB9
330
1E
100
AcDbEntity
  8
7
100
AcDbLine
 10
3.268678950984251
 20
3.692410523629947
 30
0.0
 11
3.268678950984251
 21
3.261938093708687
 31
0.0
  0
LINE
  5
2FC0
330
1E
100
AcDbEntity
  8
7
100
AcDbLine
 10
2.3303015503937
 20
3.721283674417348
 30
0.0
 11
3.238493384251968
 21
3.721283674417348
 31
0.0
  0
LINE
  5
2FC1
330
1E
100
AcDbEntity
  8
7
100
AcDbLine
 10
2.3303015503937
 20
3.683223612015773
 30
0.0
 11
2.3303015503937
 21
3.721283674417348
 31
0.0
  0
LINE
  5
2FC2
330
1E
100
AcDbEntity
  8
7
100
AcDbLine
 10
2.3303015503937
 20
3.683223612015773
 30
0.0
 11
3.176809834842519
 21
3.683223612015773
 31
0.0
  0
LINE
  5
2FC3
330
1E
100
AcDbEntity
  8
7
100
AcDbLine
 10
2.167561973228346
 20
3.683223612015773
 30
0.0
 11
2.167561973228346
 21
3.721283674417348
 31
0.0
  0
LINE
  5
2FC9
330
1E
100
AcDbEntity
  8
7
100
AcDbLine
 10
2.168874389173228
 20
3.626789726385852
 30
0.0
 11
2.168874389173228
 21
3.681911196070892
 31
0.0
  0
LINE
  5
2FCA
330
1E
100
AcDbEntity
  8
7
100
AcDbLine
 10
1.361738583070865
 20
3.68059878012601
 30
0.0
 11
1.361738583070865
 21
3.272437421267742
 31
0.0
  0
LINE
  5
2FCB
330
1E
100
AcDbEntity
  8
7
100
AcDbLine
 10
1.361738583070865
 20
3.272437421267742
 30
0.0
 11
1.361738583070865
 21
3.272437421267742
 31
0.0
  0
LINE
  5
2FCC
330
1E
100
AcDbEntity
  8
7
100
AcDbLine
 10
1.361738583070865
 20
3.272437421267742
 30
0.0
 11
1.361738583070865
 21
3.272437421267742
 31
0.0
  0
LINE
  5
2FCD
330
1E
100
AcDbEntity
  8
7
100
AcDbLine
 10
3.13612494055118
 20
3.272437421267742
 30
0.0
 11
3.13612494055118
 21
3.68059878012601
 31
0.0
  0
LINE
  5
2FCE
330
1E
100
AcDbEntity
  8
7
100
AcDbLine
 10
2.328989134448819
 20
3.681911196070892
 30
0.0
 11
2.328989134448819
 21
3.626789726385852
 31
0.0
  0
LINE
  5
2FDD
330
1E
100
AcDbEntity
  8
7
100
AcDbLine
 10
2.328989134448819
 20
3.626789726385852
 30
0.0
 11
2.325051886614172
 21
3.62547731044097
 31
0.0
  0
LINE
  5
2FEB
330
1E
100
AcDbEntity
  8
7
100
AcDbLine
 10
2.365736780905511
 20
3.616290398826797
 30
0.0
 11
2.325051886614172
 21
3.62547731044097
 31
0.0
  0
LINE
  5
2FEC
330
1E
100
AcDbEntity
  8
7
100
AcDbLine
 10
2.172811637007874
 20
3.551982017527585
 30
0.0
 11
2.172811637007874
 21
3.62547731044097
 31
0.0
  0
LINE
  5
2FED
330
1E
100
AcDbEntity
  8
7
100
AcDbLine
 10
2.325051886614172
 20
3.62547731044097
 30
0.0
 11
2.325051886614172
 21
3.551982017527585
 31
0.0
  0
LINE
  5
2FFB
330
1E
100
AcDbEntity
  8
7
100
AcDbLine
 10
2.325051886614172
 20
3.551982017527585
 30
0.0
 11
2.323739470669291
 21
3.551982017527585
 31
0.0
  0
LINE
  5
3001
330
1E
100
AcDbEntity
  8
7
100
AcDbLine
 10
2.174124052952755
 20
3.551982017527585
 30
0.0
 11
2.174124052952755
 21
3.697660187409475
 31
0.0
  0
LINE
  5
3002
330
1E
100
AcDbEntity
  8
7
100
AcDbLine
 10
2.323739470669291
 20
3.551982017527585
 30
0.0
 11
2.323739470669291
 21
3.697660187409475
 31
0.0
  0
LINE
  5
3008
330
1E
100
AcDbEntity
  8
7
100
AcDbLine
 10
2.325051886614172
 20
3.698972603354356
 30
0.0
 11
2.323739470669291
 21
3.697660187409475
 31
0.0
  0
LINE
  5
3009
330
1E
100
AcDbEntity
  8
7
100
AcDbLine
 10
1.737089543307086
 20
3.734407833866168
 30
0.0
 11
1.735777127362204
 21
3.739657497645695
 31
0.0
  0
LINE
  5
300A
330
1E
100
AcDbEntity
  8
7
100
AcDbLine
 10
1.737089543307086
 20
3.734407833866168
 30
0.0
 11
1.744964038976377
 21
3.743594745480341
 31
0.0
  0
LINE
  5
300B
330
1E
100
AcDbEntity
  8
7
100
AcDbLine
 10
1.68459290551181
 20
3.739657497645695
 30
0.0
 11
1.675405993897637
 21
3.739657497645695
 31
0.0
  0
LINE
  5
300C
330
1E
100
AcDbEntity
  8
7
100
AcDbLine
 10
1.55203889507874
 20
3.739657497645695
 30
0.0
 11
1.544164399409448
 21
3.739657497645695
 31
0.0
  0
LINE
  5
3012
330
1E
100
AcDbEntity
  8
7
100
AcDbLine
 10
1.482480849999999
 20
3.743594745480341
 30
0.0
 11
1.490355345669291
 21
3.734407833866168
 31
0.0
  0
LINE
  5
3025
330
1E
100
AcDbEntity
  8
7
100
AcDbLine
 10
2.327676718503936
 20
3.721283674417348
 30
0.0
 11
2.326364302559055
 21
3.719971258472466
 31
0.0
  0
LINE
  5
3026
330
1E
100
AcDbEntity
  8
7
100
AcDbLine
 10
2.327676718503936
 20
3.721283674417348
 30
0.0
 11
2.318489806889763
 21
3.721283674417348
 31
0.0
  0
LINE
  5
302C
330
1E
100
AcDbEntity
  8
7
100
AcDbLine
 10
3.007508177952755
 20
3.734407833866168
 30
0.0
 11
3.006195762007874
 21
3.739657497645695
 31
0.0
  0
LINE
  5
302D
330
1E
100
AcDbEntity
  8
7
100
AcDbLine
 10
3.007508177952755
 20
3.734407833866168
 30
0.0
 11
3.015382673622046
 21
3.743594745480341
 31
0.0
  0
LINE
  5
302E
330
1E
100
AcDbEntity
  8
7
100
AcDbLine
 10
2.953699124212597
 20
3.739657497645695
 30
0.0
 11
2.945824628543306
 21
3.739657497645695
 31
0.0
  0
LINE
  5
302F
330
1E
100
AcDbEntity
  8
7
100
AcDbLine
 10
2.821145113779527
 20
3.739657497645695
 30
0.0
 11
2.813270618110235
 21
3.739657497645695
 31
0.0
  0
LINE
  5
3035
330
1E
100
AcDbEntity
  8
7
100
AcDbLine
 10
2.752899484645668
 20
3.743594745480341
 30
0.0
 11
2.76077398031496
 21
3.734407833866168
 31
0.0
  0
LINE
  5
3086
330
1E
100
AcDbEntity
  8
7
100
AcDbLine
 10
3.129562860826771
 20
5.394614004141758
 30
0.0
 11
3.128250444881889
 21
5.394614004141758
 31
0.0
  0
LINE
  5
3087
330
1E
100
AcDbEntity
  8
7
100
AcDbLine
 10
3.129562860826771
 20
4.244937636425222
 30
0.0
 11
3.128250444881889
 21
4.244937636425222
 31
0.0
  0
LINE
  5
3088
330
1E
100
AcDbEntity
  8
7
100
AcDbLine
 10
2.168874389173228
 20
3.722596090362231
 30
0.0
 11
2.167561973228346
 21
3.721283674417348
 31
0.0
  0
LINE
  5
308E
330
1E
100
AcDbEntity
  8
7
100
AcDbLine
 10
1.258057723425196
 20
3.722596090362231
 30
0.0
 11
1.259370139370078
 21
3.721283674417348
 31
0.0
  0
LINE
  5
308F
330
1E
100
AcDbEntity
  8
7
100
AcDbLine
 10
1.229184572637795
 20
3.692410523629947
 30
0.0
 11
1.227872156692913
 21
3.692410523629947
 31
0.0
  0
LINE
  5
3090
330
1E
100
AcDbEntity
  8
7
100
AcDbLine
 10
1.227872156692913
 20
3.260625677763805
 30
0.0
 11
1.229184572637795
 21
3.261938093708687
 31
0.0
  0
LINE
  5
3091
330
1E
100
AcDbEntity
  8
7
100
AcDbLine
 10
1.259370139370078
 20
3.231752526976404
 30
0.0
 11
1.258057723425196
 21
3.230440111031521
 31
0.0
  0
LINE
  5
3092
330
1E
100
AcDbEntity
  8
7
100
AcDbLine
 10
3.23980580019685
 20
3.230440111031521
 30
0.0
 11
3.238493384251968
 21
3.231752526976404
 31
0.0
  0
LINE
  5
3093
330
1E
100
AcDbEntity
  8
7
100
AcDbLine
 10
3.269991366929133
 20
3.692410523629947
 30
0.0
 11
3.268678950984251
 21
3.692410523629947
 31
0.0
  0
LINE
  5
3094
330
1E
100
AcDbEntity
  8
7
100
AcDbLine
 10
3.268678950984251
 20
3.261938093708687
 30
0.0
 11
3.269991366929133
 21
3.260625677763805
 31
0.0
  0
LINE
  5
3095
330
1E
100
AcDbEntity
  8
7
100
AcDbLine
 10
3.238493384251968
 20
3.721283674417348
 30
0.0
 11
3.23980580019685
 21
3.722596090362231
 31
0.0
  0
LINE
  5
3096
330
1E
100
AcDbEntity
  8
7
100
AcDbLine
 10
2.3303015503937
 20
3.721283674417348
 30
0.0
 11
2.328989134448819
 21
3.722596090362231
 31
0.0
  0
LINE
  5
309C
330
1E
100
AcDbEntity
  8
7
100
AcDbLine
 10
3.596782937204724
 20
2.864276062409475
 30
0.0
 11
3.59415810531496
 21
2.866900894299238
 31
0.0
  0
LINE
  5
309D
330
1E
100
AcDbEntity
  8
7
100
AcDbLine
 10
0.9037054183070868
 20
2.866900894299238
 30
0.0
 11
0.9010805864173224
 21
2.864276062409475
 31
0.0
  0
LINE
  5
30AD
330
1E
100
AcDbEntity
  8
7
100
AcDbLine
 10
5.325234736614172
 20
7.336989602566955
 30
0.0
 11
5.321297488779526
 21
7.302866788000025
 31
0.0
  0
LINE
  5
30B5
330
1E
100
AcDbEntity
  8
7
100
AcDbLine
 10
5.326547152559053
 20
7.365862753354356
 30
0.0
 11
5.325234736614172
 21
7.367175169299238
 31
0.0
  0
LINE
  5
30B6
330
1E
100
AcDbEntity
  8
7
100
AcDbLine
 10
5.321297488779526
 20
7.367175169299238
 30
0.0
 11
5.325234736614172
 21
7.367175169299238
 31
0.0
  0
LINE
  5
30B7
330
1E
100
AcDbEntity
  8
7
100
AcDbLine
 10
5.21892904507874
 20
7.246432902370104
 30
0.0
 11
5.321297488779526
 21
7.367175169299238
 31
0.0
  0
LINE
  5
30B8
330
1E
100
AcDbEntity
  8
7
100
AcDbLine
 10
5.321297488779526
 20
7.302866788000025
 30
0.0
 11
5.21892904507874
 21
7.182124521070892
 31
0.0
  0
LINE
  5
30B9
330
1E
100
AcDbEntity
  8
7
100
AcDbLine
 10
5.196617974015746
 20
3.051951542527585
 30
0.0
 11
5.196617974015746
 21
7.182124521070892
 31
0.0
  0
LINE
  5
30BF
330
1E
100
AcDbEntity
  8
7
100
AcDbLine
 10
5.21892904507874
 20
7.182124521070892
 30
0.0
 11
5.21892904507874
 21
3.051951542527585
 31
0.0
  0
LINE
  5
30C0
330
1E
100
AcDbEntity
  8
7
100
AcDbLine
 10
5.321297488779526
 20
2.931209275598451
 30
0.0
 11
5.21892904507874
 21
3.051951542527585
 31
0.0
  0
LINE
  5
30C1
330
1E
100
AcDbEntity
  8
7
100
AcDbLine
 10
5.321297488779526
 20
7.302866788000025
 30
0.0
 11
5.321297488779526
 21
2.931209275598451
 31
0.0
  0
LINE
  5
30C2
330
1E
100
AcDbEntity
  8
7
100
AcDbLine
 10
5.325234736614172
 20
2.897086461031522
 30
0.0
 11
5.321297488779526
 21
2.931209275598451
 31
0.0
  0
LINE
  5
30C8
330
1E
100
AcDbEntity
  8
7
100
AcDbLine
 10
5.356732719291337
 20
7.336989602566955
 30
0.0
 11
5.325234736614172
 21
7.336989602566955
 31
0.0
  0
LINE
  5
30D4
330
1E
100
AcDbEntity
  8
7
100
AcDbLine
 10
5.600842085039369
 20
6.481294406503963
 30
0.0
 11
5.600842085039369
 21
6.4931061500079
 31
0.0
  0
LINE
  5
30F6
330
1E
100
AcDbEntity
  8
7
100
AcDbLine
 10
5.21892904507874
 20
2.987643161228372
 30
0.0
 11
5.321297488779526
 21
2.866900894299238
 31
0.0
  0
LINE
  5
30F7
330
1E
100
AcDbEntity
  8
7
100
AcDbLine
 10
5.356732719291337
 20
2.866900894299238
 30
0.0
 11
5.325234736614172
 21
2.866900894299238
 31
0.0
  0
LINE
  5
3103
330
1E
100
AcDbEntity
  8
7
100
AcDbLine
 10
5.65071389094488
 20
3.767218232488215
 30
0.0
 11
5.65071389094488
 21
3.740969913590577
 31
0.0
  0
LINE
  5
3104
330
1E
100
AcDbEntity
  8
7
100
AcDbLine
 10
5.356732719291337
 20
2.897086461031522
 30
0.0
 11
5.356732719291337
 21
7.336989602566955
 31
0.0
  0
LINE
  5
3105
330
1E
100
AcDbEntity
  8
7
100
AcDbLine
 10
5.356732719291337
 20
2.897086461031522
 30
0.0
 11
5.526034376181102
 21
2.894461629141758
 31
0.0
  0
LINE
  5
3106
330
1E
100
AcDbEntity
  8
7
100
AcDbLine
 10
5.526034376181102
 20
7.340926850401601
 30
0.0
 11
5.526034376181102
 21
2.894461629141758
 31
0.0
  0
LINE
  5
3107
330
1E
100
AcDbEntity
  8
7
100
AcDbLine
 10
5.526034376181102
 20
7.340926850401601
 30
0.0
 11
5.356732719291337
 21
7.336989602566955
 31
0.0
  0
LINE
  5
311B
330
1E
100
AcDbEntity
  8
7
100
AcDbLine
 10
5.526034376181102
 20
7.369800001189002
 30
0.0
 11
5.526034376181102
 21
7.365862753354356
 31
0.0
  0
LINE
  5
3121
330
1E
100
AcDbEntity
  8
7
100
AcDbLine
 10
5.65071389094488
 20
6.506230309456718
 30
0.0
 11
5.65071389094488
 21
6.4931061500079
 31
0.0
  0
LINE
  5
3122
330
1E
100
AcDbEntity
  8
7
100
AcDbLine
 10
5.641526979330707
 20
6.515417221070892
 30
0.0
 11
5.65071389094488
 21
6.506230309456718
 31
0.0
  0
LINE
  5
3128
330
1E
100
AcDbEntity
  8
7
100
AcDbLine
 10
5.64283939527559
 20
6.506230309456718
 30
0.0
 11
5.640214563385825
 21
6.5075427254016
 31
0.0
  0
LINE
  5
3129
330
1E
100
AcDbEntity
  8
7
100
AcDbLine
 10
5.65071389094488
 20
6.506230309456718
 30
0.0
 11
5.648089059055116
 21
6.506230309456718
 31
0.0
  0
LINE
  5
312A
330
1E
100
AcDbEntity
  8
7
100
AcDbLine
 10
5.648089059055116
 20
6.506230309456718
 30
0.0
 11
5.64283939527559
 21
6.506230309456718
 31
0.0
  0
LINE
  5
312B
330
1E
100
AcDbEntity
  8
7
100
AcDbLine
 10
5.64283939527559
 20
6.4931061500079
 30
0.0
 11
5.64283939527559
 21
6.506230309456718
 31
0.0
  0
LINE
  5
313F
330
1E
100
AcDbEntity
  8
7
100
AcDbLine
 10
5.526034376181102
 20
6.532478628354356
 30
0.0
 11
5.641526979330707
 21
6.515417221070892
 31
0.0
  0
LINE
  5
3140
330
1E
100
AcDbEntity
  8
7
100
AcDbLine
 10
5.640214563385825
 20
6.5075427254016
 30
0.0
 11
5.526034376181102
 21
6.524604132685065
 31
0.0
  0
LINE
  5
314B
330
1E
100
AcDbEntity
  8
7
100
AcDbLine
 10
5.65071389094488
 20
6.468170247055144
 30
0.0
 11
5.646776643110236
 21
6.468170247055144
 31
0.0
  0
LINE
  5
314C
330
1E
100
AcDbEntity
  8
7
100
AcDbLine
 10
5.646776643110236
 20
6.468170247055144
 30
0.0
 11
5.640214563385825
 21
6.468170247055144
 31
0.0
  0
LINE
  5
314D
330
1E
100
AcDbEntity
  8
7
100
AcDbLine
 10
5.640214563385825
 20
6.419610857094514
 30
0.0
 11
5.640214563385825
 21
6.468170247055144
 31
0.0
  0
LINE
  5
315D
330
1E
100
AcDbEntity
  8
7
100
AcDbLine
 10
5.640214563385825
 20
6.399924617921286
 30
0.0
 11
5.640214563385825
 21
6.407799113590577
 31
0.0
  0
LINE
  5
315E
330
1E
100
AcDbEntity
  8
7
100
AcDbLine
 10
5.640214563385825
 20
6.407799113590577
 30
0.0
 11
5.640214563385825
 21
6.410423945480341
 31
0.0
  0
LINE
  5
3164
330
1E
100
AcDbEntity
  8
7
100
AcDbLine
 10
5.640214563385825
 20
6.390737706307112
 30
0.0
 11
5.640214563385825
 21
6.399924617921286
 31
0.0
  0
LINE
  5
3165
330
1E
100
AcDbEntity
  8
7
100
AcDbLine
 10
5.640214563385825
 20
6.380238378748058
 30
0.0
 11
5.526034376181102
 21
6.377613546858293
 31
0.0
  0
LINE
  5
3166
330
1E
100
AcDbEntity
  8
7
100
AcDbLine
 10
5.526034376181102
 20
6.388112874417348
 30
0.0
 11
5.640214563385825
 21
6.390737706307112
 31
0.0
  0
LINE
  5
3167
330
1E
100
AcDbEntity
  8
7
100
AcDbLine
 10
5.526034376181102
 20
6.487856486228372
 30
0.0
 11
5.641526979330707
 21
6.477357158669318
 31
0.0
  0
LINE
  5
3168
330
1E
100
AcDbEntity
  8
7
100
AcDbLine
 10
5.640214563385825
 20
6.468170247055144
 30
0.0
 11
5.526034376181102
 21
6.477357158669318
 31
0.0
  0
LINE
  5
3169
330
1E
100
AcDbEntity
  8
7
100
AcDbLine
 10
5.526034376181102
 20
6.418298441149632
 30
0.0
 11
5.640214563385825
 21
6.419610857094514
 31
0.0
  0
LINE
  5
316A
330
1E
100
AcDbEntity
  8
7
100
AcDbLine
 10
5.640214563385825
 20
6.410423945480341
 30
0.0
 11
5.526034376181102
 21
6.407799113590577
 31
0.0
  0
LINE
  5
316B
330
1E
100
AcDbEntity
  8
7
100
AcDbLine
 10
5.640214563385825
 20
6.399924617921286
 30
0.0
 11
5.526034376181102
 21
6.398612201976403
 31
0.0
  0
LINE
  5
3171
330
1E
100
AcDbEntity
  8
7
100
AcDbLine
 10
5.64283939527559
 20
3.727845754141759
 30
0.0
 11
5.64283939527559
 21
3.740969913590577
 31
0.0
  0
LINE
  5
317C
330
1E
100
AcDbEntity
  8
7
100
AcDbLine
 10
5.640214563385825
 20
3.726533338196876
 30
0.0
 11
5.64283939527559
 21
3.727845754141759
 31
0.0
  0
LINE
  5
3184
330
1E
100
AcDbEntity
  8
7
100
AcDbLine
 10
5.720271936023621
 20
5.36836568524412
 30
0.0
 11
5.720271936023621
 21
5.356553941740183
 31
0.0
  0
LINE
  5
318B
330
1E
100
AcDbEntity
  8
7
100
AcDbLine
 10
5.707147776574801
 20
5.43792373032286
 30
0.0
 11
5.707147776574801
 21
5.409050579535458
 31
0.0
  0
LINE
  5
318C
330
1E
100
AcDbEntity
  8
7
100
AcDbLine
 10
5.707147776574801
 20
5.43792373032286
 30
0.0
 11
5.716334688188975
 21
5.43792373032286
 31
0.0
  0
LINE
  5
3193
330
1E
100
AcDbEntity
  8
7
100
AcDbLine
 10
5.814765884055117
 20
5.357866357685066
 30
0.0
 11
5.789829981102361
 21
5.39592642008664
 31
0.0
  0
LINE
  5
3199
330
1E
100
AcDbEntity
  8
7
100
AcDbLine
 10
5.863325274015746
 20
5.332930454732309
 30
0.0
 11
5.938132982874015
 21
5.331618038787428
 31
0.0
  0
LINE
  5
319F
330
1E
100
AcDbEntity
  8
7
100
AcDbLine
 10
5.952569558267715
 20
5.317181463393727
 30
0.0
 11
5.952569558267715
 21
5.296182808275617
 31
0.0
  0
LINE
  5
31A0
330
1E
100
AcDbEntity
  8
7
100
AcDbLine
 10
5.720271936023621
 20
4.217376901582703
 30
0.0
 11
5.720271936023621
 21
4.206877574023648
 31
0.0
  0
LINE
  5
31A7
330
1E
100
AcDbEntity
  8
7
100
AcDbLine
 10
5.707147776574801
 20
4.288247362606325
 30
0.0
 11
5.707147776574801
 21
4.259374211818924
 31
0.0
  0
LINE
  5
31A8
330
1E
100
AcDbEntity
  8
7
100
AcDbLine
 10
5.707147776574801
 20
4.288247362606325
 30
0.0
 11
5.716334688188975
 21
4.286934946661443
 31
0.0
  0
LINE
  5
31AE
330
1E
100
AcDbEntity
  8
7
100
AcDbLine
 10
5.743895423031494
 20
4.280372866937034
 30
0.0
 11
5.716334688188975
 21
4.286934946661443
 31
0.0
  0
LINE
  5
31AF
330
1E
100
AcDbEntity
  8
7
100
AcDbLine
 10
5.814765884055117
 20
4.20818998996853
 30
0.0
 11
5.789829981102361
 21
4.244937636425222
 31
0.0
  0
LINE
  5
31B5
330
1E
100
AcDbEntity
  8
7
100
AcDbLine
 10
5.863325274015746
 20
4.183254087015773
 30
0.0
 11
5.938132982874015
 21
4.181941671070892
 31
0.0
  0
LINE
  5
31BB
330
1E
100
AcDbEntity
  8
7
100
AcDbLine
 10
5.952569558267715
 20
4.16619267973231
 30
0.0
 11
5.952569558267715
 21
4.145194024614199
 31
0.0
  0
LINE
  5
31CB
330
1E
100
AcDbEntity
  8
7
100
AcDbLine
 10
5.53915853562992
 20
6.308055501779553
 30
0.0
 11
5.53915853562992
 21
6.267370607488214
 31
0.0
  0
LINE
  5
31D6
330
1E
100
AcDbEntity
  8
7
100
AcDbLine
 10
5.53915853562992
 20
4.0073903504016
 30
0.0
 11
5.53915853562992
 21
3.966705456110263
 31
0.0
  0
LINE
  5
31E1
330
1E
100
AcDbEntity
  8
7
100
AcDbLine
 10
5.53915853562992
 20
5.158379134063017
 30
0.0
 11
5.53915853562992
 21
5.116381823826797
 31
0.0
  0
LINE
  5
31F6
330
1E
100
AcDbEntity
  8
7
100
AcDbLine
 10
5.640214563385825
 20
3.767218232488215
 30
0.0
 11
5.640214563385825
 21
3.814465206503962
 31
0.0
  0
LINE
  5
3206
330
1E
100
AcDbEntity
  8
7
100
AcDbLine
 10
5.526034376181102
 20
3.710784346858293
 30
0.0
 11
5.640214563385825
 21
3.726533338196876
 31
0.0
  0
LINE
  5
3207
330
1E
100
AcDbEntity
  8
7
100
AcDbLine
 10
5.641526979330707
 20
3.718658842527585
 30
0.0
 11
5.526034376181102
 21
3.701597435244121
 31
0.0
  0
LINE
  5
3217
330
1E
100
AcDbEntity
  8
7
100
AcDbLine
 10
5.640214563385825
 20
3.834151445677191
 30
0.0
 11
5.640214563385825
 21
3.844650773236246
 31
0.0
  0
LINE
  5
3227
330
1E
100
AcDbEntity
  8
7
100
AcDbLine
 10
5.526034376181102
 20
5.336867702566955
 30
0.0
 11
5.705835360629921
 21
5.342117366346482
 31
0.0
  0
LINE
  5
3228
330
1E
100
AcDbEntity
  8
7
100
AcDbLine
 10
5.938132982874015
 20
5.280433816937033
 30
0.0
 11
5.526034376181102
 21
5.251560666149631
 31
0.0
  0
LINE
  5
322E
330
1E
100
AcDbEntity
  8
7
100
AcDbLine
 10
5.526034376181102
 20
4.187191334850419
 30
0.0
 11
5.705835360629921
 21
4.191128582685065
 31
0.0
  0
LINE
  5
322F
330
1E
100
AcDbEntity
  8
7
100
AcDbLine
 10
5.938132982874015
 20
4.130757449220498
 30
0.0
 11
5.526034376181102
 21
4.101884298433096
 31
0.0
  0
LINE
  5
3230
330
1E
100
AcDbEntity
  8
7
100
AcDbLine
 10
5.53915853562992
 20
6.267370607488214
 30
0.0
 11
5.526034376181102
 21
6.259496111818924
 31
0.0
  0
LINE
  5
3231
330
1E
100
AcDbEntity
  8
7
100
AcDbLine
 10
5.53915853562992
 20
3.966705456110263
 30
0.0
 11
5.526034376181102
 21
3.958830960440971
 31
0.0
  0
LINE
  5
3232
330
1E
100
AcDbEntity
  8
7
100
AcDbLine
 10
5.53915853562992
 20
5.116381823826797
 30
0.0
 11
5.526034376181102
 21
5.109819744102388
 31
0.0
  0
LINE
  5
3233
330
1E
100
AcDbEntity
  8
7
100
AcDbLine
 10
5.640214563385825
 20
3.814465206503962
 30
0.0
 11
5.526034376181102
 21
3.815777622448845
 31
0.0
  0
LINE
  5
3234
330
1E
100
AcDbEntity
  8
7
100
AcDbLine
 10
5.526034376181102
 20
3.8262769500079
 30
0.0
 11
5.640214563385825
 21
3.823652118118136
 31
0.0
  0
LINE
  5
3235
330
1E
100
AcDbEntity
  8
7
100
AcDbLine
 10
5.526034376181102
 20
3.756718904929159
 30
0.0
 11
5.640214563385825
 21
3.767218232488215
 31
0.0
  0
LINE
  5
3236
330
1E
100
AcDbEntity
  8
7
100
AcDbLine
 10
5.641526979330707
 20
3.756718904929159
 30
0.0
 11
5.526034376181102
 21
3.746219577370104
 31
0.0
  0
LINE
  5
3237
330
1E
100
AcDbEntity
  8
7
100
AcDbLine
 10
5.526034376181102
 20
3.856462516740183
 30
0.0
 11
5.640214563385825
 21
3.85383768485042
 31
0.0
  0
LINE
  5
3238
330
1E
100
AcDbEntity
  8
7
100
AcDbLine
 10
5.640214563385825
 20
3.844650773236246
 30
0.0
 11
5.526034376181102
 21
3.845963189181127
 31
0.0
  0
LINE
  5
3239
330
1E
100
AcDbEntity
  8
7
100
AcDbLine
 10
5.526034376181102
 20
3.836776277566955
 30
0.0
 11
5.640214563385825
 21
3.834151445677191
 31
0.0
  0
LINE
  5
323A
330
1E
100
AcDbEntity
  8
7
100
AcDbLine
 10
5.526034376181102
 20
2.864276062409475
 30
0.0
 11
5.356732719291337
 21
2.866900894299238
 31
0.0
  0
LINE
  5
3B3F
330
1E
100
AcDbEntity
  8
7
100
AcDbLine
 10
5.705835360629921
 20
4.191128582685065
 30
0.0
 11
5.716334688188975
 21
4.196378246464593
 31
0.0
  0
LINE
  5
3B40
330
1E
100
AcDbEntity
  8
7
100
AcDbLine
 10
5.716334688188975
 20
4.196378246464593
 30
0.0
 11
5.720271936023621
 21
4.206877574023648
 31
0.0
  0
LINE
  5
3B41
330
1E
100
AcDbEntity
  8
7
100
AcDbLine
 10
5.705835360629921
 20
5.342117366346482
 30
0.0
 11
5.716334688188975
 21
5.346054614181127
 31
0.0
  0
LINE
  5
3B42
330
1E
100
AcDbEntity
  8
7
100
AcDbLine
 10
5.716334688188975
 20
5.346054614181127
 30
0.0
 11
5.720271936023621
 21
5.356553941740183
 31
0.0
  0
LINE
  5
3B43
330
1E
100
AcDbEntity
  8
7
100
AcDbLine
 10
5.640214563385825
 20
3.823652118118136
 30
0.0
 11
5.640214563385825
 21
3.827589365952782
 31
0.0
  0
LINE
  5
3B44
330
1E
100
AcDbEntity
  8
7
100
AcDbLine
 10
5.640214563385825
 20
3.827589365952782
 30
0.0
 11
5.640214563385825
 21
3.834151445677191
 31
0.0
  0
LINE
  5
3B45
330
1E
100
AcDbEntity
  8
7
100
AcDbLine
 10
5.640214563385825
 20
3.834151445677191
 30
0.0
 11
5.646776643110236
 21
3.834151445677191
 31
0.0
  0
LINE
  5
3B46
330
1E
100
AcDbEntity
  8
7
100
AcDbLine
 10
5.646776643110236
 20
3.834151445677191
 30
0.0
 11
5.65071389094488
 21
3.834151445677191
 31
0.0
  0
LINE
  5
3B47
330
1E
100
AcDbEntity
  8
7
100
AcDbLine
 10
5.640214563385825
 20
3.844650773236246
 30
0.0
 11
5.646776643110236
 21
3.844650773236246
 31
0.0
  0
LINE
  5
3B48
330
1E
100
AcDbEntity
  8
7
100
AcDbLine
 10
5.646776643110236
 20
3.844650773236246
 30
0.0
 11
5.65071389094488
 21
3.844650773236246
 31
0.0
  0
LINE
  5
3B49
330
1E
100
AcDbEntity
  8
7
100
AcDbLine
 10
5.640214563385825
 20
3.844650773236246
 30
0.0
 11
5.640214563385825
 21
3.851212852960655
 31
0.0
  0
LINE
  5
3B4A
330
1E
100
AcDbEntity
  8
7
100
AcDbLine
 10
5.640214563385825
 20
3.851212852960655
 30
0.0
 11
5.640214563385825
 21
3.85383768485042
 31
0.0
  0
LINE
  5
3B4B
330
1E
100
AcDbEntity
  8
7
100
AcDbLine
 10
5.649401474999999
 20
3.844650773236246
 30
0.0
 11
5.646776643110236
 21
3.851212852960655
 31
0.0
  0
LINE
  5
3B4C
330
1E
100
AcDbEntity
  8
7
100
AcDbLine
 10
5.646776643110236
 20
3.851212852960655
 30
0.0
 11
5.640214563385825
 21
3.85383768485042
 31
0.0
  0
LINE
  5
3B4D
330
1E
100
AcDbEntity
  8
7
100
AcDbLine
 10
5.641526979330707
 20
3.758031320874041
 30
0.0
 11
5.646776643110236
 21
3.760656152763806
 31
0.0
  0
LINE
  5
3B4E
330
1E
100
AcDbEntity
  8
7
100
AcDbLine
 10
5.646776643110236
 20
3.760656152763806
 30
0.0
 11
5.649401474999999
 21
3.767218232488215
 31
0.0
  0
LINE
  5
3B4F
330
1E
100
AcDbEntity
  8
7
100
AcDbLine
 10
5.641526979330707
 20
3.756718904929159
 30
0.0
 11
5.641526979330707
 21
3.759343736818924
 31
0.0
  0
LINE
  5
3B50
330
1E
100
AcDbEntity
  8
7
100
AcDbLine
 10
5.641526979330707
 20
3.759343736818924
 30
0.0
 11
5.640214563385825
 21
3.767218232488215
 31
0.0
  0
LINE
  5
3B51
330
1E
100
AcDbEntity
  8
7
100
AcDbLine
 10
5.640214563385825
 20
3.767218232488215
 30
0.0
 11
5.646776643110236
 21
3.767218232488215
 31
0.0
  0
LINE
  5
3B52
330
1E
100
AcDbEntity
  8
7
100
AcDbLine
 10
5.646776643110236
 20
3.767218232488215
 30
0.0
 11
5.65071389094488
 21
3.767218232488215
 31
0.0
  0
LINE
  5
3B53
330
1E
100
AcDbEntity
  8
7
100
AcDbLine
 10
5.649401474999999
 20
3.814465206503962
 30
0.0
 11
5.646776643110236
 21
3.821027286228373
 31
0.0
  0
LINE
  5
3B54
330
1E
100
AcDbEntity
  8
7
100
AcDbLine
 10
5.646776643110236
 20
3.821027286228373
 30
0.0
 11
5.640214563385825
 21
3.823652118118136
 31
0.0
  0
LINE
  5
3B55
330
1E
100
AcDbEntity
  8
7
100
AcDbLine
 10
5.640214563385825
 20
3.814465206503962
 30
0.0
 11
5.646776643110236
 21
3.814465206503962
 31
0.0
  0
LINE
  5
3B56
330
1E
100
AcDbEntity
  8
7
100
AcDbLine
 10
5.646776643110236
 20
3.814465206503962
 30
0.0
 11
5.65071389094488
 21
3.814465206503962
 31
0.0
  0
LINE
  5
3B57
330
1E
100
AcDbEntity
  8
7
100
AcDbLine
 10
5.640214563385825
 20
3.814465206503962
 30
0.0
 11
5.640214563385825
 21
3.821027286228373
 31
0.0
  0
LINE
  5
3B58
330
1E
100
AcDbEntity
  8
7
100
AcDbLine
 10
5.640214563385825
 20
3.821027286228373
 30
0.0
 11
5.640214563385825
 21
3.823652118118136
 31
0.0
  0
LINE
  5
3B59
330
1E
100
AcDbEntity
  8
7
100
AcDbLine
 10
5.526034376181102
 20
5.158379134063017
 30
0.0
 11
5.536533703740157
 21
5.158379134063017
 31
0.0
  0
LINE
  5
3B5A
330
1E
100
AcDbEntity
  8
7
100
AcDbLine
 10
5.536533703740157
 20
5.158379134063017
 30
0.0
 11
5.53915853562992
 21
5.158379134063017
 31
0.0
  0
LINE
  5
3B5B
330
1E
100
AcDbEntity
  8
7
100
AcDbLine
 10
5.53915853562992
 20
5.116381823826797
 30
0.0
 11
5.536533703740157
 21
5.116381823826797
 31
0.0
  0
LINE
  5
3B5C
330
1E
100
AcDbEntity
  8
7
100
AcDbLine
 10
5.536533703740157
 20
5.116381823826797
 30
0.0
 11
5.526034376181102
 21
5.116381823826797
 31
0.0
  0
LINE
  5
3B5D
330
1E
100
AcDbEntity
  8
7
100
AcDbLine
 10
5.526034376181102
 20
4.008702766346483
 30
0.0
 11
5.536533703740157
 21
4.0073903504016
 31
0.0
  0
LINE
  5
3B5E
330
1E
100
AcDbEntity
  8
7
100
AcDbLine
 10
5.536533703740157
 20
4.0073903504016
 30
0.0
 11
5.53915853562992
 21
4.0073903504016
 31
0.0
  0
LINE
  5
3B5F
330
1E
100
AcDbEntity
  8
7
100
AcDbLine
 10
5.53915853562992
 20
3.966705456110263
 30
0.0
 11
5.536533703740157
 21
3.966705456110263
 31
0.0
  0
LINE
  5
3B60
330
1E
100
AcDbEntity
  8
7
100
AcDbLine
 10
5.536533703740157
 20
3.966705456110263
 30
0.0
 11
5.526034376181102
 21
3.966705456110263
 31
0.0
  0
LINE
  5
3B61
330
1E
100
AcDbEntity
  8
7
100
AcDbLine
 10
5.526034376181102
 20
6.308055501779553
 30
0.0
 11
5.536533703740157
 21
6.308055501779553
 31
0.0
  0
LINE
  5
3B62
330
1E
100
AcDbEntity
  8
7
100
AcDbLine
 10
5.536533703740157
 20
6.308055501779553
 30
0.0
 11
5.53915853562992
 21
6.308055501779553
 31
0.0
  0
LINE
  5
3B63
330
1E
100
AcDbEntity
  8
7
100
AcDbLine
 10
5.53915853562992
 20
6.267370607488214
 30
0.0
 11
5.536533703740157
 21
6.267370607488214
 31
0.0
  0
LINE
  5
3B64
330
1E
100
AcDbEntity
  8
7
100
AcDbLine
 10
5.536533703740157
 20
6.267370607488214
 30
0.0
 11
5.526034376181102
 21
6.266058191543333
 31
0.0
  0
LINE
  5
3B65
330
1E
100
AcDbEntity
  8
7
100
AcDbLine
 10
5.938132982874015
 20
5.280433816937033
 30
0.0
 11
5.94863231043307
 21
5.285683480716562
 31
0.0
  0
LINE
  5
3B66
330
1E
100
AcDbEntity
  8
7
100
AcDbLine
 10
5.94863231043307
 20
5.285683480716562
 30
0.0
 11
5.952569558267715
 21
5.296182808275617
 31
0.0
  0
LINE
  5
3B67
330
1E
100
AcDbEntity
  8
7
100
AcDbLine
 10
5.938132982874015
 20
4.130757449220498
 30
0.0
 11
5.94863231043307
 21
4.136007113000026
 31
0.0
  0
LINE
  5
3B68
330
1E
100
AcDbEntity
  8
7
100
AcDbLine
 10
5.94863231043307
 20
4.136007113000026
 30
0.0
 11
5.952569558267715
 21
4.145194024614199
 31
0.0
  0
LINE
  5
3B69
330
1E
100
AcDbEntity
  8
7
100
AcDbLine
 10
5.952569558267715
 20
4.16619267973231
 30
0.0
 11
5.947319894488187
 21
4.176692007291364
 31
0.0
  0
LINE
  5
3B6A
330
1E
100
AcDbEntity
  8
7
100
AcDbLine
 10
5.947319894488187
 20
4.176692007291364
 30
0.0
 11
5.938132982874015
 21
4.181941671070892
 31
0.0
  0
LINE
  5
3B6B
330
1E
100
AcDbEntity
  8
7
100
AcDbLine
 10
5.863325274015746
 20
4.183254087015773
 30
0.0
 11
5.835764539173228
 21
4.189816166740182
 31
0.0
  0
LINE
  5
3B6C
330
1E
100
AcDbEntity
  8
7
100
AcDbLine
 10
5.835764539173228
 20
4.189816166740182
 30
0.0
 11
5.814765884055117
 21
4.20818998996853
 31
0.0
  0
LINE
  5
3B6D
330
1E
100
AcDbEntity
  8
7
100
AcDbLine
 10
5.789829981102361
 20
4.244937636425222
 30
0.0
 11
5.770143741929132
 21
4.265936291543333
 31
0.0
  0
LINE
  5
3B6E
330
1E
100
AcDbEntity
  8
7
100
AcDbLine
 10
5.770143741929132
 20
4.265936291543333
 30
0.0
 11
5.743895423031494
 21
4.280372866937034
 31
0.0
  0
LINE
  5
3B6F
330
1E
100
AcDbEntity
  8
7
100
AcDbLine
 10
5.720271936023621
 20
4.217376901582703
 30
0.0
 11
5.718959520078739
 21
4.237063140755931
 31
0.0
  0
LINE
  5
3B70
330
1E
100
AcDbEntity
  8
7
100
AcDbLine
 10
5.718959520078739
 20
4.237063140755931
 30
0.0
 11
5.709772608464566
 21
4.254124548039396
 31
0.0
  0
LINE
  5
3B71
330
1E
100
AcDbEntity
  8
7
100
AcDbLine
 10
5.709772608464566
 20
4.254124548039396
 30
0.0
 11
5.707147776574801
 21
4.259374211818924
 31
0.0
  0
LINE
  5
3B72
330
1E
100
AcDbEntity
  8
7
100
AcDbLine
 10
5.952569558267715
 20
5.317181463393727
 30
0.0
 11
5.947319894488187
 21
5.327680790952782
 31
0.0
  0
LINE
  5
3B73
330
1E
100
AcDbEntity
  8
7
100
AcDbLine
 10
5.947319894488187
 20
5.327680790952782
 30
0.0
 11
5.938132982874015
 21
5.331618038787428
 31
0.0
  0
LINE
  5
3B74
330
1E
100
AcDbEntity
  8
7
100
AcDbLine
 10
5.863325274015746
 20
5.332930454732309
 30
0.0
 11
5.835764539173228
 21
5.339492534456718
 31
0.0
  0
LINE
  5
3B75
330
1E
100
AcDbEntity
  8
7
100
AcDbLine
 10
5.835764539173228
 20
5.339492534456718
 30
0.0
 11
5.814765884055117
 21
5.357866357685066
 31
0.0
  0
LINE
  5
3B76
330
1E
100
AcDbEntity
  8
7
100
AcDbLine
 10
5.789829981102361
 20
5.39592642008664
 30
0.0
 11
5.770143741929132
 21
5.41692507520475
 31
0.0
  0
LINE
  5
3B77
330
1E
100
AcDbEntity
  8
7
100
AcDbLine
 10
5.770143741929132
 20
5.41692507520475
 30
0.0
 11
5.743895423031494
 21
5.431361650598451
 31
0.0
  0
LINE
  5
3B78
330
1E
100
AcDbEntity
  8
7
100
AcDbLine
 10
5.743895423031494
 20
5.431361650598451
 30
0.0
 11
5.716334688188975
 21
5.43792373032286
 31
0.0
  0
LINE
  5
3B79
330
1E
100
AcDbEntity
  8
7
100
AcDbLine
 10
5.720271936023621
 20
5.36836568524412
 30
0.0
 11
5.718959520078739
 21
5.386739508472467
 31
0.0
  0
LINE
  5
3B7A
330
1E
100
AcDbEntity
  8
7
100
AcDbLine
 10
5.718959520078739
 20
5.386739508472467
 30
0.0
 11
5.709772608464566
 21
5.403800915755931
 31
0.0
  0
LINE
  5
3B7B
330
1E
100
AcDbEntity
  8
7
100
AcDbLine
 10
5.709772608464566
 20
5.403800915755931
 30
0.0
 11
5.707147776574801
 21
5.409050579535458
 31
0.0
  0
LINE
  5
3B7C
330
1E
100
AcDbEntity
  8
7
100
AcDbLine
 10
5.65071389094488
 20
3.844650773236246
 30
0.0
 11
5.65071389094488
 21
3.834151445677191
 31
0.0
  0
LINE
  5
3B7D
330
1E
100
AcDbEntity
  8
7
100
AcDbLine
 10
5.65071389094488
 20
3.834151445677191
 30
0.0
 11
5.65071389094488
 21
3.81971487028349
 31
0.0
  0
LINE
  5
3B7E
330
1E
100
AcDbEntity
  8
7
100
AcDbLine
 10
5.65071389094488
 20
3.81971487028349
 30
0.0
 11
5.65071389094488
 21
3.814465206503962
 31
0.0
  0
LINE
  5
3B7F
330
1E
100
AcDbEntity
  8
7
100
AcDbLine
 10
5.65071389094488
 20
3.814465206503962
 30
0.0
 11
5.65071389094488
 21
3.767218232488215
 31
0.0
  0
LINE
  5
3B80
330
1E
100
AcDbEntity
  8
7
100
AcDbLine
 10
5.640214563385825
 20
3.726533338196876
 30
0.0
 11
5.641526979330707
 21
3.721283674417348
 31
0.0
  0
LINE
  5
3B81
330
1E
100
AcDbEntity
  8
7
100
AcDbLine
 10
5.641526979330707
 20
3.721283674417348
 30
0.0
 11
5.641526979330707
 21
3.718658842527585
 31
0.0
  0
LINE
  5
3B82
330
1E
100
AcDbEntity
  8
7
100
AcDbLine
 10
5.64283939527559
 20
3.727845754141759
 30
0.0
 11
5.648089059055116
 21
3.727845754141759
 31
0.0
  0
LINE
  5
3B83
330
1E
100
AcDbEntity
  8
7
100
AcDbLine
 10
5.648089059055116
 20
3.727845754141759
 30
0.0
 11
5.65071389094488
 21
3.727845754141759
 31
0.0
  0
LINE
  5
3B84
330
1E
100
AcDbEntity
  8
7
100
AcDbLine
 10
5.65071389094488
 20
3.740969913590577
 30
0.0
 11
5.65071389094488
 21
3.727845754141759
 31
0.0
  0
LINE
  5
3B85
330
1E
100
AcDbEntity
  8
7
100
AcDbLine
 10
5.65071389094488
 20
3.727845754141759
 30
0.0
 11
5.641526979330707
 21
3.718658842527585
 31
0.0
  0
LINE
  5
3B86
330
1E
100
AcDbEntity
  8
7
100
AcDbLine
 10
5.65071389094488
 20
6.399924617921286
 30
0.0
 11
5.646776643110236
 21
6.399924617921286
 31
0.0
  0
LINE
  5
3B87
330
1E
100
AcDbEntity
  8
7
100
AcDbLine
 10
5.646776643110236
 20
6.399924617921286
 30
0.0
 11
5.640214563385825
 21
6.399924617921286
 31
0.0
  0
LINE
  5
3B88
330
1E
100
AcDbEntity
  8
7
100
AcDbLine
 10
5.640214563385825
 20
6.410423945480341
 30
0.0
 11
5.646776643110236
 21
6.413048777370104
 31
0.0
  0
LINE
  5
3B89
330
1E
100
AcDbEntity
  8
7
100
AcDbLine
 10
5.646776643110236
 20
6.413048777370104
 30
0.0
 11
5.649401474999999
 21
6.419610857094514
 31
0.0
  0
LINE
  5
3B8A
330
1E
100
AcDbEntity
  8
7
100
AcDbLine
 10
5.640214563385825
 20
6.410423945480341
 30
0.0
 11
5.640214563385825
 21
6.413048777370104
 31
0.0
  0
LINE
  5
3B8B
330
1E
100
AcDbEntity
  8
7
100
AcDbLine
 10
5.640214563385825
 20
6.413048777370104
 30
0.0
 11
5.640214563385825
 21
6.419610857094514
 31
0.0
  0
LINE
  5
3B8C
330
1E
100
AcDbEntity
  8
7
100
AcDbLine
 10
5.65071389094488
 20
6.419610857094514
 30
0.0
 11
5.646776643110236
 21
6.419610857094514
 31
0.0
  0
LINE
  5
3B8D
330
1E
100
AcDbEntity
  8
7
100
AcDbLine
 10
5.646776643110236
 20
6.419610857094514
 30
0.0
 11
5.640214563385825
 21
6.419610857094514
 31
0.0
  0
LINE
  5
3B8E
330
1E
100
AcDbEntity
  8
7
100
AcDbLine
 10
5.640214563385825
 20
6.468170247055144
 30
0.0
 11
5.641526979330707
 21
6.474732326779554
 31
0.0
  0
LINE
  5
3B8F
330
1E
100
AcDbEntity
  8
7
100
AcDbLine
 10
5.641526979330707
 20
6.474732326779554
 30
0.0
 11
5.641526979330707
 21
6.477357158669318
 31
0.0
  0
LINE
  5
3B90
330
1E
100
AcDbEntity
  8
7
100
AcDbLine
 10
5.649401474999999
 20
6.468170247055144
 30
0.0
 11
5.646776643110236
 21
6.474732326779554
 31
0.0
  0
LINE
  5
3B91
330
1E
100
AcDbEntity
  8
7
100
AcDbLine
 10
5.646776643110236
 20
6.474732326779554
 30
0.0
 11
5.641526979330707
 21
6.477357158669318
 31
0.0
  0
LINE
  5
3B92
330
1E
100
AcDbEntity
  8
7
100
AcDbLine
 10
5.640214563385825
 20
6.381550794692939
 30
0.0
 11
5.646776643110236
 21
6.384175626582703
 31
0.0
  0
LINE
  5
3B93
330
1E
100
AcDbEntity
  8
7
100
AcDbLine
 10
5.646776643110236
 20
6.384175626582703
 30
0.0
 11
5.649401474999999
 21
6.390737706307112
 31
0.0
  0
LINE
  5
3B94
330
1E
100
AcDbEntity
  8
7
100
AcDbLine
 10
5.640214563385825
 20
6.380238378748058
 30
0.0
 11
5.640214563385825
 21
6.38286321063782
 31
0.0
  0
LINE
  5
3B95
330
1E
100
AcDbEntity
  8
7
100
AcDbLine
 10
5.640214563385825
 20
6.38286321063782
 30
0.0
 11
5.640214563385825
 21
6.390737706307112
 31
0.0
  0
LINE
  5
3B96
330
1E
100
AcDbEntity
  8
7
100
AcDbLine
 10
5.65071389094488
 20
6.468170247055144
 30
0.0
 11
5.65071389094488
 21
6.419610857094514
 31
0.0
  0
LINE
  5
3B97
330
1E
100
AcDbEntity
  8
7
100
AcDbLine
 10
5.65071389094488
 20
6.419610857094514
 30
0.0
 11
5.65071389094488
 21
6.414361193314986
 31
0.0
  0
LINE
  5
3B98
330
1E
100
AcDbEntity
  8
7
100
AcDbLine
 10
5.65071389094488
 20
6.414361193314986
 30
0.0
 11
5.65071389094488
 21
6.399924617921286
 31
0.0
  0
LINE
  5
3B99
330
1E
100
AcDbEntity
  8
7
100
AcDbLine
 10
5.65071389094488
 20
6.399924617921286
 30
0.0
 11
5.65071389094488
 21
6.390737706307112
 31
0.0
  0
LINE
  5
3B9A
330
1E
100
AcDbEntity
  8
7
100
AcDbLine
 10
5.65071389094488
 20
6.390737706307112
 30
0.0
 11
5.646776643110236
 21
6.390737706307112
 31
0.0
  0
LINE
  5
3B9B
330
1E
100
AcDbEntity
  8
7
100
AcDbLine
 10
5.646776643110236
 20
6.390737706307112
 30
0.0
 11
5.640214563385825
 21
6.390737706307112
 31
0.0
  0
LINE
  5
3B9C
330
1E
100
AcDbEntity
  8
7
100
AcDbLine
 10
5.641526979330707
 20
6.515417221070892
 30
0.0
 11
5.641526979330707
 21
6.51410480512601
 31
0.0
  0
LINE
  5
3B9D
330
1E
100
AcDbEntity
  8
7
100
AcDbLine
 10
5.641526979330707
 20
6.51410480512601
 30
0.0
 11
5.640214563385825
 21
6.5075427254016
 31
0.0
  0
LINE
  5
3B9E
330
1E
100
AcDbEntity
  8
7
100
AcDbLine
 10
5.526034376181102
 20
7.365862753354356
 30
0.0
 11
5.526034376181102
 21
7.355363425795301
 31
0.0
  0
LINE
  5
3B9F
330
1E
100
AcDbEntity
  8
7
100
AcDbLine
 10
5.526034376181102
 20
7.355363425795301
 30
0.0
 11
5.526034376181102
 21
7.340926850401601
 31
0.0
  0
LINE
  5
3BA0
330
1E
100
AcDbEntity
  8
7
100
AcDbLine
 10
5.526034376181102
 20
2.894461629141758
 30
0.0
 11
5.526034376181102
 21
2.878712637803175
 31
0.0
  0
LINE
  5
3BA1
330
1E
100
AcDbEntity
  8
7
100
AcDbLine
 10
5.526034376181102
 20
2.878712637803175
 30
0.0
 11
5.526034376181102
 21
2.86821331024412
 31
0.0
  0
LINE
  5
3BA2
330
1E
100
AcDbEntity
  8
7
100
AcDbLine
 10
5.526034376181102
 20
2.86821331024412
 30
0.0
 11
5.526034376181102
 21
2.864276062409475
 31
0.0
  0
LINE
  5
3BA3
330
1E
100
AcDbEntity
  8
7
100
AcDbLine
 10
5.356732719291337
 20
7.336989602566955
 30
0.0
 11
5.356732719291337
 21
7.352738593905538
 31
0.0
  0
LINE
  5
3BA4
330
1E
100
AcDbEntity
  8
7
100
AcDbLine
 10
5.356732719291337
 20
7.352738593905538
 30
0.0
 11
5.356732719291337
 21
7.363237921464593
 31
0.0
  0
LINE
  5
3BA5
330
1E
100
AcDbEntity
  8
7
100
AcDbLine
 10
5.356732719291337
 20
7.363237921464593
 30
0.0
 11
5.356732719291337
 21
7.367175169299238
 31
0.0
  0
LINE
  5
3BA6
330
1E
100
AcDbEntity
  8
7
100
AcDbLine
 10
5.356732719291337
 20
7.367175169299238
 30
0.0
 11
5.526034376181102
 21
7.369800001189002
 31
0.0
  0
LINE
  5
3BA7
330
1E
100
AcDbEntity
  8
7
100
AcDbLine
 10
5.356732719291337
 20
2.866900894299238
 30
0.0
 11
5.356732719291337
 21
2.870838142133884
 31
0.0
  0
LINE
  5
3BA8
330
1E
100
AcDbEntity
  8
7
100
AcDbLine
 10
5.356732719291337
 20
2.870838142133884
 30
0.0
 11
5.356732719291337
 21
2.882649885637821
 31
0.0
  0
LINE
  5
3BA9
330
1E
100
AcDbEntity
  8
7
100
AcDbLine
 10
5.356732719291337
 20
2.882649885637821
 30
0.0
 11
5.356732719291337
 21
2.897086461031522
 31
0.0
  0
LINE
  5
3BAA
330
1E
100
AcDbEntity
  8
7
100
AcDbLine
 10
5.65071389094488
 20
3.740969913590577
 30
0.0
 11
5.644151811220471
 21
3.740969913590577
 31
0.0
  0
LINE
  5
3BAB
330
1E
100
AcDbEntity
  8
7
100
AcDbLine
 10
5.644151811220471
 20
3.740969913590577
 30
0.0
 11
5.625777987992125
 21
3.740969913590577
 31
0.0
  0
LINE
  5
3BAC
330
1E
100
AcDbEntity
  8
7
100
AcDbLine
 10
5.625777987992125
 20
3.740969913590577
 30
0.0
 11
5.600842085039369
 21
3.740969913590577
 31
0.0
  0
LINE
  5
3BAD
330
1E
100
AcDbEntity
  8
7
100
AcDbLine
 10
5.526034376181102
 20
3.740969913590577
 30
0.0
 11
5.600842085039369
 21
3.740969913590577
 31
0.0
  0
LINE
  5
3BAE
330
1E
100
AcDbEntity
  8
7
100
AcDbLine
 10
5.600842085039369
 20
3.740969913590577
 30
0.0
 11
5.600842085039369
 21
3.752781657094513
 31
0.0
  0
LINE
  5
3BAF
330
1E
100
AcDbEntity
  8
7
100
AcDbLine
 10
5.327859568503935
 20
2.873462974023647
 30
0.0
 11
5.327859568503935
 21
2.880025053748057
 31
0.0
  0
LINE
  5
3BB0
330
1E
100
AcDbEntity
  8
7
100
AcDbLine
 10
5.327859568503935
 20
2.880025053748057
 30
0.0
 11
5.326547152559053
 21
2.88921196536223
 31
0.0
  0
LINE
  5
3BB1
330
1E
100
AcDbEntity
  8
7
100
AcDbLine
 10
5.326547152559053
 20
2.88921196536223
 30
0.0
 11
5.325234736614172
 21
2.897086461031522
 31
0.0
  0
LINE
  5
3BB2
330
1E
100
AcDbEntity
  8
7
100
AcDbLine
 10
5.321297488779526
 20
2.866900894299238
 30
0.0
 11
5.325234736614172
 21
2.866900894299238
 31
0.0
  0
LINE
  5
3BB3
330
1E
100
AcDbEntity
  8
7
100
AcDbLine
 10
5.325234736614172
 20
2.866900894299238
 30
0.0
 11
5.327859568503935
 21
2.86821331024412
 31
0.0
  0
LINE
  5
3BB4
330
1E
100
AcDbEntity
  8
7
100
AcDbLine
 10
5.327859568503935
 20
2.86821331024412
 30
0.0
 11
5.327859568503935
 21
2.873462974023647
 31
0.0
  0
LINE
  5
3BB5
330
1E
100
AcDbEntity
  8
7
100
AcDbLine
 10
5.21892904507874
 20
3.051951542527585
 30
0.0
 11
5.209742133464565
 21
3.016516312015773
 31
0.0
  0
LINE
  5
3BB6
330
1E
100
AcDbEntity
  8
7
100
AcDbLine
 10
5.209742133464565
 20
3.016516312015773
 30
0.0
 11
5.21892904507874
 21
2.987643161228372
 31
0.0
  0
LINE
  5
3BB7
330
1E
100
AcDbEntity
  8
7
100
AcDbLine
 10
5.196617974015746
 20
3.051951542527585
 30
0.0
 11
5.203180053740156
 21
3.017828727960656
 31
0.0
  0
LINE
  5
3BB8
330
1E
100
AcDbEntity
  8
7
100
AcDbLine
 10
5.203180053740156
 20
3.017828727960656
 30
0.0
 11
5.220241461023621
 21
2.987643161228372
 31
0.0
  0
LINE
  5
3BB9
330
1E
100
AcDbEntity
  8
7
100
AcDbLine
 10
5.644151811220471
 20
6.4931061500079
 30
0.0
 11
5.65071389094488
 21
6.4931061500079
 31
0.0
  0
LINE
  5
3BBA
330
1E
100
AcDbEntity
  8
7
100
AcDbLine
 10
5.65071389094488
 20
6.4931061500079
 30
0.0
 11
5.65071389094488
 21
6.468170247055144
 31
0.0
  0
LINE
  5
3BBB
330
1E
100
AcDbEntity
  8
7
100
AcDbLine
 10
5.526034376181102
 20
6.4931061500079
 30
0.0
 11
5.600842085039369
 21
6.4931061500079
 31
0.0
  0
LINE
  5
3BBC
330
1E
100
AcDbEntity
  8
7
100
AcDbLine
 10
5.600842085039369
 20
6.4931061500079
 30
0.0
 11
5.625777987992125
 21
6.4931061500079
 31
0.0
  0
LINE
  5
3BBD
330
1E
100
AcDbEntity
  8
7
100
AcDbLine
 10
5.625777987992125
 20
6.4931061500079
 30
0.0
 11
5.644151811220471
 21
6.4931061500079
 31
0.0
  0
LINE
  5
3BBE
330
1E
100
AcDbEntity
  8
7
100
AcDbLine
 10
5.356732719291337
 20
2.897086461031522
 30
0.0
 11
5.356732719291337
 21
2.876087805913411
 31
0.0
  0
LINE
  5
3BBF
330
1E
100
AcDbEntity
  8
7
100
AcDbLine
 10
5.356732719291337
 20
2.876087805913411
 30
0.0
 11
5.356732719291337
 21
2.866900894299238
 31
0.0
  0
LINE
  5
3BC0
330
1E
100
AcDbEntity
  8
7
100
AcDbLine
 10
5.325234736614172
 20
7.367175169299238
 30
0.0
 11
5.356732719291337
 21
7.367175169299238
 31
0.0
  0
LINE
  5
3BC1
330
1E
100
AcDbEntity
  8
7
100
AcDbLine
 10
5.356732719291337
 20
7.367175169299238
 30
0.0
 11
5.356732719291337
 21
7.357988257685065
 31
0.0
  0
LINE
  5
3BC2
330
1E
100
AcDbEntity
  8
7
100
AcDbLine
 10
5.356732719291337
 20
7.357988257685065
 30
0.0
 11
5.356732719291337
 21
7.336989602566955
 31
0.0
  0
LINE
  5
3BC3
330
1E
100
AcDbEntity
  8
7
100
AcDbLine
 10
5.325234736614172
 20
2.897086461031522
 30
0.0
 11
5.356732719291337
 21
2.897086461031522
 31
0.0
  0
LINE
  5
3BC4
330
1E
100
AcDbEntity
  8
7
100
AcDbLine
 10
5.356732719291337
 20
2.897086461031522
 30
0.0
 11
5.356732719291337
 21
7.336989602566955
 31
0.0
  0
LINE
  5
3BC5
330
1E
100
AcDbEntity
  8
7
100
AcDbLine
 10
5.196617974015746
 20
3.051951542527585
 30
0.0
 11
5.201867637795274
 21
3.051951542527585
 31
0.0
  0
LINE
  5
3BC6
330
1E
100
AcDbEntity
  8
7
100
AcDbLine
 10
5.201867637795274
 20
3.051951542527585
 30
0.0
 11
5.21892904507874
 21
3.051951542527585
 31
0.0
  0
LINE
  5
3BC7
330
1E
100
AcDbEntity
  8
7
100
AcDbLine
 10
5.325234736614172
 20
7.336989602566955
 30
0.0
 11
5.327859568503935
 21
7.347488930126011
 31
0.0
  0
LINE
  5
3BC8
330
1E
100
AcDbEntity
  8
7
100
AcDbLine
 10
5.327859568503935
 20
7.347488930126011
 30
0.0
 11
5.327859568503935
 21
7.355363425795301
 31
0.0
  0
LINE
  5
3BC9
330
1E
100
AcDbEntity
  8
7
100
AcDbLine
 10
5.327859568503935
 20
7.355363425795301
 30
0.0
 11
5.327859568503935
 21
7.36192550551971
 31
0.0
  0
LINE
  5
3BCA
330
1E
100
AcDbEntity
  8
7
100
AcDbLine
 10
5.327859568503935
 20
7.36192550551971
 30
0.0
 11
5.326547152559053
 21
7.365862753354356
 31
0.0
  0
LINE
  5
3BCB
330
1E
100
AcDbEntity
  8
7
100
AcDbLine
 10
5.220241461023621
 20
7.246432902370104
 30
0.0
 11
5.203180053740156
 21
7.21624733563782
 31
0.0
  0
LINE
  5
3BCC
330
1E
100
AcDbEntity
  8
7
100
AcDbLine
 10
5.203180053740156
 20
7.21624733563782
 30
0.0
 11
5.196617974015746
 21
7.182124521070892
 31
0.0
  0
LINE
  5
3BCD
330
1E
100
AcDbEntity
  8
7
100
AcDbLine
 10
5.21892904507874
 20
7.182124521070892
 30
0.0
 11
5.209742133464565
 21
7.217559751582703
 31
0.0
  0
LINE
  5
3BCE
330
1E
100
AcDbEntity
  8
7
100
AcDbLine
 10
5.209742133464565
 20
7.217559751582703
 30
0.0
 11
5.21892904507874
 21
7.246432902370104
 31
0.0
  0
LINE
  5
3BCF
330
1E
100
AcDbEntity
  8
7
100
AcDbLine
 10
5.196617974015746
 20
7.182124521070892
 30
0.0
 11
5.201867637795274
 21
7.182124521070892
 31
0.0
  0
LINE
  5
3BD0
330
1E
100
AcDbEntity
  8
7
100
AcDbLine
 10
5.201867637795274
 20
7.182124521070892
 30
0.0
 11
5.21892904507874
 21
7.182124521070892
 31
0.0
  0
LINE
  5
3BD1
330
1E
100
AcDbEntity
  8
7
100
AcDbLine
 10
2.328989134448819
 20
3.744907161425222
 30
0.0
 11
2.328989134448819
 21
3.72915817008664
 31
0.0
  0
LINE
  5
3BD2
330
1E
100
AcDbEntity
  8
7
100
AcDbLine
 10
2.328989134448819
 20
3.72915817008664
 30
0.0
 11
2.327676718503936
 21
3.721283674417348
 31
0.0
  0
LINE
  5
3BD3
330
1E
100
AcDbEntity
  8
7
100
AcDbLine
 10
2.168874389173228
 20
3.721283674417348
 30
0.0
 11
2.168874389173228
 21
3.72915817008664
 31
0.0
  0
LINE
  5
3BD4
330
1E
100
AcDbEntity
  8
7
100
AcDbLine
 10
2.168874389173228
 20
3.72915817008664
 30
0.0
 11
2.168874389173228
 21
3.744907161425222
 31
0.0
  0
LINE
  5
3BD5
330
1E
100
AcDbEntity
  8
7
100
AcDbLine
 10
1.737089543307086
 20
3.781654807881915
 30
0.0
 11
1.737089543307086
 21
3.782967223826797
 31
0.0
  0
LINE
  5
3BD6
330
1E
100
AcDbEntity
  8
7
100
AcDbLine
 10
1.737089543307086
 20
3.782967223826797
 30
0.0
 11
1.737089543307086
 21
3.789529303551208
 31
0.0
  0
LINE
  5
3BD7
330
1E
100
AcDbEntity
  8
7
100
AcDbLine
 10
1.744964038976377
 20
3.772467896267742
 30
0.0
 11
1.747588870866141
 21
3.772467896267742
 31
0.0
  0
LINE
  5
3BD8
330
1E
100
AcDbEntity
  8
7
100
AcDbLine
 10
1.747588870866141
 20
3.772467896267742
 30
0.0
 11
1.752838534645668
 21
3.772467896267742
 31
0.0
  0
LINE
  5
3BD9
330
1E
100
AcDbEntity
  8
7
100
AcDbLine
 10
1.744964038976377
 20
3.743594745480341
 30
0.0
 11
1.747588870866141
 21
3.743594745480341
 31
0.0
  0
LINE
  5
3BDA
330
1E
100
AcDbEntity
  8
7
100
AcDbLine
 10
1.747588870866141
 20
3.743594745480341
 30
0.0
 11
1.752838534645668
 21
3.743594745480341
 31
0.0
  0
LINE
  5
3BDB
330
1E
100
AcDbEntity
  8
7
100
AcDbLine
 10
1.737089543307086
 20
3.734407833866168
 30
0.0
 11
1.737089543307086
 21
3.733095417921286
 31
0.0
  0
LINE
  5
3BDC
330
1E
100
AcDbEntity
  8
7
100
AcDbLine
 10
1.737089543307086
 20
3.733095417921286
 30
0.0
 11
1.737089543307086
 21
3.726533338196876
 31
0.0
  0
LINE
  5
3BDD
330
1E
100
AcDbEntity
  8
7
100
AcDbLine
 10
1.490355345669291
 20
3.734407833866168
 30
0.0
 11
1.490355345669291
 21
3.733095417921286
 31
0.0
  0
LINE
  5
3BDE
330
1E
100
AcDbEntity
  8
7
100
AcDbLine
 10
1.490355345669291
 20
3.733095417921286
 30
0.0
 11
1.490355345669291
 21
3.726533338196876
 31
0.0
  0
LINE
  5
3BDF
330
1E
100
AcDbEntity
  8
7
100
AcDbLine
 10
1.482480849999999
 20
3.743594745480341
 30
0.0
 11
1.479856018110236
 21
3.743594745480341
 31
0.0
  0
LINE
  5
3BE0
330
1E
100
AcDbEntity
  8
7
100
AcDbLine
 10
1.479856018110236
 20
3.743594745480341
 30
0.0
 11
1.474606354330708
 21
3.743594745480341
 31
0.0
  0
LINE
  5
3BE1
330
1E
100
AcDbEntity
  8
7
100
AcDbLine
 10
1.474606354330708
 20
3.772467896267742
 30
0.0
 11
1.479856018110236
 21
3.772467896267742
 31
0.0
  0
LINE
  5
3BE2
330
1E
100
AcDbEntity
  8
7
100
AcDbLine
 10
1.479856018110236
 20
3.772467896267742
 30
0.0
 11
1.482480849999999
 21
3.772467896267742
 31
0.0
  0
LINE
  5
3BE3
330
1E
100
AcDbEntity
  8
7
100
AcDbLine
 10
1.490355345669291
 20
3.789529303551208
 30
0.0
 11
1.490355345669291
 21
3.782967223826797
 31
0.0
  0
LINE
  5
3BE4
330
1E
100
AcDbEntity
  8
7
100
AcDbLine
 10
1.490355345669291
 20
3.782967223826797
 30
0.0
 11
1.490355345669291
 21
3.781654807881915
 31
0.0
  0
LINE
  5
3BE5
330
1E
100
AcDbEntity
  8
7
100
AcDbLine
 10
3.007508177952755
 20
3.781654807881915
 30
0.0
 11
3.007508177952755
 21
3.782967223826797
 31
0.0
  0
LINE
  5
3BE6
330
1E
100
AcDbEntity
  8
7
100
AcDbLine
 10
3.007508177952755
 20
3.782967223826797
 30
0.0
 11
3.007508177952755
 21
3.789529303551208
 31
0.0
  0
LINE
  5
3BE7
330
1E
100
AcDbEntity
  8
7
100
AcDbLine
 10
3.015382673622046
 20
3.772467896267742
 30
0.0
 11
3.01800750551181
 21
3.772467896267742
 31
0.0
  0
LINE
  5
3BE8
330
1E
100
AcDbEntity
  8
7
100
AcDbLine
 10
3.01800750551181
 20
3.772467896267742
 30
0.0
 11
3.023257169291338
 21
3.772467896267742
 31
0.0
  0
LINE
  5
3BE9
330
1E
100
AcDbEntity
  8
7
100
AcDbLine
 10
3.023257169291338
 20
3.743594745480341
 30
0.0
 11
3.01800750551181
 21
3.743594745480341
 31
0.0
  0
LINE
  5
3BEA
330
1E
100
AcDbEntity
  8
7
100
AcDbLine
 10
3.01800750551181
 20
3.743594745480341
 30
0.0
 11
3.015382673622046
 21
3.743594745480341
 31
0.0
  0
LINE
  5
3BEB
330
1E
100
AcDbEntity
  8
7
100
AcDbLine
 10
3.007508177952755
 20
3.726533338196876
 30
0.0
 11
3.007508177952755
 21
3.733095417921286
 31
0.0
  0
LINE
  5
3BEC
330
1E
100
AcDbEntity
  8
7
100
AcDbLine
 10
3.007508177952755
 20
3.733095417921286
 30
0.0
 11
3.007508177952755
 21
3.734407833866168
 31
0.0
  0
LINE
  5
3BED
330
1E
100
AcDbEntity
  8
7
100
AcDbLine
 10
2.76077398031496
 20
3.726533338196876
 30
0.0
 11
2.76077398031496
 21
3.733095417921286
 31
0.0
  0
LINE
  5
3BEE
330
1E
100
AcDbEntity
  8
7
100
AcDbLine
 10
2.76077398031496
 20
3.733095417921286
 30
0.0
 11
2.76077398031496
 21
3.734407833866168
 31
0.0
  0
LINE
  5
3BEF
330
1E
100
AcDbEntity
  8
7
100
AcDbLine
 10
2.743712573031495
 20
3.743594745480341
 30
0.0
 11
2.750274652755904
 21
3.743594745480341
 31
0.0
  0
LINE
  5
3BF0
330
1E
100
AcDbEntity
  8
7
100
AcDbLine
 10
2.750274652755904
 20
3.743594745480341
 30
0.0
 11
2.752899484645668
 21
3.743594745480341
 31
0.0
  0
LINE
  5
3BF1
330
1E
100
AcDbEntity
  8
7
100
AcDbLine
 10
2.76077398031496
 20
3.789529303551208
 30
0.0
 11
2.76077398031496
 21
3.782967223826797
 31
0.0
  0
LINE
  5
3BF2
330
1E
100
AcDbEntity
  8
7
100
AcDbLine
 10
2.76077398031496
 20
3.782967223826797
 30
0.0
 11
2.76077398031496
 21
3.781654807881915
 31
0.0
  0
LINE
  5
3BF3
330
1E
100
AcDbEntity
  8
7
100
AcDbLine
 10
2.743712573031495
 20
3.772467896267742
 30
0.0
 11
2.750274652755904
 21
3.772467896267742
 31
0.0
  0
LINE
  5
3BF4
330
1E
100
AcDbEntity
  8
7
100
AcDbLine
 10
2.750274652755904
 20
3.772467896267742
 30
0.0
 11
2.752899484645668
 21
3.772467896267742
 31
0.0
  0
LINE
  5
3BF5
330
1E
100
AcDbEntity
  8
7
100
AcDbLine
 10
2.762086396259842
 20
3.739657497645695
 30
0.0
 11
2.76077398031496
 21
3.734407833866168
 31
0.0
  0
LINE
  5
3BF6
330
1E
100
AcDbEntity
  8
7
100
AcDbLine
 10
2.76077398031496
 20
3.734407833866168
 30
0.0
 11
3.007508177952755
 21
3.734407833866168
 31
0.0
  0
LINE
  5
3BF7
330
1E
100
AcDbEntity
  8
7
100
AcDbLine
 10
2.179373716732283
 20
3.721283674417348
 30
0.0
 11
2.168874389173228
 21
3.721283674417348
 31
0.0
  0
LINE
  5
3BF8
330
1E
100
AcDbEntity
  8
7
100
AcDbLine
 10
2.168874389173228
 20
3.721283674417348
 30
0.0
 11
2.171499221062991
 21
3.719971258472466
 31
0.0
  0
LINE
  5
3BF9
330
1E
100
AcDbEntity
  8
7
100
AcDbLine
 10
2.171499221062991
 20
3.709471930913411
 30
0.0
 11
2.171499221062991
 21
3.705534683078766
 31
0.0
  0
LINE
  5
3BFA
330
1E
100
AcDbEntity
  8
7
100
AcDbLine
 10
2.171499221062991
 20
3.705534683078766
 30
0.0
 11
2.171499221062991
 21
3.702909851189002
 31
0.0
  0
LINE
  5
3BFB
330
1E
100
AcDbEntity
  8
7
100
AcDbLine
 10
2.171499221062991
 20
3.702909851189002
 30
0.0
 11
2.171499221062991
 21
3.700285019299238
 31
0.0
  0
LINE
  5
3BFC
330
1E
100
AcDbEntity
  8
7
100
AcDbLine
 10
2.171499221062991
 20
3.700285019299238
 30
0.0
 11
2.171499221062991
 21
3.698972603354356
 31
0.0
  0
LINE
  5
3BFD
330
1E
100
AcDbEntity
  8
7
100
AcDbLine
 10
2.326364302559055
 20
3.701597435244121
 30
0.0
 11
2.326364302559055
 21
3.704222267133884
 31
0.0
  0
LINE
  5
3BFE
330
1E
100
AcDbEntity
  8
7
100
AcDbLine
 10
2.326364302559055
 20
3.704222267133884
 30
0.0
 11
2.326364302559055
 21
3.706847099023648
 31
0.0
  0
LINE
  5
3BFF
330
1E
100
AcDbEntity
  8
7
100
AcDbLine
 10
2.326364302559055
 20
3.706847099023648
 30
0.0
 11
2.326364302559055
 21
3.709471930913411
 31
0.0
  0
LINE
  5
3C00
330
1E
100
AcDbEntity
  8
7
100
AcDbLine
 10
2.325051886614172
 20
3.698972603354356
 30
0.0
 11
2.326364302559055
 21
3.698972603354356
 31
0.0
  0
LINE
  5
3C01
330
1E
100
AcDbEntity
  8
7
100
AcDbLine
 10
2.326364302559055
 20
3.698972603354356
 30
0.0
 11
2.326364302559055
 21
3.701597435244121
 31
0.0
  0
LINE
  5
3C02
330
1E
100
AcDbEntity
  8
7
100
AcDbLine
 10
1.491667761614173
 20
3.739657497645695
 30
0.0
 11
1.490355345669291
 21
3.734407833866168
 31
0.0
  0
LINE
  5
3C03
330
1E
100
AcDbEntity
  8
7
100
AcDbLine
 10
1.490355345669291
 20
3.734407833866168
 30
0.0
 11
1.737089543307086
 21
3.734407833866168
 31
0.0
  0
LINE
  5
3C04
330
1E
100
AcDbEntity
  8
7
100
AcDbLine
 10
2.323739470669291
 20
3.698972603354356
 30
0.0
 11
2.322427054724409
 21
3.698972603354356
 31
0.0
  0
LINE
  5
3C05
330
1E
100
AcDbEntity
  8
7
100
AcDbLine
 10
2.322427054724409
 20
3.698972603354356
 30
0.0
 11
2.319802222834645
 21
3.698972603354356
 31
0.0
  0
LINE
  5
3C06
330
1E
100
AcDbEntity
  8
7
100
AcDbLine
 10
2.323739470669291
 20
3.551982017527585
 30
0.0
 11
2.317177390944881
 21
3.553294433472466
 31
0.0
  0
LINE
  5
3C07
330
1E
100
AcDbEntity
  8
7
100
AcDbLine
 10
2.317177390944881
 20
3.553294433472466
 30
0.0
 11
2.30930289527559
 21
3.553294433472466
 31
0.0
  0
LINE
  5
3C08
330
1E
100
AcDbEntity
  8
7
100
AcDbLine
 10
2.376236108464566
 20
3.515234371070892
 30
0.0
 11
2.355237453346456
 21
3.540170274023648
 31
0.0
  0
LINE
  5
3C09
330
1E
100
AcDbEntity
  8
7
100
AcDbLine
 10
2.355237453346456
 20
3.540170274023648
 30
0.0
 11
2.325051886614172
 21
3.553294433472466
 31
0.0
  0
LINE
  5
3C0A
330
1E
100
AcDbEntity
  8
7
100
AcDbLine
 10
2.30930289527559
 20
3.399741767921285
 30
0.0
 11
2.340800877952755
 21
3.406303847645695
 31
0.0
  0
LINE
  5
3C0B
330
1E
100
AcDbEntity
  8
7
100
AcDbLine
 10
2.340800877952755
 20
3.406303847645695
 30
0.0
 11
2.367049196850393
 21
3.425990086818923
 31
0.0
  0
LINE
  5
3C0C
330
1E
100
AcDbEntity
  8
7
100
AcDbLine
 10
2.367049196850393
 20
3.425990086818923
 30
0.0
 11
2.382798188188976
 21
3.453550821661443
 31
0.0
  0
LINE
  5
3C0D
330
1E
100
AcDbEntity
  8
7
100
AcDbLine
 10
2.382798188188976
 20
3.453550821661443
 30
0.0
 11
2.386735436023621
 21
3.485048804338608
 31
0.0
  0
LINE
  5
3C0E
330
1E
100
AcDbEntity
  8
7
100
AcDbLine
 10
2.386735436023621
 20
3.485048804338608
 30
0.0
 11
2.376236108464566
 21
3.515234371070892
 31
0.0
  0
LINE
  5
3C0F
330
1E
100
AcDbEntity
  8
7
100
AcDbLine
 10
2.30930289527559
 20
3.327558890952782
 30
0.0
 11
2.349987789566929
 21
3.332808554732309
 31
0.0
  0
LINE
  5
3C10
330
1E
100
AcDbEntity
  8
7
100
AcDbLine
 10
2.349987789566929
 20
3.332808554732309
 30
0.0
 11
2.388047851968503
 21
3.349869962015774
 31
0.0
  0
LINE
  5
3C11
330
1E
100
AcDbEntity
  8
7
100
AcDbLine
 10
2.388047851968503
 20
3.349869962015774
 30
0.0
 11
2.419545834645668
 21
3.376118280913411
 31
0.0
  0
LINE
  5
3C12
330
1E
100
AcDbEntity
  8
7
100
AcDbLine
 10
2.419545834645668
 20
3.376118280913411
 30
0.0
 11
2.443169321653543
 21
3.410241095480341
 31
0.0
  0
LINE
  5
3C13
330
1E
100
AcDbEntity
  8
7
100
AcDbLine
 10
2.443169321653543
 20
3.410241095480341
 30
0.0
 11
2.456293481102362
 21
3.448301157881915
 31
0.0
  0
LINE
  5
3C14
330
1E
100
AcDbEntity
  8
7
100
AcDbLine
 10
2.456293481102362
 20
3.448301157881915
 30
0.0
 11
2.458918312992125
 21
3.490298468118136
 31
0.0
  0
LINE
  5
3C15
330
1E
100
AcDbEntity
  8
7
100
AcDbLine
 10
2.458918312992125
 20
3.490298468118136
 30
0.0
 11
2.449731401377952
 21
3.529670946464593
 31
0.0
  0
LINE
  5
3C16
330
1E
100
AcDbEntity
  8
7
100
AcDbLine
 10
2.449731401377952
 20
3.529670946464593
 30
0.0
 11
2.430045162204724
 21
3.566418592921285
 31
0.0
  0
LINE
  5
3C17
330
1E
100
AcDbEntity
  8
7
100
AcDbLine
 10
2.430045162204724
 20
3.566418592921285
 30
0.0
 11
2.401172011417322
 21
3.595291743708687
 31
0.0
  0
LINE
  5
3C18
330
1E
100
AcDbEntity
  8
7
100
AcDbLine
 10
2.401172011417322
 20
3.595291743708687
 30
0.0
 11
2.365736780905511
 21
3.616290398826797
 31
0.0
  0
LINE
  5
3C19
330
1E
100
AcDbEntity
  8
7
100
AcDbLine
 10
2.30930289527559
 20
3.326246475007899
 30
0.0
 11
2.349987789566929
 21
3.331496138787427
 31
0.0
  0
LINE
  5
3C1A
330
1E
100
AcDbEntity
  8
7
100
AcDbLine
 10
2.349987789566929
 20
3.331496138787427
 30
0.0
 11
2.388047851968503
 21
3.348557546070892
 31
0.0
  0
LINE
  5
3C1B
330
1E
100
AcDbEntity
  8
7
100
AcDbLine
 10
2.388047851968503
 20
3.348557546070892
 30
0.0
 11
2.419545834645668
 21
3.374805864968529
 31
0.0
  0
LINE
  5
3C1C
330
1E
100
AcDbEntity
  8
7
100
AcDbLine
 10
2.419545834645668
 20
3.374805864968529
 30
0.0
 11
2.443169321653543
 21
3.407616263590576
 31
0.0
  0
LINE
  5
3C1D
330
1E
100
AcDbEntity
  8
7
100
AcDbLine
 10
2.443169321653543
 20
3.407616263590576
 30
0.0
 11
2.457605897047243
 21
3.446988741937034
 31
0.0
  0
LINE
  5
3C1E
330
1E
100
AcDbEntity
  8
7
100
AcDbLine
 10
2.457605897047243
 20
3.446988741937034
 30
0.0
 11
2.460230728937007
 21
3.487673636228372
 31
0.0
  0
LINE
  5
3C1F
330
1E
100
AcDbEntity
  8
7
100
AcDbLine
 10
2.460230728937007
 20
3.487673636228372
 30
0.0
 11
2.451043817322834
 21
3.528358530519711
 31
0.0
  0
LINE
  5
3C20
330
1E
100
AcDbEntity
  8
7
100
AcDbLine
 10
2.451043817322834
 20
3.528358530519711
 30
0.0
 11
2.432669994094487
 21
3.565106176976404
 31
0.0
  0
LINE
  5
3C21
330
1E
100
AcDbEntity
  8
7
100
AcDbLine
 10
2.432669994094487
 20
3.565106176976404
 30
0.0
 11
2.403796843307086
 21
3.595291743708687
 31
0.0
  0
LINE
  5
3C22
330
1E
100
AcDbEntity
  8
7
100
AcDbLine
 10
2.403796843307086
 20
3.595291743708687
 30
0.0
 11
2.368361612795275
 21
3.616290398826797
 31
0.0
  0
LINE
  5
3C23
330
1E
100
AcDbEntity
  8
7
100
AcDbLine
 10
2.368361612795275
 20
3.616290398826797
 30
0.0
 11
2.328989134448819
 21
3.626789726385852
 31
0.0
  0
LINE
  5
3C24
330
1E
100
AcDbEntity
  8
7
100
AcDbLine
 10
2.3303015503937
 20
3.683223612015773
 30
0.0
 11
2.328989134448819
 21
3.681911196070892
 31
0.0
  0
LINE
  5
3C25
330
1E
100
AcDbEntity
  8
7
100
AcDbLine
 10
2.328989134448819
 20
3.681911196070892
 30
0.0
 11
3.13612494055118
 21
3.681911196070892
 31
0.0
  0
LINE
  5
3C26
330
1E
100
AcDbEntity
  8
7
100
AcDbLine
 10
3.268678950984251
 20
3.692410523629947
 30
0.0
 11
3.264741703149605
 21
3.706847099023648
 31
0.0
  0
LINE
  5
3C27
330
1E
100
AcDbEntity
  8
7
100
AcDbLine
 10
3.264741703149605
 20
3.706847099023648
 30
0.0
 11
3.254242375590551
 21
3.717346426582703
 31
0.0
  0
LINE
  5
3C28
330
1E
100
AcDbEntity
  8
7
100
AcDbLine
 10
3.254242375590551
 20
3.717346426582703
 30
0.0
 11
3.238493384251968
 21
3.721283674417348
 31
0.0
  0
LINE
  5
3C29
330
1E
100
AcDbEntity
  8
7
100
AcDbLine
 10
3.238493384251968
 20
3.231752526976404
 30
0.0
 11
3.254242375590551
 21
3.235689774811049
 31
0.0
  0
LINE
  5
3C2A
330
1E
100
AcDbEntity
  8
7
100
AcDbLine
 10
3.254242375590551
 20
3.235689774811049
 30
0.0
 11
3.264741703149605
 21
3.246189102370104
 31
0.0
  0
LINE
  5
3C2B
330
1E
100
AcDbEntity
  8
7
100
AcDbLine
 10
3.264741703149605
 20
3.246189102370104
 30
0.0
 11
3.268678950984251
 21
3.261938093708687
 31
0.0
  0
LINE
  5
3C2C
330
1E
100
AcDbEntity
  8
7
100
AcDbLine
 10
1.229184572637795
 20
3.261938093708687
 30
0.0
 11
1.23312182047244
 21
3.246189102370104
 31
0.0
  0
LINE
  5
3C2D
330
1E
100
AcDbEntity
  8
7
100
AcDbLine
 10
1.23312182047244
 20
3.246189102370104
 30
0.0
 11
1.243621148031496
 21
3.235689774811049
 31
0.0
  0
LINE
  5
3C2E
330
1E
100
AcDbEntity
  8
7
100
AcDbLine
 10
1.243621148031496
 20
3.235689774811049
 30
0.0
 11
1.259370139370078
 21
3.231752526976404
 31
0.0
  0
LINE
  5
3C2F
330
1E
100
AcDbEntity
  8
7
100
AcDbLine
 10
1.259370139370078
 20
3.721283674417348
 30
0.0
 11
1.243621148031496
 21
3.717346426582703
 31
0.0
  0
LINE
  5
3C30
330
1E
100
AcDbEntity
  8
7
100
AcDbLine
 10
1.243621148031496
 20
3.717346426582703
 30
0.0
 11
1.23312182047244
 21
3.706847099023648
 31
0.0
  0
LINE
  5
3C31
330
1E
100
AcDbEntity
  8
7
100
AcDbLine
 10
1.23312182047244
 20
3.706847099023648
 30
0.0
 11
1.229184572637795
 21
3.692410523629947
 31
0.0
  0
LINE
  5
3C32
330
1E
100
AcDbEntity
  8
7
100
AcDbLine
 10
2.129501910826771
 20
3.616290398826797
 30
0.0
 11
2.09406668031496
 21
3.595291743708687
 31
0.0
  0
LINE
  5
3C33
330
1E
100
AcDbEntity
  8
7
100
AcDbLine
 10
2.09406668031496
 20
3.595291743708687
 30
0.0
 11
2.065193529527558
 21
3.565106176976404
 31
0.0
  0
LINE
  5
3C34
330
1E
100
AcDbEntity
  8
7
100
AcDbLine
 10
2.065193529527558
 20
3.565106176976404
 30
0.0
 11
2.046819706299212
 21
3.528358530519711
 31
0.0
  0
LINE
  5
3C35
330
1E
100
AcDbEntity
  8
7
100
AcDbLine
 10
2.046819706299212
 20
3.528358530519711
 30
0.0
 11
2.037632794685039
 21
3.487673636228372
 31
0.0
  0
LINE
  5
3C36
330
1E
100
AcDbEntity
  8
7
100
AcDbLine
 10
2.037632794685039
 20
3.487673636228372
 30
0.0
 11
2.040257626574803
 21
3.446988741937034
 31
0.0
  0
LINE
  5
3C37
330
1E
100
AcDbEntity
  8
7
100
AcDbLine
 10
2.040257626574803
 20
3.446988741937034
 30
0.0
 11
2.054694201968503
 21
3.407616263590576
 31
0.0
  0
LINE
  5
3C38
330
1E
100
AcDbEntity
  8
7
100
AcDbLine
 10
2.054694201968503
 20
3.407616263590576
 30
0.0
 11
2.078317688976377
 21
3.374805864968529
 31
0.0
  0
LINE
  5
3C39
330
1E
100
AcDbEntity
  8
7
100
AcDbLine
 10
2.078317688976377
 20
3.374805864968529
 30
0.0
 11
2.109815671653542
 21
3.348557546070892
 31
0.0
  0
LINE
  5
3C3A
330
1E
100
AcDbEntity
  8
7
100
AcDbLine
 10
2.109815671653542
 20
3.348557546070892
 30
0.0
 11
2.147875734055118
 21
3.331496138787427
 31
0.0
  0
LINE
  5
3C3B
330
1E
100
AcDbEntity
  8
7
100
AcDbLine
 10
2.147875734055118
 20
3.331496138787427
 30
0.0
 11
2.188560628346456
 21
3.326246475007899
 31
0.0
  0
LINE
  5
3C3C
330
1E
100
AcDbEntity
  8
7
100
AcDbLine
 10
2.038945210629921
 20
3.490298468118136
 30
0.0
 11
2.041570042519684
 21
3.448301157881915
 31
0.0
  0
LINE
  5
3C3D
330
1E
100
AcDbEntity
  8
7
100
AcDbLine
 10
2.041570042519684
 20
3.448301157881915
 30
0.0
 11
2.054694201968503
 21
3.410241095480341
 31
0.0
  0
LINE
  5
3C3E
330
1E
100
AcDbEntity
  8
7
100
AcDbLine
 10
2.054694201968503
 20
3.410241095480341
 30
0.0
 11
2.078317688976377
 21
3.376118280913411
 31
0.0
  0
LINE
  5
3C3F
330
1E
100
AcDbEntity
  8
7
100
AcDbLine
 10
2.078317688976377
 20
3.376118280913411
 30
0.0
 11
2.109815671653542
 21
3.349869962015774
 31
0.0
  0
LINE
  5
3C40
330
1E
100
AcDbEntity
  8
7
100
AcDbLine
 10
2.109815671653542
 20
3.349869962015774
 30
0.0
 11
2.147875734055118
 21
3.332808554732309
 31
0.0
  0
LINE
  5
3C41
330
1E
100
AcDbEntity
  8
7
100
AcDbLine
 10
2.147875734055118
 20
3.332808554732309
 30
0.0
 11
2.188560628346456
 21
3.327558890952782
 31
0.0
  0
LINE
  5
3C42
330
1E
100
AcDbEntity
  8
7
100
AcDbLine
 10
2.172811637007874
 20
3.62547731044097
 30
0.0
 11
2.132126742716535
 21
3.616290398826797
 31
0.0
  0
LINE
  5
3C43
330
1E
100
AcDbEntity
  8
7
100
AcDbLine
 10
2.132126742716535
 20
3.616290398826797
 30
0.0
 11
2.096691512204723
 21
3.595291743708687
 31
0.0
  0
LINE
  5
3C44
330
1E
100
AcDbEntity
  8
7
100
AcDbLine
 10
2.096691512204723
 20
3.595291743708687
 30
0.0
 11
2.067818361417322
 21
3.566418592921285
 31
0.0
  0
LINE
  5
3C45
330
1E
100
AcDbEntity
  8
7
100
AcDbLine
 10
2.067818361417322
 20
3.566418592921285
 30
0.0
 11
2.048132122244094
 21
3.529670946464593
 31
0.0
  0
LINE
  5
3C46
330
1E
100
AcDbEntity
  8
7
100
AcDbLine
 10
2.048132122244094
 20
3.529670946464593
 30
0.0
 11
2.038945210629921
 21
3.490298468118136
 31
0.0
  0
LINE
  5
3C47
330
1E
100
AcDbEntity
  8
7
100
AcDbLine
 10
2.14262607027559
 20
3.540170274023648
 30
0.0
 11
2.12162741515748
 21
3.515234371070892
 31
0.0
  0
LINE
  5
3C48
330
1E
100
AcDbEntity
  8
7
100
AcDbLine
 10
2.12162741515748
 20
3.515234371070892
 30
0.0
 11
2.111128087598425
 21
3.485048804338608
 31
0.0
  0
LINE
  5
3C49
330
1E
100
AcDbEntity
  8
7
100
AcDbLine
 10
2.111128087598425
 20
3.485048804338608
 30
0.0
 11
2.11506533543307
 21
3.453550821661443
 31
0.0
  0
LINE
  5
3C4A
330
1E
100
AcDbEntity
  8
7
100
AcDbLine
 10
2.11506533543307
 20
3.453550821661443
 30
0.0
 11
2.130814326771653
 21
3.425990086818923
 31
0.0
  0
LINE
  5
3C4B
330
1E
100
AcDbEntity
  8
7
100
AcDbLine
 10
2.130814326771653
 20
3.425990086818923
 30
0.0
 11
2.157062645669291
 21
3.406303847645695
 31
0.0
  0
LINE
  5
3C4C
330
1E
100
AcDbEntity
  8
7
100
AcDbLine
 10
2.157062645669291
 20
3.406303847645695
 30
0.0
 11
2.188560628346456
 21
3.399741767921285
 31
0.0
  0
LINE
  5
3C4D
330
1E
100
AcDbEntity
  8
7
100
AcDbLine
 10
2.188560628346456
 20
3.553294433472466
 30
0.0
 11
2.180686132677165
 21
3.553294433472466
 31
0.0
  0
LINE
  5
3C4E
330
1E
100
AcDbEntity
  8
7
100
AcDbLine
 10
2.180686132677165
 20
3.553294433472466
 30
0.0
 11
2.174124052952755
 21
3.551982017527585
 31
0.0
  0
LINE
  5
3C4F
330
1E
100
AcDbEntity
  8
7
100
AcDbLine
 10
2.178061300787401
 20
3.698972603354356
 30
0.0
 11
2.175436468897637
 21
3.698972603354356
 31
0.0
  0
LINE
  5
3C50
330
1E
100
AcDbEntity
  8
7
100
AcDbLine
 10
2.175436468897637
 20
3.698972603354356
 30
0.0
 11
2.174124052952755
 21
3.698972603354356
 31
0.0
  0
LINE
  5
3C51
330
1E
100
AcDbEntity
  8
7
100
AcDbLine
 10
2.780460219488189
 20
4.191128582685065
 30
0.0
 11
2.986509522834645
 21
4.191128582685065
 31
0.0
  0
LINE
  5
3C52
330
1E
100
AcDbEntity
  8
7
100
AcDbLine
 10
2.986509522834645
 20
4.191128582685065
 30
0.0
 11
2.986509522834645
 21
4.196378246464593
 31
0.0
  0
LINE
  5
3C53
330
1E
100
AcDbEntity
  8
7
100
AcDbLine
 10
2.986509522834645
 20
4.196378246464593
 30
0.0
 11
2.986509522834645
 21
4.206877574023648
 31
0.0
  0
LINE
  5
3C54
330
1E
100
AcDbEntity
  8
7
100
AcDbLine
 10
2.756836732480314
 20
4.179316839181128
 30
0.0
 11
2.780460219488189
 21
4.191128582685065
 31
0.0
  0
LINE
  5
3C55
330
1E
100
AcDbEntity
  8
7
100
AcDbLine
 10
2.780460219488189
 20
4.191128582685065
 30
0.0
 11
2.78177263543307
 21
4.196378246464593
 31
0.0
  0
LINE
  5
3C56
330
1E
100
AcDbEntity
  8
7
100
AcDbLine
 10
2.145250902165353
 20
4.191128582685065
 30
0.0
 11
2.352612621456692
 21
4.191128582685065
 31
0.0
  0
LINE
  5
3C57
330
1E
100
AcDbEntity
  8
7
100
AcDbLine
 10
2.352612621456692
 20
4.191128582685065
 30
0.0
 11
2.35130020551181
 21
4.196378246464593
 31
0.0
  0
LINE
  5
3C58
330
1E
100
AcDbEntity
  8
7
100
AcDbLine
 10
2.12162741515748
 20
4.179316839181128
 30
0.0
 11
2.145250902165353
 21
4.191128582685065
 31
0.0
  0
LINE
  5
3C59
330
1E
100
AcDbEntity
  8
7
100
AcDbLine
 10
2.145250902165353
 20
4.191128582685065
 30
0.0
 11
2.146563318110236
 21
4.196378246464593
 31
0.0
  0
LINE
  5
3C5A
330
1E
100
AcDbEntity
  8
7
100
AcDbLine
 10
2.146563318110236
 20
4.196378246464593
 30
0.0
 11
2.146563318110236
 21
4.206877574023648
 31
0.0
  0
LINE
  5
3C5B
330
1E
100
AcDbEntity
  8
7
100
AcDbLine
 10
1.510041584842519
 20
4.191128582685065
 30
0.0
 11
1.717403304133858
 21
4.191128582685065
 31
0.0
  0
LINE
  5
3C5C
330
1E
100
AcDbEntity
  8
7
100
AcDbLine
 10
1.717403304133858
 20
4.191128582685065
 30
0.0
 11
1.716090888188976
 21
4.196378246464593
 31
0.0
  0
LINE
  5
3C5D
330
1E
100
AcDbEntity
  8
7
100
AcDbLine
 10
1.716090888188976
 20
4.196378246464593
 30
0.0
 11
1.716090888188976
 21
4.206877574023648
 31
0.0
  0
LINE
  5
3C5E
330
1E
100
AcDbEntity
  8
7
100
AcDbLine
 10
1.486418097834645
 20
4.179316839181128
 30
0.0
 11
1.510041584842519
 21
4.191128582685065
 31
0.0
  0
LINE
  5
3C5F
330
1E
100
AcDbEntity
  8
7
100
AcDbLine
 10
1.510041584842519
 20
4.191128582685065
 30
0.0
 11
1.511354000787401
 21
4.196378246464593
 31
0.0
  0
LINE
  5
3C60
330
1E
100
AcDbEntity
  8
7
100
AcDbLine
 10
1.511354000787401
 20
4.196378246464593
 30
0.0
 11
1.511354000787401
 21
4.206877574023648
 31
0.0
  0
LINE
  5
3C61
330
1E
100
AcDbEntity
  8
7
100
AcDbLine
 10
2.780460219488189
 20
5.342117366346482
 30
0.0
 11
2.986509522834645
 21
5.342117366346482
 31
0.0
  0
LINE
  5
3C62
330
1E
100
AcDbEntity
  8
7
100
AcDbLine
 10
2.986509522834645
 20
5.342117366346482
 30
0.0
 11
2.986509522834645
 21
5.346054614181127
 31
0.0
  0
LINE
  5
3C63
330
1E
100
AcDbEntity
  8
7
100
AcDbLine
 10
2.986509522834645
 20
5.346054614181127
 30
0.0
 11
2.986509522834645
 21
5.356553941740183
 31
0.0
  0
LINE
  5
3C64
330
1E
100
AcDbEntity
  8
7
100
AcDbLine
 10
2.756836732480314
 20
5.330305622842545
 30
0.0
 11
2.780460219488189
 21
5.342117366346482
 31
0.0
  0
LINE
  5
3C65
330
1E
100
AcDbEntity
  8
7
100
AcDbLine
 10
2.780460219488189
 20
5.342117366346482
 30
0.0
 11
2.78177263543307
 21
5.346054614181127
 31
0.0
  0
LINE
  5
3C66
330
1E
100
AcDbEntity
  8
7
100
AcDbLine
 10
2.78177263543307
 20
5.346054614181127
 30
0.0
 11
2.78177263543307
 21
5.356553941740183
 31
0.0
  0
LINE
  5
3C67
330
1E
100
AcDbEntity
  8
7
100
AcDbLine
 10
2.145250902165353
 20
5.342117366346482
 30
0.0
 11
2.352612621456692
 21
5.342117366346482
 31
0.0
  0
LINE
  5
3C68
330
1E
100
AcDbEntity
  8
7
100
AcDbLine
 10
2.352612621456692
 20
5.342117366346482
 30
0.0
 11
2.35130020551181
 21
5.346054614181127
 31
0.0
  0
LINE
  5
3C69
330
1E
100
AcDbEntity
  8
7
100
AcDbLine
 10
2.35130020551181
 20
5.346054614181127
 30
0.0
 11
2.35130020551181
 21
5.356553941740183
 31
0.0
  0
LINE
  5
3C6A
330
1E
100
AcDbEntity
  8
7
100
AcDbLine
 10
2.12162741515748
 20
5.330305622842545
 30
0.0
 11
2.145250902165353
 21
5.342117366346482
 31
0.0
  0
LINE
  5
3C6B
330
1E
100
AcDbEntity
  8
7
100
AcDbLine
 10
2.145250902165353
 20
5.342117366346482
 30
0.0
 11
2.146563318110236
 21
5.346054614181127
 31
0.0
  0
LINE
  5
3C6C
330
1E
100
AcDbEntity
  8
7
100
AcDbLine
 10
2.146563318110236
 20
5.346054614181127
 30
0.0
 11
2.146563318110236
 21
5.356553941740183
 31
0.0
  0
LINE
  5
3C6D
330
1E
100
AcDbEntity
  8
7
100
AcDbLine
 10
1.510041584842519
 20
5.342117366346482
 30
0.0
 11
1.717403304133858
 21
5.342117366346482
 31
0.0
  0
LINE
  5
3C6E
330
1E
100
AcDbEntity
  8
7
100
AcDbLine
 10
1.717403304133858
 20
5.342117366346482
 30
0.0
 11
1.716090888188976
 21
5.346054614181127
 31
0.0
  0
LINE
  5
3C6F
330
1E
100
AcDbEntity
  8
7
100
AcDbLine
 10
1.716090888188976
 20
5.346054614181127
 30
0.0
 11
1.716090888188976
 21
5.356553941740183
 31
0.0
  0
LINE
  5
3C70
330
1E
100
AcDbEntity
  8
7
100
AcDbLine
 10
1.486418097834645
 20
5.330305622842545
 30
0.0
 11
1.510041584842519
 21
5.342117366346482
 31
0.0
  0
LINE
  5
3C71
330
1E
100
AcDbEntity
  8
7
100
AcDbLine
 10
1.510041584842519
 20
5.342117366346482
 30
0.0
 11
1.511354000787401
 21
5.346054614181127
 31
0.0
  0
LINE
  5
3C72
330
1E
100
AcDbEntity
  8
7
100
AcDbLine
 10
1.511354000787401
 20
5.346054614181127
 30
0.0
 11
1.511354000787401
 21
5.356553941740183
 31
0.0
  0
LINE
  5
3C73
330
1E
100
AcDbEntity
  8
7
100
AcDbLine
 10
1.735777127362204
 20
3.780342391937034
 30
0.0
 11
1.737089543307086
 21
3.781654807881915
 31
0.0
  0
LINE
  5
3C74
330
1E
100
AcDbEntity
  8
7
100
AcDbLine
 10
1.737089543307086
 20
3.781654807881915
 30
0.0
 11
1.735777127362204
 21
3.781654807881915
 31
0.0
  0
LINE
  5
3C75
330
1E
100
AcDbEntity
  8
7
100
AcDbLine
 10
1.743651623031496
 20
3.747531993314986
 30
0.0
 11
1.744964038976377
 21
3.743594745480341
 31
0.0
  0
LINE
  5
3C76
330
1E
100
AcDbEntity
  8
7
100
AcDbLine
 10
1.744964038976377
 20
3.743594745480341
 30
0.0
 11
1.744964038976377
 21
3.772467896267742
 31
0.0
  0
LINE
  5
3C77
330
1E
100
AcDbEntity
  8
7
100
AcDbLine
 10
1.744964038976377
 20
3.772467896267742
 30
0.0
 11
1.743651623031496
 21
3.77115548032286
 31
0.0
  0
LINE
  5
3C78
330
1E
100
AcDbEntity
  8
7
100
AcDbLine
 10
1.483793265944881
 20
3.77115548032286
 30
0.0
 11
1.482480849999999
 21
3.772467896267742
 31
0.0
  0
LINE
  5
3C79
330
1E
100
AcDbEntity
  8
7
100
AcDbLine
 10
1.482480849999999
 20
3.772467896267742
 30
0.0
 11
1.482480849999999
 21
3.743594745480341
 31
0.0
  0
LINE
  5
3C7A
330
1E
100
AcDbEntity
  8
7
100
AcDbLine
 10
1.482480849999999
 20
3.743594745480341
 30
0.0
 11
1.483793265944881
 21
3.747531993314986
 31
0.0
  0
LINE
  5
3C7B
330
1E
100
AcDbEntity
  8
7
100
AcDbLine
 10
1.491667761614173
 20
3.781654807881915
 30
0.0
 11
1.490355345669291
 21
3.781654807881915
 31
0.0
  0
LINE
  5
3C7C
330
1E
100
AcDbEntity
  8
7
100
AcDbLine
 10
1.490355345669291
 20
3.781654807881915
 30
0.0
 11
1.491667761614173
 21
3.780342391937034
 31
0.0
  0
LINE
  5
3C7D
330
1E
100
AcDbEntity
  8
7
100
AcDbLine
 10
3.006195762007874
 20
3.780342391937034
 30
0.0
 11
3.007508177952755
 21
3.781654807881915
 31
0.0
  0
LINE
  5
3C7E
330
1E
100
AcDbEntity
  8
7
100
AcDbLine
 10
3.007508177952755
 20
3.781654807881915
 30
0.0
 11
3.006195762007874
 21
3.781654807881915
 31
0.0
  0
LINE
  5
3C7F
330
1E
100
AcDbEntity
  8
7
100
AcDbLine
 10
3.014070257677165
 20
3.747531993314986
 30
0.0
 11
3.015382673622046
 21
3.743594745480341
 31
0.0
  0
LINE
  5
3C80
330
1E
100
AcDbEntity
  8
7
100
AcDbLine
 10
3.015382673622046
 20
3.743594745480341
 30
0.0
 11
3.015382673622046
 21
3.772467896267742
 31
0.0
  0
LINE
  5
3C81
330
1E
100
AcDbEntity
  8
7
100
AcDbLine
 10
3.015382673622046
 20
3.772467896267742
 30
0.0
 11
3.014070257677165
 21
3.77115548032286
 31
0.0
  0
LINE
  5
3C82
330
1E
100
AcDbEntity
  8
7
100
AcDbLine
 10
2.754211900590551
 20
3.77115548032286
 30
0.0
 11
2.752899484645668
 21
3.772467896267742
 31
0.0
  0
LINE
  5
3C83
330
1E
100
AcDbEntity
  8
7
100
AcDbLine
 10
2.752899484645668
 20
3.772467896267742
 30
0.0
 11
2.752899484645668
 21
3.743594745480341
 31
0.0
  0
LINE
  5
3C84
330
1E
100
AcDbEntity
  8
7
100
AcDbLine
 10
2.752899484645668
 20
3.743594745480341
 30
0.0
 11
2.754211900590551
 21
3.747531993314986
 31
0.0
  0
LINE
  5
3C85
330
1E
100
AcDbEntity
  8
7
100
AcDbLine
 10
1.321053688779527
 20
3.27112500532286
 30
0.0
 11
3.176809834842519
 21
3.27112500532286
 31
0.0
  0
LINE
  5
3C86
330
1E
100
AcDbEntity
  8
7
100
AcDbLine
 10
3.176809834842519
 20
3.27112500532286
 30
0.0
 11
3.13612494055118
 21
3.27112500532286
 31
0.0
  0
LINE
  5
3C87
330
1E
100
AcDbEntity
  8
7
100
AcDbLine
 10
2.188560628346456
 20
3.553294433472466
 30
0.0
 11
2.17018680511811
 21
3.550669601582702
 31
0.0
  0
LINE
  5
3C88
330
1E
100
AcDbEntity
  8
7
100
AcDbLine
 10
2.17018680511811
 20
3.550669601582702
 30
0.0
 11
2.153125397834645
 21
3.544107521858293
 31
0.0
  0
LINE
  5
3C89
330
1E
100
AcDbEntity
  8
7
100
AcDbLine
 10
2.344738125787401
 20
3.544107521858293
 30
0.0
 11
2.327676718503936
 21
3.550669601582702
 31
0.0
  0
LINE
  5
3C8A
330
1E
100
AcDbEntity
  8
7
100
AcDbLine
 10
2.327676718503936
 20
3.550669601582702
 30
0.0
 11
2.30930289527559
 21
3.553294433472466
 31
0.0
  0
LINE
  5
3C8B
330
1E
100
AcDbEntity
  8
7
100
AcDbLine
 10
2.355237453346456
 20
3.418115591149632
 30
0.0
 11
2.376236108464566
 21
3.44436391004727
 31
0.0
  0
LINE
  5
3C8C
330
1E
100
AcDbEntity
  8
7
100
AcDbLine
 10
2.376236108464566
 20
3.44436391004727
 30
0.0
 11
2.384110604133858
 21
3.477174308669317
 31
0.0
  0
LINE
  5
3C8D
330
1E
100
AcDbEntity
  8
7
100
AcDbLine
 10
2.384110604133858
 20
3.477174308669317
 30
0.0
 11
2.376236108464566
 21
3.509984707291365
 31
0.0
  0
LINE
  5
3C8E
330
1E
100
AcDbEntity
  8
7
100
AcDbLine
 10
2.376236108464566
 20
3.509984707291365
 30
0.0
 11
2.355237453346456
 21
3.536233026189002
 31
0.0
  0
LINE
  5
3C8F
330
1E
100
AcDbEntity
  8
7
100
AcDbLine
 10
2.30930289527559
 20
3.401054183866167
 30
0.0
 11
2.327676718503936
 21
3.403679015755932
 31
0.0
  0
LINE
  5
3C90
330
1E
100
AcDbEntity
  8
7
100
AcDbLine
 10
2.327676718503936
 20
3.403679015755932
 30
0.0
 11
2.344738125787401
 21
3.410241095480341
 31
0.0
  0
LINE
  5
3C91
330
1E
100
AcDbEntity
  8
7
100
AcDbLine
 10
2.153125397834645
 20
3.410241095480341
 30
0.0
 11
2.17018680511811
 21
3.403679015755932
 31
0.0
  0
LINE
  5
3C92
330
1E
100
AcDbEntity
  8
7
100
AcDbLine
 10
2.17018680511811
 20
3.403679015755932
 30
0.0
 11
2.188560628346456
 21
3.401054183866167
 31
0.0
  0
LINE
  5
3C93
330
1E
100
AcDbEntity
  8
7
100
AcDbLine
 10
2.30930289527559
 20
3.399741767921285
 30
0.0
 11
2.188560628346456
 21
3.399741767921285
 31
0.0
  0
LINE
  5
3C94
330
1E
100
AcDbEntity
  8
7
100
AcDbLine
 10
2.188560628346456
 20
3.399741767921285
 30
0.0
 11
2.188560628346456
 21
3.398429351976404
 31
0.0
  0
LINE
  5
3C95
330
1E
100
AcDbEntity
  8
7
100
AcDbLine
 10
3.185996746456693
 20
3.672724284456719
 30
0.0
 11
3.183371914566929
 21
3.679286364181128
 31
0.0
  0
LINE
  5
3C96
330
1E
100
AcDbEntity
  8
7
100
AcDbLine
 10
3.183371914566929
 20
3.679286364181128
 30
0.0
 11
3.176809834842519
 21
3.681911196070892
 31
0.0
  0
LINE
  5
3C97
330
1E
100
AcDbEntity
  8
7
100
AcDbLine
 10
3.185996746456693
 20
3.672724284456719
 30
0.0
 11
3.183371914566929
 21
3.679286364181128
 31
0.0
  0
LINE
  5
3C98
330
1E
100
AcDbEntity
  8
7
100
AcDbLine
 10
3.183371914566929
 20
3.679286364181128
 30
0.0
 11
3.176809834842519
 21
3.681911196070892
 31
0.0
  0
LINE
  5
3C99
330
1E
100
AcDbEntity
  8
7
100
AcDbLine
 10
3.176809834842519
 20
3.27112500532286
 30
0.0
 11
3.183371914566929
 21
3.273749837212624
 31
0.0
  0
LINE
  5
3C9A
330
1E
100
AcDbEntity
  8
7
100
AcDbLine
 10
3.183371914566929
 20
3.273749837212624
 30
0.0
 11
3.185996746456693
 21
3.280311916937034
 31
0.0
  0
LINE
  5
3C9B
330
1E
100
AcDbEntity
  8
7
100
AcDbLine
 10
3.176809834842519
 20
3.27112500532286
 30
0.0
 11
3.183371914566929
 21
3.273749837212624
 31
0.0
  0
LINE
  5
3C9C
330
1E
100
AcDbEntity
  8
7
100
AcDbLine
 10
3.183371914566929
 20
3.273749837212624
 30
0.0
 11
3.185996746456693
 21
3.280311916937034
 31
0.0
  0
LINE
  5
3C9D
330
1E
100
AcDbEntity
  8
7
100
AcDbLine
 10
1.311866777165354
 20
3.280311916937034
 30
0.0
 11
1.314491609055117
 21
3.273749837212624
 31
0.0
  0
LINE
  5
3C9E
330
1E
100
AcDbEntity
  8
7
100
AcDbLine
 10
1.314491609055117
 20
3.273749837212624
 30
0.0
 11
1.321053688779527
 21
3.27112500532286
 31
0.0
  0
LINE
  5
3C9F
330
1E
100
AcDbEntity
  8
7
100
AcDbLine
 10
1.311866777165354
 20
3.280311916937034
 30
0.0
 11
1.314491609055117
 21
3.273749837212624
 31
0.0
  0
LINE
  5
3CA0
330
1E
100
AcDbEntity
  8
7
100
AcDbLine
 10
1.314491609055117
 20
3.273749837212624
 30
0.0
 11
1.321053688779527
 21
3.27112500532286
 31
0.0
  0
LINE
  5
3CA1
330
1E
100
AcDbEntity
  8
7
100
AcDbLine
 10
1.311866777165354
 20
3.280311916937034
 30
0.0
 11
1.311866777165354
 21
3.672724284456719
 31
0.0
  0
LINE
  5
3CA2
330
1E
100
AcDbEntity
  8
7
100
AcDbLine
 10
1.311866777165354
 20
3.672724284456719
 30
0.0
 11
1.311866777165354
 21
3.280311916937034
 31
0.0
  0
LINE
  5
3CA3
330
1E
100
AcDbEntity
  8
7
100
AcDbLine
 10
1.321053688779527
 20
3.681911196070892
 30
0.0
 11
1.314491609055117
 21
3.679286364181128
 31
0.0
  0
LINE
  5
3CA4
330
1E
100
AcDbEntity
  8
7
100
AcDbLine
 10
1.314491609055117
 20
3.679286364181128
 30
0.0
 11
1.311866777165354
 21
3.672724284456719
 31
0.0
  0
LINE
  5
3CA5
330
1E
100
AcDbEntity
  8
7
100
AcDbLine
 10
1.321053688779527
 20
3.681911196070892
 30
0.0
 11
1.314491609055117
 21
3.679286364181128
 31
0.0
  0
LINE
  5
3CA6
330
1E
100
AcDbEntity
  8
7
100
AcDbLine
 10
1.314491609055117
 20
3.679286364181128
 30
0.0
 11
1.311866777165354
 21
3.672724284456719
 31
0.0
  0
LINE
  5
3CA7
330
1E
100
AcDbEntity
  8
7
100
AcDbLine
 10
2.14262607027559
 20
3.536233026189002
 30
0.0
 11
2.12162741515748
 21
3.509984707291365
 31
0.0
  0
LINE
  5
3CA8
330
1E
100
AcDbEntity
  8
7
100
AcDbLine
 10
2.12162741515748
 20
3.509984707291365
 30
0.0
 11
2.113752919488188
 21
3.477174308669317
 31
0.0
  0
LINE
  5
3CA9
330
1E
100
AcDbEntity
  8
7
100
AcDbLine
 10
2.113752919488188
 20
3.477174308669317
 30
0.0
 11
2.12162741515748
 21
3.44436391004727
 31
0.0
  0
LINE
  5
3CAA
330
1E
100
AcDbEntity
  8
7
100
AcDbLine
 10
2.986509522834645
 20
4.288247362606325
 30
0.0
 11
2.780460219488189
 21
4.288247362606325
 31
0.0
  0
LINE
  5
3CAB
330
1E
100
AcDbEntity
  8
7
100
AcDbLine
 10
2.780460219488189
 20
4.288247362606325
 30
0.0
 11
2.780460219488189
 21
4.259374211818924
 31
0.0
  0
LINE
  5
3CAC
330
1E
100
AcDbEntity
  8
7
100
AcDbLine
 10
2.986509522834645
 20
4.254124548039396
 30
0.0
 11
2.986509522834645
 21
4.259374211818924
 31
0.0
  0
LINE
  5
3CAD
330
1E
100
AcDbEntity
  8
7
100
AcDbLine
 10
2.986509522834645
 20
4.259374211818924
 30
0.0
 11
2.780460219488189
 21
4.259374211818924
 31
0.0
  0
LINE
  5
3CAE
330
1E
100
AcDbEntity
  8
7
100
AcDbLine
 10
2.78177263543307
 20
4.217376901582703
 30
0.0
 11
2.78177263543307
 21
4.237063140755931
 31
0.0
  0
LINE
  5
3CAF
330
1E
100
AcDbEntity
  8
7
100
AcDbLine
 10
2.78177263543307
 20
4.237063140755931
 30
0.0
 11
2.780460219488189
 21
4.254124548039396
 31
0.0
  0
LINE
  5
3CB0
330
1E
100
AcDbEntity
  8
7
100
AcDbLine
 10
2.986509522834645
 20
4.217376901582703
 30
0.0
 11
2.986509522834645
 21
4.237063140755931
 31
0.0
  0
LINE
  5
3CB1
330
1E
100
AcDbEntity
  8
7
100
AcDbLine
 10
2.986509522834645
 20
4.237063140755931
 30
0.0
 11
2.986509522834645
 21
4.254124548039396
 31
0.0
  0
LINE
  5
3CB2
330
1E
100
AcDbEntity
  8
7
100
AcDbLine
 10
2.986509522834645
 20
4.217376901582703
 30
0.0
 11
2.78177263543307
 21
4.217376901582703
 31
0.0
  0
LINE
  5
3CB3
330
1E
100
AcDbEntity
  8
7
100
AcDbLine
 10
2.78177263543307
 20
4.217376901582703
 30
0.0
 11
2.78177263543307
 21
4.206877574023648
 31
0.0
  0
LINE
  5
3CB4
330
1E
100
AcDbEntity
  8
7
100
AcDbLine
 10
2.35130020551181
 20
4.288247362606325
 30
0.0
 11
2.145250902165353
 21
4.288247362606325
 31
0.0
  0
LINE
  5
3CB5
330
1E
100
AcDbEntity
  8
7
100
AcDbLine
 10
2.145250902165353
 20
4.288247362606325
 30
0.0
 11
2.145250902165353
 21
4.259374211818924
 31
0.0
  0
LINE
  5
3CB6
330
1E
100
AcDbEntity
  8
7
100
AcDbLine
 10
2.35130020551181
 20
4.254124548039396
 30
0.0
 11
2.35130020551181
 21
4.259374211818924
 31
0.0
  0
LINE
  5
3CB7
330
1E
100
AcDbEntity
  8
7
100
AcDbLine
 10
2.35130020551181
 20
4.259374211818924
 30
0.0
 11
2.145250902165353
 21
4.259374211818924
 31
0.0
  0
LINE
  5
3CB8
330
1E
100
AcDbEntity
  8
7
100
AcDbLine
 10
2.146563318110236
 20
4.217376901582703
 30
0.0
 11
2.146563318110236
 21
4.237063140755931
 31
0.0
  0
LINE
  5
3CB9
330
1E
100
AcDbEntity
  8
7
100
AcDbLine
 10
2.146563318110236
 20
4.237063140755931
 30
0.0
 11
2.145250902165353
 21
4.254124548039396
 31
0.0
  0
LINE
  5
3CBA
330
1E
100
AcDbEntity
  8
7
100
AcDbLine
 10
2.35130020551181
 20
4.217376901582703
 30
0.0
 11
2.35130020551181
 21
4.237063140755931
 31
0.0
  0
LINE
  5
3CBB
330
1E
100
AcDbEntity
  8
7
100
AcDbLine
 10
2.35130020551181
 20
4.237063140755931
 30
0.0
 11
2.35130020551181
 21
4.254124548039396
 31
0.0
  0
LINE
  5
3CBC
330
1E
100
AcDbEntity
  8
7
100
AcDbLine
 10
2.35130020551181
 20
4.217376901582703
 30
0.0
 11
2.146563318110236
 21
4.217376901582703
 31
0.0
  0
LINE
  5
3CBD
330
1E
100
AcDbEntity
  8
7
100
AcDbLine
 10
2.146563318110236
 20
4.217376901582703
 30
0.0
 11
2.146563318110236
 21
4.206877574023648
 31
0.0
  0
LINE
  5
3CBE
330
1E
100
AcDbEntity
  8
7
100
AcDbLine
 10
1.717403304133858
 20
4.288247362606325
 30
0.0
 11
1.510041584842519
 21
4.288247362606325
 31
0.0
  0
LINE
  5
3CBF
330
1E
100
AcDbEntity
  8
7
100
AcDbLine
 10
1.510041584842519
 20
4.288247362606325
 30
0.0
 11
1.510041584842519
 21
4.259374211818924
 31
0.0
  0
LINE
  5
3CC0
330
1E
100
AcDbEntity
  8
7
100
AcDbLine
 10
1.716090888188976
 20
4.254124548039396
 30
0.0
 11
1.717403304133858
 21
4.259374211818924
 31
0.0
  0
LINE
  5
3CC1
330
1E
100
AcDbEntity
  8
7
100
AcDbLine
 10
1.717403304133858
 20
4.259374211818924
 30
0.0
 11
1.510041584842519
 21
4.259374211818924
 31
0.0
  0
LINE
  5
3CC2
330
1E
100
AcDbEntity
  8
7
100
AcDbLine
 10
1.511354000787401
 20
4.217376901582703
 30
0.0
 11
1.511354000787401
 21
4.237063140755931
 31
0.0
  0
LINE
  5
3CC3
330
1E
100
AcDbEntity
  8
7
100
AcDbLine
 10
1.511354000787401
 20
4.237063140755931
 30
0.0
 11
1.511354000787401
 21
4.254124548039396
 31
0.0
  0
LINE
  5
3CC4
330
1E
100
AcDbEntity
  8
7
100
AcDbLine
 10
1.716090888188976
 20
4.217376901582703
 30
0.0
 11
1.716090888188976
 21
4.237063140755931
 31
0.0
  0
LINE
  5
3CC5
330
1E
100
AcDbEntity
  8
7
100
AcDbLine
 10
1.716090888188976
 20
4.237063140755931
 30
0.0
 11
1.716090888188976
 21
4.254124548039396
 31
0.0
  0
LINE
  5
3CC6
330
1E
100
AcDbEntity
  8
7
100
AcDbLine
 10
1.716090888188976
 20
4.217376901582703
 30
0.0
 11
1.511354000787401
 21
4.217376901582703
 31
0.0
  0
LINE
  5
3CC7
330
1E
100
AcDbEntity
  8
7
100
AcDbLine
 10
1.511354000787401
 20
4.217376901582703
 30
0.0
 11
1.511354000787401
 21
4.206877574023648
 31
0.0
  0
LINE
  5
3CC8
330
1E
100
AcDbEntity
  8
7
100
AcDbLine
 10
2.986509522834645
 20
5.43792373032286
 30
0.0
 11
2.780460219488189
 21
5.43792373032286
 31
0.0
  0
LINE
  5
3CC9
330
1E
100
AcDbEntity
  8
7
100
AcDbLine
 10
2.780460219488189
 20
5.43792373032286
 30
0.0
 11
2.780460219488189
 21
5.409050579535458
 31
0.0
  0
LINE
  5
3CCA
330
1E
100
AcDbEntity
  8
7
100
AcDbLine
 10
2.986509522834645
 20
5.403800915755931
 30
0.0
 11
2.986509522834645
 21
5.409050579535458
 31
0.0
  0
LINE
  5
3CCB
330
1E
100
AcDbEntity
  8
7
100
AcDbLine
 10
2.986509522834645
 20
5.409050579535458
 30
0.0
 11
2.780460219488189
 21
5.409050579535458
 31
0.0
  0
LINE
  5
3CCC
330
1E
100
AcDbEntity
  8
7
100
AcDbLine
 10
2.78177263543307
 20
5.36836568524412
 30
0.0
 11
2.78177263543307
 21
5.386739508472467
 31
0.0
  0
LINE
  5
3CCD
330
1E
100
AcDbEntity
  8
7
100
AcDbLine
 10
2.78177263543307
 20
5.386739508472467
 30
0.0
 11
2.780460219488189
 21
5.403800915755931
 31
0.0
  0
LINE
  5
3CCE
330
1E
100
AcDbEntity
  8
7
100
AcDbLine
 10
2.986509522834645
 20
5.36836568524412
 30
0.0
 11
2.986509522834645
 21
5.386739508472467
 31
0.0
  0
LINE
  5
3CCF
330
1E
100
AcDbEntity
  8
7
100
AcDbLine
 10
2.986509522834645
 20
5.386739508472467
 30
0.0
 11
2.986509522834645
 21
5.403800915755931
 31
0.0
  0
LINE
  5
3CD0
330
1E
100
AcDbEntity
  8
7
100
AcDbLine
 10
2.986509522834645
 20
5.36836568524412
 30
0.0
 11
2.78177263543307
 21
5.36836568524412
 31
0.0
  0
LINE
  5
3CD1
330
1E
100
AcDbEntity
  8
7
100
AcDbLine
 10
2.78177263543307
 20
5.36836568524412
 30
0.0
 11
2.78177263543307
 21
5.356553941740183
 31
0.0
  0
LINE
  5
3CD2
330
1E
100
AcDbEntity
  8
7
100
AcDbLine
 10
2.35130020551181
 20
5.43792373032286
 30
0.0
 11
2.145250902165353
 21
5.43792373032286
 31
0.0
  0
LINE
  5
3CD3
330
1E
100
AcDbEntity
  8
7
100
AcDbLine
 10
2.145250902165353
 20
5.43792373032286
 30
0.0
 11
2.145250902165353
 21
5.409050579535458
 31
0.0
  0
LINE
  5
3CD4
330
1E
100
AcDbEntity
  8
7
100
AcDbLine
 10
2.35130020551181
 20
5.403800915755931
 30
0.0
 11
2.35130020551181
 21
5.409050579535458
 31
0.0
  0
LINE
  5
3CD5
330
1E
100
AcDbEntity
  8
7
100
AcDbLine
 10
2.35130020551181
 20
5.409050579535458
 30
0.0
 11
2.145250902165353
 21
5.409050579535458
 31
0.0
  0
LINE
  5
3CD6
330
1E
100
AcDbEntity
  8
7
100
AcDbLine
 10
2.146563318110236
 20
5.36836568524412
 30
0.0
 11
2.146563318110236
 21
5.386739508472467
 31
0.0
  0
LINE
  5
3CD7
330
1E
100
AcDbEntity
  8
7
100
AcDbLine
 10
2.146563318110236
 20
5.386739508472467
 30
0.0
 11
2.145250902165353
 21
5.403800915755931
 31
0.0
  0
LINE
  5
3CD8
330
1E
100
AcDbEntity
  8
7
100
AcDbLine
 10
2.35130020551181
 20
5.36836568524412
 30
0.0
 11
2.35130020551181
 21
5.386739508472467
 31
0.0
  0
LINE
  5
3CD9
330
1E
100
AcDbEntity
  8
7
100
AcDbLine
 10
2.35130020551181
 20
5.386739508472467
 30
0.0
 11
2.35130020551181
 21
5.403800915755931
 31
0.0
  0
LINE
  5
3CDA
330
1E
100
AcDbEntity
  8
7
100
AcDbLine
 10
2.35130020551181
 20
5.36836568524412
 30
0.0
 11
2.146563318110236
 21
5.36836568524412
 31
0.0
  0
LINE
  5
3CDB
330
1E
100
AcDbEntity
  8
7
100
AcDbLine
 10
2.146563318110236
 20
5.36836568524412
 30
0.0
 11
2.146563318110236
 21
5.356553941740183
 31
0.0
  0
LINE
  5
3CDC
330
1E
100
AcDbEntity
  8
7
100
AcDbLine
 10
1.717403304133858
 20
5.43792373032286
 30
0.0
 11
1.510041584842519
 21
5.43792373032286
 31
0.0
  0
LINE
  5
3CDD
330
1E
100
AcDbEntity
  8
7
100
AcDbLine
 10
1.510041584842519
 20
5.43792373032286
 30
0.0
 11
1.510041584842519
 21
5.409050579535458
 31
0.0
  0
LINE
  5
3CDE
330
1E
100
AcDbEntity
  8
7
100
AcDbLine
 10
1.716090888188976
 20
5.403800915755931
 30
0.0
 11
1.717403304133858
 21
5.409050579535458
 31
0.0
  0
LINE
  5
3CDF
330
1E
100
AcDbEntity
  8
7
100
AcDbLine
 10
1.717403304133858
 20
5.409050579535458
 30
0.0
 11
1.510041584842519
 21
5.409050579535458
 31
0.0
  0
LINE
  5
3CE0
330
1E
100
AcDbEntity
  8
7
100
AcDbLine
 10
1.511354000787401
 20
5.36836568524412
 30
0.0
 11
1.511354000787401
 21
5.386739508472467
 31
0.0
  0
LINE
  5
3CE1
330
1E
100
AcDbEntity
  8
7
100
AcDbLine
 10
1.511354000787401
 20
5.386739508472467
 30
0.0
 11
1.511354000787401
 21
5.403800915755931
 31
0.0
  0
LINE
  5
3CE2
330
1E
100
AcDbEntity
  8
7
100
AcDbLine
 10
1.716090888188976
 20
5.36836568524412
 30
0.0
 11
1.716090888188976
 21
5.386739508472467
 31
0.0
  0
LINE
  5
3CE3
330
1E
100
AcDbEntity
  8
7
100
AcDbLine
 10
1.716090888188976
 20
5.386739508472467
 30
0.0
 11
1.716090888188976
 21
5.403800915755931
 31
0.0
  0
LINE
  5
3CE4
330
1E
100
AcDbEntity
  8
7
100
AcDbLine
 10
1.716090888188976
 20
5.36836568524412
 30
0.0
 11
1.511354000787401
 21
5.36836568524412
 31
0.0
  0
LINE
  5
3CE5
330
1E
100
AcDbEntity
  8
7
100
AcDbLine
 10
1.511354000787401
 20
5.36836568524412
 30
0.0
 11
1.511354000787401
 21
5.356553941740183
 31
0.0
  0
LINE
  5
3CE6
330
1E
100
AcDbEntity
  8
7
100
AcDbLine
 10
1.311866777165354
 20
6.561351779141759
 30
0.0
 11
1.314491609055117
 21
6.554789699417348
 31
0.0
  0
LINE
  5
3CE7
330
1E
100
AcDbEntity
  8
7
100
AcDbLine
 10
1.314491609055117
 20
6.554789699417348
 30
0.0
 11
1.321053688779527
 21
6.552164867527585
 31
0.0
  0
LINE
  5
3CE8
330
1E
100
AcDbEntity
  8
7
100
AcDbLine
 10
1.321053688779527
 20
6.962951058275616
 30
0.0
 11
1.314491609055117
 21
6.960326226385852
 31
0.0
  0
LINE
  5
3CE9
330
1E
100
AcDbEntity
  8
7
100
AcDbLine
 10
1.314491609055117
 20
6.960326226385852
 30
0.0
 11
1.311866777165354
 21
6.953764146661443
 31
0.0
  0
LINE
  5
3CEA
330
1E
100
AcDbEntity
  8
7
100
AcDbLine
 10
1.570412718307086
 20
6.453733671661443
 30
0.0
 11
1.570412718307086
 21
6.451108839771679
 31
0.0
  0
LINE
  5
3CEB
330
1E
100
AcDbEntity
  8
7
100
AcDbLine
 10
1.570412718307086
 20
6.451108839771679
 30
0.0
 11
1.570412718307086
 21
6.445859175992151
 31
0.0
  0
LINE
  5
3CEC
330
1E
100
AcDbEntity
  8
7
100
AcDbLine
 10
1.562538222637794
 20
6.461608167330734
 30
0.0
 11
1.559913390748031
 21
6.461608167330734
 31
0.0
  0
LINE
  5
3CED
330
1E
100
AcDbEntity
  8
7
100
AcDbLine
 10
1.559913390748031
 20
6.461608167330734
 30
0.0
 11
1.554663726968503
 21
6.461608167330734
 31
0.0
  0
LINE
  5
3CEE
330
1E
100
AcDbEntity
  8
7
100
AcDbLine
 10
1.554663726968503
 20
6.491793734063017
 30
0.0
 11
1.559913390748031
 21
6.491793734063017
 31
0.0
  0
LINE
  5
3CEF
330
1E
100
AcDbEntity
  8
7
100
AcDbLine
 10
1.559913390748031
 20
6.491793734063017
 30
0.0
 11
1.562538222637794
 21
6.491793734063017
 31
0.0
  0
LINE
  5
3CF0
330
1E
100
AcDbEntity
  8
7
100
AcDbLine
 10
1.570412718307086
 20
6.5075427254016
 30
0.0
 11
1.570412718307086
 21
6.502293061622072
 31
0.0
  0
LINE
  5
3CF1
330
1E
100
AcDbEntity
  8
7
100
AcDbLine
 10
1.570412718307086
 20
6.502293061622072
 30
0.0
 11
1.570412718307086
 21
6.499668229732309
 31
0.0
  0
LINE
  5
3CF2
330
1E
100
AcDbEntity
  8
7
100
AcDbLine
 10
1.817146915944881
 20
6.5075427254016
 30
0.0
 11
1.817146915944881
 21
6.502293061622072
 31
0.0
  0
LINE
  5
3CF3
330
1E
100
AcDbEntity
  8
7
100
AcDbLine
 10
1.817146915944881
 20
6.502293061622072
 30
0.0
 11
1.817146915944881
 21
6.499668229732309
 31
0.0
  0
LINE
  5
3CF4
330
1E
100
AcDbEntity
  8
7
100
AcDbLine
 10
1.832895907283464
 20
6.491793734063017
 30
0.0
 11
1.827646243503936
 21
6.491793734063017
 31
0.0
  0
LINE
  5
3CF5
330
1E
100
AcDbEntity
  8
7
100
AcDbLine
 10
1.827646243503936
 20
6.491793734063017
 30
0.0
 11
1.825021411614173
 21
6.491793734063017
 31
0.0
  0
LINE
  5
3CF6
330
1E
100
AcDbEntity
  8
7
100
AcDbLine
 10
1.817146915944881
 20
6.445859175992151
 30
0.0
 11
1.817146915944881
 21
6.451108839771679
 31
0.0
  0
LINE
  5
3CF7
330
1E
100
AcDbEntity
  8
7
100
AcDbLine
 10
1.817146915944881
 20
6.451108839771679
 30
0.0
 11
1.817146915944881
 21
6.453733671661443
 31
0.0
  0
LINE
  5
3CF8
330
1E
100
AcDbEntity
  8
7
100
AcDbLine
 10
1.832895907283464
 20
6.461608167330734
 30
0.0
 11
1.827646243503936
 21
6.461608167330734
 31
0.0
  0
LINE
  5
3CF9
330
1E
100
AcDbEntity
  8
7
100
AcDbLine
 10
1.827646243503936
 20
6.461608167330734
 30
0.0
 11
1.825021411614173
 21
6.461608167330734
 31
0.0
  0
LINE
  5
3CFA
330
1E
100
AcDbEntity
  8
7
100
AcDbLine
 10
1.8158345
 20
6.494418565952781
 30
0.0
 11
1.817146915944881
 21
6.499668229732309
 31
0.0
  0
LINE
  5
3CFB
330
1E
100
AcDbEntity
  8
7
100
AcDbLine
 10
1.817146915944881
 20
6.499668229732309
 30
0.0
 11
1.570412718307086
 21
6.499668229732309
 31
0.0
  0
LINE
  5
3CFC
330
1E
100
AcDbEntity
  8
7
100
AcDbLine
 10
1.571725134251968
 20
6.453733671661443
 30
0.0
 11
1.570412718307086
 21
6.453733671661443
 31
0.0
  0
LINE
  5
3CFD
330
1E
100
AcDbEntity
  8
7
100
AcDbLine
 10
1.570412718307086
 20
6.453733671661443
 30
0.0
 11
1.571725134251968
 21
6.453733671661443
 31
0.0
  0
LINE
  5
3CFE
330
1E
100
AcDbEntity
  8
7
100
AcDbLine
 10
1.563850638582676
 20
6.48654407028349
 30
0.0
 11
1.562538222637794
 21
6.491793734063017
 31
0.0
  0
LINE
  5
3CFF
330
1E
100
AcDbEntity
  8
7
100
AcDbLine
 10
1.562538222637794
 20
6.491793734063017
 30
0.0
 11
1.562538222637794
 21
6.461608167330734
 31
0.0
  0
LINE
  5
3D00
330
1E
100
AcDbEntity
  8
7
100
AcDbLine
 10
1.823708995669291
 20
6.462920583275616
 30
0.0
 11
1.825021411614173
 21
6.461608167330734
 31
0.0
  0
LINE
  5
3D01
330
1E
100
AcDbEntity
  8
7
100
AcDbLine
 10
1.825021411614173
 20
6.461608167330734
 30
0.0
 11
1.825021411614173
 21
6.491793734063017
 31
0.0
  0
LINE
  5
3D02
330
1E
100
AcDbEntity
  8
7
100
AcDbLine
 10
1.825021411614173
 20
6.491793734063017
 30
0.0
 11
1.823708995669291
 21
6.48654407028349
 31
0.0
  0
LINE
  5
3D03
330
1E
100
AcDbEntity
  8
7
100
AcDbLine
 10
2.168874389173228
 20
6.489168902173254
 30
0.0
 11
2.168874389173228
 21
6.506230309456718
 31
0.0
  0
LINE
  5
3D04
330
1E
100
AcDbEntity
  8
7
100
AcDbLine
 10
2.168874389173228
 20
6.506230309456718
 30
0.0
 11
2.168874389173228
 21
6.512792389181128
 31
0.0
  0
LINE
  5
3D05
330
1E
100
AcDbEntity
  8
7
100
AcDbLine
 10
2.327676718503936
 20
6.512792389181128
 30
0.0
 11
2.328989134448819
 21
6.506230309456718
 31
0.0
  0
LINE
  5
3D06
330
1E
100
AcDbEntity
  8
7
100
AcDbLine
 10
2.328989134448819
 20
6.506230309456718
 30
0.0
 11
2.328989134448819
 21
6.489168902173254
 31
0.0
  0
LINE
  5
3D07
330
1E
100
AcDbEntity
  8
7
100
AcDbLine
 10
2.318489806889763
 20
6.512792389181128
 30
0.0
 11
2.327676718503936
 21
6.512792389181128
 31
0.0
  0
LINE
  5
3D08
330
1E
100
AcDbEntity
  8
7
100
AcDbLine
 10
2.327676718503936
 20
6.512792389181128
 30
0.0
 11
2.326364302559055
 21
6.515417221070892
 31
0.0
  0
LINE
  5
3D09
330
1E
100
AcDbEntity
  8
7
100
AcDbLine
 10
2.174124052952755
 20
6.683406462015773
 30
0.0
 11
2.180686132677165
 21
6.682094046070892
 31
0.0
  0
LINE
  5
3D0A
330
1E
100
AcDbEntity
  8
7
100
AcDbLine
 10
2.180686132677165
 20
6.682094046070892
 30
0.0
 11
2.188560628346456
 21
6.682094046070892
 31
0.0
  0
LINE
  5
3D0B
330
1E
100
AcDbEntity
  8
7
100
AcDbLine
 10
2.30930289527559
 20
6.682094046070892
 30
0.0
 11
2.317177390944881
 21
6.682094046070892
 31
0.0
  0
LINE
  5
3D0C
330
1E
100
AcDbEntity
  8
7
100
AcDbLine
 10
2.317177390944881
 20
6.682094046070892
 30
0.0
 11
2.323739470669291
 21
6.683406462015773
 31
0.0
  0
LINE
  5
3D0D
330
1E
100
AcDbEntity
  8
7
100
AcDbLine
 10
2.14262607027559
 20
6.817272888393727
 30
0.0
 11
2.12162741515748
 21
6.791024569496089
 31
0.0
  0
LINE
  5
3D0E
330
1E
100
AcDbEntity
  8
7
100
AcDbLine
 10
2.12162741515748
 20
6.791024569496089
 30
0.0
 11
2.113752919488188
 21
6.75821417087404
 31
0.0
  0
LINE
  5
3D0F
330
1E
100
AcDbEntity
  8
7
100
AcDbLine
 10
2.113752919488188
 20
6.75821417087404
 30
0.0
 11
2.12162741515748
 21
6.725403772251993
 31
0.0
  0
LINE
  5
3D10
330
1E
100
AcDbEntity
  8
7
100
AcDbLine
 10
2.12162741515748
 20
6.725403772251993
 30
0.0
 11
2.14262607027559
 21
6.699155453354356
 31
0.0
  0
LINE
  5
3D11
330
1E
100
AcDbEntity
  8
7
100
AcDbLine
 10
2.355237453346456
 20
6.699155453354356
 30
0.0
 11
2.376236108464566
 21
6.725403772251993
 31
0.0
  0
LINE
  5
3D12
330
1E
100
AcDbEntity
  8
7
100
AcDbLine
 10
2.376236108464566
 20
6.725403772251993
 30
0.0
 11
2.384110604133858
 21
6.75821417087404
 31
0.0
  0
LINE
  5
3D13
330
1E
100
AcDbEntity
  8
7
100
AcDbLine
 10
2.384110604133858
 20
6.75821417087404
 30
0.0
 11
2.376236108464566
 21
6.791024569496089
 31
0.0
  0
LINE
  5
3D14
330
1E
100
AcDbEntity
  8
7
100
AcDbLine
 10
2.376236108464566
 20
6.791024569496089
 30
0.0
 11
2.355237453346456
 21
6.817272888393727
 31
0.0
  0
LINE
  5
3D15
330
1E
100
AcDbEntity
  8
7
100
AcDbLine
 10
2.30930289527559
 20
6.682094046070892
 30
0.0
 11
2.327676718503936
 21
6.684718877960655
 31
0.0
  0
LINE
  5
3D16
330
1E
100
AcDbEntity
  8
7
100
AcDbLine
 10
2.327676718503936
 20
6.684718877960655
 30
0.0
 11
2.344738125787401
 21
6.691280957685066
 31
0.0
  0
LINE
  5
3D17
330
1E
100
AcDbEntity
  8
7
100
AcDbLine
 10
2.153125397834645
 20
6.691280957685066
 30
0.0
 11
2.17018680511811
 21
6.684718877960655
 31
0.0
  0
LINE
  5
3D18
330
1E
100
AcDbEntity
  8
7
100
AcDbLine
 10
2.17018680511811
 20
6.684718877960655
 30
0.0
 11
2.188560628346456
 21
6.682094046070892
 31
0.0
  0
LINE
  5
3D19
330
1E
100
AcDbEntity
  8
7
100
AcDbLine
 10
2.344738125787401
 20
6.825147384063018
 30
0.0
 11
2.327676718503936
 21
6.831709463787428
 31
0.0
  0
LINE
  5
3D1A
330
1E
100
AcDbEntity
  8
7
100
AcDbLine
 10
2.327676718503936
 20
6.831709463787428
 30
0.0
 11
2.30930289527559
 21
6.834334295677191
 31
0.0
  0
LINE
  5
3D1B
330
1E
100
AcDbEntity
  8
7
100
AcDbLine
 10
2.326364302559055
 20
6.531166212409475
 30
0.0
 11
2.326364302559055
 21
6.533791044299238
 31
0.0
  0
LINE
  5
3D1C
330
1E
100
AcDbEntity
  8
7
100
AcDbLine
 10
2.326364302559055
 20
6.533791044299238
 30
0.0
 11
2.326364302559055
 21
6.535103460244121
 31
0.0
  0
LINE
  5
3D1D
330
1E
100
AcDbEntity
  8
7
100
AcDbLine
 10
2.326364302559055
 20
6.535103460244121
 30
0.0
 11
2.325051886614172
 21
6.535103460244121
 31
0.0
  0
LINE
  5
3D1E
330
1E
100
AcDbEntity
  8
7
100
AcDbLine
 10
2.326364302559055
 20
6.525916548629947
 30
0.0
 11
2.326364302559055
 21
6.52854138051971
 31
0.0
  0
LINE
  5
3D1F
330
1E
100
AcDbEntity
  8
7
100
AcDbLine
 10
2.326364302559055
 20
6.52854138051971
 30
0.0
 11
2.326364302559055
 21
6.531166212409475
 31
0.0
  0
LINE
  5
3D20
330
1E
100
AcDbEntity
  8
7
100
AcDbLine
 10
2.171499221062991
 20
6.535103460244121
 30
0.0
 11
2.171499221062991
 21
6.533791044299238
 31
0.0
  0
LINE
  5
3D21
330
1E
100
AcDbEntity
  8
7
100
AcDbLine
 10
2.171499221062991
 20
6.533791044299238
 30
0.0
 11
2.171499221062991
 21
6.531166212409475
 31
0.0
  0
LINE
  5
3D22
330
1E
100
AcDbEntity
  8
7
100
AcDbLine
 10
2.171499221062991
 20
6.531166212409475
 30
0.0
 11
2.171499221062991
 21
6.527228964574828
 31
0.0
  0
LINE
  5
3D23
330
1E
100
AcDbEntity
  8
7
100
AcDbLine
 10
2.171499221062991
 20
6.527228964574828
 30
0.0
 11
2.171499221062991
 21
6.525916548629947
 31
0.0
  0
LINE
  5
3D24
330
1E
100
AcDbEntity
  8
7
100
AcDbLine
 10
2.319802222834645
 20
6.536415876189002
 30
0.0
 11
2.322427054724409
 21
6.536415876189002
 31
0.0
  0
LINE
  5
3D25
330
1E
100
AcDbEntity
  8
7
100
AcDbLine
 10
2.322427054724409
 20
6.536415876189002
 30
0.0
 11
2.323739470669291
 21
6.536415876189002
 31
0.0
  0
LINE
  5
3D26
330
1E
100
AcDbEntity
  8
7
100
AcDbLine
 10
2.174124052952755
 20
6.536415876189002
 30
0.0
 11
2.175436468897637
 21
6.536415876189002
 31
0.0
  0
LINE
  5
3D27
330
1E
100
AcDbEntity
  8
7
100
AcDbLine
 10
2.175436468897637
 20
6.536415876189002
 30
0.0
 11
2.178061300787401
 21
6.536415876189002
 31
0.0
  0
LINE
  5
3D28
330
1E
100
AcDbEntity
  8
7
100
AcDbLine
 10
2.458918312992125
 20
6.745090011425222
 30
0.0
 11
2.456293481102362
 21
6.787087321661443
 31
0.0
  0
LINE
  5
3D29
330
1E
100
AcDbEntity
  8
7
100
AcDbLine
 10
2.456293481102362
 20
6.787087321661443
 30
0.0
 11
2.443169321653543
 21
6.825147384063018
 31
0.0
  0
LINE
  5
3D2A
330
1E
100
AcDbEntity
  8
7
100
AcDbLine
 10
2.443169321653543
 20
6.825147384063018
 30
0.0
 11
2.419545834645668
 21
6.859270198629947
 31
0.0
  0
LINE
  5
3D2B
330
1E
100
AcDbEntity
  8
7
100
AcDbLine
 10
2.419545834645668
 20
6.859270198629947
 30
0.0
 11
2.388047851968503
 21
6.885518517527585
 31
0.0
  0
LINE
  5
3D2C
330
1E
100
AcDbEntity
  8
7
100
AcDbLine
 10
2.388047851968503
 20
6.885518517527585
 30
0.0
 11
2.349987789566929
 21
6.902579924811049
 31
0.0
  0
LINE
  5
3D2D
330
1E
100
AcDbEntity
  8
7
100
AcDbLine
 10
2.349987789566929
 20
6.902579924811049
 30
0.0
 11
2.30930289527559
 21
6.907829588590576
 31
0.0
  0
LINE
  5
3D2E
330
1E
100
AcDbEntity
  8
7
100
AcDbLine
 10
2.325051886614172
 20
6.609911169102388
 30
0.0
 11
2.365736780905511
 21
6.619098080716561
 31
0.0
  0
LINE
  5
3D2F
330
1E
100
AcDbEntity
  8
7
100
AcDbLine
 10
2.365736780905511
 20
6.619098080716561
 30
0.0
 11
2.401172011417322
 21
6.640096735834672
 31
0.0
  0
LINE
  5
3D30
330
1E
100
AcDbEntity
  8
7
100
AcDbLine
 10
2.401172011417322
 20
6.640096735834672
 30
0.0
 11
2.430045162204724
 21
6.668969886622073
 31
0.0
  0
LINE
  5
3D31
330
1E
100
AcDbEntity
  8
7
100
AcDbLine
 10
2.430045162204724
 20
6.668969886622073
 30
0.0
 11
2.449731401377952
 21
6.705717533078765
 31
0.0
  0
LINE
  5
3D32
330
1E
100
AcDbEntity
  8
7
100
AcDbLine
 10
2.449731401377952
 20
6.705717533078765
 30
0.0
 11
2.458918312992125
 21
6.745090011425222
 31
0.0
  0
LINE
  5
3D33
330
1E
100
AcDbEntity
  8
7
100
AcDbLine
 10
2.382798188188976
 20
6.781837657881915
 30
0.0
 11
2.367049196850393
 21
6.809398392724435
 31
0.0
  0
LINE
  5
3D34
330
1E
100
AcDbEntity
  8
7
100
AcDbLine
 10
2.367049196850393
 20
6.809398392724435
 30
0.0
 11
2.340800877952755
 21
6.829084631897663
 31
0.0
  0
LINE
  5
3D35
330
1E
100
AcDbEntity
  8
7
100
AcDbLine
 10
2.340800877952755
 20
6.829084631897663
 30
0.0
 11
2.30930289527559
 21
6.835646711622072
 31
0.0
  0
LINE
  5
3D36
330
1E
100
AcDbEntity
  8
7
100
AcDbLine
 10
2.325051886614172
 20
6.682094046070892
 30
0.0
 11
2.355237453346456
 21
6.69521820551971
 31
0.0
  0
LINE
  5
3D37
330
1E
100
AcDbEntity
  8
7
100
AcDbLine
 10
2.355237453346456
 20
6.69521820551971
 30
0.0
 11
2.376236108464566
 21
6.720154108472467
 31
0.0
  0
LINE
  5
3D38
330
1E
100
AcDbEntity
  8
7
100
AcDbLine
 10
2.376236108464566
 20
6.720154108472467
 30
0.0
 11
2.386735436023621
 21
6.750339675204751
 31
0.0
  0
LINE
  5
3D39
330
1E
100
AcDbEntity
  8
7
100
AcDbLine
 10
2.386735436023621
 20
6.750339675204751
 30
0.0
 11
2.382798188188976
 21
6.781837657881915
 31
0.0
  0
LINE
  5
3D3A
330
1E
100
AcDbEntity
  8
7
100
AcDbLine
 10
2.11506533543307
 20
6.781837657881915
 30
0.0
 11
2.111128087598425
 21
6.750339675204751
 31
0.0
  0
LINE
  5
3D3B
330
1E
100
AcDbEntity
  8
7
100
AcDbLine
 10
2.111128087598425
 20
6.750339675204751
 30
0.0
 11
2.12162741515748
 21
6.720154108472467
 31
0.0
  0
LINE
  5
3D3C
330
1E
100
AcDbEntity
  8
7
100
AcDbLine
 10
2.12162741515748
 20
6.720154108472467
 30
0.0
 11
2.14262607027559
 21
6.69521820551971
 31
0.0
  0
LINE
  5
3D3D
330
1E
100
AcDbEntity
  8
7
100
AcDbLine
 10
2.14262607027559
 20
6.69521820551971
 30
0.0
 11
2.172811637007874
 21
6.682094046070892
 31
0.0
  0
LINE
  5
3D3E
330
1E
100
AcDbEntity
  8
7
100
AcDbLine
 10
2.188560628346456
 20
6.835646711622072
 30
0.0
 11
2.157062645669291
 21
6.829084631897663
 31
0.0
  0
LINE
  5
3D3F
330
1E
100
AcDbEntity
  8
7
100
AcDbLine
 10
2.157062645669291
 20
6.829084631897663
 30
0.0
 11
2.130814326771653
 21
6.809398392724435
 31
0.0
  0
LINE
  5
3D40
330
1E
100
AcDbEntity
  8
7
100
AcDbLine
 10
2.130814326771653
 20
6.809398392724435
 30
0.0
 11
2.11506533543307
 21
6.781837657881915
 31
0.0
  0
LINE
  5
3D41
330
1E
100
AcDbEntity
  8
7
100
AcDbLine
 10
2.048132122244094
 20
6.705717533078765
 30
0.0
 11
2.067818361417322
 21
6.668969886622073
 31
0.0
  0
LINE
  5
3D42
330
1E
100
AcDbEntity
  8
7
100
AcDbLine
 10
2.067818361417322
 20
6.668969886622073
 30
0.0
 11
2.096691512204723
 21
6.640096735834672
 31
0.0
  0
LINE
  5
3D43
330
1E
100
AcDbEntity
  8
7
100
AcDbLine
 10
2.096691512204723
 20
6.640096735834672
 30
0.0
 11
2.132126742716535
 21
6.619098080716561
 31
0.0
  0
LINE
  5
3D44
330
1E
100
AcDbEntity
  8
7
100
AcDbLine
 10
2.132126742716535
 20
6.619098080716561
 30
0.0
 11
2.172811637007874
 21
6.609911169102388
 31
0.0
  0
LINE
  5
3D45
330
1E
100
AcDbEntity
  8
7
100
AcDbLine
 10
2.188560628346456
 20
6.907829588590576
 30
0.0
 11
2.147875734055118
 21
6.902579924811049
 31
0.0
  0
LINE
  5
3D46
330
1E
100
AcDbEntity
  8
7
100
AcDbLine
 10
2.147875734055118
 20
6.902579924811049
 30
0.0
 11
2.109815671653542
 21
6.885518517527585
 31
0.0
  0
LINE
  5
3D47
330
1E
100
AcDbEntity
  8
7
100
AcDbLine
 10
2.109815671653542
 20
6.885518517527585
 30
0.0
 11
2.078317688976377
 21
6.859270198629947
 31
0.0
  0
LINE
  5
3D48
330
1E
100
AcDbEntity
  8
7
100
AcDbLine
 10
2.078317688976377
 20
6.859270198629947
 30
0.0
 11
2.054694201968503
 21
6.825147384063018
 31
0.0
  0
LINE
  5
3D49
330
1E
100
AcDbEntity
  8
7
100
AcDbLine
 10
2.054694201968503
 20
6.825147384063018
 30
0.0
 11
2.041570042519684
 21
6.787087321661443
 31
0.0
  0
LINE
  5
3D4A
330
1E
100
AcDbEntity
  8
7
100
AcDbLine
 10
2.041570042519684
 20
6.787087321661443
 30
0.0
 11
2.038945210629921
 21
6.745090011425222
 31
0.0
  0
LINE
  5
3D4B
330
1E
100
AcDbEntity
  8
7
100
AcDbLine
 10
2.038945210629921
 20
6.745090011425222
 30
0.0
 11
2.048132122244094
 21
6.705717533078765
 31
0.0
  0
LINE
  5
3D4C
330
1E
100
AcDbEntity
  8
7
100
AcDbLine
 10
1.361738583070865
 20
6.553477283472466
 30
0.0
 11
1.361738583070865
 21
6.552164867527585
 31
0.0
  0
LINE
  5
3D4D
330
1E
100
AcDbEntity
  8
7
100
AcDbLine
 10
1.361738583070865
 20
6.552164867527585
 30
0.0
 11
1.321053688779527
 21
6.552164867527585
 31
0.0
  0
LINE
  5
3D4E
330
1E
100
AcDbEntity
  8
7
100
AcDbLine
 10
2.680716607677165
 20
6.453733671661443
 30
0.0
 11
2.680716607677165
 21
6.451108839771679
 31
0.0
  0
LINE
  5
3D4F
330
1E
100
AcDbEntity
  8
7
100
AcDbLine
 10
2.680716607677165
 20
6.451108839771679
 30
0.0
 11
2.680716607677165
 21
6.445859175992151
 31
0.0
  0
LINE
  5
3D50
330
1E
100
AcDbEntity
  8
7
100
AcDbLine
 10
2.672842112007874
 20
6.461608167330734
 30
0.0
 11
2.67021728011811
 21
6.461608167330734
 31
0.0
  0
LINE
  5
3D51
330
1E
100
AcDbEntity
  8
7
100
AcDbLine
 10
2.67021728011811
 20
6.461608167330734
 30
0.0
 11
2.664967616338582
 21
6.461608167330734
 31
0.0
  0
LINE
  5
3D52
330
1E
100
AcDbEntity
  8
7
100
AcDbLine
 10
2.680716607677165
 20
6.499668229732309
 30
0.0
 11
2.680716607677165
 21
6.502293061622072
 31
0.0
  0
LINE
  5
3D53
330
1E
100
AcDbEntity
  8
7
100
AcDbLine
 10
2.680716607677165
 20
6.502293061622072
 30
0.0
 11
2.680716607677165
 21
6.5075427254016
 31
0.0
  0
LINE
  5
3D54
330
1E
100
AcDbEntity
  8
7
100
AcDbLine
 10
2.92745080531496
 20
6.499668229732309
 30
0.0
 11
2.92745080531496
 21
6.502293061622072
 31
0.0
  0
LINE
  5
3D55
330
1E
100
AcDbEntity
  8
7
100
AcDbLine
 10
2.92745080531496
 20
6.502293061622072
 30
0.0
 11
2.92745080531496
 21
6.5075427254016
 31
0.0
  0
LINE
  5
3D56
330
1E
100
AcDbEntity
  8
7
100
AcDbLine
 10
2.935325300984251
 20
6.491793734063017
 30
0.0
 11
2.937950132874015
 21
6.491793734063017
 31
0.0
  0
LINE
  5
3D57
330
1E
100
AcDbEntity
  8
7
100
AcDbLine
 10
2.937950132874015
 20
6.491793734063017
 30
0.0
 11
2.943199796653543
 21
6.491793734063017
 31
0.0
  0
LINE
  5
3D58
330
1E
100
AcDbEntity
  8
7
100
AcDbLine
 10
2.943199796653543
 20
6.461608167330734
 30
0.0
 11
2.937950132874015
 21
6.461608167330734
 31
0.0
  0
LINE
  5
3D59
330
1E
100
AcDbEntity
  8
7
100
AcDbLine
 10
2.937950132874015
 20
6.461608167330734
 30
0.0
 11
2.935325300984251
 21
6.461608167330734
 31
0.0
  0
LINE
  5
3D5A
330
1E
100
AcDbEntity
  8
7
100
AcDbLine
 10
2.926138389370078
 20
6.494418565952781
 30
0.0
 11
2.92745080531496
 21
6.499668229732309
 31
0.0
  0
LINE
  5
3D5B
330
1E
100
AcDbEntity
  8
7
100
AcDbLine
 10
2.92745080531496
 20
6.499668229732309
 30
0.0
 11
2.680716607677165
 21
6.499668229732309
 31
0.0
  0
LINE
  5
3D5C
330
1E
100
AcDbEntity
  8
7
100
AcDbLine
 10
2.674154527952755
 20
6.48654407028349
 30
0.0
 11
2.672842112007874
 21
6.491793734063017
 31
0.0
  0
LINE
  5
3D5D
330
1E
100
AcDbEntity
  8
7
100
AcDbLine
 10
2.672842112007874
 20
6.491793734063017
 30
0.0
 11
2.672842112007874
 21
6.461608167330734
 31
0.0
  0
LINE
  5
3D5E
330
1E
100
AcDbEntity
  8
7
100
AcDbLine
 10
2.672842112007874
 20
6.461608167330734
 30
0.0
 11
2.674154527952755
 21
6.462920583275616
 31
0.0
  0
LINE
  5
3D5F
330
1E
100
AcDbEntity
  8
7
100
AcDbLine
 10
2.934012885039369
 20
6.462920583275616
 30
0.0
 11
2.935325300984251
 21
6.461608167330734
 31
0.0
  0
LINE
  5
3D60
330
1E
100
AcDbEntity
  8
7
100
AcDbLine
 10
2.935325300984251
 20
6.461608167330734
 30
0.0
 11
2.935325300984251
 21
6.491793734063017
 31
0.0
  0
LINE
  5
3D61
330
1E
100
AcDbEntity
  8
7
100
AcDbLine
 10
2.935325300984251
 20
6.491793734063017
 30
0.0
 11
2.934012885039369
 21
6.48654407028349
 31
0.0
  0
LINE
  5
3D62
330
1E
100
AcDbEntity
  8
7
100
AcDbLine
 10
2.926138389370078
 20
6.453733671661443
 30
0.0
 11
2.92745080531496
 21
6.453733671661443
 31
0.0
  0
LINE
  5
3D63
330
1E
100
AcDbEntity
  8
7
100
AcDbLine
 10
2.92745080531496
 20
6.453733671661443
 30
0.0
 11
2.926138389370078
 21
6.453733671661443
 31
0.0
  0
LINE
  5
3D64
330
1E
100
AcDbEntity
  8
7
100
AcDbLine
 10
1.321053688779527
 20
6.964263474220498
 30
0.0
 11
1.321053688779527
 21
6.962951058275616
 31
0.0
  0
LINE
  5
3D65
330
1E
100
AcDbEntity
  8
7
100
AcDbLine
 10
1.321053688779527
 20
6.962951058275616
 30
0.0
 11
1.361738583070865
 21
6.962951058275616
 31
0.0
  0
LINE
  5
3D66
330
1E
100
AcDbEntity
  8
7
100
AcDbLine
 10
3.238493384251968
 20
6.512792389181128
 30
0.0
 11
3.254242375590551
 21
6.516729637015774
 31
0.0
  0
LINE
  5
3D67
330
1E
100
AcDbEntity
  8
7
100
AcDbLine
 10
3.254242375590551
 20
6.516729637015774
 30
0.0
 11
3.264741703149605
 21
6.527228964574828
 31
0.0
  0
LINE
  5
3D68
330
1E
100
AcDbEntity
  8
7
100
AcDbLine
 10
3.264741703149605
 20
6.527228964574828
 30
0.0
 11
3.268678950984251
 21
6.542977955913412
 31
0.0
  0
LINE
  5
3D69
330
1E
100
AcDbEntity
  8
7
100
AcDbLine
 10
1.321053688779527
 20
6.962951058275616
 30
0.0
 11
1.314491609055117
 21
6.960326226385852
 31
0.0
  0
LINE
  5
3D6A
330
1E
100
AcDbEntity
  8
7
100
AcDbLine
 10
1.314491609055117
 20
6.960326226385852
 30
0.0
 11
1.311866777165354
 21
6.953764146661443
 31
0.0
  0
LINE
  5
3D6B
330
1E
100
AcDbEntity
  8
7
100
AcDbLine
 10
1.311866777165354
 20
6.561351779141759
 30
0.0
 11
1.314491609055117
 21
6.554789699417348
 31
0.0
  0
LINE
  5
3D6C
330
1E
100
AcDbEntity
  8
7
100
AcDbLine
 10
1.314491609055117
 20
6.554789699417348
 30
0.0
 11
1.321053688779527
 21
6.552164867527585
 31
0.0
  0
LINE
  5
3D6D
330
1E
100
AcDbEntity
  8
7
100
AcDbLine
 10
1.23312182047244
 20
6.527228964574828
 30
0.0
 11
1.243621148031496
 21
6.516729637015774
 31
0.0
  0
LINE
  5
3D6E
330
1E
100
AcDbEntity
  8
7
100
AcDbLine
 10
1.243621148031496
 20
6.516729637015774
 30
0.0
 11
1.259370139370078
 21
6.512792389181128
 31
0.0
  0
LINE
  5
3D6F
330
1E
100
AcDbEntity
  8
7
100
AcDbLine
 10
1.259370139370078
 20
7.003635952566956
 30
0.0
 11
1.243621148031496
 21
6.99969870473231
 31
0.0
  0
LINE
  5
3D70
330
1E
100
AcDbEntity
  8
7
100
AcDbLine
 10
1.243621148031496
 20
6.99969870473231
 30
0.0
 11
1.23312182047244
 21
6.987886961228372
 31
0.0
  0
LINE
  5
3D71
330
1E
100
AcDbEntity
  8
7
100
AcDbLine
 10
1.23312182047244
 20
6.987886961228372
 30
0.0
 11
1.229184572637795
 21
6.973450385834672
 31
0.0
  0
LINE
  5
3D72
330
1E
100
AcDbEntity
  8
7
100
AcDbLine
 10
3.268678950984251
 20
6.973450385834672
 30
0.0
 11
3.264741703149605
 21
6.987886961228372
 31
0.0
  0
LINE
  5
3D73
330
1E
100
AcDbEntity
  8
7
100
AcDbLine
 10
3.264741703149605
 20
6.987886961228372
 30
0.0
 11
3.254242375590551
 21
6.99969870473231
 31
0.0
  0
LINE
  5
3D74
330
1E
100
AcDbEntity
  8
7
100
AcDbLine
 10
3.254242375590551
 20
6.99969870473231
 30
0.0
 11
3.238493384251968
 21
7.003635952566956
 31
0.0
  0
LINE
  5
3D75
330
1E
100
AcDbEntity
  8
7
100
AcDbLine
 10
1.259370139370078
 20
7.003635952566956
 30
0.0
 11
3.238493384251968
 21
7.003635952566956
 31
0.0
  0
LINE
  5
3D76
330
1E
100
AcDbEntity
  8
7
100
AcDbLine
 10
3.238493384251968
 20
7.003635952566956
 30
0.0
 11
3.23980580019685
 21
7.003635952566956
 31
0.0
  0
LINE
  5
3D77
330
1E
100
AcDbEntity
  8
7
100
AcDbLine
 10
3.596782937204724
 20
7.369800001189002
 30
0.0
 11
3.611219512598425
 21
7.365862753354356
 31
0.0
  0
LINE
  5
3D78
330
1E
100
AcDbEntity
  8
7
100
AcDbLine
 10
3.611219512598425
 20
7.365862753354356
 30
0.0
 11
3.623031256102361
 21
7.355363425795301
 31
0.0
  0
LINE
  5
3D79
330
1E
100
AcDbEntity
  8
7
100
AcDbLine
 10
3.623031256102361
 20
7.355363425795301
 30
0.0
 11
3.626968503937007
 21
7.340926850401601
 31
0.0
  0
LINE
  5
3D7A
330
1E
100
AcDbEntity
  8
7
100
AcDbLine
 10
0.8708950196850388
 20
7.340926850401601
 30
0.0
 11
0.8748322675196845
 21
7.355363425795301
 31
0.0
  0
LINE
  5
3D7B
330
1E
100
AcDbEntity
  8
7
100
AcDbLine
 10
0.8748322675196845
 20
7.355363425795301
 30
0.0
 11
0.8853315950787399
 21
7.365862753354356
 31
0.0
  0
LINE
  5
3D7C
330
1E
100
AcDbEntity
  8
7
100
AcDbLine
 10
0.8853315950787399
 20
7.365862753354356
 30
0.0
 11
0.9010805864173224
 21
7.369800001189002
 31
0.0
  0
LINE
  5
3D7D
330
1E
100
AcDbEntity
  8
7
100
AcDbLine
 10
0.9010805864173224
 20
2.864276062409475
 30
0.0
 11
0.8853315950787399
 21
2.86821331024412
 31
0.0
  0
LINE
  5
3D7E
330
1E
100
AcDbEntity
  8
7
100
AcDbLine
 10
0.8853315950787399
 20
2.86821331024412
 30
0.0
 11
0.8748322675196845
 21
2.878712637803175
 31
0.0
  0
LINE
  5
3D7F
330
1E
100
AcDbEntity
  8
7
100
AcDbLine
 10
0.8748322675196845
 20
2.878712637803175
 30
0.0
 11
0.8708950196850388
 21
2.894461629141758
 31
0.0
  0
LINE
  5
3D80
330
1E
100
AcDbEntity
  8
7
100
AcDbLine
 10
3.626968503937007
 20
2.894461629141758
 30
0.0
 11
3.623031256102361
 21
2.878712637803175
 31
0.0
  0
LINE
  5
3D81
330
1E
100
AcDbEntity
  8
7
100
AcDbLine
 10
3.623031256102361
 20
2.878712637803175
 30
0.0
 11
3.611219512598425
 21
2.86821331024412
 31
0.0
  0
LINE
  5
3D82
330
1E
100
AcDbEntity
  8
7
100
AcDbLine
 10
3.611219512598425
 20
2.86821331024412
 30
0.0
 11
3.596782937204724
 21
2.864276062409475
 31
0.0
  0
LINE
  5
3D83
330
1E
100
AcDbEntity
  8
7
100
AcDbLine
 10
3.01800750551181
 20
3.731783001976403
 30
0.0
 11
3.007508177952755
 21
3.726533338196876
 31
0.0
  0
LINE
  5
3D84
330
1E
100
AcDbEntity
  8
7
100
AcDbLine
 10
3.007508177952755
 20
3.726533338196876
 30
0.0
 11
2.76077398031496
 21
3.726533338196876
 31
0.0
  0
LINE
  5
3D85
330
1E
100
AcDbEntity
  8
7
100
AcDbLine
 10
2.76077398031496
 20
3.726533338196876
 30
0.0
 11
2.748962236811023
 21
3.731783001976403
 31
0.0
  0
LINE
  5
3D86
330
1E
100
AcDbEntity
  8
7
100
AcDbLine
 10
2.748962236811023
 20
3.731783001976403
 30
0.0
 11
2.743712573031495
 21
3.743594745480341
 31
0.0
  0
LINE
  5
3D87
330
1E
100
AcDbEntity
  8
7
100
AcDbLine
 10
2.743712573031495
 20
3.743594745480341
 30
0.0
 11
2.743712573031495
 21
3.772467896267742
 31
0.0
  0
LINE
  5
3D88
330
1E
100
AcDbEntity
  8
7
100
AcDbLine
 10
2.743712573031495
 20
3.772467896267742
 30
0.0
 11
2.748962236811023
 21
3.78427963977168
 31
0.0
  0
LINE
  5
3D89
330
1E
100
AcDbEntity
  8
7
100
AcDbLine
 10
2.748962236811023
 20
3.78427963977168
 30
0.0
 11
2.76077398031496
 21
3.789529303551208
 31
0.0
  0
LINE
  5
3D8A
330
1E
100
AcDbEntity
  8
7
100
AcDbLine
 10
3.006195762007874
 20
3.789529303551208
 30
0.0
 11
3.007508177952755
 21
3.789529303551208
 31
0.0
  0
LINE
  5
3D8B
330
1E
100
AcDbEntity
  8
7
100
AcDbLine
 10
3.007508177952755
 20
3.789529303551208
 30
0.0
 11
3.01800750551181
 21
3.78427963977168
 31
0.0
  0
LINE
  5
3D8C
330
1E
100
AcDbEntity
  8
7
100
AcDbLine
 10
3.01800750551181
 20
3.78427963977168
 30
0.0
 11
3.023257169291338
 21
3.772467896267742
 31
0.0
  0
LINE
  5
3D8D
330
1E
100
AcDbEntity
  8
7
100
AcDbLine
 10
3.023257169291338
 20
3.772467896267742
 30
0.0
 11
3.023257169291338
 21
3.743594745480341
 31
0.0
  0
LINE
  5
3D8E
330
1E
100
AcDbEntity
  8
7
100
AcDbLine
 10
3.023257169291338
 20
3.743594745480341
 30
0.0
 11
3.01800750551181
 21
3.731783001976403
 31
0.0
  0
LINE
  5
3D8F
330
1E
100
AcDbEntity
  8
7
100
AcDbLine
 10
1.752838534645668
 20
3.772467896267742
 30
0.0
 11
1.752838534645668
 21
3.743594745480341
 31
0.0
  0
LINE
  5
3D90
330
1E
100
AcDbEntity
  8
7
100
AcDbLine
 10
1.752838534645668
 20
3.743594745480341
 30
0.0
 11
1.748901286811023
 21
3.731783001976403
 31
0.0
  0
LINE
  5
3D91
330
1E
100
AcDbEntity
  8
7
100
AcDbLine
 10
1.748901286811023
 20
3.731783001976403
 30
0.0
 11
1.737089543307086
 21
3.726533338196876
 31
0.0
  0
LINE
  5
3D92
330
1E
100
AcDbEntity
  8
7
100
AcDbLine
 10
1.737089543307086
 20
3.726533338196876
 30
0.0
 11
1.490355345669291
 21
3.726533338196876
 31
0.0
  0
LINE
  5
3D93
330
1E
100
AcDbEntity
  8
7
100
AcDbLine
 10
1.490355345669291
 20
3.726533338196876
 30
0.0
 11
1.478543602165354
 21
3.731783001976403
 31
0.0
  0
LINE
  5
3D94
330
1E
100
AcDbEntity
  8
7
100
AcDbLine
 10
1.478543602165354
 20
3.731783001976403
 30
0.0
 11
1.474606354330708
 21
3.743594745480341
 31
0.0
  0
LINE
  5
3D95
330
1E
100
AcDbEntity
  8
7
100
AcDbLine
 10
1.474606354330708
 20
3.743594745480341
 30
0.0
 11
1.474606354330708
 21
3.772467896267742
 31
0.0
  0
LINE
  5
3D96
330
1E
100
AcDbEntity
  8
7
100
AcDbLine
 10
1.474606354330708
 20
3.772467896267742
 30
0.0
 11
1.478543602165354
 21
3.78427963977168
 31
0.0
  0
LINE
  5
3D97
330
1E
100
AcDbEntity
  8
7
100
AcDbLine
 10
1.478543602165354
 20
3.78427963977168
 30
0.0
 11
1.490355345669291
 21
3.789529303551208
 31
0.0
  0
LINE
  5
3D98
330
1E
100
AcDbEntity
  8
7
100
AcDbLine
 10
1.490355345669291
 20
3.789529303551208
 30
0.0
 11
1.491667761614173
 21
3.789529303551208
 31
0.0
  0
LINE
  5
3D99
330
1E
100
AcDbEntity
  8
7
100
AcDbLine
 10
1.735777127362204
 20
3.789529303551208
 30
0.0
 11
1.737089543307086
 21
3.789529303551208
 31
0.0
  0
LINE
  5
3D9A
330
1E
100
AcDbEntity
  8
7
100
AcDbLine
 10
1.737089543307086
 20
3.789529303551208
 30
0.0
 11
1.748901286811023
 21
3.78427963977168
 31
0.0
  0
LINE
  5
3D9B
330
1E
100
AcDbEntity
  8
7
100
AcDbLine
 10
1.748901286811023
 20
3.78427963977168
 30
0.0
 11
1.752838534645668
 21
3.772467896267742
 31
0.0
  0
LINE
  5
3D9C
330
1E
100
AcDbEntity
  8
7
100
AcDbLine
 10
1.258057723425196
 20
3.230440111031521
 30
0.0
 11
1.243621148031496
 21
3.234377358866168
 31
0.0
  0
LINE
  5
3D9D
330
1E
100
AcDbEntity
  8
7
100
AcDbLine
 10
1.243621148031496
 20
3.234377358866168
 30
0.0
 11
1.231809404527559
 21
3.246189102370104
 31
0.0
  0
LINE
  5
3D9E
330
1E
100
AcDbEntity
  8
7
100
AcDbLine
 10
1.231809404527559
 20
3.246189102370104
 30
0.0
 11
1.227872156692913
 21
3.260625677763805
 31
0.0
  0
LINE
  5
3D9F
330
1E
100
AcDbEntity
  8
7
100
AcDbLine
 10
1.227872156692913
 20
3.260625677763805
 30
0.0
 11
1.227872156692913
 21
3.692410523629947
 31
0.0
  0
LINE
  5
3DA0
330
1E
100
AcDbEntity
  8
7
100
AcDbLine
 10
1.227872156692913
 20
3.692410523629947
 30
0.0
 11
1.231809404527559
 21
3.70815951496853
 31
0.0
  0
LINE
  5
3DA1
330
1E
100
AcDbEntity
  8
7
100
AcDbLine
 10
1.231809404527559
 20
3.70815951496853
 30
0.0
 11
1.243621148031496
 21
3.718658842527585
 31
0.0
  0
LINE
  5
3DA2
330
1E
100
AcDbEntity
  8
7
100
AcDbLine
 10
1.243621148031496
 20
3.718658842527585
 30
0.0
 11
1.258057723425196
 21
3.722596090362231
 31
0.0
  0
LINE
  5
3DA3
330
1E
100
AcDbEntity
  8
7
100
AcDbLine
 10
1.258057723425196
 20
3.722596090362231
 30
0.0
 11
2.168874389173228
 21
3.722596090362231
 31
0.0
  0
LINE
  5
3DA4
330
1E
100
AcDbEntity
  8
7
100
AcDbLine
 10
2.168874389173228
 20
3.722596090362231
 30
0.0
 11
2.168874389173228
 21
3.744907161425222
 31
0.0
  0
LINE
  5
3DA5
330
1E
100
AcDbEntity
  8
7
100
AcDbLine
 10
3.264741703149605
 20
3.246189102370104
 30
0.0
 11
3.254242375590551
 21
3.234377358866168
 31
0.0
  0
LINE
  5
3DA6
330
1E
100
AcDbEntity
  8
7
100
AcDbLine
 10
3.254242375590551
 20
3.234377358866168
 30
0.0
 11
3.23980580019685
 21
3.230440111031521
 31
0.0
  0
LINE
  5
3DA7
330
1E
100
AcDbEntity
  8
7
100
AcDbLine
 10
2.328989134448819
 20
3.744907161425222
 30
0.0
 11
2.328989134448819
 21
3.722596090362231
 31
0.0
  0
LINE
  5
3DA8
330
1E
100
AcDbEntity
  8
7
100
AcDbLine
 10
2.328989134448819
 20
3.722596090362231
 30
0.0
 11
3.23980580019685
 21
3.722596090362231
 31
0.0
  0
LINE
  5
3DA9
330
1E
100
AcDbEntity
  8
7
100
AcDbLine
 10
3.23980580019685
 20
3.722596090362231
 30
0.0
 11
3.254242375590551
 21
3.718658842527585
 31
0.0
  0
LINE
  5
3DAA
330
1E
100
AcDbEntity
  8
7
100
AcDbLine
 10
3.254242375590551
 20
3.718658842527585
 30
0.0
 11
3.264741703149605
 21
3.70815951496853
 31
0.0
  0
LINE
  5
3DAB
330
1E
100
AcDbEntity
  8
7
100
AcDbLine
 10
3.264741703149605
 20
3.70815951496853
 30
0.0
 11
3.269991366929133
 21
3.692410523629947
 31
0.0
  0
LINE
  5
3DAC
330
1E
100
AcDbEntity
  8
7
100
AcDbLine
 10
3.269991366929133
 20
3.692410523629947
 30
0.0
 11
3.269991366929133
 21
3.260625677763805
 31
0.0
  0
LINE
  5
3DAD
330
1E
100
AcDbEntity
  8
7
100
AcDbLine
 10
3.269991366929133
 20
3.260625677763805
 30
0.0
 11
3.264741703149605
 21
3.246189102370104
 31
0.0
  0
LINE
  5
3DAE
330
1E
100
AcDbEntity
  8
7
100
AcDbLine
 10
1.570412718307086
 20
6.5075427254016
 30
0.0
 11
1.817146915944881
 21
6.5075427254016
 31
0.0
  0
LINE
  5
3DAF
330
1E
100
AcDbEntity
  8
7
100
AcDbLine
 10
1.817146915944881
 20
6.5075427254016
 30
0.0
 11
1.828958659448819
 21
6.502293061622072
 31
0.0
  0
LINE
  5
3DB0
330
1E
100
AcDbEntity
  8
7
100
AcDbLine
 10
1.828958659448819
 20
6.502293061622072
 30
0.0
 11
1.832895907283464
 21
6.491793734063017
 31
0.0
  0
LINE
  5
3DB1
330
1E
100
AcDbEntity
  8
7
100
AcDbLine
 10
1.832895907283464
 20
6.491793734063017
 30
0.0
 11
1.832895907283464
 21
6.461608167330734
 31
0.0
  0
LINE
  5
3DB2
330
1E
100
AcDbEntity
  8
7
100
AcDbLine
 10
1.832895907283464
 20
6.461608167330734
 30
0.0
 11
1.828958659448819
 21
6.449796423826797
 31
0.0
  0
LINE
  5
3DB3
330
1E
100
AcDbEntity
  8
7
100
AcDbLine
 10
1.828958659448819
 20
6.449796423826797
 30
0.0
 11
1.817146915944881
 21
6.445859175992151
 31
0.0
  0
LINE
  5
3DB4
330
1E
100
AcDbEntity
  8
7
100
AcDbLine
 10
1.571725134251968
 20
6.445859175992151
 30
0.0
 11
1.570412718307086
 21
6.445859175992151
 31
0.0
  0
LINE
  5
3DB5
330
1E
100
AcDbEntity
  8
7
100
AcDbLine
 10
1.570412718307086
 20
6.445859175992151
 30
0.0
 11
1.558600974803149
 21
6.449796423826797
 31
0.0
  0
LINE
  5
3DB6
330
1E
100
AcDbEntity
  8
7
100
AcDbLine
 10
1.558600974803149
 20
6.449796423826797
 30
0.0
 11
1.554663726968503
 21
6.461608167330734
 31
0.0
  0
LINE
  5
3DB7
330
1E
100
AcDbEntity
  8
7
100
AcDbLine
 10
1.554663726968503
 20
6.461608167330734
 30
0.0
 11
1.554663726968503
 21
6.491793734063017
 31
0.0
  0
LINE
  5
3DB8
330
1E
100
AcDbEntity
  8
7
100
AcDbLine
 10
1.554663726968503
 20
6.491793734063017
 30
0.0
 11
1.558600974803149
 21
6.502293061622072
 31
0.0
  0
LINE
  5
3DB9
330
1E
100
AcDbEntity
  8
7
100
AcDbLine
 10
1.558600974803149
 20
6.502293061622072
 30
0.0
 11
1.570412718307086
 21
6.5075427254016
 31
0.0
  0
LINE
  5
3DBA
330
1E
100
AcDbEntity
  8
7
100
AcDbLine
 10
2.680716607677165
 20
6.5075427254016
 30
0.0
 11
2.92745080531496
 21
6.5075427254016
 31
0.0
  0
LINE
  5
3DBB
330
1E
100
AcDbEntity
  8
7
100
AcDbLine
 10
2.92745080531496
 20
6.5075427254016
 30
0.0
 11
2.939262548818897
 21
6.502293061622072
 31
0.0
  0
LINE
  5
3DBC
330
1E
100
AcDbEntity
  8
7
100
AcDbLine
 10
2.939262548818897
 20
6.502293061622072
 30
0.0
 11
2.943199796653543
 21
6.491793734063017
 31
0.0
  0
LINE
  5
3DBD
330
1E
100
AcDbEntity
  8
7
100
AcDbLine
 10
2.943199796653543
 20
6.491793734063017
 30
0.0
 11
2.943199796653543
 21
6.461608167330734
 31
0.0
  0
LINE
  5
3DBE
330
1E
100
AcDbEntity
  8
7
100
AcDbLine
 10
2.943199796653543
 20
6.461608167330734
 30
0.0
 11
2.939262548818897
 21
6.449796423826797
 31
0.0
  0
LINE
  5
3DBF
330
1E
100
AcDbEntity
  8
7
100
AcDbLine
 10
2.939262548818897
 20
6.449796423826797
 30
0.0
 11
2.92745080531496
 21
6.445859175992151
 31
0.0
  0
LINE
  5
3DC0
330
1E
100
AcDbEntity
  8
7
100
AcDbLine
 10
2.92745080531496
 20
6.445859175992151
 30
0.0
 11
2.926138389370078
 21
6.445859175992151
 31
0.0
  0
LINE
  5
3DC1
330
1E
100
AcDbEntity
  8
7
100
AcDbLine
 10
2.680716607677165
 20
6.445859175992151
 30
0.0
 11
2.668904864173228
 21
6.449796423826797
 31
0.0
  0
LINE
  5
3DC2
330
1E
100
AcDbEntity
  8
7
100
AcDbLine
 10
2.668904864173228
 20
6.449796423826797
 30
0.0
 11
2.664967616338582
 21
6.461608167330734
 31
0.0
  0
LINE
  5
3DC3
330
1E
100
AcDbEntity
  8
7
100
AcDbLine
 10
2.664967616338582
 20
6.461608167330734
 30
0.0
 11
2.664967616338582
 21
6.491793734063017
 31
0.0
  0
LINE
  5
3DC4
330
1E
100
AcDbEntity
  8
7
100
AcDbLine
 10
2.664967616338582
 20
6.491793734063017
 30
0.0
 11
2.668904864173228
 21
6.502293061622072
 31
0.0
  0
LINE
  5
3DC5
330
1E
100
AcDbEntity
  8
7
100
AcDbLine
 10
2.668904864173228
 20
6.502293061622072
 30
0.0
 11
2.680716607677165
 21
6.5075427254016
 31
0.0
  0
LINE
  5
3DC6
330
1E
100
AcDbEntity
  8
7
100
AcDbLine
 10
3.269991366929133
 20
6.54166553996853
 30
0.0
 11
3.264741703149605
 21
6.527228964574828
 31
0.0
  0
LINE
  5
3DC7
330
1E
100
AcDbEntity
  8
7
100
AcDbLine
 10
3.264741703149605
 20
6.527228964574828
 30
0.0
 11
3.254242375590551
 21
6.515417221070892
 31
0.0
  0
LINE
  5
3DC8
330
1E
100
AcDbEntity
  8
7
100
AcDbLine
 10
3.254242375590551
 20
6.515417221070892
 30
0.0
 11
3.23980580019685
 21
6.511479973236246
 31
0.0
  0
LINE
  5
3DC9
330
1E
100
AcDbEntity
  8
7
100
AcDbLine
 10
1.258057723425196
 20
7.003635952566956
 30
0.0
 11
3.23980580019685
 21
7.003635952566956
 31
0.0
  0
LINE
  5
3DCA
330
1E
100
AcDbEntity
  8
7
100
AcDbLine
 10
3.23980580019685
 20
7.003635952566956
 30
0.0
 11
3.254242375590551
 21
6.99969870473231
 31
0.0
  0
LINE
  5
3DCB
330
1E
100
AcDbEntity
  8
7
100
AcDbLine
 10
3.254242375590551
 20
6.99969870473231
 30
0.0
 11
3.264741703149605
 21
6.989199377173254
 31
0.0
  0
LINE
  5
3DCC
330
1E
100
AcDbEntity
  8
7
100
AcDbLine
 10
3.264741703149605
 20
6.989199377173254
 30
0.0
 11
3.269991366929133
 21
6.973450385834672
 31
0.0
  0
LINE
  5
3DCD
330
1E
100
AcDbEntity
  8
7
100
AcDbLine
 10
1.258057723425196
 20
6.511479973236246
 30
0.0
 11
1.243621148031496
 21
6.515417221070892
 31
0.0
  0
LINE
  5
3DCE
330
1E
100
AcDbEntity
  8
7
100
AcDbLine
 10
1.243621148031496
 20
6.515417221070892
 30
0.0
 11
1.231809404527559
 21
6.527228964574828
 31
0.0
  0
LINE
  5
3DCF
330
1E
100
AcDbEntity
  8
7
100
AcDbLine
 10
1.231809404527559
 20
6.527228964574828
 30
0.0
 11
1.227872156692913
 21
6.54166553996853
 31
0.0
  0
LINE
  5
3DD0
330
1E
100
AcDbEntity
  8
7
100
AcDbLine
 10
1.227872156692913
 20
6.54166553996853
 30
0.0
 11
1.227872156692913
 21
6.973450385834672
 31
0.0
  0
LINE
  5
3DD1
330
1E
100
AcDbEntity
  8
7
100
AcDbLine
 10
1.227872156692913
 20
6.973450385834672
 30
0.0
 11
1.231809404527559
 21
6.989199377173254
 31
0.0
  0
LINE
  5
3DD2
330
1E
100
AcDbEntity
  8
7
100
AcDbLine
 10
1.231809404527559
 20
6.989199377173254
 30
0.0
 11
1.243621148031496
 21
6.99969870473231
 31
0.0
  0
LINE
  5
3DD3
330
1E
100
AcDbEntity
  8
7
100
AcDbLine
 10
1.243621148031496
 20
6.99969870473231
 30
0.0
 11
1.258057723425196
 21
7.003635952566956
 31
0.0
  0
LINE
  5
3DD4
330
1E
100
AcDbEntity
  8
7
100
AcDbLine
 10
1.68459290551181
 20
3.739657497645695
 30
0.0
 11
1.735777127362204
 21
3.739657497645695
 31
0.0
  0
LINE
  5
3DD5
330
1E
100
AcDbEntity
  8
7
100
AcDbLine
 10
1.735777127362204
 20
3.739657497645695
 30
0.0
 11
1.743651623031496
 21
3.747531993314986
 31
0.0
  0
LINE
  5
3DD6
330
1E
100
AcDbEntity
  8
7
100
AcDbLine
 10
1.483793265944881
 20
3.747531993314986
 30
0.0
 11
1.491667761614173
 21
3.739657497645695
 31
0.0
  0
LINE
  5
3DD7
330
1E
100
AcDbEntity
  8
7
100
AcDbLine
 10
1.491667761614173
 20
3.739657497645695
 30
0.0
 11
1.544164399409448
 21
3.739657497645695
 31
0.0
  0
LINE
  5
3DD8
330
1E
100
AcDbEntity
  8
7
100
AcDbLine
 10
2.179373716732283
 20
3.719971258472466
 30
0.0
 11
2.171499221062991
 21
3.719971258472466
 31
0.0
  0
LINE
  5
3DD9
330
1E
100
AcDbEntity
  8
7
100
AcDbLine
 10
2.171499221062991
 20
3.719971258472466
 30
0.0
 11
2.171499221062991
 21
3.709471930913411
 31
0.0
  0
LINE
  5
3DDA
330
1E
100
AcDbEntity
  8
7
100
AcDbLine
 10
2.953699124212597
 20
3.739657497645695
 30
0.0
 11
3.006195762007874
 21
3.739657497645695
 31
0.0
  0
LINE
  5
3DDB
330
1E
100
AcDbEntity
  8
7
100
AcDbLine
 10
3.006195762007874
 20
3.739657497645695
 30
0.0
 11
3.014070257677165
 21
3.747531993314986
 31
0.0
  0
LINE
  5
3DDC
330
1E
100
AcDbEntity
  8
7
100
AcDbLine
 10
2.754211900590551
 20
3.747531993314986
 30
0.0
 11
2.762086396259842
 21
3.739657497645695
 31
0.0
  0
LINE
  5
3DDD
330
1E
100
AcDbEntity
  8
7
100
AcDbLine
 10
2.762086396259842
 20
3.739657497645695
 30
0.0
 11
2.813270618110235
 21
3.739657497645695
 31
0.0
  0
LINE
  5
3DDE
330
1E
100
AcDbEntity
  8
7
100
AcDbLine
 10
1.622909356102361
 20
6.494418565952781
 30
0.0
 11
1.571725134251968
 21
6.494418565952781
 31
0.0
  0
LINE
  5
3DDF
330
1E
100
AcDbEntity
  8
7
100
AcDbLine
 10
1.571725134251968
 20
6.494418565952781
 30
0.0
 11
1.563850638582676
 21
6.48654407028349
 31
0.0
  0
LINE
  5
3DE0
330
1E
100
AcDbEntity
  8
7
100
AcDbLine
 10
1.823708995669291
 20
6.48654407028349
 30
0.0
 11
1.8158345
 21
6.494418565952781
 31
0.0
  0
LINE
  5
3DE1
330
1E
100
AcDbEntity
  8
7
100
AcDbLine
 10
1.8158345
 20
6.494418565952781
 30
0.0
 11
1.764650278149606
 21
6.494418565952781
 31
0.0
  0
LINE
  5
3DE2
330
1E
100
AcDbEntity
  8
7
100
AcDbLine
 10
2.318489806889763
 20
6.515417221070892
 30
0.0
 11
2.326364302559055
 21
6.515417221070892
 31
0.0
  0
LINE
  5
3DE3
330
1E
100
AcDbEntity
  8
7
100
AcDbLine
 10
2.326364302559055
 20
6.515417221070892
 30
0.0
 11
2.326364302559055
 21
6.525916548629947
 31
0.0
  0
LINE
  5
3DE4
330
1E
100
AcDbEntity
  8
7
100
AcDbLine
 10
2.171499221062991
 20
6.525916548629947
 30
0.0
 11
2.171499221062991
 21
6.515417221070892
 31
0.0
  0
LINE
  5
3DE5
330
1E
100
AcDbEntity
  8
7
100
AcDbLine
 10
2.171499221062991
 20
6.515417221070892
 30
0.0
 11
2.179373716732283
 21
6.515417221070892
 31
0.0
  0
LINE
  5
3DE6
330
1E
100
AcDbEntity
  8
7
100
AcDbLine
 10
2.73321324547244
 20
6.494418565952781
 30
0.0
 11
2.682029023622046
 21
6.494418565952781
 31
0.0
  0
LINE
  5
3DE7
330
1E
100
AcDbEntity
  8
7
100
AcDbLine
 10
2.682029023622046
 20
6.494418565952781
 30
0.0
 11
2.674154527952755
 21
6.48654407028349
 31
0.0
  0
LINE
  5
3DE8
330
1E
100
AcDbEntity
  8
7
100
AcDbLine
 10
2.934012885039369
 20
6.48654407028349
 30
0.0
 11
2.926138389370078
 21
6.494418565952781
 31
0.0
  0
LINE
  5
3DE9
330
1E
100
AcDbEntity
  8
7
100
AcDbLine
 10
2.926138389370078
 20
6.494418565952781
 30
0.0
 11
2.873641751574803
 21
6.494418565952781
 31
0.0
  0
LINE
  5
3DEA
330
1E
100
AcDbEntity
  8
7
100
AcDbLine
 10
2.328989134448819
 20
6.553477283472466
 30
0.0
 11
2.3303015503937
 21
6.552164867527585
 31
0.0
  0
LINE
  5
3DEB
330
1E
100
AcDbEntity
  8
7
100
AcDbLine
 10
2.3303015503937
 20
6.552164867527585
 30
0.0
 11
3.176809834842519
 21
6.552164867527585
 31
0.0
  0
LINE
  5
3DEC
330
1E
100
AcDbEntity
  8
7
100
AcDbLine
 10
2.328989134448819
 20
6.607286337212624
 30
0.0
 11
2.328989134448819
 21
6.553477283472466
 31
0.0
  0
LINE
  5
3DED
330
1E
100
AcDbEntity
  8
7
100
AcDbLine
 10
2.328989134448819
 20
6.553477283472466
 30
0.0
 11
3.13612494055118
 21
6.553477283472466
 31
0.0
  0
LINE
  5
3DEE
330
1E
100
AcDbEntity
  8
7
100
AcDbLine
 10
2.457605897047243
 20
6.788399737606324
 30
0.0
 11
2.443169321653543
 21
6.827772215952782
 31
0.0
  0
LINE
  5
3DEF
330
1E
100
AcDbEntity
  8
7
100
AcDbLine
 10
2.443169321653543
 20
6.827772215952782
 30
0.0
 11
2.419545834645668
 21
6.860582614574829
 31
0.0
  0
LINE
  5
3DF0
330
1E
100
AcDbEntity
  8
7
100
AcDbLine
 10
2.419545834645668
 20
6.860582614574829
 30
0.0
 11
2.388047851968503
 21
6.886830933472467
 31
0.0
  0
LINE
  5
3DF1
330
1E
100
AcDbEntity
  8
7
100
AcDbLine
 10
2.388047851968503
 20
6.886830933472467
 30
0.0
 11
2.349987789566929
 21
6.90389234075593
 31
0.0
  0
LINE
  5
3DF2
330
1E
100
AcDbEntity
  8
7
100
AcDbLine
 10
2.349987789566929
 20
6.90389234075593
 30
0.0
 11
2.30930289527559
 21
6.909142004535459
 31
0.0
  0
LINE
  5
3DF3
330
1E
100
AcDbEntity
  8
7
100
AcDbLine
 10
2.328989134448819
 20
6.608598753157506
 30
0.0
 11
2.368361612795275
 21
6.619098080716561
 31
0.0
  0
LINE
  5
3DF4
330
1E
100
AcDbEntity
  8
7
100
AcDbLine
 10
2.368361612795275
 20
6.619098080716561
 30
0.0
 11
2.403796843307086
 21
6.640096735834672
 31
0.0
  0
LINE
  5
3DF5
330
1E
100
AcDbEntity
  8
7
100
AcDbLine
 10
2.403796843307086
 20
6.640096735834672
 30
0.0
 11
2.432669994094487
 21
6.670282302566955
 31
0.0
  0
LINE
  5
3DF6
330
1E
100
AcDbEntity
  8
7
100
AcDbLine
 10
2.432669994094487
 20
6.670282302566955
 30
0.0
 11
2.451043817322834
 21
6.707029949023648
 31
0.0
  0
LINE
  5
3DF7
330
1E
100
AcDbEntity
  8
7
100
AcDbLine
 10
2.451043817322834
 20
6.707029949023648
 30
0.0
 11
2.460230728937007
 21
6.747714843314986
 31
0.0
  0
LINE
  5
3DF8
330
1E
100
AcDbEntity
  8
7
100
AcDbLine
 10
2.460230728937007
 20
6.747714843314986
 30
0.0
 11
2.457605897047243
 21
6.788399737606324
 31
0.0
  0
LINE
  5
3DF9
330
1E
100
AcDbEntity
  8
7
100
AcDbLine
 10
2.09406668031496
 20
6.640096735834672
 30
0.0
 11
2.129501910826771
 21
6.619098080716561
 31
0.0
  0
LINE
  5
3DFA
330
1E
100
AcDbEntity
  8
7
100
AcDbLine
 10
2.129501910826771
 20
6.619098080716561
 30
0.0
 11
2.168874389173228
 21
6.608598753157506
 31
0.0
  0
LINE
  5
3DFB
330
1E
100
AcDbEntity
  8
7
100
AcDbLine
 10
2.188560628346456
 20
6.909142004535459
 30
0.0
 11
2.147875734055118
 21
6.90389234075593
 31
0.0
  0
LINE
  5
3DFC
330
1E
100
AcDbEntity
  8
7
100
AcDbLine
 10
2.147875734055118
 20
6.90389234075593
 30
0.0
 11
2.109815671653542
 21
6.886830933472467
 31
0.0
  0
LINE
  5
3DFD
330
1E
100
AcDbEntity
  8
7
100
AcDbLine
 10
2.109815671653542
 20
6.886830933472467
 30
0.0
 11
2.078317688976377
 21
6.860582614574829
 31
0.0
  0
LINE
  5
3DFE
330
1E
100
AcDbEntity
  8
7
100
AcDbLine
 10
2.078317688976377
 20
6.860582614574829
 30
0.0
 11
2.054694201968503
 21
6.827772215952782
 31
0.0
  0
LINE
  5
3DFF
330
1E
100
AcDbEntity
  8
7
100
AcDbLine
 10
2.054694201968503
 20
6.827772215952782
 30
0.0
 11
2.040257626574803
 21
6.788399737606324
 31
0.0
  0
LINE
  5
3E00
330
1E
100
AcDbEntity
  8
7
100
AcDbLine
 10
2.040257626574803
 20
6.788399737606324
 30
0.0
 11
2.037632794685039
 21
6.747714843314986
 31
0.0
  0
LINE
  5
3E01
330
1E
100
AcDbEntity
  8
7
100
AcDbLine
 10
2.037632794685039
 20
6.747714843314986
 30
0.0
 11
2.046819706299212
 21
6.707029949023648
 31
0.0
  0
LINE
  5
3E02
330
1E
100
AcDbEntity
  8
7
100
AcDbLine
 10
2.046819706299212
 20
6.707029949023648
 30
0.0
 11
2.065193529527558
 21
6.670282302566955
 31
0.0
  0
LINE
  5
3E03
330
1E
100
AcDbEntity
  8
7
100
AcDbLine
 10
2.065193529527558
 20
6.670282302566955
 30
0.0
 11
2.09406668031496
 21
6.640096735834672
 31
0.0
  0
LINE
  5
3E04
330
1E
100
AcDbEntity
  8
7
100
AcDbLine
 10
1.361738583070865
 20
6.553477283472466
 30
0.0
 11
2.168874389173228
 21
6.553477283472466
 31
0.0
  0
LINE
  5
3E05
330
1E
100
AcDbEntity
  8
7
100
AcDbLine
 10
2.168874389173228
 20
6.553477283472466
 30
0.0
 11
2.168874389173228
 21
6.607286337212624
 31
0.0
  0
LINE
  5
3E06
330
1E
100
AcDbEntity
  8
7
100
AcDbLine
 10
3.13612494055118
 20
6.552164867527585
 30
0.0
 11
3.13612494055118
 21
6.553477283472466
 31
0.0
  0
LINE
  5
3E07
330
1E
100
AcDbEntity
  8
7
100
AcDbLine
 10
3.13612494055118
 20
6.553477283472466
 30
0.0
 11
3.13612494055118
 21
6.962951058275616
 31
0.0
  0
LINE
  5
3E08
330
1E
100
AcDbEntity
  8
7
100
AcDbLine
 10
3.269991366929133
 20
6.973450385834672
 30
0.0
 11
3.268678950984251
 21
6.973450385834672
 31
0.0
  0
LINE
  5
3E09
330
1E
100
AcDbEntity
  8
7
100
AcDbLine
 10
3.268678950984251
 20
6.973450385834672
 30
0.0
 11
3.268678950984251
 21
6.542977955913412
 31
0.0
  0
LINE
  5
3E0A
330
1E
100
AcDbEntity
  8
7
100
AcDbLine
 10
3.268678950984251
 20
6.542977955913412
 30
0.0
 11
3.269991366929133
 21
6.54166553996853
 31
0.0
  0
LINE
  5
3E0B
330
1E
100
AcDbEntity
  8
7
100
AcDbLine
 10
3.176809834842519
 20
6.552164867527585
 30
0.0
 11
3.183371914566929
 21
6.554789699417348
 31
0.0
  0
LINE
  5
3E0C
330
1E
100
AcDbEntity
  8
7
100
AcDbLine
 10
3.183371914566929
 20
6.554789699417348
 30
0.0
 11
3.185996746456693
 21
6.561351779141759
 31
0.0
  0
LINE
  5
3E0D
330
1E
100
AcDbEntity
  8
7
100
AcDbLine
 10
3.185996746456693
 20
6.953764146661443
 30
0.0
 11
3.183371914566929
 21
6.960326226385852
 31
0.0
  0
LINE
  5
3E0E
330
1E
100
AcDbEntity
  8
7
100
AcDbLine
 10
3.183371914566929
 20
6.960326226385852
 30
0.0
 11
3.176809834842519
 21
6.962951058275616
 31
0.0
  0
LINE
  5
3E0F
330
1E
100
AcDbEntity
  8
7
100
AcDbLine
 10
2.28830424015748
 20
3.557231681307112
 30
0.0
 11
2.30930289527559
 21
3.565106176976404
 31
0.0
  0
LINE
  5
3E10
330
1E
100
AcDbEntity
  8
7
100
AcDbLine
 10
2.30930289527559
 20
3.565106176976404
 30
0.0
 11
2.317177390944881
 21
3.586104832094513
 31
0.0
  0
LINE
  5
3E11
330
1E
100
AcDbEntity
  8
7
100
AcDbLine
 10
2.179373716732283
 20
3.586104832094513
 30
0.0
 11
2.187248212401574
 21
3.565106176976404
 31
0.0
  0
LINE
  5
3E12
330
1E
100
AcDbEntity
  8
7
100
AcDbLine
 10
2.187248212401574
 20
3.565106176976404
 30
0.0
 11
2.208246867519684
 21
3.557231681307112
 31
0.0
  0
LINE
  5
3E13
330
1E
100
AcDbEntity
  8
7
100
AcDbLine
 10
2.318489806889763
 20
3.683223612015773
 30
0.0
 11
2.318489806889763
 21
3.677973948236246
 31
0.0
  0
LINE
  5
3E14
330
1E
100
AcDbEntity
  8
7
100
AcDbLine
 10
2.318489806889763
 20
3.677973948236246
 30
0.0
 11
2.318489806889763
 21
3.66616220473231
 31
0.0
  0
LINE
  5
3E15
330
1E
100
AcDbEntity
  8
7
100
AcDbLine
 10
2.318489806889763
 20
3.66616220473231
 30
0.0
 11
2.179373716732283
 21
3.66616220473231
 31
0.0
  0
LINE
  5
3E16
330
1E
100
AcDbEntity
  8
7
100
AcDbLine
 10
2.179373716732283
 20
3.66616220473231
 30
0.0
 11
2.179373716732283
 21
3.586104832094513
 31
0.0
  0
LINE
  5
3E17
330
1E
100
AcDbEntity
  8
7
100
AcDbLine
 10
2.179373716732283
 20
3.683223612015773
 30
0.0
 11
2.179373716732283
 21
3.677973948236246
 31
0.0
  0
LINE
  5
3E18
330
1E
100
AcDbEntity
  8
7
100
AcDbLine
 10
2.179373716732283
 20
3.677973948236246
 30
0.0
 11
2.179373716732283
 21
3.66616220473231
 31
0.0
  0
LINE
  5
3E19
330
1E
100
AcDbEntity
  8
7
100
AcDbLine
 10
2.318489806889763
 20
3.722596090362231
 30
0.0
 11
2.319802222834645
 21
3.731783001976403
 31
0.0
  0
LINE
  5
3E1A
330
1E
100
AcDbEntity
  8
7
100
AcDbLine
 10
2.319802222834645
 20
3.731783001976403
 30
0.0
 11
2.322427054724409
 21
3.737032665755931
 31
0.0
  0
LINE
  5
3E1B
330
1E
100
AcDbEntity
  8
7
100
AcDbLine
 10
2.174124052952755
 20
3.737032665755931
 30
0.0
 11
2.178061300787401
 21
3.72915817008664
 31
0.0
  0
LINE
  5
3E1C
330
1E
100
AcDbEntity
  8
7
100
AcDbLine
 10
2.178061300787401
 20
3.72915817008664
 30
0.0
 11
2.179373716732283
 21
3.722596090362231
 31
0.0
  0
LINE
  5
3E1D
330
1E
100
AcDbEntity
  8
7
100
AcDbLine
 10
2.179373716732283
 20
3.722596090362231
 30
0.0
 11
2.179373716732283
 21
3.69503535551971
 31
0.0
  0
LINE
  5
3E1E
330
1E
100
AcDbEntity
  8
7
100
AcDbLine
 10
2.179373716732283
 20
3.69503535551971
 30
0.0
 11
2.179373716732283
 21
3.683223612015773
 31
0.0
  0
LINE
  5
3E1F
330
1E
100
AcDbEntity
  8
7
100
AcDbLine
 10
2.318489806889763
 20
3.722596090362231
 30
0.0
 11
2.318489806889763
 21
3.69503535551971
 31
0.0
  0
LINE
  5
3E20
330
1E
100
AcDbEntity
  8
7
100
AcDbLine
 10
2.318489806889763
 20
3.69503535551971
 30
0.0
 11
2.318489806889763
 21
3.683223612015773
 31
0.0
  0
LINE
  5
3E21
330
1E
100
AcDbEntity
  8
7
100
AcDbLine
 10
2.76077398031496
 20
3.796091383275617
 30
0.0
 11
2.76077398031496
 21
3.768530648433096
 31
0.0
  0
LINE
  5
3E22
330
1E
100
AcDbEntity
  8
7
100
AcDbLine
 10
2.76077398031496
 20
3.768530648433096
 30
0.0
 11
2.76077398031496
 21
3.748844409259868
 31
0.0
  0
LINE
  5
3E23
330
1E
100
AcDbEntity
  8
7
100
AcDbLine
 10
2.76077398031496
 20
3.748844409259868
 30
0.0
 11
2.76077398031496
 21
3.740969913590577
 31
0.0
  0
LINE
  5
3E24
330
1E
100
AcDbEntity
  8
7
100
AcDbLine
 10
2.76077398031496
 20
3.740969913590577
 30
0.0
 11
3.006195762007874
 21
3.740969913590577
 31
0.0
  0
LINE
  5
3E25
330
1E
100
AcDbEntity
  8
7
100
AcDbLine
 10
3.006195762007874
 20
3.796091383275617
 30
0.0
 11
3.006195762007874
 21
3.768530648433096
 31
0.0
  0
LINE
  5
3E26
330
1E
100
AcDbEntity
  8
7
100
AcDbLine
 10
3.006195762007874
 20
3.768530648433096
 30
0.0
 11
3.006195762007874
 21
3.748844409259868
 31
0.0
  0
LINE
  5
3E27
330
1E
100
AcDbEntity
  8
7
100
AcDbLine
 10
3.006195762007874
 20
3.748844409259868
 30
0.0
 11
3.006195762007874
 21
3.740969913590577
 31
0.0
  0
LINE
  5
3E28
330
1E
100
AcDbEntity
  8
7
100
AcDbLine
 10
1.735777127362204
 20
3.796091383275617
 30
0.0
 11
1.735777127362204
 21
3.768530648433096
 31
0.0
  0
LINE
  5
3E29
330
1E
100
AcDbEntity
  8
7
100
AcDbLine
 10
1.735777127362204
 20
3.768530648433096
 30
0.0
 11
1.735777127362204
 21
3.748844409259868
 31
0.0
  0
LINE
  5
3E2A
330
1E
100
AcDbEntity
  8
7
100
AcDbLine
 10
1.735777127362204
 20
3.748844409259868
 30
0.0
 11
1.735777127362204
 21
3.740969913590577
 31
0.0
  0
LINE
  5
3E2B
330
1E
100
AcDbEntity
  8
7
100
AcDbLine
 10
1.735777127362204
 20
3.740969913590577
 30
0.0
 11
1.491667761614173
 21
3.740969913590577
 31
0.0
  0
LINE
  5
3E2C
330
1E
100
AcDbEntity
  8
7
100
AcDbLine
 10
1.491667761614173
 20
3.796091383275617
 30
0.0
 11
1.491667761614173
 21
3.768530648433096
 31
0.0
  0
LINE
  5
3E2D
330
1E
100
AcDbEntity
  8
7
100
AcDbLine
 10
1.491667761614173
 20
3.768530648433096
 30
0.0
 11
1.491667761614173
 21
3.748844409259868
 31
0.0
  0
LINE
  5
3E2E
330
1E
100
AcDbEntity
  8
7
100
AcDbLine
 10
1.491667761614173
 20
3.748844409259868
 30
0.0
 11
1.491667761614173
 21
3.740969913590577
 31
0.0
  0
LINE
  5
3E2F
330
1E
100
AcDbEntity
  8
7
100
AcDbLine
 10
0.8735198515748031
 20
2.897086461031522
 30
0.0
 11
0.8748322675196845
 21
2.887899549417348
 31
0.0
  0
LINE
  5
3E30
330
1E
100
AcDbEntity
  8
7
100
AcDbLine
 10
0.8748322675196845
 20
2.887899549417348
 30
0.0
 11
0.8800819312992121
 21
2.878712637803175
 31
0.0
  0
LINE
  5
3E31
330
1E
100
AcDbEntity
  8
7
100
AcDbLine
 10
0.8800819312992121
 20
2.878712637803175
 30
0.0
 11
0.8866440110236219
 21
2.872150558078766
 31
0.0
  0
LINE
  5
3E32
330
1E
100
AcDbEntity
  8
7
100
AcDbLine
 10
0.8866440110236219
 20
2.872150558078766
 30
0.0
 11
0.8958309226377947
 21
2.86821331024412
 31
0.0
  0
LINE
  5
3E33
330
1E
100
AcDbEntity
  8
7
100
AcDbLine
 10
0.8958309226377947
 20
2.86821331024412
 30
0.0
 11
0.9037054183070868
 21
2.866900894299238
 31
0.0
  0
LINE
  5
3E34
330
1E
100
AcDbEntity
  8
7
100
AcDbLine
 10
0.9942621185039367
 20
3.051951542527585
 30
0.0
 11
1.023135269291338
 21
3.016516312015773
 31
0.0
  0
LINE
  5
3E35
330
1E
100
AcDbEntity
  8
7
100
AcDbLine
 10
1.023135269291338
 20
3.016516312015773
 30
0.0
 11
1.058570499803149
 21
2.987643161228372
 31
0.0
  0
LINE
  5
3E36
330
1E
100
AcDbEntity
  8
7
100
AcDbLine
 10
1.058570499803149
 20
3.051951542527585
 30
0.0
 11
1.058570499803149
 21
3.017828727960656
 31
0.0
  0
LINE
  5
3E37
330
1E
100
AcDbEntity
  8
7
100
AcDbLine
 10
1.058570499803149
 20
3.017828727960656
 30
0.0
 11
1.058570499803149
 21
2.987643161228372
 31
0.0
  0
LINE
  5
3E38
330
1E
100
AcDbEntity
  8
7
100
AcDbLine
 10
1.058570499803149
 20
2.987643161228372
 30
0.0
 11
3.437980607874015
 21
2.987643161228372
 31
0.0
  0
LINE
  5
3E39
330
1E
100
AcDbEntity
  8
7
100
AcDbLine
 10
0.9037054183070868
 20
2.866900894299238
 30
0.0
 11
0.9378282328740151
 21
2.866900894299238
 31
0.0
  0
LINE
  5
3E3A
330
1E
100
AcDbEntity
  8
7
100
AcDbLine
 10
0.9378282328740151
 20
2.866900894299238
 30
0.0
 11
3.560035290748031
 21
2.866900894299238
 31
0.0
  0
LINE
  5
3E3B
330
1E
100
AcDbEntity
  8
7
100
AcDbLine
 10
3.603345016929133
 20
2.86821331024412
 30
0.0
 11
3.612531928543306
 21
2.873462974023647
 31
0.0
  0
LINE
  5
3E3C
330
1E
100
AcDbEntity
  8
7
100
AcDbLine
 10
3.612531928543306
 20
2.873462974023647
 30
0.0
 11
3.619094008267716
 21
2.880025053748057
 31
0.0
  0
LINE
  5
3E3D
330
1E
100
AcDbEntity
  8
7
100
AcDbLine
 10
3.619094008267716
 20
2.880025053748057
 30
0.0
 11
3.623031256102361
 21
2.88921196536223
 31
0.0
  0
LINE
  5
3E3E
330
1E
100
AcDbEntity
  8
7
100
AcDbLine
 10
3.623031256102361
 20
2.88921196536223
 30
0.0
 11
3.624343672047244
 21
2.897086461031522
 31
0.0
  0
LINE
  5
3E3F
330
1E
100
AcDbEntity
  8
7
100
AcDbLine
 10
3.560035290748031
 20
2.866900894299238
 30
0.0
 11
3.59415810531496
 21
2.866900894299238
 31
0.0
  0
LINE
  5
3E40
330
1E
100
AcDbEntity
  8
7
100
AcDbLine
 10
3.59415810531496
 20
2.866900894299238
 30
0.0
 11
3.603345016929133
 21
2.86821331024412
 31
0.0
  0
LINE
  5
3E41
330
1E
100
AcDbEntity
  8
7
100
AcDbLine
 10
3.502288989173228
 20
3.051951542527585
 30
0.0
 11
3.474728254330708
 21
3.016516312015773
 31
0.0
  0
LINE
  5
3E42
330
1E
100
AcDbEntity
  8
7
100
AcDbLine
 10
3.474728254330708
 20
3.016516312015773
 30
0.0
 11
3.437980607874015
 21
2.987643161228372
 31
0.0
  0
LINE
  5
3E43
330
1E
100
AcDbEntity
  8
7
100
AcDbLine
 10
3.437980607874015
 20
3.051951542527585
 30
0.0
 11
3.437980607874015
 21
3.017828727960656
 31
0.0
  0
LINE
  5
3E44
330
1E
100
AcDbEntity
  8
7
100
AcDbLine
 10
3.437980607874015
 20
3.017828727960656
 30
0.0
 11
3.437980607874015
 21
2.987643161228372
 31
0.0
  0
LINE
  5
3E45
330
1E
100
AcDbEntity
  8
7
100
AcDbLine
 10
0.9942621185039367
 20
7.182124521070892
 30
0.0
 11
0.9942621185039367
 21
3.051951542527585
 31
0.0
  0
LINE
  5
3E46
330
1E
100
AcDbEntity
  8
7
100
AcDbLine
 10
0.9942621185039367
 20
3.051951542527585
 30
0.0
 11
1.02444768523622
 21
3.051951542527585
 31
0.0
  0
LINE
  5
3E47
330
1E
100
AcDbEntity
  8
7
100
AcDbLine
 10
1.02444768523622
 20
3.051951542527585
 30
0.0
 11
1.058570499803149
 21
3.051951542527585
 31
0.0
  0
LINE
  5
3E48
330
1E
100
AcDbEntity
  8
7
100
AcDbLine
 10
0.9037054183070868
 20
7.367175169299238
 30
0.0
 11
0.8945185066929134
 21
7.365862753354356
 31
0.0
  0
LINE
  5
3E49
330
1E
100
AcDbEntity
  8
7
100
AcDbLine
 10
0.8945185066929134
 20
7.365862753354356
 30
0.0
 11
0.8853315950787399
 21
7.360613089574829
 31
0.0
  0
LINE
  5
3E4A
330
1E
100
AcDbEntity
  8
7
100
AcDbLine
 10
0.8853315950787399
 20
7.360613089574829
 30
0.0
 11
0.8787695153543308
 21
7.35405100985042
 31
0.0
  0
LINE
  5
3E4B
330
1E
100
AcDbEntity
  8
7
100
AcDbLine
 10
0.8787695153543308
 20
7.35405100985042
 30
0.0
 11
0.8748322675196845
 21
7.344864098236246
 31
0.0
  0
LINE
  5
3E4C
330
1E
100
AcDbEntity
  8
7
100
AcDbLine
 10
0.8748322675196845
 20
7.344864098236246
 30
0.0
 11
0.8735198515748031
 21
7.336989602566955
 31
0.0
  0
LINE
  5
3E4D
330
1E
100
AcDbEntity
  8
7
100
AcDbLine
 10
0.9942621185039367
 20
7.182124521070892
 30
0.0
 11
1.023135269291338
 21
7.217559751582703
 31
0.0
  0
LINE
  5
3E4E
330
1E
100
AcDbEntity
  8
7
100
AcDbLine
 10
1.023135269291338
 20
7.217559751582703
 30
0.0
 11
1.058570499803149
 21
7.246432902370104
 31
0.0
  0
LINE
  5
3E4F
330
1E
100
AcDbEntity
  8
7
100
AcDbLine
 10
0.9942621185039367
 20
7.182124521070892
 30
0.0
 11
1.02444768523622
 21
7.182124521070892
 31
0.0
  0
LINE
  5
3E50
330
1E
100
AcDbEntity
  8
7
100
AcDbLine
 10
1.02444768523622
 20
7.182124521070892
 30
0.0
 11
1.058570499803149
 21
7.182124521070892
 31
0.0
  0
LINE
  5
3E51
330
1E
100
AcDbEntity
  8
7
100
AcDbLine
 10
1.571725134251968
 20
6.465545415165379
 30
0.0
 11
1.571725134251968
 21
6.485231654338608
 31
0.0
  0
LINE
  5
3E52
330
1E
100
AcDbEntity
  8
7
100
AcDbLine
 10
1.571725134251968
 20
6.485231654338608
 30
0.0
 11
1.571725134251968
 21
6.4931061500079
 31
0.0
  0
LINE
  5
3E53
330
1E
100
AcDbEntity
  8
7
100
AcDbLine
 10
1.8158345
 20
6.439297096267742
 30
0.0
 11
1.8158345
 21
6.465545415165379
 31
0.0
  0
LINE
  5
3E54
330
1E
100
AcDbEntity
  8
7
100
AcDbLine
 10
1.8158345
 20
6.465545415165379
 30
0.0
 11
1.8158345
 21
6.485231654338608
 31
0.0
  0
LINE
  5
3E55
330
1E
100
AcDbEntity
  8
7
100
AcDbLine
 10
1.8158345
 20
6.485231654338608
 30
0.0
 11
1.8158345
 21
6.4931061500079
 31
0.0
  0
LINE
  5
3E56
330
1E
100
AcDbEntity
  8
7
100
AcDbLine
 10
2.179373716732283
 20
6.511479973236246
 30
0.0
 11
2.178061300787401
 21
6.503605477566956
 31
0.0
  0
LINE
  5
3E57
330
1E
100
AcDbEntity
  8
7
100
AcDbLine
 10
2.178061300787401
 20
6.503605477566956
 30
0.0
 11
2.174124052952755
 21
6.497043397842545
 31
0.0
  0
LINE
  5
3E58
330
1E
100
AcDbEntity
  8
7
100
AcDbLine
 10
2.322427054724409
 20
6.497043397842545
 30
0.0
 11
2.319802222834645
 21
6.504917893511837
 31
0.0
  0
LINE
  5
3E59
330
1E
100
AcDbEntity
  8
7
100
AcDbLine
 10
2.319802222834645
 20
6.504917893511837
 30
0.0
 11
2.318489806889763
 21
6.511479973236246
 31
0.0
  0
LINE
  5
3E5A
330
1E
100
AcDbEntity
  8
7
100
AcDbLine
 10
2.179373716732283
 20
6.511479973236246
 30
0.0
 11
2.179373716732283
 21
6.540353124023648
 31
0.0
  0
LINE
  5
3E5B
330
1E
100
AcDbEntity
  8
7
100
AcDbLine
 10
2.179373716732283
 20
6.540353124023648
 30
0.0
 11
2.179373716732283
 21
6.550852451582703
 31
0.0
  0
LINE
  5
3E5C
330
1E
100
AcDbEntity
  8
7
100
AcDbLine
 10
2.318489806889763
 20
6.511479973236246
 30
0.0
 11
2.318489806889763
 21
6.540353124023648
 31
0.0
  0
LINE
  5
3E5D
330
1E
100
AcDbEntity
  8
7
100
AcDbLine
 10
2.318489806889763
 20
6.540353124023648
 30
0.0
 11
2.318489806889763
 21
6.550852451582703
 31
0.0
  0
LINE
  5
3E5E
330
1E
100
AcDbEntity
  8
7
100
AcDbLine
 10
2.179373716732283
 20
6.550852451582703
 30
0.0
 11
2.179373716732283
 21
6.55610211536223
 31
0.0
  0
LINE
  5
3E5F
330
1E
100
AcDbEntity
  8
7
100
AcDbLine
 10
2.179373716732283
 20
6.55610211536223
 30
0.0
 11
2.179373716732283
 21
6.569226274811049
 31
0.0
  0
LINE
  5
3E60
330
1E
100
AcDbEntity
  8
7
100
AcDbLine
 10
2.318489806889763
 20
6.550852451582703
 30
0.0
 11
2.318489806889763
 21
6.55610211536223
 31
0.0
  0
LINE
  5
3E61
330
1E
100
AcDbEntity
  8
7
100
AcDbLine
 10
2.318489806889763
 20
6.55610211536223
 30
0.0
 11
2.318489806889763
 21
6.569226274811049
 31
0.0
  0
LINE
  5
3E62
330
1E
100
AcDbEntity
  8
7
100
AcDbLine
 10
2.317177390944881
 20
6.649283647448845
 30
0.0
 11
2.30930289527559
 21
6.670282302566955
 31
0.0
  0
LINE
  5
3E63
330
1E
100
AcDbEntity
  8
7
100
AcDbLine
 10
2.30930289527559
 20
6.670282302566955
 30
0.0
 11
2.28830424015748
 21
6.678156798236246
 31
0.0
  0
LINE
  5
3E64
330
1E
100
AcDbEntity
  8
7
100
AcDbLine
 10
2.208246867519684
 20
6.678156798236246
 30
0.0
 11
2.187248212401574
 21
6.670282302566955
 31
0.0
  0
LINE
  5
3E65
330
1E
100
AcDbEntity
  8
7
100
AcDbLine
 10
2.187248212401574
 20
6.670282302566955
 30
0.0
 11
2.179373716732283
 21
6.649283647448845
 31
0.0
  0
LINE
  5
3E66
330
1E
100
AcDbEntity
  8
7
100
AcDbLine
 10
2.680716607677165
 20
6.439297096267742
 30
0.0
 11
2.680716607677165
 21
6.465545415165379
 31
0.0
  0
LINE
  5
3E67
330
1E
100
AcDbEntity
  8
7
100
AcDbLine
 10
2.680716607677165
 20
6.465545415165379
 30
0.0
 11
2.680716607677165
 21
6.485231654338608
 31
0.0
  0
LINE
  5
3E68
330
1E
100
AcDbEntity
  8
7
100
AcDbLine
 10
2.680716607677165
 20
6.485231654338608
 30
0.0
 11
2.680716607677165
 21
6.4931061500079
 31
0.0
  0
LINE
  5
3E69
330
1E
100
AcDbEntity
  8
7
100
AcDbLine
 10
2.926138389370078
 20
6.439297096267742
 30
0.0
 11
2.926138389370078
 21
6.465545415165379
 31
0.0
  0
LINE
  5
3E6A
330
1E
100
AcDbEntity
  8
7
100
AcDbLine
 10
2.926138389370078
 20
6.465545415165379
 30
0.0
 11
2.926138389370078
 21
6.485231654338608
 31
0.0
  0
LINE
  5
3E6B
330
1E
100
AcDbEntity
  8
7
100
AcDbLine
 10
1.368300662795275
 20
4.191128582685065
 30
0.0
 11
1.37223791062992
 21
4.183254087015773
 31
0.0
  0
LINE
  5
3E6C
330
1E
100
AcDbEntity
  8
7
100
AcDbLine
 10
1.37223791062992
 20
4.183254087015773
 30
0.0
 11
1.380112406299212
 21
4.179316839181128
 31
0.0
  0
LINE
  5
3E6D
330
1E
100
AcDbEntity
  8
7
100
AcDbLine
 10
1.847332482677165
 20
4.179316839181128
 30
0.0
 11
1.855206978346456
 21
4.183254087015773
 31
0.0
  0
LINE
  5
3E6E
330
1E
100
AcDbEntity
  8
7
100
AcDbLine
 10
1.855206978346456
 20
4.183254087015773
 30
0.0
 11
1.859144226181101
 21
4.191128582685065
 31
0.0
  0
LINE
  5
3E6F
330
1E
100
AcDbEntity
  8
7
100
AcDbLine
 10
1.870955969685039
 20
4.244937636425222
 30
0.0
 11
1.863081474015747
 21
4.241000388590577
 31
0.0
  0
LINE
  5
3E70
330
1E
100
AcDbEntity
  8
7
100
AcDbLine
 10
1.863081474015747
 20
4.241000388590577
 30
0.0
 11
1.859144226181101
 21
4.233125892921286
 31
0.0
  0
LINE
  5
3E71
330
1E
100
AcDbEntity
  8
7
100
AcDbLine
 10
2.00350998011811
 20
4.233125892921286
 30
0.0
 11
1.999572732283464
 21
4.241000388590577
 31
0.0
  0
LINE
  5
3E72
330
1E
100
AcDbEntity
  8
7
100
AcDbLine
 10
1.999572732283464
 20
4.241000388590577
 30
0.0
 11
1.991698236614173
 21
4.244937636425222
 31
0.0
  0
LINE
  5
3E73
330
1E
100
AcDbEntity
  8
7
100
AcDbLine
 10
2.00350998011811
 20
4.191128582685065
 30
0.0
 11
2.007447227952755
 21
4.183254087015773
 31
0.0
  0
LINE
  5
3E74
330
1E
100
AcDbEntity
  8
7
100
AcDbLine
 10
2.007447227952755
 20
4.183254087015773
 30
0.0
 11
2.015321723622046
 21
4.179316839181128
 31
0.0
  0
LINE
  5
3E75
330
1E
100
AcDbEntity
  8
7
100
AcDbLine
 10
2.481229384055117
 20
4.179316839181128
 30
0.0
 11
2.489103879724408
 21
4.183254087015773
 31
0.0
  0
LINE
  5
3E76
330
1E
100
AcDbEntity
  8
7
100
AcDbLine
 10
2.489103879724408
 20
4.183254087015773
 30
0.0
 11
2.493041127559055
 21
4.191128582685065
 31
0.0
  0
LINE
  5
3E77
330
1E
100
AcDbEntity
  8
7
100
AcDbLine
 10
2.506165287007874
 20
4.244937636425222
 30
0.0
 11
2.498290791338583
 21
4.241000388590577
 31
0.0
  0
LINE
  5
3E78
330
1E
100
AcDbEntity
  8
7
100
AcDbLine
 10
2.498290791338583
 20
4.241000388590577
 30
0.0
 11
2.494353543503936
 21
4.233125892921286
 31
0.0
  0
LINE
  5
3E79
330
1E
100
AcDbEntity
  8
7
100
AcDbLine
 10
2.638719297440944
 20
4.191128582685065
 30
0.0
 11
2.64265654527559
 21
4.183254087015773
 31
0.0
  0
LINE
  5
3E7A
330
1E
100
AcDbEntity
  8
7
100
AcDbLine
 10
2.64265654527559
 20
4.183254087015773
 30
0.0
 11
2.650531040944881
 21
4.179316839181128
 31
0.0
  0
LINE
  5
3E7B
330
1E
100
AcDbEntity
  8
7
100
AcDbLine
 10
3.141374604330708
 20
4.244937636425222
 30
0.0
 11
3.133500108661416
 21
4.241000388590577
 31
0.0
  0
LINE
  5
3E7C
330
1E
100
AcDbEntity
  8
7
100
AcDbLine
 10
3.133500108661416
 20
4.241000388590577
 30
0.0
 11
3.129562860826771
 21
4.233125892921286
 31
0.0
  0
LINE
  5
3E7D
330
1E
100
AcDbEntity
  8
7
100
AcDbLine
 10
3.18468433051181
 20
4.244937636425222
 30
0.0
 11
3.192558826181102
 21
4.248874884259869
 31
0.0
  0
LINE
  5
3E7E
330
1E
100
AcDbEntity
  8
7
100
AcDbLine
 10
3.192558826181102
 20
4.248874884259869
 30
0.0
 11
3.196496074015747
 21
4.256749379929159
 31
0.0
  0
LINE
  5
3E7F
330
1E
100
AcDbEntity
  8
7
100
AcDbLine
 10
3.196496074015747
 20
4.893271113196876
 30
0.0
 11
3.192558826181102
 21
4.901145608866167
 31
0.0
  0
LINE
  5
3E80
330
1E
100
AcDbEntity
  8
7
100
AcDbLine
 10
3.192558826181102
 20
4.901145608866167
 30
0.0
 11
3.18468433051181
 21
4.905082856700813
 31
0.0
  0
LINE
  5
3E81
330
1E
100
AcDbEntity
  8
7
100
AcDbLine
 10
1.313179193110236
 20
4.905082856700813
 30
0.0
 11
1.305304697440944
 21
4.901145608866167
 31
0.0
  0
LINE
  5
3E82
330
1E
100
AcDbEntity
  8
7
100
AcDbLine
 10
1.305304697440944
 20
4.901145608866167
 30
0.0
 11
1.301367449606299
 21
4.893271113196876
 31
0.0
  0
LINE
  5
3E83
330
1E
100
AcDbEntity
  8
7
100
AcDbLine
 10
1.301367449606299
 20
4.256749379929159
 30
0.0
 11
1.305304697440944
 21
4.248874884259869
 31
0.0
  0
LINE
  5
3E84
330
1E
100
AcDbEntity
  8
7
100
AcDbLine
 10
1.305304697440944
 20
4.248874884259869
 30
0.0
 11
1.313179193110236
 21
4.244937636425222
 31
0.0
  0
LINE
  5
3E85
330
1E
100
AcDbEntity
  8
7
100
AcDbLine
 10
1.368300662795275
 20
4.233125892921286
 30
0.0
 11
1.364363414960629
 21
4.241000388590577
 31
0.0
  0
LINE
  5
3E86
330
1E
100
AcDbEntity
  8
7
100
AcDbLine
 10
1.364363414960629
 20
4.241000388590577
 30
0.0
 11
1.356488919291338
 21
4.244937636425222
 31
0.0
  0
LINE
  5
3E87
330
1E
100
AcDbEntity
  8
7
100
AcDbLine
 10
3.18468433051181
 20
5.394614004141758
 30
0.0
 11
3.192558826181102
 21
5.398551251976403
 31
0.0
  0
LINE
  5
3E88
330
1E
100
AcDbEntity
  8
7
100
AcDbLine
 10
3.192558826181102
 20
5.398551251976403
 30
0.0
 11
3.196496074015747
 21
5.406425747645695
 31
0.0
  0
LINE
  5
3E89
330
1E
100
AcDbEntity
  8
7
100
AcDbLine
 10
3.196496074015747
 20
6.042947480913412
 30
0.0
 11
3.192558826181102
 21
6.050821976582703
 31
0.0
  0
LINE
  5
3E8A
330
1E
100
AcDbEntity
  8
7
100
AcDbLine
 10
3.192558826181102
 20
6.050821976582703
 30
0.0
 11
3.18468433051181
 21
6.054759224417348
 31
0.0
  0
LINE
  5
3E8B
330
1E
100
AcDbEntity
  8
7
100
AcDbLine
 10
1.313179193110236
 20
6.054759224417348
 30
0.0
 11
1.305304697440944
 21
6.050821976582703
 31
0.0
  0
LINE
  5
3E8C
330
1E
100
AcDbEntity
  8
7
100
AcDbLine
 10
1.305304697440944
 20
6.050821976582703
 30
0.0
 11
1.301367449606299
 21
6.042947480913412
 31
0.0
  0
LINE
  5
3E8D
330
1E
100
AcDbEntity
  8
7
100
AcDbLine
 10
1.301367449606299
 20
5.406425747645695
 30
0.0
 11
1.305304697440944
 21
5.398551251976403
 31
0.0
  0
LINE
  5
3E8E
330
1E
100
AcDbEntity
  8
7
100
AcDbLine
 10
1.305304697440944
 20
5.398551251976403
 30
0.0
 11
1.313179193110236
 21
5.394614004141758
 31
0.0
  0
LINE
  5
3E8F
330
1E
100
AcDbEntity
  8
7
100
AcDbLine
 10
1.368300662795275
 20
5.38280226063782
 30
0.0
 11
1.364363414960629
 21
5.390676756307112
 31
0.0
  0
LINE
  5
3E90
330
1E
100
AcDbEntity
  8
7
100
AcDbLine
 10
1.364363414960629
 20
5.390676756307112
 30
0.0
 11
1.356488919291338
 21
5.394614004141758
 31
0.0
  0
LINE
  5
3E91
330
1E
100
AcDbEntity
  8
7
100
AcDbLine
 10
1.368300662795275
 20
5.342117366346482
 30
0.0
 11
1.37223791062992
 21
5.334242870677191
 31
0.0
  0
LINE
  5
3E92
330
1E
100
AcDbEntity
  8
7
100
AcDbLine
 10
1.37223791062992
 20
5.334242870677191
 30
0.0
 11
1.380112406299212
 21
5.330305622842545
 31
0.0
  0
LINE
  5
3E93
330
1E
100
AcDbEntity
  8
7
100
AcDbLine
 10
1.847332482677165
 20
5.330305622842545
 30
0.0
 11
1.855206978346456
 21
5.334242870677191
 31
0.0
  0
LINE
  5
3E94
330
1E
100
AcDbEntity
  8
7
100
AcDbLine
 10
1.855206978346456
 20
5.334242870677191
 30
0.0
 11
1.859144226181101
 21
5.342117366346482
 31
0.0
  0
LINE
  5
3E95
330
1E
100
AcDbEntity
  8
7
100
AcDbLine
 10
1.870955969685039
 20
5.394614004141758
 30
0.0
 11
1.863081474015747
 21
5.390676756307112
 31
0.0
  0
LINE
  5
3E96
330
1E
100
AcDbEntity
  8
7
100
AcDbLine
 10
1.863081474015747
 20
5.390676756307112
 30
0.0
 11
1.859144226181101
 21
5.38280226063782
 31
0.0
  0
LINE
  5
3E97
330
1E
100
AcDbEntity
  8
7
100
AcDbLine
 10
2.00350998011811
 20
5.38280226063782
 30
0.0
 11
1.999572732283464
 21
5.390676756307112
 31
0.0
  0
LINE
  5
3E98
330
1E
100
AcDbEntity
  8
7
100
AcDbLine
 10
1.999572732283464
 20
5.390676756307112
 30
0.0
 11
1.991698236614173
 21
5.394614004141758
 31
0.0
  0
LINE
  5
3E99
330
1E
100
AcDbEntity
  8
7
100
AcDbLine
 10
2.00350998011811
 20
5.342117366346482
 30
0.0
 11
2.007447227952755
 21
5.334242870677191
 31
0.0
  0
LINE
  5
3E9A
330
1E
100
AcDbEntity
  8
7
100
AcDbLine
 10
2.007447227952755
 20
5.334242870677191
 30
0.0
 11
2.015321723622046
 21
5.330305622842545
 31
0.0
  0
LINE
  5
3E9B
330
1E
100
AcDbEntity
  8
7
100
AcDbLine
 10
2.481229384055117
 20
5.330305622842545
 30
0.0
 11
2.489103879724408
 21
5.334242870677191
 31
0.0
  0
LINE
  5
3E9C
330
1E
100
AcDbEntity
  8
7
100
AcDbLine
 10
2.489103879724408
 20
5.334242870677191
 30
0.0
 11
2.493041127559055
 21
5.342117366346482
 31
0.0
  0
LINE
  5
3E9D
330
1E
100
AcDbEntity
  8
7
100
AcDbLine
 10
2.506165287007874
 20
5.394614004141758
 30
0.0
 11
2.498290791338583
 21
5.390676756307112
 31
0.0
  0
LINE
  5
3E9E
330
1E
100
AcDbEntity
  8
7
100
AcDbLine
 10
2.498290791338583
 20
5.390676756307112
 30
0.0
 11
2.494353543503936
 21
5.38280226063782
 31
0.0
  0
LINE
  5
3E9F
330
1E
100
AcDbEntity
  8
7
100
AcDbLine
 10
2.638719297440944
 20
5.38280226063782
 30
0.0
 11
2.634782049606299
 21
5.390676756307112
 31
0.0
  0
LINE
  5
3EA0
330
1E
100
AcDbEntity
  8
7
100
AcDbLine
 10
2.634782049606299
 20
5.390676756307112
 30
0.0
 11
2.626907553937007
 21
5.394614004141758
 31
0.0
  0
LINE
  5
3EA1
330
1E
100
AcDbEntity
  8
7
100
AcDbLine
 10
2.638719297440944
 20
5.342117366346482
 30
0.0
 11
2.64265654527559
 21
5.334242870677191
 31
0.0
  0
LINE
  5
3EA2
330
1E
100
AcDbEntity
  8
7
100
AcDbLine
 10
2.64265654527559
 20
5.334242870677191
 30
0.0
 11
2.650531040944881
 21
5.330305622842545
 31
0.0
  0
LINE
  5
3EA3
330
1E
100
AcDbEntity
  8
7
100
AcDbLine
 10
3.116438701377952
 20
5.330305622842545
 30
0.0
 11
3.124313197047244
 21
5.334242870677191
 31
0.0
  0
LINE
  5
3EA4
330
1E
100
AcDbEntity
  8
7
100
AcDbLine
 10
3.124313197047244
 20
5.334242870677191
 30
0.0
 11
3.128250444881889
 21
5.342117366346482
 31
0.0
  0
LINE
  5
3EA5
330
1E
100
AcDbEntity
  8
7
100
AcDbLine
 10
3.141374604330708
 20
5.394614004141758
 30
0.0
 11
3.133500108661416
 21
5.390676756307112
 31
0.0
  0
LINE
  5
3EA6
330
1E
100
AcDbEntity
  8
7
100
AcDbLine
 10
3.133500108661416
 20
5.390676756307112
 30
0.0
 11
3.129562860826771
 21
5.38280226063782
 31
0.0
  0
LINE
  5
3EA7
330
1E
100
AcDbEntity
  8
7
100
AcDbLine
 10
2.14918815
 20
6.482606822448845
 30
0.0
 11
2.1636247253937
 21
6.48654407028349
 31
0.0
  0
LINE
  5
3EA8
330
1E
100
AcDbEntity
  8
7
100
AcDbLine
 10
2.1636247253937
 20
6.48654407028349
 30
0.0
 11
2.174124052952755
 21
6.497043397842545
 31
0.0
  0
LINE
  5
3EA9
330
1E
100
AcDbEntity
  8
7
100
AcDbLine
 10
2.323739470669291
 20
6.497043397842545
 30
0.0
 11
2.334238798228346
 21
6.48654407028349
 31
0.0
  0
LINE
  5
3EAA
330
1E
100
AcDbEntity
  8
7
100
AcDbLine
 10
2.334238798228346
 20
6.48654407028349
 30
0.0
 11
2.348675373622047
 21
6.482606822448845
 31
0.0
  0
LINE
  5
3EAB
330
1E
100
AcDbEntity
  8
7
100
AcDbLine
 10
2.349987789566929
 20
6.482606822448845
 30
0.0
 11
2.361799533070866
 21
6.485231654338608
 31
0.0
  0
LINE
  5
3EAC
330
1E
100
AcDbEntity
  8
7
100
AcDbLine
 10
2.361799533070866
 20
6.485231654338608
 30
0.0
 11
2.370986444685039
 21
6.491793734063017
 31
0.0
  0
LINE
  5
3EAD
330
1E
100
AcDbEntity
  8
7
100
AcDbLine
 10
2.394609931692913
 20
6.500980645677191
 30
0.0
 11
2.382798188188976
 21
6.498355813787428
 31
0.0
  0
LINE
  5
3EAE
330
1E
100
AcDbEntity
  8
7
100
AcDbLine
 10
2.382798188188976
 20
6.498355813787428
 30
0.0
 11
2.373611276574803
 21
6.491793734063017
 31
0.0
  0
LINE
  5
3EAF
330
1E
100
AcDbEntity
  8
7
100
AcDbLine
 10
2.620345474212598
 20
6.47210749488979
 30
0.0
 11
2.612470978543306
 21
6.4931061500079
 31
0.0
  0
LINE
  5
3EB0
330
1E
100
AcDbEntity
  8
7
100
AcDbLine
 10
2.612470978543306
 20
6.4931061500079
 30
0.0
 11
2.591472323425196
 21
6.500980645677191
 31
0.0
  0
LINE
  5
3EB1
330
1E
100
AcDbEntity
  8
7
100
AcDbLine
 10
2.622970306102361
 20
6.439297096267742
 30
0.0
 11
2.628219969881889
 21
6.422235688984278
 31
0.0
  0
LINE
  5
3EB2
330
1E
100
AcDbEntity
  8
7
100
AcDbLine
 10
2.628219969881889
 20
6.422235688984278
 30
0.0
 11
2.64265654527559
 21
6.411736361425223
 31
0.0
  0
LINE
  5
3EB3
330
1E
100
AcDbEntity
  8
7
100
AcDbLine
 10
2.64265654527559
 20
6.411736361425223
 30
0.0
 11
2.661030368503936
 21
6.411736361425223
 31
0.0
  0
LINE
  5
3EB4
330
1E
100
AcDbEntity
  8
7
100
AcDbLine
 10
2.661030368503936
 20
6.411736361425223
 30
0.0
 11
2.675466943897637
 21
6.422235688984278
 31
0.0
  0
LINE
  5
3EB5
330
1E
100
AcDbEntity
  8
7
100
AcDbLine
 10
2.675466943897637
 20
6.422235688984278
 30
0.0
 11
2.680716607677165
 21
6.439297096267742
 31
0.0
  0
LINE
  5
3EB6
330
1E
100
AcDbEntity
  8
7
100
AcDbLine
 10
2.965510867716535
 20
6.411736361425223
 30
0.0
 11
2.979947443110235
 21
6.422235688984278
 31
0.0
  0
LINE
  5
3EB7
330
1E
100
AcDbEntity
  8
7
100
AcDbLine
 10
2.979947443110235
 20
6.422235688984278
 30
0.0
 11
2.985197106889764
 21
6.439297096267742
 31
0.0
  0
LINE
  5
3EB8
330
1E
100
AcDbEntity
  8
7
100
AcDbLine
 10
2.92745080531496
 20
6.439297096267742
 30
0.0
 11
2.932700469094487
 21
6.422235688984278
 31
0.0
  0
LINE
  5
3EB9
330
1E
100
AcDbEntity
  8
7
100
AcDbLine
 10
2.932700469094487
 20
6.422235688984278
 30
0.0
 11
2.947137044488188
 21
6.411736361425223
 31
0.0
  0
LINE
  5
3EBA
330
1E
100
AcDbEntity
  8
7
100
AcDbLine
 10
2.947137044488188
 20
6.411736361425223
 30
0.0
 11
2.965510867716535
 21
6.411736361425223
 31
0.0
  0
LINE
  5
3EBB
330
1E
100
AcDbEntity
  8
7
100
AcDbLine
 10
3.016695089566929
 20
6.500980645677191
 30
0.0
 11
2.995696434448818
 21
6.4931061500079
 31
0.0
  0
LINE
  5
3EBC
330
1E
100
AcDbEntity
  8
7
100
AcDbLine
 10
2.995696434448818
 20
6.4931061500079
 30
0.0
 11
2.987821938779527
 21
6.47210749488979
 31
0.0
  0
LINE
  5
3EBD
330
1E
100
AcDbEntity
  8
7
100
AcDbLine
 10
3.248992711811023
 20
6.502293061622072
 30
0.0
 11
3.269991366929133
 21
6.510167557291365
 31
0.0
  0
LINE
  5
3EBE
330
1E
100
AcDbEntity
  8
7
100
AcDbLine
 10
3.269991366929133
 20
6.510167557291365
 30
0.0
 11
3.277865862598424
 21
6.531166212409475
 31
0.0
  0
LINE
  5
3EBF
330
1E
100
AcDbEntity
  8
7
100
AcDbLine
 10
3.277865862598424
 20
6.983949713393727
 30
0.0
 11
3.269991366929133
 21
7.004948368511837
 31
0.0
  0
LINE
  5
3EC0
330
1E
100
AcDbEntity
  8
7
100
AcDbLine
 10
3.269991366929133
 20
7.004948368511837
 30
0.0
 11
3.248992711811023
 21
7.012822864181128
 31
0.0
  0
LINE
  5
3EC1
330
1E
100
AcDbEntity
  8
7
100
AcDbLine
 10
1.219997661023621
 20
6.531166212409475
 30
0.0
 11
1.227872156692913
 21
6.510167557291365
 31
0.0
  0
LINE
  5
3EC2
330
1E
100
AcDbEntity
  8
7
100
AcDbLine
 10
1.227872156692913
 20
6.510167557291365
 30
0.0
 11
1.248870811811023
 21
6.502293061622072
 31
0.0
  0
LINE
  5
3EC3
330
1E
100
AcDbEntity
  8
7
100
AcDbLine
 10
1.510041584842519
 20
6.47210749488979
 30
0.0
 11
1.502167089173227
 21
6.4931061500079
 31
0.0
  0
LINE
  5
3EC4
330
1E
100
AcDbEntity
  8
7
100
AcDbLine
 10
1.502167089173227
 20
6.4931061500079
 30
0.0
 11
1.481168434055117
 21
6.500980645677191
 31
0.0
  0
LINE
  5
3EC5
330
1E
100
AcDbEntity
  8
7
100
AcDbLine
 10
1.512666416732283
 20
6.439297096267742
 30
0.0
 11
1.51791608051181
 21
6.422235688984278
 31
0.0
  0
LINE
  5
3EC6
330
1E
100
AcDbEntity
  8
7
100
AcDbLine
 10
1.51791608051181
 20
6.422235688984278
 30
0.0
 11
1.532352655905511
 21
6.411736361425223
 31
0.0
  0
LINE
  5
3EC7
330
1E
100
AcDbEntity
  8
7
100
AcDbLine
 10
1.532352655905511
 20
6.411736361425223
 30
0.0
 11
1.550726479133858
 21
6.411736361425223
 31
0.0
  0
LINE
  5
3EC8
330
1E
100
AcDbEntity
  8
7
100
AcDbLine
 10
1.550726479133858
 20
6.411736361425223
 30
0.0
 11
1.565163054527558
 21
6.422235688984278
 31
0.0
  0
LINE
  5
3EC9
330
1E
100
AcDbEntity
  8
7
100
AcDbLine
 10
1.565163054527558
 20
6.422235688984278
 30
0.0
 11
1.570412718307086
 21
6.439297096267742
 31
0.0
  0
LINE
  5
3ECA
330
1E
100
AcDbEntity
  8
7
100
AcDbLine
 10
1.817146915944881
 20
6.439297096267742
 30
0.0
 11
1.822396579724409
 21
6.422235688984278
 31
0.0
  0
LINE
  5
3ECB
330
1E
100
AcDbEntity
  8
7
100
AcDbLine
 10
1.822396579724409
 20
6.422235688984278
 30
0.0
 11
1.83683315511811
 21
6.411736361425223
 31
0.0
  0
LINE
  5
3ECC
330
1E
100
AcDbEntity
  8
7
100
AcDbLine
 10
1.83683315511811
 20
6.411736361425223
 30
0.0
 11
1.855206978346456
 21
6.411736361425223
 31
0.0
  0
LINE
  5
3ECD
330
1E
100
AcDbEntity
  8
7
100
AcDbLine
 10
1.855206978346456
 20
6.411736361425223
 30
0.0
 11
1.869643553740157
 21
6.422235688984278
 31
0.0
  0
LINE
  5
3ECE
330
1E
100
AcDbEntity
  8
7
100
AcDbLine
 10
1.869643553740157
 20
6.422235688984278
 30
0.0
 11
1.874893217519684
 21
6.439297096267742
 31
0.0
  0
LINE
  5
3ECF
330
1E
100
AcDbEntity
  8
7
100
AcDbLine
 10
1.90639120019685
 20
6.500980645677191
 30
0.0
 11
1.885392545078739
 21
6.4931061500079
 31
0.0
  0
LINE
  5
3ED0
330
1E
100
AcDbEntity
  8
7
100
AcDbLine
 10
1.885392545078739
 20
6.4931061500079
 30
0.0
 11
1.877518049409448
 21
6.47210749488979
 31
0.0
  0
LINE
  5
3ED1
330
1E
100
AcDbEntity
  8
7
100
AcDbLine
 10
2.122939831102361
 20
6.491793734063017
 30
0.0
 11
2.113752919488188
 21
6.498355813787428
 31
0.0
  0
LINE
  5
3ED2
330
1E
100
AcDbEntity
  8
7
100
AcDbLine
 10
2.113752919488188
 20
6.498355813787428
 30
0.0
 11
2.101941175984251
 21
6.500980645677191
 31
0.0
  0
LINE
  5
3ED3
330
1E
100
AcDbEntity
  8
7
100
AcDbLine
 10
1.797460676771652
 20
3.761968568708687
 30
0.0
 11
1.805335172440944
 21
3.740969913590577
 31
0.0
  0
LINE
  5
3ED4
330
1E
100
AcDbEntity
  8
7
100
AcDbLine
 10
1.805335172440944
 20
3.740969913590577
 30
0.0
 11
1.826333827559055
 21
3.733095417921286
 31
0.0
  0
LINE
  5
3ED5
330
1E
100
AcDbEntity
  8
7
100
AcDbLine
 10
1.756775782480314
 20
3.823652118118136
 30
0.0
 11
1.742339207086613
 21
3.81315279055908
 31
0.0
  0
LINE
  5
3ED6
330
1E
100
AcDbEntity
  8
7
100
AcDbLine
 10
1.742339207086613
 20
3.81315279055908
 30
0.0
 11
1.737089543307086
 21
3.796091383275617
 31
0.0
  0
LINE
  5
3ED7
330
1E
100
AcDbEntity
  8
7
100
AcDbLine
 10
1.794835844881889
 20
3.796091383275617
 30
0.0
 11
1.789586181102361
 21
3.81315279055908
 31
0.0
  0
LINE
  5
3ED8
330
1E
100
AcDbEntity
  8
7
100
AcDbLine
 10
1.789586181102361
 20
3.81315279055908
 30
0.0
 11
1.775149605708661
 21
3.823652118118136
 31
0.0
  0
LINE
  5
3ED9
330
1E
100
AcDbEntity
  8
7
100
AcDbLine
 10
1.775149605708661
 20
3.823652118118136
 30
0.0
 11
1.756775782480314
 21
3.823652118118136
 31
0.0
  0
LINE
  5
3EDA
330
1E
100
AcDbEntity
  8
7
100
AcDbLine
 10
1.490355345669291
 20
3.796091383275617
 30
0.0
 11
1.485105681889763
 21
3.81315279055908
 31
0.0
  0
LINE
  5
3EDB
330
1E
100
AcDbEntity
  8
7
100
AcDbLine
 10
1.485105681889763
 20
3.81315279055908
 30
0.0
 11
1.470669106496062
 21
3.823652118118136
 31
0.0
  0
LINE
  5
3EDC
330
1E
100
AcDbEntity
  8
7
100
AcDbLine
 10
1.470669106496062
 20
3.823652118118136
 30
0.0
 11
1.452295283267716
 21
3.823652118118136
 31
0.0
  0
LINE
  5
3EDD
330
1E
100
AcDbEntity
  8
7
100
AcDbLine
 10
1.452295283267716
 20
3.823652118118136
 30
0.0
 11
1.437858707874015
 21
3.81315279055908
 31
0.0
  0
LINE
  5
3EDE
330
1E
100
AcDbEntity
  8
7
100
AcDbLine
 10
1.437858707874015
 20
3.81315279055908
 30
0.0
 11
1.432609044094487
 21
3.796091383275617
 31
0.0
  0
LINE
  5
3EDF
330
1E
100
AcDbEntity
  8
7
100
AcDbLine
 10
1.401111061417323
 20
3.733095417921286
 30
0.0
 11
1.422109716535433
 21
3.740969913590577
 31
0.0
  0
LINE
  5
3EE0
330
1E
100
AcDbEntity
  8
7
100
AcDbLine
 10
1.422109716535433
 20
3.740969913590577
 30
0.0
 11
1.429984212204724
 21
3.761968568708687
 31
0.0
  0
LINE
  5
3EE1
330
1E
100
AcDbEntity
  8
7
100
AcDbLine
 10
1.248870811811023
 20
3.731783001976403
 30
0.0
 11
1.227872156692913
 21
3.723908506307112
 31
0.0
  0
LINE
  5
3EE2
330
1E
100
AcDbEntity
  8
7
100
AcDbLine
 10
1.227872156692913
 20
3.723908506307112
 30
0.0
 11
1.219997661023621
 21
3.702909851189002
 31
0.0
  0
LINE
  5
3EE3
330
1E
100
AcDbEntity
  8
7
100
AcDbLine
 10
1.219997661023621
 20
3.25012635020475
 30
0.0
 11
1.227872156692913
 21
3.22912769508664
 31
0.0
  0
LINE
  5
3EE4
330
1E
100
AcDbEntity
  8
7
100
AcDbLine
 10
1.227872156692913
 20
3.22912769508664
 30
0.0
 11
1.248870811811023
 21
3.221253199417349
 31
0.0
  0
LINE
  5
3EE5
330
1E
100
AcDbEntity
  8
7
100
AcDbLine
 10
3.248992711811023
 20
3.221253199417349
 30
0.0
 11
3.269991366929133
 21
3.22912769508664
 31
0.0
  0
LINE
  5
3EE6
330
1E
100
AcDbEntity
  8
7
100
AcDbLine
 10
3.269991366929133
 20
3.22912769508664
 30
0.0
 11
3.277865862598424
 21
3.25012635020475
 31
0.0
  0
LINE
  5
3EE7
330
1E
100
AcDbEntity
  8
7
100
AcDbLine
 10
3.277865862598424
 20
3.702909851189002
 30
0.0
 11
3.269991366929133
 21
3.723908506307112
 31
0.0
  0
LINE
  5
3EE8
330
1E
100
AcDbEntity
  8
7
100
AcDbLine
 10
3.269991366929133
 20
3.723908506307112
 30
0.0
 11
3.248992711811023
 21
3.731783001976403
 31
0.0
  0
LINE
  5
3EE9
330
1E
100
AcDbEntity
  8
7
100
AcDbLine
 10
3.067879311417322
 20
3.761968568708687
 30
0.0
 11
3.075753807086613
 21
3.740969913590577
 31
0.0
  0
LINE
  5
3EEA
330
1E
100
AcDbEntity
  8
7
100
AcDbLine
 10
3.075753807086613
 20
3.740969913590577
 30
0.0
 11
3.096752462204723
 21
3.733095417921286
 31
0.0
  0
LINE
  5
3EEB
330
1E
100
AcDbEntity
  8
7
100
AcDbLine
 10
3.065254479527558
 20
3.796091383275617
 30
0.0
 11
3.060004815748031
 21
3.81315279055908
 31
0.0
  0
LINE
  5
3EEC
330
1E
100
AcDbEntity
  8
7
100
AcDbLine
 10
3.060004815748031
 20
3.81315279055908
 30
0.0
 11
3.04556824035433
 21
3.823652118118136
 31
0.0
  0
LINE
  5
3EED
330
1E
100
AcDbEntity
  8
7
100
AcDbLine
 10
3.04556824035433
 20
3.823652118118136
 30
0.0
 11
3.027194417125984
 21
3.823652118118136
 31
0.0
  0
LINE
  5
3EEE
330
1E
100
AcDbEntity
  8
7
100
AcDbLine
 10
3.027194417125984
 20
3.823652118118136
 30
0.0
 11
3.012757841732283
 21
3.81315279055908
 31
0.0
  0
LINE
  5
3EEF
330
1E
100
AcDbEntity
  8
7
100
AcDbLine
 10
3.012757841732283
 20
3.81315279055908
 30
0.0
 11
3.007508177952755
 21
3.796091383275617
 31
0.0
  0
LINE
  5
3EF0
330
1E
100
AcDbEntity
  8
7
100
AcDbLine
 10
2.76077398031496
 20
3.796091383275617
 30
0.0
 11
2.755524316535432
 21
3.81315279055908
 31
0.0
  0
LINE
  5
3EF1
330
1E
100
AcDbEntity
  8
7
100
AcDbLine
 10
2.755524316535432
 20
3.81315279055908
 30
0.0
 11
2.741087741141732
 21
3.823652118118136
 31
0.0
  0
LINE
  5
3EF2
330
1E
100
AcDbEntity
  8
7
100
AcDbLine
 10
2.741087741141732
 20
3.823652118118136
 30
0.0
 11
2.722713917913385
 21
3.823652118118136
 31
0.0
  0
LINE
  5
3EF3
330
1E
100
AcDbEntity
  8
7
100
AcDbLine
 10
2.722713917913385
 20
3.823652118118136
 30
0.0
 11
2.708277342519684
 21
3.81315279055908
 31
0.0
  0
LINE
  5
3EF4
330
1E
100
AcDbEntity
  8
7
100
AcDbLine
 10
2.708277342519684
 20
3.81315279055908
 30
0.0
 11
2.703027678740157
 21
3.796091383275617
 31
0.0
  0
LINE
  5
3EF5
330
1E
100
AcDbEntity
  8
7
100
AcDbLine
 10
2.671529696062991
 20
3.733095417921286
 30
0.0
 11
2.692528351181102
 21
3.740969913590577
 31
0.0
  0
LINE
  5
3EF6
330
1E
100
AcDbEntity
  8
7
100
AcDbLine
 10
2.692528351181102
 20
3.740969913590577
 30
0.0
 11
2.700402846850393
 21
3.761968568708687
 31
0.0
  0
LINE
  5
3EF7
330
1E
100
AcDbEntity
  8
7
100
AcDbLine
 10
2.373611276574803
 20
3.742282329535458
 30
0.0
 11
2.382798188188976
 21
3.735720249811049
 31
0.0
  0
LINE
  5
3EF8
330
1E
100
AcDbEntity
  8
7
100
AcDbLine
 10
2.382798188188976
 20
3.735720249811049
 30
0.0
 11
2.394609931692913
 21
3.733095417921286
 31
0.0
  0
LINE
  5
3EF9
330
1E
100
AcDbEntity
  8
7
100
AcDbLine
 10
2.370986444685039
 20
3.742282329535458
 30
0.0
 11
2.361799533070866
 21
3.748844409259868
 31
0.0
  0
LINE
  5
3EFA
330
1E
100
AcDbEntity
  8
7
100
AcDbLine
 10
2.361799533070866
 20
3.748844409259868
 30
0.0
 11
2.349987789566929
 21
3.751469241149631
 31
0.0
  0
LINE
  5
3EFB
330
1E
100
AcDbEntity
  8
7
100
AcDbLine
 10
2.348675373622047
 20
3.751469241149631
 30
0.0
 11
2.334238798228346
 21
3.747531993314986
 31
0.0
  0
LINE
  5
3EFC
330
1E
100
AcDbEntity
  8
7
100
AcDbLine
 10
2.334238798228346
 20
3.747531993314986
 30
0.0
 11
2.323739470669291
 21
3.737032665755931
 31
0.0
  0
LINE
  5
3EFD
330
1E
100
AcDbEntity
  8
7
100
AcDbLine
 10
2.174124052952755
 20
3.737032665755931
 30
0.0
 11
2.1636247253937
 21
3.747531993314986
 31
0.0
  0
LINE
  5
3EFE
330
1E
100
AcDbEntity
  8
7
100
AcDbLine
 10
2.1636247253937
 20
3.747531993314986
 30
0.0
 11
2.14918815
 21
3.751469241149631
 31
0.0
  0
LINE
  5
3EFF
330
1E
100
AcDbEntity
  8
7
100
AcDbLine
 10
2.146563318110236
 20
3.751469241149631
 30
0.0
 11
2.134751574606299
 21
3.748844409259868
 31
0.0
  0
LINE
  5
3F00
330
1E
100
AcDbEntity
  8
7
100
AcDbLine
 10
2.134751574606299
 20
3.748844409259868
 30
0.0
 11
2.125564662992125
 21
3.742282329535458
 31
0.0
  0
LINE
  5
3F01
330
1E
100
AcDbEntity
  8
7
100
AcDbLine
 10
2.101941175984251
 20
3.733095417921286
 30
0.0
 11
2.113752919488188
 21
3.735720249811049
 31
0.0
  0
LINE
  5
3F02
330
1E
100
AcDbEntity
  8
7
100
AcDbLine
 10
2.113752919488188
 20
3.735720249811049
 30
0.0
 11
2.122939831102361
 21
3.742282329535458
 31
0.0
  0
LINE
  5
3F03
330
1E
100
AcDbEntity
  8
7
100
AcDbLine
 10
1.058570499803149
 20
7.182124521070892
 30
0.0
 11
1.058570499803149
 21
7.21624733563782
 31
0.0
  0
LINE
  5
3F04
330
1E
100
AcDbEntity
  8
7
100
AcDbLine
 10
1.058570499803149
 20
7.21624733563782
 30
0.0
 11
1.058570499803149
 21
7.246432902370104
 31
0.0
  0
LINE
  5
3F05
330
1E
100
AcDbEntity
  8
7
100
AcDbLine
 10
0.9378282328740151
 20
7.367175169299238
 30
0.0
 11
1.058570499803149
 21
7.246432902370104
 31
0.0
  0
LINE
  5
3F06
330
1E
100
AcDbEntity
  8
7
100
AcDbLine
 10
1.058570499803149
 20
7.246432902370104
 30
0.0
 11
3.437980607874015
 21
7.246432902370104
 31
0.0
  0
LINE
  5
3F07
330
1E
100
AcDbEntity
  8
7
100
AcDbLine
 10
3.437980607874015
 20
3.051951542527585
 30
0.0
 11
3.472103422440944
 21
3.051951542527585
 31
0.0
  0
LINE
  5
3F08
330
1E
100
AcDbEntity
  8
7
100
AcDbLine
 10
3.472103422440944
 20
3.051951542527585
 30
0.0
 11
3.502288989173228
 21
3.051951542527585
 31
0.0
  0
LINE
  5
3F09
330
1E
100
AcDbEntity
  8
7
100
AcDbLine
 10
3.624343672047244
 20
7.336989602566955
 30
0.0
 11
3.62171884015748
 21
7.347488930126011
 31
0.0
  0
LINE
  5
3F0A
330
1E
100
AcDbEntity
  8
7
100
AcDbLine
 10
3.62171884015748
 20
7.347488930126011
 30
0.0
 11
3.617781592322834
 21
7.355363425795301
 31
0.0
  0
LINE
  5
3F0B
330
1E
100
AcDbEntity
  8
7
100
AcDbLine
 10
3.617781592322834
 20
7.355363425795301
 30
0.0
 11
3.611219512598425
 21
7.36192550551971
 31
0.0
  0
LINE
  5
3F0C
330
1E
100
AcDbEntity
  8
7
100
AcDbLine
 10
3.611219512598425
 20
7.36192550551971
 30
0.0
 11
3.602032600984251
 21
7.365862753354356
 31
0.0
  0
LINE
  5
3F0D
330
1E
100
AcDbEntity
  8
7
100
AcDbLine
 10
3.602032600984251
 20
7.365862753354356
 30
0.0
 11
3.59415810531496
 21
7.367175169299238
 31
0.0
  0
LINE
  5
3F0E
330
1E
100
AcDbEntity
  8
7
100
AcDbLine
 10
3.437980607874015
 20
7.182124521070892
 30
0.0
 11
3.437980607874015
 21
7.21624733563782
 31
0.0
  0
LINE
  5
3F0F
330
1E
100
AcDbEntity
  8
7
100
AcDbLine
 10
3.437980607874015
 20
7.21624733563782
 30
0.0
 11
3.437980607874015
 21
7.246432902370104
 31
0.0
  0
LINE
  5
3F10
330
1E
100
AcDbEntity
  8
7
100
AcDbLine
 10
3.502288989173228
 20
7.182124521070892
 30
0.0
 11
3.474728254330708
 21
7.217559751582703
 31
0.0
  0
LINE
  5
3F11
330
1E
100
AcDbEntity
  8
7
100
AcDbLine
 10
3.474728254330708
 20
7.217559751582703
 30
0.0
 11
3.437980607874015
 21
7.246432902370104
 31
0.0
  0
LINE
  5
3F12
330
1E
100
AcDbEntity
  8
7
100
AcDbLine
 10
3.437980607874015
 20
7.182124521070892
 30
0.0
 11
3.472103422440944
 21
7.182124521070892
 31
0.0
  0
LINE
  5
3F13
330
1E
100
AcDbEntity
  8
7
100
AcDbLine
 10
3.472103422440944
 20
7.182124521070892
 30
0.0
 11
3.502288989173228
 21
7.182124521070892
 31
0.0
  0
ENDSEC
  0
SECTION
  2
OBJECTS
  0
DICTIONARY
  5
C
330
0
100
AcDbDictionary
  3
ACAD_GROUP
350
D
  3
ACAD_LAYOUT
350
19
  3
ACAD_MLINESTYLE
350
16
  3
ACAD_PLOTSETTINGS
350
18
1001
ACAD
1000
TREAT_AS_HARD
1070
     0
  0
DICTIONARY
  5
50B3
330
1E
100
AcDbDictionary
  3
ACAD_LAYOUTSELFREF
350
5125
1001
ACAD
1000
TREAT_AS_HARD
1070
     1
  0
DICTIONARY
  5
50B5
330
1A
100
AcDbDictionary
  3
ACAD_LAYOUTSELFREF
350
5124
1001
ACAD
1000
TREAT_AS_HARD
1070
     1
  0
DICTIONARY
  5
D
102
{ACAD_REACTORS
330
C
102
}
330
C
100
AcDbDictionary
1001
ACAD
1000
TREAT_AS_HARD
1070
     0
  0
DICTIONARY
  5
19
102
{ACAD_REACTORS
330
C
102
}
330
C
100
AcDbDictionary
1001
ACAD
1000
TREAT_AS_HARD
1070
     0
  0
DICTIONARY
  5
16
102
{ACAD_REACTORS
330
C
102
}
330
C
100
AcDbDictionary
  3
STANDARD
350
17
1001
ACAD
1000
TREAT_AS_HARD
1070
     0
  0
DICTIONARY
  5
18
102
{ACAD_REACTORS
330
C
102
}
330
C
100
AcDbDictionary
1001
ACAD
1000
TREAT_AS_HARD
1070
     0
  0
XRECORD
  5
5125
102
{ACAD_REACTORS
330
50B3
102
}
330
50B3
100
AcDbXrecord
340
1E
  0
XRECORD
  5
5124
102
{ACAD_REACTORS
330
50B5
102
}
330
50B5
100
AcDbXrecord
340
1A
  0
MLINESTYLE
  5
17
102
{ACAD_REACTORS
330
16
102
}
330
16
100
AcDbMlineStyle
  2
STANDARD
 70
     0
  3

 62
   256
 51
90.0
 52
90.0
 71
     2
 49
0.5
 62
   256
  6
BYLAYER
 49
-0.5
 62
   256
  6
BYLAYER
  0
ENDSEC
  0
EOF
