999
DXF file: C:\2D\Gen2D\CAD\NSYS3D12630_3D-Simplified\drw0001_1.dxf
999
Pro/ENGINEER 2019471 by Parametric Technology Corporation
  0
SECTION
  2
HEADER
  9
$ACADVER
  1
AC1024
  9
$DWGCODEPAGE
  3
ANSI_1252
  9
$EXTMAX
 10
1118.7223185849
 20
1582.1929934272
 30
0.0
  9
$EXTMIN
 10
0.0
 20
0.0
 30
0.0
  9
$LIMMIN
 10
0.0
 20
0.0
  9
$LIMMAX
 10
1118.7223185849
 20
1582.1929934272
  9
$VIEWCTR
 10
559.3611592924
 20
791.0964967136
  9
$VIEWSIZE
 40
1582.1929934272
  9
$CLAYER
  8
0
  9
$LTSCALE
 40
103.1355432753
  9
$CELTYPE
  6
BYLAYER
  9
$DIMSCALE
 40
1.0
  9
$DIMASZ
 40
13.3181228403
  9
$DIMEXO
 40
1.0
  9
$DIMDLI
 40
71.2572844447
  9
$DIMEXE
 40
1.0
  9
$DIMCEN
 40
16.8767252632
  9
$DIMLFAC
 40
1.0
  9
$DIMBLK
  1
_FILLED
  9
$DIMALT
 70
0
  9
$DIMALTF
 40
0.0393700787
  9
$DIMTXT
 40
18.6453719764
  9
$DIMTOL
 70
1
  9
$DIMLIM
 70
0
  9
$DIMTFAC
 40
1.0
  9
$DIMTP
 40
0.01
  9
$DIMTM
 40
0.01
  9
$DIMGAP
 40
0.625
  9
$DIMDSEP
 70
46
  9
$AUNITS
 70
0
  9
$PDMODE
 70
3
  9
$PDSIZE
 40
0.3125
  9
$HANDSEED
  5
42D
  9
$TILEMODE
 70
1
  9
$MEASUREMENT
 70
1
  9
$INSUNITS
 70
4
  0
ENDSEC
  0
SECTION
  2
CLASSES
  0
CLASS
  1
ACDBDICTIONARYWDFLT
  2
AcDbDictionaryWithDefault
  3
AutoCAD 2000
 90
0
 91
1
280
0
281
0
  0
CLASS
  1
ACDBPLACEHOLDER
  2
AcDbPlaceHolder
  3
AutoCAD 2000
 90
0
 91
1
280
0
281
0
  0
CLASS
  1
LAYOUT
  2
AcDbLayout
  3
AutoCAD 2000
 90
0
 91
0
280
0
281
0
  0
ENDSEC
  0
SECTION
  2
TABLES
  0
TABLE
  2
VPORT
  5
8
100
AcDbSymbolTable
 70
2
  0
VPORT
  5
1F4
100
AcDbSymbolTableRecord
100
AcDbViewportTableRecord
  2
*ACTIVE
 70
0
 10
0.0
 20
0.0
 11
1.0
 21
1.0
 12
559.3611592924
 22
791.0964967136
 13
0.0
 23
0.0
 14
1.0
 24
1.0
 15
0.0
 25
0.0
 16
0.0
 26
0.0
 36
1.0
 17
0.0
 27
0.0
 37
0.0
 40
1582.1929934272
 41
0.7070707071
 42
50.0
 43
0.0
 44
0.0
 50
0.0
 51
0.0
 71
0
 72
100
 73
1
 74
1
 75
0
 76
0
 77
0
 78
0
  0
ENDTAB
  0
TABLE
  2
LTYPE
  5
5
100
AcDbSymbolTable
 70
6
  0
LTYPE
  5
14
100
AcDbSymbolTableRecord
100
AcDbLinetypeTableRecord
  2
BYBLOCK
 70
0
  3

 72
65
 73
0
 40
0.0
  0
LTYPE
  5
15
100
AcDbSymbolTableRecord
100
AcDbLinetypeTableRecord
  2
BYLAYER
 70
0
  3

 72
65
 73
0
 40
0.0
  0
LTYPE
  5
16
100
AcDbSymbolTableRecord
100
AcDbLinetypeTableRecord
  2
CONTINUOUS
 70
64
  3
Solid line
 72
65
 73
0
 40
0.0
  0
LTYPE
  5
1F5
100
AcDbSymbolTableRecord
100
AcDbLinetypeTableRecord
  2
CENTER
 70
64
  3
____ _ ____ _ ____ _ ____ _ ____ _ ____ _ ____
 72
65
 73
4
 40
0.6
 49
0.375
 74
0
 49
-0.075
 74
0
 49
0.075
 74
0
 49
-0.075
 74
0
  0
LTYPE
  5
1F6
100
AcDbSymbolTableRecord
100
AcDbLinetypeTableRecord
  2
HIDDEN
 70
64
  3
- - - - - - - - - - - - - - - - - - - -
 72
65
 73
2
 40
0.2
 49
0.1
 74
0
 49
-0.1
 74
0
  0
LTYPE
  5
1F7
100
AcDbSymbolTableRecord
100
AcDbLinetypeTableRecord
  2
PHANTOM
 70
64
  3
_____ _ _ _____ _ _ _____ _ _ _____
 72
65
 73
6
 40
0.8
 49
0.45
 74
0
 49
-0.05
 74
0
 49
0.1
 74
0
 49
-0.05
 74
0
 49
0.1
 74
0
 49
-0.05
 74
0
  0
LTYPE
  5
1F8
100
AcDbSymbolTableRecord
100
AcDbLinetypeTableRecord
  2
DOT
 70
64
  3
. . . . . . . . . . . . . . . . . . . .
 72
65
 73
2
 40
0.2
 49
0.1
 74
0
 49
-0.1
 74
0
  0
LTYPE
  5
1F9
100
AcDbSymbolTableRecord
100
AcDbLinetypeTableRecord
  2
DASHED
 70
64
  3
- - - - - - - - - - - - - - - - - - - -
 72
65
 73
2
 40
0.2
 49
0.1
 74
0
 49
-0.1
 74
0
  0
ENDTAB
  0
TABLE
  2
LAYER
  5
2
100
AcDbSymbolTable
 70
36
  0
LAYER
  5
10
100
AcDbSymbolTableRecord
100
AcDbLayerTableRecord
  2
0
 70
0
 62
7
  6
CONTINUOUS
370
-3
390
F
  0
LAYER
  5
1FA
100
AcDbSymbolTableRecord
100
AcDbLayerTableRecord
  2
DEFAULT_1
 70
0
 62
7
  6
CENTER
370
-3
390
F
  0
LAYER
  5
1FB
100
AcDbSymbolTableRecord
100
AcDbLayerTableRecord
  2
DEFAULT_2
 70
0
 62
8
  6
HIDDEN
370
-3
390
F
  0
LAYER
  5
1FC
100
AcDbSymbolTableRecord
100
AcDbLayerTableRecord
  2
DEFAULT_3
 70
0
 62
7
  6
PHANTOM
370
-3
390
F
  0
LAYER
  5
1FD
100
AcDbSymbolTableRecord
100
AcDbLayerTableRecord
  2
00_COMPONENTS
 70
0
 62
7
  6
CONTINUOUS
370
-3
390
F
  0
LAYER
  5
1FE
100
AcDbSymbolTableRecord
100
AcDbLayerTableRecord
  2
00_COMPONENTS_1
 70
0
 62
7
  6
CONTINUOUS
370
-3
390
F
  0
LAYER
  5
1FF
100
AcDbSymbolTableRecord
100
AcDbLayerTableRecord
  2
00_COMPONENTS_10
 70
0
 62
7
  6
CONTINUOUS
370
-3
390
F
  0
LAYER
  5
200
100
AcDbSymbolTableRecord
100
AcDbLayerTableRecord
  2
00_COMPONENTS_11
 70
0
 62
7
  6
CONTINUOUS
370
-3
390
F
  0
LAYER
  5
201
100
AcDbSymbolTableRecord
100
AcDbLayerTableRecord
  2
00_COMPONENTS_14
 70
0
 62
7
  6
CONTINUOUS
370
-3
390
F
  0
LAYER
  5
202
100
AcDbSymbolTableRecord
100
AcDbLayerTableRecord
  2
00_COMPONENTS_15
 70
0
 62
7
  6
CONTINUOUS
370
-3
390
F
  0
LAYER
  5
203
100
AcDbSymbolTableRecord
100
AcDbLayerTableRecord
  2
00_COMPONENTS_2
 70
0
 62
7
  6
CONTINUOUS
370
-3
390
F
  0
LAYER
  5
204
100
AcDbSymbolTableRecord
100
AcDbLayerTableRecord
  2
00_COMPONENTS_21
 70
0
 62
7
  6
CONTINUOUS
370
-3
390
F
  0
LAYER
  5
205
100
AcDbSymbolTableRecord
100
AcDbLayerTableRecord
  2
00_COMPONENTS_25
 70
0
 62
7
  6
CONTINUOUS
370
-3
390
F
  0
LAYER
  5
206
100
AcDbSymbolTableRecord
100
AcDbLayerTableRecord
  2
00_COMPONENTS_26
 70
0
 62
7
  6
CONTINUOUS
370
-3
390
F
  0
LAYER
  5
207
100
AcDbSymbolTableRecord
100
AcDbLayerTableRecord
  2
00_COMPONENTS_27
 70
0
 62
7
  6
CONTINUOUS
370
-3
390
F
  0
LAYER
  5
208
100
AcDbSymbolTableRecord
100
AcDbLayerTableRecord
  2
00_COMPONENTS_28
 70
0
 62
7
  6
CONTINUOUS
370
-3
390
F
  0
LAYER
  5
209
100
AcDbSymbolTableRecord
100
AcDbLayerTableRecord
  2
00_COMPONENTS_29
 70
0
 62
7
  6
CONTINUOUS
370
-3
390
F
  0
LAYER
  5
20A
100
AcDbSymbolTableRecord
100
AcDbLayerTableRecord
  2
00_COMPONENTS_3
 70
0
 62
7
  6
CONTINUOUS
370
-3
390
F
  0
LAYER
  5
20B
100
AcDbSymbolTableRecord
100
AcDbLayerTableRecord
  2
00_COMPONENTS_31
 70
0
 62
7
  6
CONTINUOUS
370
-3
390
F
  0
LAYER
  5
20C
100
AcDbSymbolTableRecord
100
AcDbLayerTableRecord
  2
00_COMPONENTS_32
 70
0
 62
7
  6
CONTINUOUS
370
-3
390
F
  0
LAYER
  5
20D
100
AcDbSymbolTableRecord
100
AcDbLayerTableRecord
  2
00_COMPONENTS_33
 70
0
 62
7
  6
CONTINUOUS
370
-3
390
F
  0
LAYER
  5
20E
100
AcDbSymbolTableRecord
100
AcDbLayerTableRecord
  2
00_COMPONENTS_34
 70
0
 62
7
  6
CONTINUOUS
370
-3
390
F
  0
LAYER
  5
20F
100
AcDbSymbolTableRecord
100
AcDbLayerTableRecord
  2
00_COMPONENTS_36
 70
0
 62
7
  6
CONTINUOUS
370
-3
390
F
  0
LAYER
  5
210
100
AcDbSymbolTableRecord
100
AcDbLayerTableRecord
  2
00_COMPONENTS_37
 70
0
 62
7
  6
CONTINUOUS
370
-3
390
F
  0
LAYER
  5
211
100
AcDbSymbolTableRecord
100
AcDbLayerTableRecord
  2
00_COMPONENTS_38
 70
0
 62
7
  6
CONTINUOUS
370
-3
390
F
  0
LAYER
  5
212
100
AcDbSymbolTableRecord
100
AcDbLayerTableRecord
  2
00_COMPONENTS_39
 70
0
 62
7
  6
CONTINUOUS
370
-3
390
F
  0
LAYER
  5
213
100
AcDbSymbolTableRecord
100
AcDbLayerTableRecord
  2
00_COMPONENTS_4
 70
0
 62
7
  6
CONTINUOUS
370
-3
390
F
  0
LAYER
  5
214
100
AcDbSymbolTableRecord
100
AcDbLayerTableRecord
  2
00_COMPONENTS_40
 70
0
 62
7
  6
CONTINUOUS
370
-3
390
F
  0
LAYER
  5
215
100
AcDbSymbolTableRecord
100
AcDbLayerTableRecord
  2
00_COMPONENTS_41
 70
0
 62
7
  6
CONTINUOUS
370
-3
390
F
  0
LAYER
  5
216
100
AcDbSymbolTableRecord
100
AcDbLayerTableRecord
  2
00_COMPONENTS_42
 70
0
 62
7
  6
CONTINUOUS
370
-3
390
F
  0
LAYER
  5
217
100
AcDbSymbolTableRecord
100
AcDbLayerTableRecord
  2
00_COMPONENTS_5
 70
0
 62
7
  6
CONTINUOUS
370
-3
390
F
  0
LAYER
  5
218
100
AcDbSymbolTableRecord
100
AcDbLayerTableRecord
  2
00_COMPONENTS_6
 70
0
 62
7
  6
CONTINUOUS
370
-3
390
F
  0
LAYER
  5
219
100
AcDbSymbolTableRecord
100
AcDbLayerTableRecord
  2
00_COMPONENTS_7
 70
0
 62
7
  6
CONTINUOUS
370
-3
390
F
  0
LAYER
  5
21A
100
AcDbSymbolTableRecord
100
AcDbLayerTableRecord
  2
00_COMPONENTS_8
 70
0
 62
7
  6
CONTINUOUS
370
-3
390
F
  0
LAYER
  5
21B
100
AcDbSymbolTableRecord
100
AcDbLayerTableRecord
  2
00_COMPONENTS_9
 70
0
 62
7
  6
CONTINUOUS
370
-3
390
F
  0
LAYER
  5
21C
100
AcDbSymbolTableRecord
100
AcDbLayerTableRecord
  2
01_1_DEFAULT_DATUMS
 70
0
 62
7
  6
CONTINUOUS
370
-3
390
F
  0
LAYER
  5
21D
100
AcDbSymbolTableRecord
100
AcDbLayerTableRecord
  2
01_PLANES
 70
0
 62
7
  6
CONTINUOUS
370
-3
390
F
  0
LAYER
  5
21E
100
AcDbSymbolTableRecord
100
AcDbLayerTableRecord
  2
02_COORD_SYS
 70
0
 62
7
  6
CONTINUOUS
370
-3
390
F
  0
LAYER
  5
21F
100
AcDbSymbolTableRecord
100
AcDbLayerTableRecord
  2
03_AXES
 70
0
 62
7
  6
CONTINUOUS
370
-3
390
F
  0
LAYER
  5
220
100
AcDbSymbolTableRecord
100
AcDbLayerTableRecord
  2
04_POINTS
 70
0
 62
7
  6
CONTINUOUS
370
-3
390
F
  0
LAYER
  5
221
100
AcDbSymbolTableRecord
100
AcDbLayerTableRecord
  2
05_CURVES
 70
0
 62
7
  6
CONTINUOUS
370
-3
390
F
  0
LAYER
  5
222
100
AcDbSymbolTableRecord
100
AcDbLayerTableRecord
  2
06_SURFS
 70
0
 62
7
  6
CONTINUOUS
370
-3
390
F
  0
LAYER
  5
223
100
AcDbSymbolTableRecord
100
AcDbLayerTableRecord
  2
07_COSMETICS
 70
0
 62
7
  6
CONTINUOUS
370
-3
390
F
  0
LAYER
  5
224
100
AcDbSymbolTableRecord
100
AcDbLayerTableRecord
  2
10_NOTES
 70
0
 62
7
  6
CONTINUOUS
370
-3
390
F
  0
LAYER
  5
225
100
AcDbSymbolTableRecord
100
AcDbLayerTableRecord
  2
11_NOTES_PUB
 70
0
 62
7
  6
CONTINUOUS
370
-3
390
F
  0
LAYER
  5
226
100
AcDbSymbolTableRecord
100
AcDbLayerTableRecord
  2
13_REF_GTOL
 70
0
 62
7
  6
CONTINUOUS
370
-3
390
F
  0
LAYER
  5
227
100
AcDbSymbolTableRecord
100
AcDbLayerTableRecord
  2
16_MISC
 70
0
 62
7
  6
CONTINUOUS
370
-3
390
F
  0
LAYER
  5
228
100
AcDbSymbolTableRecord
100
AcDbLayerTableRecord
  2
17_NO_PRINT
 70
0
 62
7
  6
CONTINUOUS
370
-3
390
F
  0
LAYER
  5
229
100
AcDbSymbolTableRecord
100
AcDbLayerTableRecord
  2
18_DATUM_CAMS_JOINTS
 70
0
 62
7
  6
CONTINUOUS
370
-3
390
F
  0
LAYER
  5
22A
100
AcDbSymbolTableRecord
100
AcDbLayerTableRecord
  2
19_DATUM_FUNCTIONAL
 70
0
 62
7
  6
CONTINUOUS
370
-3
390
F
  0
LAYER
  5
22B
100
AcDbSymbolTableRecord
100
AcDbLayerTableRecord
  2
20_DATUM_KINEMATIC_SCHEME
 70
0
 62
7
  6
CONTINUOUS
370
-3
390
F
  0
LAYER
  5
22C
100
AcDbSymbolTableRecord
100
AcDbLayerTableRecord
  2
INTFCLR_10
 70
0
 62
7
  6
CONTINUOUS
370
-3
390
F
  0
ENDTAB
  0
TABLE
  2
STYLE
  5
3
100
AcDbSymbolTable
 70
1
  0
STYLE
  5
11
100
AcDbSymbolTableRecord
100
AcDbTextStyleTableRecord
  2
STANDARD
 70
0
 40
0.0
 41
0.8
 50
0.0
 71
0
 42
0.2
  3
txt
  4

  0
STYLE
  5
22D
100
AcDbSymbolTableRecord
100
AcDbTextStyleTableRecord
  2
TEXTSTYLE_1
 70
0
 40
0.0
 41
0.8
 50
0.0
 71
0
 42
0.2
  3
gdt
  4

  0
ENDTAB
  0
TABLE
  2
VIEW
  5
6
100
AcDbSymbolTable
 70
0
  0
ENDTAB
  0
TABLE
  2
UCS
  5
7
100
AcDbSymbolTable
 70
0
  0
ENDTAB
  0
TABLE
  2
APPID
  5
9
100
AcDbSymbolTable
 70
1
  0
APPID
  5
22E
100
AcDbSymbolTableRecord
100
AcDbRegAppTableRecord
  2
ACAD
 70
0
  0
ENDTAB
  0
TABLE
  2
BLOCK_RECORD
  5
1
100
AcDbSymbolTable
 70
0
  0
BLOCK_RECORD
  5
22F
100
AcDbSymbolTableRecord
100
AcDbBlockTableRecord
  2
*Model_Space
  0
BLOCK_RECORD
  5
230
100
AcDbSymbolTableRecord
100
AcDbBlockTableRecord
  2
*Paper_Space
  0
BLOCK_RECORD
  5
231
100
AcDbSymbolTableRecord
100
AcDbBlockTableRecord
  2
_FILLED
  0
ENDTAB
  0
TABLE
  2
DIMSTYLE
  5
A
100
AcDbSymbolTable
 70
1
100
AcDbDimStyleTable
 71
0
  0
DIMSTYLE
105
232
100
AcDbSymbolTableRecord
100
AcDbDimStyleTableRecord
  2
STANDARD
 70
0
  3

  4

 40
1.0
 41
13.3181228403
 42
1.0
 43
0.38
 44
1.0
 45
0.0
 46
0.0
 47
0.01
 48
0.01
140
18.6453719764
141
0.09
142
0.0
143
25.4
144
1.0
145
0.0
146
1.0
147
0.625
 71
1
 72
0
 73
0
 74
0
 75
0
 76
0
 77
1
 78
8
 79
2
170
0
171
1
172
0
173
0
174
0
175
0
176
0
177
0
178
0
270
2
179
2
271
2
272
2
273
2
274
2
275
0
280
0
281
0
282
0
283
1
284
8
285
0
286
0
287
3
288
0
340
11
278
46
341
231
342
231
343
231
344
231
  0
ENDTAB
  0
ENDSEC
  0
SECTION
  2
BLOCKS
  0
BLOCK
  5
20
100
AcDbEntity
  8
0
100
AcDbBlockBegin
  2
*Model_Space
 70
0
 10
0.0
 20
0.0
 30
0.0
  3
*Model_Space
  1

  0
ENDBLK
  5
21
100
AcDbEntity
  8
0
100
AcDbBlockEnd
  0
BLOCK
  5
1C
100
AcDbEntity
  8
0
100
AcDbBlockBegin
  2
*Paper_Space
 70
0
 10
0.0
 20
0.0
 30
0.0
  3
*Paper_Space
  1

  0
ENDBLK
  5
1D
100
AcDbEntity
  8
0
100
AcDbBlockEnd
  0
BLOCK
  5
233
100
AcDbEntity
  8
0
100
AcDbBlockBegin
  2
_FILLED
 70
64
 10
0.0
 20
0.0
  3
_FILLED
  1

  0
SOLID
  5
234
100
AcDbEntity
  8
0
  6
BYBLOCK
 62
0
100
AcDbTrace
 10
0.0
 20
0.0
 11
-1.0
 21
0.25
 12
-1.0
 22
-0.25
 13
-1.0
 23
-0.25
  0
ENDBLK
  5
235
100
AcDbEntity
  8
0
  6
BYBLOCK
 62
0
100
AcDbBlockEnd
  0
ENDSEC
  0
SECTION
  2
ENTITIES
  0
LINE
  5
236
100
AcDbEntity
  8
00_COMPONENTS_41
100
AcDbLine
 62
7
  6
CONTINUOUS
 10
673.1377126605
 20
122.1155666068
 11
674.634994125
 21
122.3881285517
  0
LINE
  5
237
100
AcDbEntity
  8
00_COMPONENTS_41
100
AcDbLine
 62
7
  6
CONTINUOUS
 10
666.1405267263
 20
122.8278696111
 11
673.1377126605
 21
122.1155666068
  0
LINE
  5
238
100
AcDbEntity
  8
00_COMPONENTS_41
100
AcDbLine
 62
7
  6
CONTINUOUS
 10
672.8772465442
 20
122.487463267
 11
667.9897390031
 21
122.9850041838
  0
LINE
  5
239
100
AcDbEntity
  8
00_COMPONENTS_41
100
AcDbLine
 62
7
  6
CONTINUOUS
 10
667.9897390031
 20
122.9850041838
 11
663.4890917646
 21
123.7733366791
  0
LINE
  5
23A
100
AcDbEntity
  8
00_COMPONENTS_36
100
AcDbLine
 62
7
  6
CONTINUOUS
 10
459.3083533048
 20
1463.8112406302
 11
266.905390367
 21
1352.7279800987
  0
LINE
  5
23B
100
AcDbEntity
  8
00_COMPONENTS_41
100
AcDbLine
 62
7
  6
CONTINUOUS
 10
253.5511528
 20
1341.624137547
 11
261.4227193689
 21
1346.1687826608
  0
LINE
  5
23C
100
AcDbEntity
  8
00_COMPONENTS_11
100
AcDbLine
 62
7
  6
CONTINUOUS
 10
684.0744230955
 20
176.4556642116
 11
685.1350835617
 21
176.4964927574
  0
LINE
  5
23D
100
AcDbEntity
  8
00_COMPONENTS_11
100
AcDbLine
 62
7
  6
CONTINUOUS
 10
684.0744227008
 20
198.3697052683
 11
685.1350839563
 21
198.4105506924
  0
LINE
  5
23E
100
AcDbEntity
  8
00_COMPONENTS_11
100
AcDbLine
 62
7
  6
CONTINUOUS
 10
684.751273502
 20
198.9269463854
 11
683.6906130296
 21
198.8861177894
  0
LINE
  5
23F
100
AcDbEntity
  8
00_COMPONENTS_11
100
AcDbLine
 62
7
  6
CONTINUOUS
 10
685.1350835617
 20
170.0445835711
 11
684.0744230955
 21
170.1670555087
  0
LINE
  5
240
100
AcDbEntity
  8
00_COMPONENTS_41
100
AcDbLine
 62
7
  6
CONTINUOUS
 10
254.1397319694
 20
1341.3720842729
 11
254.6118173877
 21
1342.2365300409
  0
LINE
  5
241
100
AcDbEntity
  8
00_COMPONENTS_11
100
AcDbLine
 62
7
  6
CONTINUOUS
 10
684.9546363459
 20
192.3999285242
 11
683.8939758798
 21
192.5224004618
  0
LINE
  5
242
100
AcDbEntity
  8
00_COMPONENTS_11
100
AcDbLine
 62
7
  6
CONTINUOUS
 10
685.1350839566
 20
192.5482570977
 11
684.0744227008
 21
192.6707459747
  0
LINE
  5
243
100
AcDbEntity
  8
00_COMPONENTS_41
100
AcDbLine
 62
7
  6
CONTINUOUS
 10
254.9656087452
 20
359.132235699
 11
663.3485251405
 21
123.3575829211
  0
LINE
  5
244
100
AcDbEntity
  8
00_COMPONENTS_41
100
AcDbLine
 62
7
  6
CONTINUOUS
 10
255.2065944994
 20
360.0753856527
 11
661.7820205336
 21
125.3442643135
  0
LINE
  5
245
100
AcDbEntity
  8
00_COMPONENTS_36
100
AcDbLine
 62
7
  6
CONTINUOUS
 10
683.0167980703
 20
132.8310217062
 11
687.9095545478
 21
130.0062513416
  0
LINE
  5
246
100
AcDbEntity
  8
00_COMPONENTS_36
100
AcDbLine
 62
7
  6
CONTINUOUS
 10
683.0044741612
 20
133.9204186705
 11
686.6457409229
 21
131.8181799012
  0
LINE
  5
247
100
AcDbEntity
  8
00_COMPONENTS_41
100
AcDbLine
 62
7
  6
CONTINUOUS
 10
662.8300634771
 20
123.7130540149
 11
663.3485264272
 21
123.3575821783
  0
LINE
  5
248
100
AcDbEntity
  8
00_COMPONENTS_11
100
AcDbLine
 62
7
  6
CONTINUOUS
 10
683.0044741612
 20
165.1924906918
 11
685.1608204647
 21
163.9475517372
  0
LINE
  5
249
100
AcDbEntity
  8
00_COMPONENTS_11
100
AcDbLine
 62
7
  6
CONTINUOUS
 10
683.0044741612
 20
170.7847768392
 11
684.0744230955
 21
170.1670555087
  0
LINE
  5
24A
100
AcDbEntity
  8
00_COMPONENTS_11
100
AcDbLine
 62
7
  6
CONTINUOUS
 10
683.0044741612
 20
177.0733855422
 11
684.0744230955
 21
176.4556642116
  0
LINE
  5
24B
100
AcDbEntity
  8
00_COMPONENTS_11
100
AcDbLine
 62
7
  6
CONTINUOUS
 10
683.0044741612
 20
177.7265728402
 11
685.1350835617
 21
176.4964927574
  0
LINE
  5
24C
100
AcDbEntity
  8
00_COMPONENTS_11
100
AcDbLine
 62
7
  6
CONTINUOUS
 10
683.0044741612
 20
192.9936425852
 11
683.6906130296
 21
192.5975090865
  0
LINE
  5
24D
100
AcDbEntity
  8
00_COMPONENTS_11
100
AcDbLine
 62
7
  6
CONTINUOUS
 10
683.6906130296
 20
198.8861177894
 11
683.0044741612
 21
199.2822512881
  0
LINE
  5
24E
100
AcDbEntity
  8
00_COMPONENTS_11
100
AcDbLine
 62
7
  6
CONTINUOUS
 10
684.7512734613
 20
198.9269463683
 11
683.0044741612
 21
199.9354385946
  0
LINE
  5
24F
100
AcDbEntity
  8
00_COMPONENTS_11
100
AcDbLine
 62
7
  6
CONTINUOUS
 10
685.1608204647
 20
204.7726725937
 11
683.0044741612
 21
206.0176115483
  0
LINE
  5
250
100
AcDbEntity
  8
00_COMPONENTS_11
100
AcDbLine
 62
7
  6
CONTINUOUS
 10
683.0044741612
 20
207.2423338119
 11
687.4942737258
 21
204.6502054664
  0
LINE
  5
251
100
AcDbEntity
  8
00_COMPONENTS_41
100
AcDbLine
 62
7
  6
CONTINUOUS
 10
254.3179442824
 20
360.0030645921
 11
253.5243405882
 21
362.271300149
  0
LINE
  5
252
100
AcDbEntity
  8
00_COMPONENTS_41
100
AcDbLine
 62
7
  6
CONTINUOUS
 10
252.6625214244
 20
365.0930594604
 11
253.5243405882
 21
362.271300149
  0
LINE
  5
253
100
AcDbEntity
  8
00_COMPONENTS_41
100
AcDbLine
 62
7
  6
CONTINUOUS
 10
252.6145895442
 20
365.4138819158
 11
252.6625214243
 21
365.0930594604
  0
LINE
  5
254
100
AcDbEntity
  8
00_COMPONENTS_41
100
AcDbLine
 62
7
  6
CONTINUOUS
 10
252.6139039205
 20
365.4138810798
 11
252.6139039205
 21
1340.3177671325
  0
LINE
  5
255
100
AcDbEntity
  8
00_COMPONENTS_41
100
AcDbLine
 62
7
  6
CONTINUOUS
 10
252.6625214243
 20
1339.9969455131
 11
252.6625214243
 21
365.0930594604
  0
LINE
  5
256
100
AcDbEntity
  8
00_COMPONENTS_41
100
AcDbLine
 62
7
  6
CONTINUOUS
 10
254.1397319694
 20
1341.3720842729
 11
254.1397319694
 21
1340.1473306472
  0
LINE
  5
257
100
AcDbEntity
  8
00_COMPONENTS_41
100
AcDbLine
 62
7
  6
CONTINUOUS
 10
254.3179442824
 20
360.0030645921
 11
254.3179442824
 21
1334.2466038938
  0
LINE
  5
258
100
AcDbEntity
  8
00_COMPONENTS_41
100
AcDbLine
 62
7
  6
CONTINUOUS
 10
255.2065944994
 20
1332.2031634872
 11
255.2065944994
 21
360.0753856527
  0
LINE
  5
259
100
AcDbEntity
  8
00_COMPONENTS_36
100
AcDbLine
 62
7
  6
CONTINUOUS
 10
265.9681414875
 20
1344.1194670495
 11
265.9681414875
 21
1350.7275863091
  0
LINE
  5
25A
100
AcDbEntity
  8
00_COMPONENTS_36
100
AcDbLine
 62
7
  6
CONTINUOUS
 10
266.9054092084
 20
1348.7271742827
 11
266.9054092084
 21
1343.5783475203
  0
LINE
  5
25B
100
AcDbEntity
  8
00_COMPONENTS_39
100
AcDbLine
 62
7
  6
CONTINUOUS
 10
272.8489343345
 20
840.8570561181
 11
272.8489343345
 21
833.9784520105
  0
LINE
  5
25C
100
AcDbEntity
  8
00_COMPONENTS_39
100
AcDbLine
 62
7
  6
CONTINUOUS
 10
272.8489429828
 20
828.1633496437
 11
272.8489535632
 21
813.4467232586
  0
LINE
  5
25D
100
AcDbEntity
  8
00_COMPONENTS_39
100
AcDbLine
 62
7
  6
CONTINUOUS
 10
272.9350386723
 20
840.8073607136
 11
272.9350386723
 21
834.1311092227
  0
LINE
  5
25E
100
AcDbEntity
  8
00_COMPONENTS_39
100
AcDbLine
 62
7
  6
CONTINUOUS
 10
276.3844792722
 20
820.5232644547
 11
276.3844763162
 21
810.2386940277
  0
LINE
  5
25F
100
AcDbEntity
  8
00_COMPONENTS_39
100
AcDbLine
 62
7
  6
CONTINUOUS
 10
276.3844809753
 20
839.9822941693
 11
276.3844809753
 21
837.5361622146
  0
LINE
  5
260
100
AcDbEntity
  8
00_COMPONENTS_39
100
AcDbLine
 62
7
  6
CONTINUOUS
 10
276.470587298
 20
839.9326049966
 11
276.470587298
 21
837.5312720543
  0
LINE
  5
261
100
AcDbEntity
  8
00_COMPONENTS_39
100
AcDbLine
 62
7
  6
CONTINUOUS
 10
276.470587298
 20
820.4287212194
 11
276.470587298
 21
810.1889725108
  0
LINE
  5
262
100
AcDbEntity
  8
00_COMPONENTS_39
100
AcDbLine
 62
7
  6
CONTINUOUS
 10
272.9350386723
 20
827.9112925731
 11
272.9336175336
 21
813.3970441603
  0
LINE
  5
263
100
AcDbEntity
  8
00_COMPONENTS_39
100
AcDbLine
 62
7
  6
CONTINUOUS
 10
279.9200342829
 20
808.1974711223
 11
279.9200342829
 21
818.4372272485
  0
LINE
  5
264
100
AcDbEntity
  8
00_COMPONENTS_39
100
AcDbLine
 62
7
  6
CONTINUOUS
 10
279.9200342829
 20
835.5397779624
 11
279.9200342829
 21
837.9411109049
  0
LINE
  5
265
100
AcDbEntity
  8
00_COMPONENTS_39
100
AcDbLine
 62
7
  6
CONTINUOUS
 10
280.0061434353
 20
808.1477798156
 11
280.0061434353
 21
818.4323392171
  0
LINE
  5
266
100
AcDbEntity
  8
00_COMPONENTS_39
100
AcDbLine
 62
7
  6
CONTINUOUS
 10
280.0061388847
 20
835.4452457288
 11
280.0061388847
 21
837.891377422
  0
LINE
  5
267
100
AcDbEntity
  8
00_COMPONENTS_39
100
AcDbLine
 62
7
  6
CONTINUOUS
 10
283.4555829087
 20
807.3227152913
 11
283.4555829087
 21
821.8373899866
  0
LINE
  5
268
100
AcDbEntity
  8
00_COMPONENTS_39
100
AcDbLine
 62
7
  6
CONTINUOUS
 10
283.5416897799
 20
807.2730213494
 11
283.5416897799
 21
821.9900486528
  0
LINE
  5
269
100
AcDbEntity
  8
00_COMPONENTS_39
100
AcDbLine
 62
7
  6
CONTINUOUS
 10
283.5416730076
 20
827.805146337
 11
283.5416524884
 21
834.6833437804
  0
LINE
  5
26A
100
AcDbEntity
  8
00_COMPONENTS_39
100
AcDbLine
 62
7
  6
CONTINUOUS
 10
283.4555829087
 20
828.0572066362
 11
283.4563230726
 21
834.7326384284
  0
LWPOLYLINE
  5
26B
100
AcDbEntity
  8
00_COMPONENTS_39
100
AcDbPolyline
 62
7
  6
CONTINUOUS
 90
4
 70
0
 10
272.814827219
 20
848.8013965946
 10
271.6540598957
 20
847.4391396822
 10
270.352476319
 20
845.1849669686
 10
269.5479827138
 20
842.5632008532
  0
LINE
  5
26C
100
AcDbEntity
  8
00_COMPONENTS_38
100
AcDbLine
 62
7
  6
CONTINUOUS
 10
278.8343334261
 20
833.4506545724
 11
278.8995955748
 21
833.5224647779
  0
LINE
  5
26D
100
AcDbEntity
  8
00_COMPONENTS_39
100
AcDbLine
 62
7
  6
CONTINUOUS
 10
272.8147363739
 20
848.8013242803
 11
272.8155553539
 21
848.8021428706
  0
LINE
  5
26E
100
AcDbEntity
  8
00_COMPONENTS_39
100
AcDbLine
 62
7
  6
CONTINUOUS
 10
269.530988834
 20
817.6070968416
 11
269.9257583848
 21
816.950149177
  0
LWPOLYLINE
  5
26F
100
AcDbEntity
  8
00_COMPONENTS_39
100
AcDbPolyline
 62
7
  6
CONTINUOUS
 90
3
 70
0
 10
269.5309859491
 20
817.6070093279
 10
270.3406987754
 20
814.8568669756
 10
271.2029659344
 20
813.4743707238
  0
LINE
  5
270
100
AcDbEntity
  8
00_COMPONENTS_41
100
AcDbLine
 62
7
  6
CONTINUOUS
 10
254.9656051367
 20
359.1322377824
 11
254.9769725699
 21
359.1818188247
  0
LWPOLYLINE
  5
271
100
AcDbEntity
  8
00_COMPONENTS_39
100
AcDbPolyline
 62
7
  6
CONTINUOUS
 90
3
 70
0
 10
273.2145148594
 20
849.1450956443
 10
272.9034415855
 20
848.8863840795
 10
272.8155553539
 20
848.8021428706
  0
LINE
  5
272
100
AcDbEntity
  8
00_COMPONENTS_41
100
AcDbLine
 62
7
  6
CONTINUOUS
 10
661.7820205336
 20
1097.472042148
 11
662.5451296274
 21
1097.9126207588
  0
LINE
  5
273
100
AcDbEntity
  8
00_COMPONENTS_36
100
AcDbLine
 62
7
  6
CONTINUOUS
 10
881.4528592175
 20
1220.0915101816
 11
690.1105631084
 21
1109.6206427838
  0
LINE
  5
274
100
AcDbEntity
  8
00_COMPONENTS_41
100
AcDbLine
 62
7
  6
CONTINUOUS
 10
674.634994125
 20
1099.7415218558
 11
681.4458961062
 21
1103.6737744757
  0
LINE
  5
275
100
AcDbEntity
  8
00_COMPONENTS_36
100
AcDbLine
 62
7
  6
CONTINUOUS
 10
881.4528592176
 20
1218.8667565559
 11
690.1105608675
 21
1108.3958885183
  0
LINE
  5
276
100
AcDbEntity
  8
00_COMPONENTS_36
100
AcDbLine
 62
7
  6
CONTINUOUS
 10
882.5135049639
 20
1219.4790930219
 11
881.8262997472
 21
1219.0823372734
  0
LINE
  5
277
100
AcDbEntity
  8
00_COMPONENTS_36
100
AcDbLine
 62
7
  6
CONTINUOUS
 10
687.7063961165
 20
1107.0078276516
 11
686.6457420557
 21
1106.3954623994
  0
LINE
  5
278
100
AcDbEntity
  8
00_COMPONENTS_36
100
AcDbLine
 62
7
  6
CONTINUOUS
 10
686.6457420556
 20
1106.3954623994
 11
682.0680128072
 21
1103.7524336198
  0
LINE
  5
279
100
AcDbEntity
  8
00_COMPONENTS_41
100
AcDbLine
 62
7
  6
CONTINUOUS
 10
674.634994125
 20
1098.5167682301
 11
681.4458961062
 21
1102.44902085
  0
LINE
  5
27A
100
AcDbEntity
  8
00_COMPONENTS_36
100
AcDbLine
 62
7
  6
CONTINUOUS
 10
882.5135238053
 20
1218.2543954241
 11
691.1712254552
 21
1107.7835273865
  0
LINE
  5
27B
100
AcDbEntity
  8
00_COMPONENTS_41
100
AcDbLine
 62
7
  6
CONTINUOUS
 10
675.6956587128
 20
1097.9044070984
 11
682.5065606939
 21
1101.8366597182
  0
LINE
  5
27C
100
AcDbEntity
  8
00_COMPONENTS_39
100
AcDbLine
 62
7
  6
CONTINUOUS
 10
272.8537679704
 20
813.4412359246
 11
272.8489482745
 21
813.4467291042
  0
LINE
  5
27D
100
AcDbEntity
  8
00_COMPONENTS_36
100
AcDbLine
 62
7
  6
CONTINUOUS
 10
683.0044741612
 20
138.1250034532
 11
686.6457409229
 21
131.8181799012
  0
LINE
  5
27E
100
AcDbEntity
  8
00_COMPONENTS_41
100
AcDbLine
 62
7
  6
CONTINUOUS
 10
252.6625214243
 20
1339.9969455131
 11
252.6145895442
 21
1340.3177679685
  0
LINE
  5
27F
100
AcDbEntity
  8
00_COMPONENTS_41
100
AcDbLine
 62
7
  6
CONTINUOUS
 10
254.1142681581
 20
1340.3177675766
 11
254.1397319694
 21
1340.1473306472
  0
LWPOLYLINE
  5
280
100
AcDbEntity
  8
00_COMPONENTS_41
100
AcDbPolyline
 62
7
  6
CONTINUOUS
 90
4
 70
0
 10
663.0813584149
 20
1098.2864926723
 10
663.0134260068
 20
1098.2309125792
 10
662.6573949215
 20
1097.9799333584
 10
662.5451296274
 20
1097.9126207588
  0
LINE
  5
281
100
AcDbEntity
  8
00_COMPONENTS_11
100
AcDbLine
 62
7
  6
CONTINUOUS
 10
687.4942737258
 20
1072.5922748751
 11
687.1407218072
 21
1072.3881527982
  0
LINE
  5
282
100
AcDbEntity
  8
00_COMPONENTS_11
100
AcDbLine
 62
7
  6
CONTINUOUS
 10
687.1407218072
 20
1031.5630319417
 11
687.4942737258
 21
1031.7671540186
  0
LINE
  5
283
100
AcDbEntity
  8
00_COMPONENTS_39
100
AcDbLine
 62
7
  6
CONTINUOUS
 10
274.1758649168
 20
825.7795416119
 11
277.2422559422
 21
827.5203339532
  0
LINE
  5
284
100
AcDbEntity
  8
00_COMPONENTS_39
100
AcDbLine
 62
7
  6
CONTINUOUS
 10
277.2422501884
 20
837.0337317887
 11
274.1758649762
 21
835.3484465257
  0
LWPOLYLINE
  5
285
100
AcDbEntity
  8
00_COMPONENTS_39
100
AcDbPolyline
 62
7
  6
CONTINUOUS
 90
4
 70
0
 10
277.5799196324
 20
837.1797204242
 10
277.6060556597
 20
837.1939971261
 10
277.7339830954
 20
837.2609085466
 10
277.8222990936
 20
837.302882496
  0
LINE
  5
286
100
AcDbEntity
  8
00_COMPONENTS_39
100
AcDbLine
 62
7
  6
CONTINUOUS
 10
277.8220637232
 20
837.3027779478
 11
277.8223057128
 21
837.3028859929
  0
LINE
  5
287
100
AcDbEntity
  8
00_COMPONENTS_41
100
AcDbLine
 62
7
  6
CONTINUOUS
 10
252.6625214243
 20
1339.9969455131
 11
253.5243405882
 21
1337.1751862017
  0
LINE
  5
288
100
AcDbEntity
  8
00_COMPONENTS_41
100
AcDbLine
 62
7
  6
CONTINUOUS
 10
253.5243405882
 20
1337.1751862017
 11
254.3179442824
 21
1334.2466038938
  0
LINE
  5
289
100
AcDbEntity
  8
00_COMPONENTS_41
100
AcDbLine
 62
7
  6
CONTINUOUS
 10
255.1854663631
 20
1336.6468813397
 11
255.0015511333
 21
1337.3255713358
  0
LINE
  5
28A
100
AcDbEntity
  8
00_COMPONENTS_11
100
AcDbLine
 62
7
  6
CONTINUOUS
 10
684.0744230955
 20
656.1508342753
 11
685.1350835617
 21
656.1916628211
  0
LINE
  5
28B
100
AcDbEntity
  8
00_COMPONENTS_11
100
AcDbLine
 62
7
  6
CONTINUOUS
 10
684.0744227008
 20
678.064875332
 11
685.1350839563
 21
678.105720756
  0
LINE
  5
28C
100
AcDbEntity
  8
00_COMPONENTS_11
100
AcDbLine
 62
7
  6
CONTINUOUS
 10
684.751273502
 20
678.622116449
 11
683.6906130296
 21
678.581287853
  0
LINE
  5
28D
100
AcDbEntity
  8
00_COMPONENTS_11
100
AcDbLine
 62
7
  6
CONTINUOUS
 10
685.1350835617
 20
649.7397536347
 11
684.0744230955
 21
649.8622255723
  0
LINE
  5
28E
100
AcDbEntity
  8
00_COMPONENTS_11
100
AcDbLine
 62
7
  6
CONTINUOUS
 10
684.9546363459
 20
672.0950985879
 11
683.8939758798
 21
672.2175705255
  0
LINE
  5
28F
100
AcDbEntity
  8
00_COMPONENTS_11
100
AcDbLine
 62
7
  6
CONTINUOUS
 10
685.1350839566
 20
672.2434271613
 11
684.0744227008
 21
672.3659160383
  0
LINE
  5
290
100
AcDbEntity
  8
00_COMPONENTS_38
100
AcDbLine
 62
7
  6
CONTINUOUS
 10
276.6301254636
 20
832.011341944
 11
278.6387532567
 21
830.8520476982
  0
LINE
  5
291
100
AcDbEntity
  8
00_COMPONENTS_38
100
AcDbLine
 62
7
  6
CONTINUOUS
 10
278.6387530523
 20
833.4718812734
 11
276.6301254636
 21
834.6318744279
  0
LINE
  5
292
100
AcDbEntity
  8
00_COMPONENTS_41
100
AcDbLine
 62
7
  6
CONTINUOUS
 10
254.1397319694
 20
1340.1473306472
 11
255.1965261351
 21
1336.6871862198
  0
LINE
  5
293
100
AcDbEntity
  8
00_COMPONENTS_41
100
AcDbLine
 62
7
  6
CONTINUOUS
 10
255.3735528649
 20
1337.3323207744
 11
254.1397319694
 21
1341.3720842729
  0
LINE
  5
294
100
AcDbEntity
  8
00_COMPONENTS_39
100
AcDbLine
 62
7
  6
CONTINUOUS
 10
283.532867059
 20
834.6865384574
 11
283.5416627485
 21
834.6833408051
  0
LINE
  5
295
100
AcDbEntity
  8
00_COMPONENTS_11
100
AcDbLine
 62
7
  6
CONTINUOUS
 10
683.0044741612
 20
644.8876607554
 11
685.1608204647
 21
643.6427218009
  0
LINE
  5
296
100
AcDbEntity
  8
00_COMPONENTS_11
100
AcDbLine
 62
7
  6
CONTINUOUS
 10
683.0044741612
 20
650.4799469029
 11
684.0744230955
 21
649.8622255723
  0
LINE
  5
297
100
AcDbEntity
  8
00_COMPONENTS_11
100
AcDbLine
 62
7
  6
CONTINUOUS
 10
683.0044741612
 20
656.7685556058
 11
684.0744230955
 21
656.1508342753
  0
LINE
  5
298
100
AcDbEntity
  8
00_COMPONENTS_11
100
AcDbLine
 62
7
  6
CONTINUOUS
 10
683.0044741612
 20
657.4217429038
 11
685.1350835617
 21
656.1916628211
  0
LINE
  5
299
100
AcDbEntity
  8
00_COMPONENTS_11
100
AcDbLine
 62
7
  6
CONTINUOUS
 10
683.0044741612
 20
672.6888126488
 11
683.6906130296
 21
672.2926791502
  0
LINE
  5
29A
100
AcDbEntity
  8
00_COMPONENTS_41
100
AcDbLine
 62
7
  6
CONTINUOUS
 10
663.7495578809
 20
1098.8697329464
 11
663.4890917646
 21
1098.0168759809
  0
LINE
  5
29B
100
AcDbEntity
  8
00_COMPONENTS_41
100
AcDbLine
 62
7
  6
CONTINUOUS
 10
667.989739003
 20
1097.8888902365
 11
668.2502051193
 21
1098.741747202
  0
LINE
  5
29C
100
AcDbEntity
  8
00_COMPONENTS_11
100
AcDbLine
 62
7
  6
CONTINUOUS
 10
683.6906130296
 20
678.581287853
 11
683.0044741612
 21
678.9774213517
  0
LINE
  5
29D
100
AcDbEntity
  8
00_COMPONENTS_11
100
AcDbLine
 62
7
  6
CONTINUOUS
 10
684.7512734613
 20
678.6221164319
 11
683.0044741612
 21
679.6306086582
  0
LINE
  5
29E
100
AcDbEntity
  8
00_COMPONENTS_11
100
AcDbLine
 62
7
  6
CONTINUOUS
 10
685.1608204647
 20
684.4678426573
 11
683.0044741612
 21
685.7127816119
  0
LINE
  5
29F
100
AcDbEntity
  8
00_COMPONENTS_11
100
AcDbLine
 62
7
  6
CONTINUOUS
 10
683.0044741612
 20
686.9375038755
 11
687.4942737258
 21
684.34537553
  0
LWPOLYLINE
  5
2A0
100
AcDbEntity
  8
00_COMPONENTS_39
100
AcDbPolyline
 62
7
  6
CONTINUOUS
 90
4
 70
0
 10
289.5022350124
 20
803.2274982293
 10
290.2050526868
 20
803.325753784
 10
290.6793822785
 20
803.4619571908
 10
291.4980375754
 20
803.787321058
  0
LINE
  5
2A1
100
AcDbEntity
  8
00_COMPONENTS_39
100
AcDbLine
 62
7
  6
CONTINUOUS
 10
289.5023386329
 20
803.2274861555
 11
289.4994491835
 21
803.2273966229
  0
LINE
  5
2A2
100
AcDbEntity
  8
00_COMPONENTS_39
100
AcDbLine
 62
7
  6
CONTINUOUS
 10
289.1807075485
 20
803.2221873496
 11
289.4994491835
 21
803.2273966229
  0
LINE
  5
2A3
100
AcDbEntity
  8
00_COMPONENTS_36
100
AcDbLine
 62
7
  6
CONTINUOUS
 10
266.9054092084
 20
1348.7271742827
 11
271.3644106766
 21
1341.0040000618
  0
LINE
  5
2A4
100
AcDbEntity
  8
00_COMPONENTS_41
100
AcDbLine
 62
7
  6
CONTINUOUS
 10
661.7820205336
 20
125.3442643135
 11
661.7820205336
 21
1097.472042148
  0
LINE
  5
2A5
100
AcDbEntity
  8
00_COMPONENTS_41
100
AcDbLine
 62
7
  6
CONTINUOUS
 10
663.4890917646
 20
1098.0168759808
 11
663.4890917646
 21
123.7733366791
  0
LINE
  5
2A6
100
AcDbEntity
  8
00_COMPONENTS_41
100
AcDbLine
 62
7
  6
CONTINUOUS
 10
666.1405267262
 20
1100.1812629151
 11
666.1405267262
 21
1098.9565092895
  0
LINE
  5
2A7
100
AcDbEntity
  8
00_COMPONENTS_41
100
AcDbLine
 62
7
  6
CONTINUOUS
 10
666.1405267262
 20
123.3089118467
 11
666.1405267262
 21
122.827869611
  0
LINE
  5
2A8
100
AcDbEntity
  8
00_COMPONENTS_41
100
AcDbLine
 62
7
  6
CONTINUOUS
 10
672.8772465442
 20
122.487463267
 11
672.8772465442
 21
1097.3913493197
  0
LINE
  5
2A9
100
AcDbEntity
  8
00_COMPONENTS_41
100
AcDbLine
 62
7
  6
CONTINUOUS
 10
673.1377126605
 20
1099.4689599109
 11
673.1377126605
 21
1098.2442062852
  0
LINE
  5
2AA
100
AcDbEntity
  8
00_COMPONENTS_41
100
AcDbLine
 62
7
  6
CONTINUOUS
 10
673.1377126605
 20
122.1155666068
 11
673.1377126605
 21
122.487463267
  0
LINE
  5
2AB
100
AcDbEntity
  8
00_COMPONENTS_41
100
AcDbLine
 62
7
  6
CONTINUOUS
 10
681.4458961062
 20
1102.7951189614
 11
681.4800840821
 21
1103.0801323619
  0
LINE
  5
2AC
100
AcDbEntity
  8
00_COMPONENTS_39
100
AcDbLine
 62
7
  6
CONTINUOUS
 10
276.3844809753
 20
837.5361622146
 11
275.4377167498
 21
837.4107355651
  0
LINE
  5
2AD
100
AcDbEntity
  8
00_COMPONENTS_41
100
AcDbLine
 62
7
  6
CONTINUOUS
 10
674.634994125
 20
1099.7415218558
 11
674.634994125
 21
1098.5167682302
  0
LINE
  5
2AE
100
AcDbEntity
  8
00_COMPONENTS_41
100
AcDbLine
 62
7
  6
CONTINUOUS
 10
674.634994125
 20
122.3881285517
 11
674.634994125
 21
122.6133239857
  0
LINE
  5
2AF
100
AcDbEntity
  8
00_COMPONENTS_41
100
AcDbLine
 62
7
  6
CONTINUOUS
 10
675.6956587128
 20
1097.9044070984
 11
675.6956587128
 21
123.0005210456
  0
LINE
  5
2B0
100
AcDbEntity
  8
00_COMPONENTS_41
100
AcDbLine
 62
7
  6
CONTINUOUS
 10
681.4458961062
 20
1102.44902085
 11
681.4458961062
 21
1103.6737744757
  0
LINE
  5
2B1
100
AcDbEntity
  8
00_COMPONENTS_41
100
AcDbLine
 62
7
  6
CONTINUOUS
 10
682.5065606939
 20
126.9327736655
 11
682.5065606939
 21
1101.8366597182
  0
LINE
  5
2B2
100
AcDbEntity
  8
00_COMPONENTS_41
100
AcDbLine
 62
7
  6
CONTINUOUS
 10
683.0044741612
 20
128.0270480183
 11
683.0044741612
 21
1102.1304042282
  0
LINE
  5
2B3
100
AcDbEntity
  8
00_COMPONENTS_11
100
AcDbLine
 62
7
  6
CONTINUOUS
 10
684.0744230955
 20
170.1670555087
 11
684.0744230955
 21
176.4556642116
  0
LINE
  5
2B4
100
AcDbEntity
  8
00_COMPONENTS_11
100
AcDbLine
 62
7
  6
CONTINUOUS
 10
684.0744227008
 20
192.6707459747
 11
684.0744227008
 21
198.3697052683
  0
LINE
  5
2B5
100
AcDbEntity
  8
00_COMPONENTS_11
100
AcDbLine
 62
7
  6
CONTINUOUS
 10
684.0744230955
 20
649.8622255723
 11
684.0744230955
 21
656.1508342753
  0
LINE
  5
2B6
100
AcDbEntity
  8
00_COMPONENTS_11
100
AcDbLine
 62
7
  6
CONTINUOUS
 10
684.0744227008
 20
672.3659160383
 11
684.0744227008
 21
678.064875332
  0
LINE
  5
2B7
100
AcDbEntity
  8
00_COMPONENTS_11
100
AcDbLine
 62
7
  6
CONTINUOUS
 10
684.0744230955
 20
1038.1091249175
 11
684.0744230955
 21
1044.3977336204
  0
LINE
  5
2B8
100
AcDbEntity
  8
00_COMPONENTS_11
100
AcDbLine
 62
7
  6
CONTINUOUS
 10
684.0744227008
 20
1060.6128153834
 11
684.0744227008
 21
1066.3117746771
  0
LINE
  5
2B9
100
AcDbEntity
  8
00_COMPONENTS_11
100
AcDbLine
 62
7
  6
CONTINUOUS
 10
685.1350835617
 20
1044.4385621662
 11
685.1350835617
 21
1037.9866529798
  0
LINE
  5
2BA
100
AcDbEntity
  8
00_COMPONENTS_11
100
AcDbLine
 62
7
  6
CONTINUOUS
 10
685.1350835617
 20
656.1916628211
 11
685.1350835617
 21
649.7397536347
  0
LINE
  5
2BB
100
AcDbEntity
  8
00_COMPONENTS_11
100
AcDbLine
 62
7
  6
CONTINUOUS
 10
685.1350835617
 20
176.4964927574
 11
685.1350835617
 21
170.0445835711
  0
LINE
  5
2BC
100
AcDbEntity
  8
00_COMPONENTS_11
100
AcDbLine
 62
7
  6
CONTINUOUS
 10
685.1350837723
 20
192.5482569913
 11
685.1350837721
 21
198.4105505861
  0
LINE
  5
2BD
100
AcDbEntity
  8
00_COMPONENTS_11
100
AcDbLine
 62
7
  6
CONTINUOUS
 10
685.1350837723
 20
672.2434270549
 11
685.1350837721
 21
678.1057206497
  0
LINE
  5
2BE
100
AcDbEntity
  8
00_COMPONENTS_11
100
AcDbLine
 62
7
  6
CONTINUOUS
 10
685.1350837723
 20
1060.4903264
 11
685.1350837721
 21
1066.3526199948
  0
LINE
  5
2BF
100
AcDbEntity
  8
00_COMPONENTS_11
100
AcDbLine
 62
7
  6
CONTINUOUS
 10
685.1608204647
 20
163.9475517372
 11
685.1608204647
 21
204.7726725937
  0
LINE
  5
2C0
100
AcDbEntity
  8
00_COMPONENTS_11
100
AcDbLine
 62
7
  6
CONTINUOUS
 10
685.1608204647
 20
643.6427218009
 11
685.1608204647
 21
684.4678426573
  0
LINE
  5
2C1
100
AcDbEntity
  8
00_COMPONENTS_11
100
AcDbLine
 62
7
  6
CONTINUOUS
 10
685.1608204647
 20
1031.889621146
 11
685.1608204647
 21
1072.7147420025
  0
LINE
  5
2C2
100
AcDbEntity
  8
00_COMPONENTS_36
100
AcDbLine
 62
7
  6
CONTINUOUS
 10
686.6457420557
 20
131.8181773136
 11
686.6457420557
 21
163.620962533
  0
LINE
  5
2C3
100
AcDbEntity
  8
00_COMPONENTS_36
100
AcDbLine
 62
7
  6
CONTINUOUS
 10
686.6457420557
 20
204.6502054664
 11
686.6457420557
 21
643.3161325966
  0
LINE
  5
2C4
100
AcDbEntity
  8
00_COMPONENTS_36
100
AcDbLine
 62
7
  6
CONTINUOUS
 10
686.6457420557
 20
684.34537553
 11
686.6457420557
 21
1031.5630319417
  0
LINE
  5
2C5
100
AcDbEntity
  8
00_COMPONENTS_36
100
AcDbLine
 62
7
  6
CONTINUOUS
 10
686.6457420557
 20
1072.5922748751
 11
686.6457420557
 21
1106.3954623994
  0
LINE
  5
2C6
100
AcDbEntity
  8
00_COMPONENTS_11
100
AcDbLine
 62
7
  6
CONTINUOUS
 10
687.1407218072
 20
1072.3881527982
 11
687.1407218072
 21
1031.5630319417
  0
LINE
  5
2C7
100
AcDbEntity
  8
00_COMPONENTS_11
100
AcDbLine
 62
7
  6
CONTINUOUS
 10
687.1407218072
 20
684.1412534531
 11
687.1407218072
 21
643.3161325966
  0
LINE
  5
2C8
100
AcDbEntity
  8
00_COMPONENTS_11
100
AcDbLine
 62
7
  6
CONTINUOUS
 10
687.1407218072
 20
204.4460833894
 11
687.1407218072
 21
163.620962533
  0
LINE
  5
2C9
100
AcDbEntity
  8
00_COMPONENTS_11
100
AcDbLine
 62
7
  6
CONTINUOUS
 10
687.4942737258
 20
163.8250846099
 11
687.4942737258
 21
204.6502054664
  0
LINE
  5
2CA
100
AcDbEntity
  8
00_COMPONENTS_11
100
AcDbLine
 62
7
  6
CONTINUOUS
 10
687.4942737258
 20
643.5202546735
 11
687.4942737258
 21
684.34537553
  0
LINE
  5
2CB
100
AcDbEntity
  8
00_COMPONENTS_11
100
AcDbLine
 62
7
  6
CONTINUOUS
 10
687.4942737258
 20
1031.7671540186
 11
687.4942737258
 21
1072.5922748751
  0
LINE
  5
2CC
100
AcDbEntity
  8
00_COMPONENTS_36
100
AcDbLine
 62
7
  6
CONTINUOUS
 10
690.1105625421
 20
1109.6206431108
 11
690.1105608675
 21
1108.3958885183
  0
LINE
  5
2CD
100
AcDbEntity
  8
00_COMPONENTS_36
100
AcDbLine
 62
7
  6
CONTINUOUS
 10
690.1105608675
 20
130.4301340824
 11
690.1105608675
 21
129.8177415885
  0
LINE
  5
2CE
100
AcDbEntity
  8
00_COMPONENTS_36
100
AcDbLine
 62
7
  6
CONTINUOUS
 10
691.1712254552
 20
1107.7835273865
 11
691.1712254552
 21
130.4301340824
  0
LINE
  5
2CF
100
AcDbEntity
  8
00_COMPONENTS_11
100
AcDbLine
 62
7
  6
CONTINUOUS
 10
687.4942737258
 20
684.34537553
 11
687.1407218072
 21
684.1412534531
  0
LINE
  5
2D0
100
AcDbEntity
  8
00_COMPONENTS_11
100
AcDbLine
 62
7
  6
CONTINUOUS
 10
687.1407218072
 20
643.3161325966
 11
687.4942737258
 21
643.5202546735
  0
LINE
  5
2D1
100
AcDbEntity
  8
00_COMPONENTS_11
100
AcDbLine
 62
7
  6
CONTINUOUS
 10
684.0744230955
 20
1044.3977336204
 11
685.1350835617
 21
1044.4385621662
  0
LINE
  5
2D2
100
AcDbEntity
  8
00_COMPONENTS_41
100
AcDbLine
 62
7
  6
CONTINUOUS
 10
673.1377126605
 20
1098.2442062852
 11
674.634994125
 21
1098.5167682301
  0
LINE
  5
2D3
100
AcDbEntity
  8
00_COMPONENTS_41
100
AcDbLine
 62
7
  6
CONTINUOUS
 10
674.634994125
 20
1099.7415218558
 11
673.1377126605
 21
1099.4689599109
  0
LINE
  5
2D4
100
AcDbEntity
  8
00_COMPONENTS_11
100
AcDbLine
 62
7
  6
CONTINUOUS
 10
684.0744227008
 20
1066.3117746771
 11
685.1350839563
 21
1066.3526201011
  0
LINE
  5
2D5
100
AcDbEntity
  8
00_COMPONENTS_11
100
AcDbLine
 62
7
  6
CONTINUOUS
 10
684.751273502
 20
1066.8690157941
 11
683.6906130296
 21
1066.8281871982
  0
LINE
  5
2D6
100
AcDbEntity
  8
00_COMPONENTS_11
100
AcDbLine
 62
7
  6
CONTINUOUS
 10
685.1350835617
 20
1037.9866529798
 11
684.0744230955
 21
1038.1091249175
  0
LINE
  5
2D7
100
AcDbEntity
  8
00_COMPONENTS_11
100
AcDbLine
 62
7
  6
CONTINUOUS
 10
684.9546363459
 20
1060.341997933
 11
683.8939758798
 21
1060.4644698706
  0
LINE
  5
2D8
100
AcDbEntity
  8
00_COMPONENTS_11
100
AcDbLine
 62
7
  6
CONTINUOUS
 10
685.1350839567
 20
1060.4903265064
 11
684.0744227008
 21
1060.6128153834
  0
LINE
  5
2D9
100
AcDbEntity
  8
00_COMPONENTS_11
100
AcDbLine
 62
7
  6
CONTINUOUS
 10
683.0044741612
 20
1033.1345601005
 11
685.1608204647
 21
1031.889621146
  0
LINE
  5
2DA
100
AcDbEntity
  8
00_COMPONENTS_11
100
AcDbLine
 62
7
  6
CONTINUOUS
 10
683.0044741612
 20
1038.726846248
 11
684.0744230955
 21
1038.1091249175
  0
LINE
  5
2DB
100
AcDbEntity
  8
00_COMPONENTS_11
100
AcDbLine
 62
7
  6
CONTINUOUS
 10
683.0044741612
 20
1045.0154549509
 11
684.0744230955
 21
1044.3977336204
  0
LINE
  5
2DC
100
AcDbEntity
  8
00_COMPONENTS_11
100
AcDbLine
 62
7
  6
CONTINUOUS
 10
683.0044741612
 20
1045.668642249
 11
685.1350835617
 21
1044.4385621662
  0
LINE
  5
2DD
100
AcDbEntity
  8
00_COMPONENTS_11
100
AcDbLine
 62
7
  6
CONTINUOUS
 10
683.0044741612
 20
1060.9357119939
 11
683.6906130296
 21
1060.5395784953
  0
LINE
  5
2DE
100
AcDbEntity
  8
00_COMPONENTS_11
100
AcDbLine
 62
7
  6
CONTINUOUS
 10
683.6906130296
 20
1066.8281871982
 11
683.0044741612
 21
1067.2243206968
  0
LINE
  5
2DF
100
AcDbEntity
  8
00_COMPONENTS_11
100
AcDbLine
 62
7
  6
CONTINUOUS
 10
684.7512734613
 20
1066.869015777
 11
683.0044741612
 21
1067.8775080033
  0
LINE
  5
2E0
100
AcDbEntity
  8
00_COMPONENTS_11
100
AcDbLine
 62
7
  6
CONTINUOUS
 10
685.1608204647
 20
1072.7147420025
 11
683.0044741612
 21
1073.959680957
  0
LINE
  5
2E1
100
AcDbEntity
  8
00_COMPONENTS_11
100
AcDbLine
 62
7
  6
CONTINUOUS
 10
683.0044741612
 20
1075.1844032206
 11
687.4942737258
 21
1072.5922748751
  0
LINE
  5
2E2
100
AcDbEntity
  8
00_COMPONENTS_36
100
AcDbLine
 62
7
  6
CONTINUOUS
 10
882.5135049639
 20
1219.4790930218
 11
882.4517986026
 21
1220.5969983964
  0
LINE
  5
2E3
100
AcDbEntity
  8
00_COMPONENTS_36
100
AcDbLine
 62
7
  6
CONTINUOUS
 10
881.4528592176
 20
1218.8667565559
 11
881.4528592176
 21
1220.0915101816
  0
LINE
  5
2E4
100
AcDbEntity
  8
00_COMPONENTS_36
100
AcDbLine
 62
7
  6
CONTINUOUS
 10
882.5135238053
 20
240.90100212
 11
882.5135238053
 21
1218.2543954241
  0
LINE
  5
2E5
100
AcDbEntity
  8
00_COMPONENTS_36
100
AcDbLine
 62
7
  6
CONTINUOUS
 10
883.4507726848
 20
1218.8667424634
 11
883.4507726848
 21
242.9013959096
  0
LINE
  5
2E6
100
AcDbEntity
  8
00_COMPONENTS_41
100
AcDbLine
 62
7
  6
CONTINUOUS
 10
663.4890917646
 20
1098.0168759808
 11
667.989739003
 21
1097.8888902365
  0
LINE
  5
2E7
100
AcDbEntity
  8
00_COMPONENTS_41
100
AcDbLine
 62
7
  6
CONTINUOUS
 10
668.2502051194
 20
1098.741747202
 11
663.7495578809
 21
1098.8697329464
  0
LINE
  5
2E8
100
AcDbEntity
  8
00_COMPONENTS_41
100
AcDbLine
 62
7
  6
CONTINUOUS
 10
672.8772465442
 20
1097.3913493197
 11
667.989739003
 21
1097.8888902365
  0
LINE
  5
2E9
100
AcDbEntity
  8
00_COMPONENTS_41
100
AcDbLine
 62
7
  6
CONTINUOUS
 10
666.1405267262
 20
1098.9565092895
 11
673.1377126605
 21
1098.2442062852
  0
LINE
  5
2EA
100
AcDbEntity
  8
00_COMPONENTS_41
100
AcDbLine
 62
7
  6
CONTINUOUS
 10
673.1377126605
 20
1099.4689599109
 11
666.1405267262
 21
1100.1812629152
  0
LINE
  5
2EB
100
AcDbEntity
  8
00_COMPONENTS_41
100
AcDbLine
 62
7
  6
CONTINUOUS
 10
662.8300634771
 20
1098.8381217481
 11
663.6989018078
 21
1098.6372529779
  0
LINE
  5
2EC
100
AcDbEntity
  8
00_COMPONENTS_41
100
AcDbLine
 62
7
  6
CONTINUOUS
 10
682.0041728843
 20
1102.1646477953
 11
681.7452764989
 21
1102.2761774099
  0
LINE
  5
2ED
100
AcDbEntity
  8
00_COMPONENTS_41
100
AcDbLine
 62
7
  6
CONTINUOUS
 10
661.7820205336
 20
1097.472042148
 11
255.2065944994
 21
1332.2031634872
  0
LINE
  5
2EE
100
AcDbEntity
  8
00_COMPONENTS_41
100
AcDbLine
 62
7
  6
CONTINUOUS
 10
255.3735528649
 20
1337.3323207744
 11
666.1405267262
 21
1100.1812629152
  0
LINE
  5
2EF
100
AcDbEntity
  8
00_COMPONENTS_41
100
AcDbLine
 62
7
  6
CONTINUOUS
 10
682.5065606939
 20
1101.8366597182
 11
681.4458961062
 21
1102.44902085
  0
LINE
  5
2F0
100
AcDbEntity
  8
00_COMPONENTS_41
100
AcDbLine
 62
7
  6
CONTINUOUS
 10
681.4458961062
 20
1103.6737744757
 11
261.4227193689
 21
1346.1687826608
  0
LINE
  5
2F1
100
AcDbEntity
  8
00_COMPONENTS_41
100
AcDbLine
 62
7
  6
CONTINUOUS
 10
681.9492469622
 20
1103.9580970021
 11
262.6193396689
 21
1346.0528549419
  0
LINE
  5
2F2
100
AcDbEntity
  8
00_COMPONENTS_36
100
AcDbLine
 62
7
  6
CONTINUOUS
 10
686.6457420556
 20
1106.3954623994
 11
266.9054092084
 21
1348.7271742827
  0
LINE
  5
2F3
100
AcDbEntity
  8
00_COMPONENTS_36
100
AcDbLine
 62
7
  6
CONTINUOUS
 10
690.1105623587
 20
1108.3958893792
 11
691.1712254552
 21
1107.7835273865
  0
LINE
  5
2F4
100
AcDbEntity
  8
00_COMPONENTS_36
100
AcDbLine
 62
7
  6
CONTINUOUS
 10
266.905390367
 20
1352.7279800987
 11
267.4357272125
 21
1352.421796905
  0
LINE
  5
2F5
100
AcDbEntity
  8
00_COMPONENTS_36
100
AcDbLine
 62
7
  6
CONTINUOUS
 10
267.9660549547
 20
1353.3403725926
 11
690.1105631084
 21
1109.6206427838
  0
LINE
  5
2F6
100
AcDbEntity
  8
00_COMPONENTS_41
100
AcDbLine
 62
7
  6
CONTINUOUS
 10
662.8300634771
 20
123.7130540149
 11
663.0843101571
 21
124.0654109266
  0
LINE
  5
2F7
100
AcDbEntity
  8
00_COMPONENTS_36
100
AcDbLine
 62
7
  6
CONTINUOUS
 10
882.5135238053
 20
1218.2543954241
 11
881.4528592176
 21
1218.8667565559
  0
LINE
  5
2F8
100
AcDbEntity
  8
00_COMPONENTS_36
100
AcDbLine
 62
7
  6
CONTINUOUS
 10
881.4528592175
 20
1220.0915101816
 11
459.3083533048
 21
1463.8112406302
  0
LINE
  5
2F9
100
AcDbEntity
  8
00_COMPONENTS_36
100
AcDbLine
 62
7
  6
CONTINUOUS
 10
461.5093596245
 20
1463.622730877
 11
882.4517986034
 21
1220.5969983959
  0
LINE
  5
2FA
100
AcDbEntity
  8
00_COMPONENTS_36
100
AcDbLine
 62
7
  6
CONTINUOUS
 10
883.4507726848
 20
1218.8667424624
 11
882.5135049639
 21
1219.4790930218
  0
LINE
  5
2FB
100
AcDbEntity
  8
00_COMPONENTS_11
100
AcDbLine
 62
7
  6
CONTINUOUS
 10
687.4942737258
 20
204.6502054664
 11
687.1407218072
 21
204.4460833894
  0
LINE
  5
2FC
100
AcDbEntity
  8
00_COMPONENTS_41
100
AcDbLine
 62
7
  6
CONTINUOUS
 10
254.3179442824
 20
1334.2466038938
 11
254.9762865317
 21
1334.313625408
  0
LINE
  5
2FD
100
AcDbEntity
  8
00_COMPONENTS_41
100
AcDbLine
 62
7
  6
CONTINUOUS
 10
253.5243405882
 20
1337.1751862017
 11
255.0015511333
 21
1337.3255713358
  0
LINE
  5
2FE
100
AcDbEntity
  8
00_COMPONENTS_11
100
AcDbLine
 62
7
  6
CONTINUOUS
 10
687.1407218072
 20
163.620962533
 11
687.4942737258
 21
163.8250846099
  0
LINE
  5
2FF
100
AcDbEntity
  8
00_COMPONENTS_41
100
AcDbLine
 62
7
  6
CONTINUOUS
 10
675.6956587128
 20
123.0005210457
 11
682.5065606939
 21
126.9327736655
  0
LINE
  5
300
100
AcDbEntity
  8
00_COMPONENTS_36
100
AcDbLine
 62
7
  6
CONTINUOUS
 10
882.5135238053
 20
240.90100212
 11
690.1105608675
 21
129.8177415885
  0
ARC
  5
301
100
AcDbEntity
  8
00_COMPONENTS_41
100
AcDbCircle
 62
7
  6
CONTINUOUS
 10
655.4232306491
 20
1107.8181707964
 40
12.2230219311
100
AcDbArc
 50
310.8288947444
 51
312.9375166362
  0
ARC
  5
302
100
AcDbEntity
  8
00_COMPONENTS_39
100
AcDbCircle
 62
7
  6
CONTINUOUS
 10
289.145638674
 20
815.1220421548
 40
11.8999064789
100
AcDbArc
 50
270.1688731206
 51
271.7037811935
  0
ARC
  5
303
100
AcDbEntity
  8
00_COMPONENTS_39
100
AcDbCircle
 62
7
  6
CONTINUOUS
 10
269.0390801513
 20
844.5354511993
 40
11.1416221926
100
AcDbArc
 50
319.9425044708
 51
320.2012710725
  0
ARC
  5
304
100
AcDbEntity
  8
00_COMPONENTS_39
100
AcDbCircle
 62
7
  6
CONTINUOUS
 10
287.0186249362
 20
812.5050462643
 40
9.7233571726
100
AcDbArc
 50
297.2349953776
 51
299.395910447
  0
ARC
  5
305
100
AcDbEntity
  8
00_COMPONENTS_39
100
AcDbCircle
 62
7
  6
CONTINUOUS
 10
270.7471375399
 20
843.0991000102
 40
8.9099042998
100
AcDbArc
 50
319.5365712222
 51
319.9434769206
  0
ARC
  5
306
100
AcDbEntity
  8
00_COMPONENTS_41
100
AcDbCircle
 62
7
  6
CONTINUOUS
 10
667.6763667695
 20
1092.0603919369
 40
8.3321231986
100
AcDbArc
 50
121.2708816814
 51
125.5660348489
  0
ARC
  5
307
100
AcDbEntity
  8
00_COMPONENTS_41
100
AcDbCircle
 62
7
  6
CONTINUOUS
 10
660.0963967624
 20
1105.5947851279
 40
8.3027156051
100
AcDbArc
 50
292.1465611803
 51
294.11847233
  0
ARC
  5
308
100
AcDbEntity
  8
00_COMPONENTS_41
100
AcDbCircle
 62
7
  6
CONTINUOUS
 10
263.2455901715
 20
1334.7751854764
 40
8.2815236977
100
AcDbArc
 50
167.9194212003
 51
175.1565161421
  0
ARC
  5
309
100
AcDbEntity
  8
00_COMPONENTS_41
100
AcDbCircle
 62
7
  6
CONTINUOUS
 10
660.111174751
 20
1105.5571246185
 40
8.2622626434
100
AcDbArc
 50
290.1128011933
 51
292.1500939746
  0
ARC
  5
30A
100
AcDbEntity
  8
00_COMPONENTS_41
100
AcDbCircle
 62
7
  6
CONTINUOUS
 10
667.6210451393
 20
1092.1517233588
 40
8.2253435386
100
AcDbArc
 50
120.1037883864
 51
121.2717461129
  0
ARC
  5
30B
100
AcDbEntity
  8
00_COMPONENTS_41
100
AcDbCircle
 62
7
  6
CONTINUOUS
 10
263.1324848093
 20
1334.7743563923
 40
8.1688988201
100
AcDbArc
 50
175.083739465
 51
183.2805754249
  0
ARC
  5
30C
100
AcDbEntity
  8
00_COMPONENTS_41
100
AcDbCircle
 62
7
  6
CONTINUOUS
 10
667.5106952396
 20
1092.3443355256
 40
8.0033633459
100
AcDbArc
 50
117.476830682
 51
120.1119666033
  0
ARC
  5
30D
100
AcDbEntity
  8
00_COMPONENTS_41
100
AcDbCircle
 62
7
  6
CONTINUOUS
 10
262.8270202838
 20
1334.86104369
 40
7.8542551884
100
AcDbArc
 50
166.4126369327
 51
167.8928352774
  0
ARC
  5
30E
100
AcDbEntity
  8
00_COMPONENTS_39
100
AcDbCircle
 62
7
  6
CONTINUOUS
 10
285.5710567075
 20
829.9427154326
 40
7.7131107795
100
AcDbArc
 50
239.9992508972
 51
240.721087771
  0
ARC
  5
30F
100
AcDbEntity
  8
00_COMPONENTS_41
100
AcDbCircle
 62
7
  6
CONTINUOUS
 10
667.531419589
 20
129.9896988425
 40
7.4150908819
100
AcDbArc
 50
230.9836271785
 51
236.9651679726
  0
ARC
  5
310
100
AcDbEntity
  8
00_COMPONENTS_41
100
AcDbCircle
 62
7
  6
CONTINUOUS
 10
667.0608130701
 20
129.4118409043
 40
6.6698483378
100
AcDbArc
 50
224.2887379854
 51
230.9995983046
  0
ARC
  5
311
100
AcDbEntity
  8
00_COMPONENTS_41
100
AcDbCircle
 62
7
  6
CONTINUOUS
 10
667.3437248639
 20
1094.2042933753
 40
6.4688101305
100
AcDbArc
 50
134.2473711033
 51
139.9361753009
  0
ARC
  5
312
100
AcDbEntity
  8
00_COMPONENTS_41
100
AcDbCircle
 62
7
  6
CONTINUOUS
 10
261.2279969008
 20
1333.8508737828
 40
6.2676353465
100
AcDbArc
 50
175.8276587042
 51
182.3784706957
  0
ARC
  5
313
100
AcDbEntity
  8
00_COMPONENTS_36
100
AcDbCircle
 62
7
  6
CONTINUOUS
 10
690.5382508371
 20
136.4877147891
 40
6.1254670749
100
AcDbArc
 50
249.4032341072
 51
254.571611034
  0
ARC
  5
314
100
AcDbEntity
  8
00_COMPONENTS_41
100
AcDbCircle
 62
7
  6
CONTINUOUS
 10
666.5990270419
 20
128.9567329614
 40
6.0214986491
100
AcDbArc
 50
218.9868316764
 51
224.2570859812
  0
ARC
  5
315
100
AcDbEntity
  8
00_COMPONENTS_41
100
AcDbCircle
 62
7
  6
CONTINUOUS
 10
666.2914598774
 20
128.7038656313
 40
5.6233410185
100
AcDbArc
 50
216.6866745245
 51
218.9557753817
  0
ARC
  5
316
100
AcDbEntity
  8
00_COMPONENTS_41
100
AcDbCircle
 62
7
  6
CONTINUOUS
 10
673.4328530759
 20
1102.9087088009
 40
5.545339778
100
AcDbArc
 50
266.8450791141
 51
274.7971339225
  0
ARC
  5
317
100
AcDbEntity
  8
00_COMPONENTS_41
100
AcDbCircle
 62
7
  6
CONTINUOUS
 10
673.4330075248
 20
127.9741914508
 40
5.5148033901
100
AcDbArc
 50
264.2161302009
 51
274.8221488764
  0
ARC
  5
318
100
AcDbEntity
  8
00_COMPONENTS_41
100
AcDbCircle
 62
7
  6
CONTINUOUS
 10
673.4231165164
 20
1102.762728282
 40
5.399044914
100
AcDbArc
 50
264.1972001163
 51
266.862988572
  0
ARC
  5
319
100
AcDbEntity
  8
00_COMPONENTS_41
100
AcDbCircle
 62
7
  6
CONTINUOUS
 10
258.4894949446
 20
1334.9046044149
 40
4.2231267579
100
AcDbArc
 50
188.9637098691
 51
198.9570147
  0
ARC
  5
31A
100
AcDbEntity
  8
00_COMPONENTS_41
100
AcDbCircle
 62
7
  6
CONTINUOUS
 10
665.3897098839
 20
126.893200794
 40
4.0823441331
100
AcDbArc
 50
240.0012752039
 51
247.3565175161
  0
ARC
  5
31B
100
AcDbEntity
  8
00_COMPONENTS_39
100
AcDbCircle
 62
7
  6
CONTINUOUS
 10
289.4695436033
 20
806.460964718
 40
3.2341030048
100
AcDbArc
 50
264.9200033994
 51
269.9542648925
  0
ARC
  5
31C
100
AcDbEntity
  8
00_COMPONENTS_41
100
AcDbCircle
 62
7
  6
CONTINUOUS
 10
664.9179248668
 20
126.1416889686
 40
3.2033777957
100
AcDbArc
 50
217.9806780204
 51
224.5113844378
  0
ARC
  5
31D
100
AcDbEntity
  8
00_COMPONENTS_41
100
AcDbCircle
 62
7
  6
CONTINUOUS
 10
679.169623472
 20
1104.6483871796
 40
3.0691418954
100
AcDbArc
 50
319.919608288
 51
326.0007173583
  0
ARC
  5
31E
100
AcDbEntity
  8
00_COMPONENTS_41
100
AcDbCircle
 62
7
  6
CONTINUOUS
 10
664.8053074623
 20
126.0321697967
 40
3.0462906642
100
AcDbArc
 50
224.527394056
 51
229.5782035296
  0
ARC
  5
31F
100
AcDbEntity
  8
00_COMPONENTS_41
100
AcDbCircle
 62
7
  6
CONTINUOUS
 10
679.4054819352
 20
1104.488832353
 40
2.784384473
100
AcDbArc
 50
326.0087453251
 51
329.5666818784
  0
ARC
  5
320
100
AcDbEntity
  8
00_COMPONENTS_39
100
AcDbCircle
 62
7
  6
CONTINUOUS
 10
278.9059444991
 20
834.8822115711
 40
2.652157174
100
AcDbArc
 50
112.6185267792
 51
114.1161468354
  0
ARC
  5
321
100
AcDbEntity
  8
00_COMPONENTS_38
100
AcDbCircle
 62
7
  6
CONTINUOUS
 10
279.4388233352
 20
834.697018025
 40
2.6186605871
100
AcDbArc
 50
112.8246256127
 51
121.2069799259
  0
ARC
  5
322
100
AcDbEntity
  8
00_COMPONENTS_41
100
AcDbCircle
 62
7
  6
CONTINUOUS
 10
257.2416578133
 20
358.9293519356
 40
2.331259333
100
AcDbArc
 50
158.3086526245
 51
160.7756918917
  0
ARC
  5
323
100
AcDbEntity
  8
00_COMPONENTS_39
100
AcDbCircle
 62
7
  6
CONTINUOUS
 10
273.0075069665
 20
814.9140567668
 40
2.3084712606
100
AcDbArc
 50
218.5946518685
 51
219.8522482794
  0
ARC
  5
324
100
AcDbEntity
  8
00_COMPONENTS_39
100
AcDbCircle
 62
7
  6
CONTINUOUS
 10
289.4096360592
 20
805.3411571457
 40
2.1150535692
100
AcDbArc
 50
271.5521802746
 51
272.3469164974
  0
ARC
  5
325
100
AcDbEntity
  8
00_COMPONENTS_41
100
AcDbCircle
 62
7
  6
CONTINUOUS
 10
261.9513739611
 20
1344.8865000928
 40
1.3446113189
100
AcDbArc
 50
69.3195222508
 51
76.135092309
  0
ARC
  5
326
100
AcDbEntity
  8
00_COMPONENTS_41
100
AcDbCircle
 62
7
  6
CONTINUOUS
 10
261.961348162
 20
1344.913076934
 40
1.3162245233
100
AcDbArc
 50
60.0025659889
 51
69.3171600324
  0
ARC
  5
327
100
AcDbEntity
  8
00_COMPONENTS_41
100
AcDbCircle
 62
7
  6
CONTINUOUS
 10
254.693479554
 20
1340.3173567324
 40
0.5794506056
100
AcDbArc
 50
165.7511514004
 51
179.9593756952
  0
SPLINE
  5
328
100
AcDbEntity
  8
00_COMPONENTS_38
100
AcDbSpline
 62
7
  6
CONTINUOUS
 70
0
 71
3
 72
11
 73
7
 74
0
 42
0.0000001
 43
0.0000001
 44
0.0000000001
 40
0.0
 40
0.0
 40
0.0
 40
0.0
 40
0.2893733939
 40
0.548747682
 40
0.7822501563
 40
1.0
 40
1.0
 40
1.0
 40
1.0
 10
281.0484701337
 20
830.7707334098
 30
0.0
 10
281.0484701337
 20
830.8404012363
 30
0.0
 10
281.0588533026
 20
830.9729526021
 30
0.0
 10
281.1116843321
 20
831.1553921927
 30
0.0
 10
281.2004494093
 20
831.3042522991
 30
0.0
 10
281.2840646113
 20
831.377219466
 30
0.0
 10
281.3288922958
 20
831.404399821
 30
0.0
  0
SPLINE
  5
329
100
AcDbEntity
  8
00_COMPONENTS_38
100
AcDbSpline
 62
7
  6
CONTINUOUS
 70
0
 71
3
 72
15
 73
11
 74
0
 42
0.0000001
 43
0.0000001
 44
0.0000000001
 40
0.0
 40
0.0
 40
0.0
 40
0.0
 40
0.0983135956
 40
0.2090598621
 40
0.3312927666
 40
0.4624667268
 40
0.5990322038
 40
0.7369014814
 40
0.871865041
 40
1.0
 40
1.0
 40
1.0
 40
1.0
 10
283.9581780902
 20
823.1127875279
 30
0.0
 10
283.5644476669
 20
823.1712232258
 30
0.0
 10
282.7441641931
 20
823.4179479717
 30
0.0
 10
281.564282609
 20
824.070547056
 30
0.0
 10
280.4082996912
 20
824.9955161291
 30
0.0
 10
279.3264731712
 20
826.1520435674
 30
0.0
 10
278.3656723986
 20
827.4891035225
 30
0.0
 10
277.5686656004
 20
828.9473027308
 30
0.0
 10
276.9710948014
 20
830.4611167375
 30
0.0
 10
276.7143541527
 20
831.4994440217
 30
0.0
 10
276.6301254636
 20
832.011341944
 30
0.0
  0
SPLINE
  5
32A
100
AcDbEntity
  8
00_COMPONENTS_38
100
AcDbSpline
 62
7
  6
CONTINUOUS
 70
0
 71
3
 72
15
 73
11
 74
0
 42
0.0000001
 43
0.0000001
 44
0.0000000001
 40
0.0
 40
0.0
 40
0.0
 40
0.0
 40
0.0870763788
 40
0.1869472264
 40
0.3046584709
 40
0.4385759744
 40
0.5829586591
 40
0.7300028786
 40
0.8714293103
 40
1.0
 40
1.0
 40
1.0
 40
1.0
 10
282.7240446709
 20
828.9879105667
 30
0.0
 10
282.6536408212
 20
828.9492364088
 30
0.0
 10
282.4779668489
 20
828.9078325247
 30
0.0
 10
282.1972630038
 20
828.9675672488
 30
0.0
 10
281.9108515746
 20
829.12665806
 30
0.0
 10
281.6366693214
 20
829.3717081629
 30
0.0
 10
281.3949174262
 20
829.6831703696
 30
0.0
 10
281.2047633541
 20
830.0364515097
 30
0.0
 10
281.0814742147
 20
830.4027750821
 30
0.0
 10
281.0484701337
 20
830.6521286813
 30
0.0
 10
281.0484701337
 20
830.7707334098
 30
0.0
  0
SPLINE
  5
32B
100
AcDbEntity
  8
00_COMPONENTS_38
100
AcDbSpline
 62
7
  6
CONTINUOUS
 70
0
 71
3
 72
9
 73
5
 74
0
 42
0.0000001
 43
0.0000001
 44
0.0000000001
 40
0.0
 40
0.0
 40
0.0
 40
0.0
 40
0.5213184246
 40
1.0
 40
1.0
 40
1.0
 40
1.0
 10
280.9084557484
 20
834.5526589636
 30
0.0
 10
280.689858852
 20
834.5901468504
 30
0.0
 10
280.25728506
 20
834.6088555946
 30
0.0
 10
279.8410637908
 20
834.4769812359
 30
0.0
 10
279.6625624127
 20
834.3789502094
 30
0.0
  0
SPLINE
  5
32C
100
AcDbEntity
  8
00_COMPONENTS_38
100
AcDbSpline
 62
7
  6
CONTINUOUS
 70
0
 71
3
 72
11
 73
7
 74
0
 42
0.0000001
 43
0.0000001
 44
0.0000000001
 40
0.0
 40
0.0
 40
0.0
 40
0.0
 40
0.2764506401
 40
0.531794056
 40
0.7706330725
 40
1.0
 40
1.0
 40
1.0
 40
1.0
 10
276.6301254636
 20
834.6318744279
 30
0.0
 10
276.6814766862
 20
834.8846663604
 30
0.0
 10
276.816165429
 20
835.3649717481
 30
0.0
 10
277.1331848843
 20
836.0153861901
 30
0.0
 10
277.552438683
 20
836.5514869148
 30
0.0
 10
277.8989963472
 20
836.8258118991
 30
0.0
 10
278.0820135611
 20
836.9367614271
 30
0.0
  0
SPLINE
  5
32D
100
AcDbEntity
  8
00_COMPONENTS_38
100
AcDbSpline
 62
7
  6
CONTINUOUS
 70
0
 71
3
 72
9
 73
5
 74
0
 42
0.0000001
 43
0.0000001
 44
0.0000000001
 40
0.0
 40
0.0
 40
0.0
 40
0.0
 40
0.5509683078
 40
1.0
 40
1.0
 40
1.0
 40
1.0
 10
278.6387530523
 20
833.4718812734
 30
0.0
 10
278.6711987352
 20
833.4533275562
 30
0.0
 10
278.735508425
 20
833.4255699668
 30
0.0
 10
278.8075734749
 20
833.4361025935
 30
0.0
 10
278.83433892
 20
833.450644864
 30
0.0
  0
SPLINE
  5
32E
100
AcDbEntity
  8
00_COMPONENTS_38
100
AcDbSpline
 62
7
  6
CONTINUOUS
 70
0
 71
3
 72
13
 73
9
 74
0
 42
0.0000001
 43
0.0000001
 44
0.0000000001
 40
0.0
 40
0.0
 40
0.0
 40
0.0
 40
0.0939396935
 40
0.1928176825
 40
0.3007143839
 40
0.419869411
 40
0.6919759637
 40
1.0
 40
1.0
 40
1.0
 40
1.0
 10
281.3288922958
 20
831.404399821
 30
0.0
 10
281.3688408736
 20
831.4286218289
 30
0.0
 10
281.4590469505
 20
831.4658688207
 30
0.0
 10
281.6095700287
 20
831.4810306812
 30
0.0
 10
281.7712867884
 20
831.4571336421
 30
0.0
 10
282.0057586768
 20
831.3716397803
 30
0.0
 10
282.2964037402
 20
831.1714865114
 30
0.0
 10
282.4913018654
 20
830.9557733181
 30
0.0
 10
282.5825824692
 20
830.8327525154
 30
0.0
  0
SPLINE
  5
32F
100
AcDbEntity
  8
00_COMPONENTS_38
100
AcDbSpline
 62
7
  6
CONTINUOUS
 70
0
 71
3
 72
9
 73
5
 74
0
 42
0.0000001
 43
0.0000001
 44
0.0000000001
 40
0.0
 40
0.0
 40
0.0
 40
0.0
 40
0.4830745014
 40
1.0
 40
1.0
 40
1.0
 40
1.0
 10
279.6625624127
 20
834.3789502094
 30
0.0
 10
279.4985274216
 20
834.2888639661
 30
0.0
 10
279.1907997766
 20
834.0391513399
 30
0.0
 10
278.9827985164
 20
833.704620387
 30
0.0
 10
278.8995955748
 20
833.5224647779
 30
0.0
  0
SPLINE
  5
330
100
AcDbEntity
  8
00_COMPONENTS_38
100
AcDbSpline
 62
7
  6
CONTINUOUS
 70
0
 71
3
 72
11
 73
7
 74
0
 42
0.0000001
 43
0.0000001
 44
0.0000000001
 40
0.0
 40
0.0
 40
0.0
 40
0.0
 40
0.2863255888
 40
0.5440236371
 40
0.7784817284
 40
1.0
 40
1.0
 40
1.0
 40
1.0
 10
283.0195238209
 20
829.5575002758
 30
0.0
 10
283.015739262
 20
829.4938295088
 30
0.0
 10
282.9989145113
 20
829.3730081924
 30
0.0
 10
282.9397634891
 20
829.2083947173
 30
0.0
 10
282.8488422117
 20
829.0755270662
 30
0.0
 10
282.7672951907
 20
829.0116688901
 30
0.0
 10
282.7240446709
 20
828.9879105667
 30
0.0
  0
SPLINE
  5
331
100
AcDbEntity
  8
00_COMPONENTS_38
100
AcDbSpline
 62
7
  6
CONTINUOUS
 70
0
 71
3
 72
10
 73
6
 74
0
 42
0.0000001
 43
0.0000001
 44
0.0000000001
 40
0.0
 40
0.0
 40
0.0
 40
0.0
 40
0.2577918534
 40
0.5203602376
 40
1.0
 40
1.0
 40
1.0
 40
1.0
 10
278.8995912225
 20
830.5002349878
 30
0.0
 10
278.8887358349
 20
830.5369657
 30
0.0
 10
278.8587525363
 20
830.6088476576
 30
0.0
 10
278.7817018222
 20
830.735895162
 30
0.0
 10
278.7003107385
 20
830.8161455108
 30
0.0
 10
278.6387532567
 20
830.8520476982
 30
0.0
  0
SPLINE
  5
332
100
AcDbEntity
  8
00_COMPONENTS_38
100
AcDbSpline
 62
7
  6
CONTINUOUS
 70
0
 71
3
 72
15
 73
11
 74
0
 42
0.0000001
 43
0.0000001
 44
0.0000000001
 40
0.0
 40
0.0
 40
0.0
 40
0.0
 40
0.1421962909
 40
0.2879112712
 40
0.4321170219
 40
0.5699213613
 40
0.6971624042
 40
0.811070588
 40
0.9111102223
 40
1.0
 40
1.0
 40
1.0
 40
1.0
 10
278.8995912225
 20
830.5002349878
 30
0.0
 10
279.0019201805
 20
830.1580538224
 30
0.0
 10
279.2610664369
 20
829.4799698916
 30
0.0
 10
279.7801991231
 20
828.5235458576
 30
0.0
 10
280.4134631857
 20
827.6516921993
 30
0.0
 10
281.1288062073
 20
826.9084897026
 30
0.0
 10
281.8910196473
 20
826.3308439053
 30
0.0
 10
282.6648707983
 20
825.9478586325
 30
0.0
 10
283.4161760109
 20
825.7805176333
 30
0.0
 10
283.9001901134
 20
825.8305836158
 30
0.0
 10
284.1131184717
 20
825.8977288709
 30
0.0
  0
SPLINE
  5
333
100
AcDbEntity
  8
00_COMPONENTS_11
100
AcDbSpline
 62
7
  6
CONTINUOUS
 70
0
 71
3
 72
9
 73
5
 74
0
 42
0.0000001
 43
0.0000001
 44
0.0000000001
 40
0.0
 40
0.0
 40
0.0
 40
0.0
 40
0.2302211019
 40
1.0
 40
1.0
 40
1.0
 40
1.0
 10
683.8939764538
 20
192.5223983879
 30
0.0
 10
683.8773810303
 20
192.5243138049
 30
0.0
 10
683.8059734864
 20
192.538472052
 30
0.0
 10
683.7389874651
 20
192.569580725
 30
0.0
 10
683.6906130296
 20
192.5975090865
 30
0.0
  0
SPLINE
  5
334
100
AcDbEntity
  8
00_COMPONENTS_11
100
AcDbSpline
 62
7
  6
CONTINUOUS
 70
0
 71
3
 72
9
 73
5
 74
0
 42
0.0000001
 43
0.0000001
 44
0.0000000001
 40
0.0
 40
0.0
 40
0.0
 40
0.0
 40
0.4765598746
 40
1.0
 40
1.0
 40
1.0
 40
1.0
 10
685.1608204647
 20
163.9475517372
 30
0.0
 10
685.4402911477
 20
163.7862029134
 30
0.0
 10
686.1033321532
 20
163.582193181
 30
0.0
 10
686.7894346127
 20
163.5737312515
 30
0.0
 10
687.1407218072
 20
163.620962533
 30
0.0
  0
SPLINE
  5
335
100
AcDbEntity
  8
00_COMPONENTS_11
100
AcDbSpline
 62
7
  6
CONTINUOUS
 70
0
 71
3
 72
9
 73
5
 74
0
 42
0.0000001
 43
0.0000001
 44
0.0000000001
 40
0.0
 40
0.0
 40
0.0
 40
0.0
 40
0.5234401254
 40
1.0
 40
1.0
 40
1.0
 40
1.0
 10
687.1407218072
 20
204.4460833894
 30
0.0
 10
686.7894346127
 20
204.3988521079
 30
0.0
 10
686.1033321532
 20
204.4073140375
 30
0.0
 10
685.4402911477
 20
204.6113237698
 30
0.0
 10
685.1608204647
 20
204.7726725937
 30
0.0
  0
SPLINE
  5
336
100
AcDbEntity
  8
00_COMPONENTS_11
100
AcDbSpline
 62
7
  6
CONTINUOUS
 70
0
 71
3
 72
10
 73
6
 74
0
 42
0.0000001
 43
0.0000001
 44
0.0000000001
 40
0.0
 40
0.0
 40
0.0
 40
0.0
 40
0.248769923
 40
0.5168126368
 40
1.0
 40
1.0
 40
1.0
 40
1.0
 10
685.1350837721
 20
198.4105505861
 30
0.0
 10
685.1350865517
 20
198.4656667147
 30
0.0
 10
685.0993967768
 20
198.5792722501
 30
0.0
 10
684.9748873007
 20
198.7631857909
 30
0.0
 10
684.8439840822
 20
198.8734210772
 30
0.0
 10
684.7512734613
 20
198.9269463683
 30
0.0
  0
SPLINE
  5
337
100
AcDbEntity
  8
00_COMPONENTS_11
100
AcDbSpline
 62
7
  6
CONTINUOUS
 70
0
 71
3
 72
10
 73
6
 74
0
 42
0.0000001
 43
0.0000001
 44
0.0000000001
 40
0.0
 40
0.0
 40
0.0
 40
0.0
 40
0.2487653052
 40
0.5168094966
 40
1.0
 40
1.0
 40
1.0
 40
1.0
 10
684.0744228849
 20
198.3697053747
 30
0.0
 10
684.0744256645
 20
198.4248218111
 30
0.0
 10
684.0387450904
 20
198.5384315684
 30
0.0
 10
683.9142322597
 20
198.7223513292
 30
0.0
 10
683.7833264916
 20
198.8325908581
 30
0.0
 10
683.6906130296
 20
198.8861177894
 30
0.0
  0
SPLINE
  5
338
100
AcDbEntity
  8
00_COMPONENTS_11
100
AcDbSpline
 62
7
  6
CONTINUOUS
 70
0
 71
3
 72
10
 73
6
 74
0
 42
0.0000001
 43
0.0000001
 44
0.0000000001
 40
0.0
 40
0.0
 40
0.0
 40
0.0
 40
0.2891705478
 40
0.5271977423
 40
1.0
 40
1.0
 40
1.0
 40
1.0
 10
684.0744228849
 20
192.6707460811
 30
0.0
 10
684.0744241878
 20
192.6449111271
 30
0.0
 10
684.0674822344
 20
192.5963655359
 30
0.0
 10
684.0078320802
 20
192.523498998
 30
0.0
 10
683.9359387812
 20
192.5175551637
 30
0.0
 10
683.8939764538
 20
192.5223983879
 30
0.0
  0
SPLINE
  5
339
100
AcDbEntity
  8
00_COMPONENTS_11
100
AcDbSpline
 62
7
  6
CONTINUOUS
 70
0
 71
3
 72
10
 73
6
 74
0
 42
0.0000001
 43
0.0000001
 44
0.0000000001
 40
0.0
 40
0.0
 40
0.0
 40
0.0
 40
0.2891625807
 40
0.527189212
 40
1.0
 40
1.0
 40
1.0
 40
1.0
 10
685.1350837723
 20
192.5482569913
 30
0.0
 10
685.135085075
 20
192.5224243312
 30
0.0
 10
685.1281367326
 20
192.4738830707
 30
0.0
 10
685.0684863658
 20
192.4010258522
 30
0.0
 10
684.996597443
 20
192.3950835294
 30
0.0
 10
684.9546369177
 20
192.399926453
 30
0.0
  0
SPLINE
  5
33A
100
AcDbEntity
  8
00_COMPONENTS_11
100
AcDbSpline
 62
7
  6
CONTINUOUS
 70
0
 71
3
 72
9
 73
5
 74
0
 42
0.0000001
 43
0.0000001
 44
0.0000000001
 40
0.0
 40
0.0
 40
0.0
 40
0.0
 40
0.2302211019
 40
1.0
 40
1.0
 40
1.0
 40
1.0
 10
683.8939764538
 20
672.2175684515
 30
0.0
 10
683.8773810303
 20
672.2194838686
 30
0.0
 10
683.8059734864
 20
672.2336421157
 30
0.0
 10
683.7389874651
 20
672.2647507886
 30
0.0
 10
683.6906130296
 20
672.2926791502
 30
0.0
  0
SPLINE
  5
33B
100
AcDbEntity
  8
00_COMPONENTS_11
100
AcDbSpline
 62
7
  6
CONTINUOUS
 70
0
 71
3
 72
9
 73
5
 74
0
 42
0.0000001
 43
0.0000001
 44
0.0000000001
 40
0.0
 40
0.0
 40
0.0
 40
0.0
 40
0.4765598746
 40
1.0
 40
1.0
 40
1.0
 40
1.0
 10
685.1608204647
 20
643.6427218009
 30
0.0
 10
685.4402911477
 20
643.481372977
 30
0.0
 10
686.1033321532
 20
643.2773632446
 30
0.0
 10
686.7894346127
 20
643.2689013151
 30
0.0
 10
687.1407218072
 20
643.3161325966
 30
0.0
  0
SPLINE
  5
33C
100
AcDbEntity
  8
00_COMPONENTS_11
100
AcDbSpline
 62
7
  6
CONTINUOUS
 70
0
 71
3
 72
9
 73
5
 74
0
 42
0.0000001
 43
0.0000001
 44
0.0000000001
 40
0.0
 40
0.0
 40
0.0
 40
0.0
 40
0.5234401254
 40
1.0
 40
1.0
 40
1.0
 40
1.0
 10
687.1407218072
 20
684.1412534531
 30
0.0
 10
686.7894346127
 20
684.0940221716
 30
0.0
 10
686.1033321532
 20
684.1024841011
 30
0.0
 10
685.4402911477
 20
684.3064938335
 30
0.0
 10
685.1608204647
 20
684.4678426573
 30
0.0
  0
SPLINE
  5
33D
100
AcDbEntity
  8
00_COMPONENTS_11
100
AcDbSpline
 62
7
  6
CONTINUOUS
 70
0
 71
3
 72
10
 73
6
 74
0
 42
0.0000001
 43
0.0000001
 44
0.0000000001
 40
0.0
 40
0.0
 40
0.0
 40
0.0
 40
0.248769923
 40
0.5168126368
 40
1.0
 40
1.0
 40
1.0
 40
1.0
 10
685.1350837721
 20
678.1057206497
 30
0.0
 10
685.1350865517
 20
678.1608367784
 30
0.0
 10
685.0993967768
 20
678.2744423137
 30
0.0
 10
684.9748873007
 20
678.4583558545
 30
0.0
 10
684.8439840822
 20
678.5685911409
 30
0.0
 10
684.7512734613
 20
678.6221164319
 30
0.0
  0
SPLINE
  5
33E
100
AcDbEntity
  8
00_COMPONENTS_11
100
AcDbSpline
 62
7
  6
CONTINUOUS
 70
0
 71
3
 72
10
 73
6
 74
0
 42
0.0000001
 43
0.0000001
 44
0.0000000001
 40
0.0
 40
0.0
 40
0.0
 40
0.0
 40
0.2487653052
 40
0.5168094966
 40
1.0
 40
1.0
 40
1.0
 40
1.0
 10
684.0744228849
 20
678.0648754384
 30
0.0
 10
684.0744256645
 20
678.1199918747
 30
0.0
 10
684.0387450904
 20
678.2336016321
 30
0.0
 10
683.9142322597
 20
678.4175213928
 30
0.0
 10
683.7833264916
 20
678.5277609217
 30
0.0
 10
683.6906130296
 20
678.5812878531
 30
0.0
  0
SPLINE
  5
33F
100
AcDbEntity
  8
00_COMPONENTS_11
100
AcDbSpline
 62
7
  6
CONTINUOUS
 70
0
 71
3
 72
10
 73
6
 74
0
 42
0.0000001
 43
0.0000001
 44
0.0000000001
 40
0.0
 40
0.0
 40
0.0
 40
0.0
 40
0.2891705478
 40
0.5271977423
 40
1.0
 40
1.0
 40
1.0
 40
1.0
 10
684.0744228849
 20
672.3659161447
 30
0.0
 10
684.0744241878
 20
672.3400811907
 30
0.0
 10
684.0674822344
 20
672.2915355995
 30
0.0
 10
684.0078320802
 20
672.2186690616
 30
0.0
 10
683.9359387812
 20
672.2127252273
 30
0.0
 10
683.8939764538
 20
672.2175684515
 30
0.0
  0
SPLINE
  5
340
100
AcDbEntity
  8
00_COMPONENTS_11
100
AcDbSpline
 62
7
  6
CONTINUOUS
 70
0
 71
3
 72
10
 73
6
 74
0
 42
0.0000001
 43
0.0000001
 44
0.0000000001
 40
0.0
 40
0.0
 40
0.0
 40
0.0
 40
0.2891625807
 40
0.527189212
 40
1.0
 40
1.0
 40
1.0
 40
1.0
 10
685.1350837723
 20
672.2434270549
 30
0.0
 10
685.135085075
 20
672.2175943948
 30
0.0
 10
685.1281367326
 20
672.1690531343
 30
0.0
 10
685.0684863658
 20
672.0961959158
 30
0.0
 10
684.996597443
 20
672.090253593
 30
0.0
 10
684.9546369177
 20
672.0950965166
 30
0.0
  0
SPLINE
  5
341
100
AcDbEntity
  8
00_COMPONENTS_11
100
AcDbSpline
 62
7
  6
CONTINUOUS
 70
0
 71
3
 72
9
 73
5
 74
0
 42
0.0000001
 43
0.0000001
 44
0.0000000001
 40
0.0
 40
0.0
 40
0.0
 40
0.0
 40
0.2302211019
 40
1.0
 40
1.0
 40
1.0
 40
1.0
 10
683.8939764538
 20
1060.4644677966
 30
0.0
 10
683.8773810303
 20
1060.4663832137
 30
0.0
 10
683.8059734864
 20
1060.4805414608
 30
0.0
 10
683.7389874651
 20
1060.5116501337
 30
0.0
 10
683.6906130296
 20
1060.5395784953
 30
0.0
  0
SPLINE
  5
342
100
AcDbEntity
  8
00_COMPONENTS_11
100
AcDbSpline
 62
7
  6
CONTINUOUS
 70
0
 71
3
 72
9
 73
5
 74
0
 42
0.0000001
 43
0.0000001
 44
0.0000000001
 40
0.0
 40
0.0
 40
0.0
 40
0.0
 40
0.4765598746
 40
1.0
 40
1.0
 40
1.0
 40
1.0
 10
685.1608204647
 20
1031.889621146
 30
0.0
 10
685.4402911477
 20
1031.7282723221
 30
0.0
 10
686.1033321532
 20
1031.5242625897
 30
0.0
 10
686.7894346127
 20
1031.5158006602
 30
0.0
 10
687.1407218072
 20
1031.5630319417
 30
0.0
  0
SPLINE
  5
343
100
AcDbEntity
  8
00_COMPONENTS_11
100
AcDbSpline
 62
7
  6
CONTINUOUS
 70
0
 71
3
 72
9
 73
5
 74
0
 42
0.0000001
 43
0.0000001
 44
0.0000000001
 40
0.0
 40
0.0
 40
0.0
 40
0.0
 40
0.5234401254
 40
1.0
 40
1.0
 40
1.0
 40
1.0
 10
687.1407218072
 20
1072.3881527982
 30
0.0
 10
686.7894346127
 20
1072.3409215167
 30
0.0
 10
686.1033321532
 20
1072.3493834462
 30
0.0
 10
685.4402911477
 20
1072.5533931786
 30
0.0
 10
685.1608204647
 20
1072.7147420025
 30
0.0
  0
SPLINE
  5
344
100
AcDbEntity
  8
00_COMPONENTS_11
100
AcDbSpline
 62
7
  6
CONTINUOUS
 70
0
 71
3
 72
10
 73
6
 74
0
 42
0.0000001
 43
0.0000001
 44
0.0000000001
 40
0.0
 40
0.0
 40
0.0
 40
0.0
 40
0.248769923
 40
0.5168126368
 40
1.0
 40
1.0
 40
1.0
 40
1.0
 10
685.1350837721
 20
1066.3526199948
 30
0.0
 10
685.1350865517
 20
1066.4077361235
 30
0.0
 10
685.0993967768
 20
1066.5213416588
 30
0.0
 10
684.9748873007
 20
1066.7052551996
 30
0.0
 10
684.8439840822
 20
1066.815490486
 30
0.0
 10
684.7512734613
 20
1066.869015777
 30
0.0
  0
SPLINE
  5
345
100
AcDbEntity
  8
00_COMPONENTS_11
100
AcDbSpline
 62
7
  6
CONTINUOUS
 70
0
 71
3
 72
10
 73
6
 74
0
 42
0.0000001
 43
0.0000001
 44
0.0000000001
 40
0.0
 40
0.0
 40
0.0
 40
0.0
 40
0.2487653052
 40
0.5168094966
 40
1.0
 40
1.0
 40
1.0
 40
1.0
 10
684.0744228849
 20
1066.3117747835
 30
0.0
 10
684.0744256645
 20
1066.3668912199
 30
0.0
 10
684.0387450904
 20
1066.4805009772
 30
0.0
 10
683.9142322597
 20
1066.6644207379
 30
0.0
 10
683.7833264917
 20
1066.7746602668
 30
0.0
 10
683.6906130296
 20
1066.8281871982
 30
0.0
  0
SPLINE
  5
346
100
AcDbEntity
  8
00_COMPONENTS_11
100
AcDbSpline
 62
7
  6
CONTINUOUS
 70
0
 71
3
 72
10
 73
6
 74
0
 42
0.0000001
 43
0.0000001
 44
0.0000000001
 40
0.0
 40
0.0
 40
0.0
 40
0.0
 40
0.2891705478
 40
0.5271977423
 40
1.0
 40
1.0
 40
1.0
 40
1.0
 10
684.0744228849
 20
1060.6128154898
 30
0.0
 10
684.0744241878
 20
1060.5869805359
 30
0.0
 10
684.0674822344
 20
1060.5384349446
 30
0.0
 10
684.0078320802
 20
1060.4655684067
 30
0.0
 10
683.9359387812
 20
1060.4596245724
 30
0.0
 10
683.8939764538
 20
1060.4644677966
 30
0.0
  0
SPLINE
  5
347
100
AcDbEntity
  8
00_COMPONENTS_11
100
AcDbSpline
 62
7
  6
CONTINUOUS
 70
0
 71
3
 72
10
 73
6
 74
0
 42
0.0000001
 43
0.0000001
 44
0.0000000001
 40
0.0
 40
0.0
 40
0.0
 40
0.0
 40
0.2891625807
 40
0.527189212
 40
1.0
 40
1.0
 40
1.0
 40
1.0
 10
685.1350837723
 20
1060.4903264
 30
0.0
 10
685.135085075
 20
1060.46449374
 30
0.0
 10
685.1281367326
 20
1060.4159524795
 30
0.0
 10
685.0684863659
 20
1060.3430952609
 30
0.0
 10
684.996597443
 20
1060.3371529381
 30
0.0
 10
684.9546369177
 20
1060.3419958617
 30
0.0
  0
SPLINE
  5
348
100
AcDbEntity
  8
00_COMPONENTS_39
100
AcDbSpline
 62
7
  6
CONTINUOUS
 70
0
 71
3
 72
9
 73
5
 74
0
 42
0.0000001
 43
0.0000001
 44
0.0000000001
 40
0.0
 40
0.0
 40
0.0
 40
0.0
 40
0.2584279849
 40
1.0
 40
1.0
 40
1.0
 40
1.0
 10
291.7912476414
 20
804.033590606
 30
0.0
 10
291.7722284189
 20
804.0063621293
 30
0.0
 10
291.692422797
 20
803.9054954448
 30
0.0
 10
291.584983415
 20
803.8263585847
 30
0.0
 10
291.498039814
 20
803.7873168595
 30
0.0
  0
SPLINE
  5
349
100
AcDbEntity
  8
00_COMPONENTS_39
100
AcDbSpline
 62
7
  6
CONTINUOUS
 70
0
 71
3
 72
9
 73
5
 74
0
 42
0.0000001
 43
0.0000001
 44
0.0000000001
 40
0.0
 40
0.0
 40
0.0
 40
0.0
 40
0.2659216679
 40
1.0
 40
1.0
 40
1.0
 40
1.0
 10
292.1282161219
 20
804.8364400205
 30
0.0
 10
292.1108587402
 20
804.7609833932
 30
0.0
 10
292.0356677436
 20
804.4799518191
 30
0.0
 10
291.9136382741
 20
804.2088180165
 30
0.0
 10
291.7912476414
 20
804.033590606
 30
0.0
  0
SPLINE
  5
34A
100
AcDbEntity
  8
00_COMPONENTS_39
100
AcDbSpline
 62
7
  6
CONTINUOUS
 70
0
 71
3
 72
9
 73
5
 74
0
 42
0.0000001
 43
0.0000001
 44
0.0000000001
 40
0.0
 40
0.0
 40
0.0
 40
0.0
 40
0.2185524377
 40
1.0
 40
1.0
 40
1.0
 40
1.0
 10
283.4555829087
 20
821.8373899866
 30
0.0
 10
283.4609207537
 20
821.8489950813
 30
0.0
 10
283.4870237828
 20
821.9013169883
 30
0.0
 10
283.5171718154
 20
821.9515111701
 30
0.0
 10
283.54168978
 20
821.9900462044
 30
0.0
  0
SPLINE
  5
34B
100
AcDbEntity
  8
00_COMPONENTS_39
100
AcDbSpline
 62
7
  6
CONTINUOUS
 70
0
 71
3
 72
9
 73
5
 74
0
 42
0.0000001
 43
0.0000001
 44
0.0000000001
 40
0.0
 40
0.0
 40
0.0
 40
0.0
 40
0.2958373269
 40
1.0
 40
1.0
 40
1.0
 40
1.0
 10
282.6636139948
 20
820.8793044311
 30
0.0
 10
282.6645329458
 20
820.8862887172
 30
0.0
 10
282.6689918394
 20
820.9094541335
 30
0.0
 10
282.6818956093
 20
820.9326362853
 30
0.0
 10
282.6959748817
 20
820.9417425545
 30
0.0
  0
SPLINE
  5
34C
100
AcDbEntity
  8
00_COMPONENTS_39
100
AcDbSpline
 62
7
  6
CONTINUOUS
 70
0
 71
3
 72
9
 73
5
 74
0
 42
0.0000001
 43
0.0000001
 44
0.0000000001
 40
0.0
 40
0.0
 40
0.0
 40
0.0
 40
0.4940863381
 40
1.0
 40
1.0
 40
1.0
 40
1.0
 10
282.6959748817
 20
820.9417425545
 30
0.0
 10
282.8604601338
 20
821.0474244614
 30
0.0
 10
283.1643198031
 20
821.3120120861
 30
0.0
 10
283.3719323675
 20
821.6555236123
 30
0.0
 10
283.4555862943
 20
821.8373971526
 30
0.0
  0
SPLINE
  5
34D
100
AcDbEntity
  8
00_COMPONENTS_39
100
AcDbSpline
 62
7
  6
CONTINUOUS
 70
0
 71
3
 72
9
 73
5
 74
0
 42
0.0000001
 43
0.0000001
 44
0.0000000001
 40
0.0
 40
0.0
 40
0.0
 40
0.0
 40
0.7414683835
 40
1.0
 40
1.0
 40
1.0
 40
1.0
 10
273.2145136038
 20
849.1450976129
 30
0.0
 10
273.2953040707
 20
849.2066201265
 30
0.0
 10
273.4255811066
 20
849.2650197682
 30
0.0
 10
273.5611155197
 20
849.2851452558
 30
0.0
 10
273.5963860822
 20
849.2882560236
 30
0.0
  0
SPLINE
  5
34E
100
AcDbEntity
  8
00_COMPONENTS_39
100
AcDbSpline
 62
7
  6
CONTINUOUS
 70
0
 71
3
 72
9
 73
5
 74
0
 42
0.0000001
 43
0.0000001
 44
0.0000000001
 40
0.0
 40
0.0
 40
0.0
 40
0.0
 40
0.5196451095
 40
1.0
 40
1.0
 40
1.0
 40
1.0
 10
269.530988834
 20
817.6070968416
 30
0.0
 10
268.9181738375
 20
821.8992947799
 30
0.0
 10
268.2565516416
 20
830.2454930136
 30
0.0
 10
268.872651126
 20
838.6128624038
 30
0.0
 10
269.5480349103
 20
842.5634485189
 30
0.0
  0
SPLINE
  5
34F
100
AcDbEntity
  8
00_COMPONENTS_39
100
AcDbSpline
 62
7
  6
CONTINUOUS
 70
0
 71
3
 72
11
 73
7
 74
0
 42
0.0000001
 43
0.0000001
 44
0.0000000001
 40
0.0
 40
0.0
 40
0.0
 40
0.0
 40
0.2373235709
 40
0.4731956694
 40
0.7239223023
 40
1.0
 40
1.0
 40
1.0
 40
1.0
 10
281.5213832491
 20
818.8868806015
 30
0.0
 10
281.6821670508
 20
818.9842171604
 30
0.0
 10
281.9808539061
 20
819.219145092
 30
0.0
 10
282.3215727327
 20
819.6881755171
 30
0.0
 10
282.5515278405
 20
820.2516011322
 30
0.0
 10
282.6347202875
 20
820.662578435
 30
0.0
 10
282.6636139948
 20
820.8793044311
 30
0.0
  0
SPLINE
  5
350
100
AcDbEntity
  8
00_COMPONENTS_39
100
AcDbSpline
 62
7
  6
CONTINUOUS
 70
0
 71
3
 72
9
 73
5
 74
0
 42
0.0000001
 43
0.0000001
 44
0.0000000001
 40
0.0
 40
0.0
 40
0.0
 40
0.0
 40
0.2564012333
 40
1.0
 40
1.0
 40
1.0
 40
1.0
 10
271.2031731465
 20
813.4741498766
 30
0.0
 10
271.6622330278
 20
812.8991823548
 30
0.0
 10
273.5191308153
 20
810.7115781856
 30
0.0
 10
275.6491682261
 20
808.748436897
 30
0.0
 10
277.3716906843
 20
807.4891200211
 30
0.0
  0
SPLINE
  5
351
100
AcDbEntity
  8
00_COMPONENTS_39
100
AcDbSpline
 62
7
  6
CONTINUOUS
 70
0
 71
3
 72
11
 73
7
 74
0
 42
0.0000001
 43
0.0000001
 44
0.0000000001
 40
0.0
 40
0.0
 40
0.0
 40
0.0
 40
0.2596112145
 40
0.5114096386
 40
0.7573850037
 40
1.0
 40
1.0
 40
1.0
 40
1.0
 10
277.3716906843
 20
807.4891200211
 30
0.0
 10
278.2627503483
 20
806.8376762812
 30
0.0
 10
280.0966996093
 20
805.6568312479
 30
0.0
 10
283.0267705178
 20
804.2939926315
 30
0.0
 10
286.0667534381
 20
803.4246750061
 30
0.0
 10
288.149167635
 20
803.219096985
 30
0.0
 10
289.1806960069
 20
803.222187315
 30
0.0
  0
SPLINE
  5
352
100
AcDbEntity
  8
00_COMPONENTS_39
100
AcDbSpline
 62
7
  6
CONTINUOUS
 70
0
 71
3
 72
9
 73
5
 74
0
 42
0.0000001
 43
0.0000001
 44
0.0000000001
 40
0.0
 40
0.0
 40
0.0
 40
0.0
 40
0.5225978584
 40
1.0
 40
1.0
 40
1.0
 40
1.0
 10
291.2515859345
 20
839.0952521505
 30
0.0
 10
289.9581459347
 20
840.7028338773
 30
0.0
 10
287.246048121
 20
843.5975148427
 30
0.0
 10
284.0563509033
 20
845.97658558
 30
0.0
 10
282.4239859549
 20
846.9190106019
 30
0.0
  0
SPLINE
  5
353
100
AcDbEntity
  8
00_COMPONENTS_39
100
AcDbSpline
 62
7
  6
CONTINUOUS
 70
0
 71
3
 72
10
 73
6
 74
0
 42
0.0000001
 43
0.0000001
 44
0.0000000001
 40
0.0
 40
0.0
 40
0.0
 40
0.0
 40
0.2785263165
 40
0.5376170471
 40
1.0
 40
1.0
 40
1.0
 40
1.0
 10
282.4239859549
 20
846.9190106019
 30
0.0
 10
281.6797859526
 20
847.3486649535
 30
0.0
 10
280.1947431499
 20
848.1009826306
 30
0.0
 10
277.2851855041
 20
849.1328739302
 30
0.0
 10
275.0174365649
 20
849.4135907048
 30
0.0
 10
273.5963860822
 20
849.2882560236
 30
0.0
  0
SPLINE
  5
354
100
AcDbEntity
  8
00_COMPONENTS_39
100
AcDbSpline
 62
7
  6
CONTINUOUS
 70
0
 71
3
 72
11
 73
7
 74
0
 42
0.0000001
 43
0.0000001
 44
0.0000000001
 40
0.0
 40
0.0
 40
0.0
 40
0.0
 40
0.2283159715
 40
0.4715167488
 40
0.7291149296
 40
1.0
 40
1.0
 40
1.0
 40
1.0
 10
292.1282161219
 20
804.8364400205
 30
0.0
 10
292.6799279633
 20
807.2348561166
 30
0.0
 10
293.492882128
 20
812.2667847765
 30
0.0
 10
293.8715584902
 20
820.1304014993
 30
0.0
 10
293.4468387875
 20
828.4497095395
 30
0.0
 10
292.6503713448
 20
834.0983879523
 30
0.0
 10
292.1282161174
 20
836.9712340456
 30
0.0
  0
SPLINE
  5
355
100
AcDbEntity
  8
00_COMPONENTS_39
100
AcDbSpline
 62
7
  6
CONTINUOUS
 70
0
 71
3
 72
9
 73
5
 74
0
 42
0.0000001
 43
0.0000001
 44
0.0000000001
 40
0.0
 40
0.0
 40
0.0
 40
0.0
 40
0.2488621273
 40
1.0
 40
1.0
 40
1.0
 40
1.0
 10
291.2515859345
 20
839.0952521505
 30
0.0
 10
291.3077162565
 20
839.0254893465
 30
0.0
 10
291.5223121272
 20
838.7365760317
 30
0.0
 10
291.6937924993
 20
838.4152257971
 30
0.0
 10
291.7912550901
 20
838.1631530295
 30
0.0
  0
SPLINE
  5
356
100
AcDbEntity
  8
00_COMPONENTS_39
100
AcDbSpline
 62
7
  6
CONTINUOUS
 70
0
 71
3
 72
9
 73
5
 74
0
 42
0.0000001
 43
0.0000001
 44
0.0000000001
 40
0.0
 40
0.0
 40
0.0
 40
0.0
 40
0.2573310239
 40
1.0
 40
1.0
 40
1.0
 40
1.0
 10
291.7912550901
 20
838.1631530295
 30
0.0
 10
291.8296021885
 20
838.0639719501
 30
0.0
 10
291.9696222557
 20
837.6751372861
 30
0.0
 10
292.073336222
 20
837.2731782891
 30
0.0
 10
292.1282161174
 20
836.9712340456
 30
0.0
  0
SPLINE
  5
357
100
AcDbEntity
  8
00_COMPONENTS_39
100
AcDbSpline
 62
7
  6
CONTINUOUS
 70
0
 71
3
 72
11
 73
7
 74
0
 42
0.0000001
 43
0.0000001
 44
0.0000000001
 40
0.0
 40
0.0
 40
0.0
 40
0.0
 40
0.2239872699
 40
0.4624590824
 40
0.721990376
 40
1.0
 40
1.0
 40
1.0
 40
1.0
 10
283.5416897799
 20
821.9900486528
 30
0.0
 10
283.7834865365
 20
822.3700878558
 30
0.0
 10
284.1497886615
 20
823.2447029876
 30
0.0
 10
284.3071286055
 20
824.7028210403
 30
0.0
 10
284.1227530778
 20
826.2634253256
 30
0.0
 10
283.775919792
 20
827.2975076527
 30
0.0
 10
283.5416730076
 20
827.805146337
 30
0.0
  0
SPLINE
  5
358
100
AcDbEntity
  8
00_COMPONENTS_39
100
AcDbSpline
 62
7
  6
CONTINUOUS
 70
0
 71
3
 72
9
 73
5
 74
0
 42
0.0000001
 43
0.0000001
 44
0.0000000001
 40
0.0
 40
0.0
 40
0.0
 40
0.0
 40
0.2449994127
 40
1.0
 40
1.0
 40
1.0
 40
1.0
 10
283.5416627485
 20
827.8051880909
 30
0.0
 10
283.5325423925
 20
827.8249554643
 30
0.0
 10
283.497505997
 20
827.9066203685
 30
0.0
 10
283.4704077702
 20
827.9917779825
 30
0.0
 10
283.4555829087
 20
828.0572066362
 30
0.0
  0
SPLINE
  5
359
100
AcDbEntity
  8
00_COMPONENTS_39
100
AcDbSpline
 62
7
  6
CONTINUOUS
 70
0
 71
3
 72
9
 73
5
 74
0
 42
0.0000001
 43
0.0000001
 44
0.0000000001
 40
0.0
 40
0.0
 40
0.0
 40
0.0
 40
0.2487156073
 40
1.0
 40
1.0
 40
1.0
 40
1.0
 10
283.4555829087
 20
828.0572066362
 30
0.0
 10
283.4115129753
 20
828.2517066931
 30
0.0
 10
283.2177768311
 20
829.0296659138
 30
0.0
 10
282.9499706475
 20
829.7909293625
 30
0.0
 10
282.6959748817
 20
830.3371750351
 30
0.0
  0
SPLINE
  5
35A
100
AcDbEntity
  8
00_COMPONENTS_39
100
AcDbSpline
 62
7
  6
CONTINUOUS
 70
0
 71
3
 72
9
 73
5
 74
0
 42
0.0000001
 43
0.0000001
 44
0.0000000001
 40
0.0
 40
0.0
 40
0.0
 40
0.0
 40
0.7631893404
 40
1.0
 40
1.0
 40
1.0
 40
1.0
 10
282.6959748817
 20
830.3371750351
 30
0.0
 10
282.6835720354
 20
830.3639018548
 30
0.0
 10
282.6707921077
 20
830.400845312
 30
0.0
 10
282.6646139855
 20
830.4389962132
 30
0.0
 10
282.6636139948
 20
830.4480839075
 30
0.0
  0
SPLINE
  5
35B
100
AcDbEntity
  8
00_COMPONENTS_39
100
AcDbSpline
 62
7
  6
CONTINUOUS
 70
0
 71
3
 72
11
 73
7
 74
0
 42
0.0000001
 43
0.0000001
 44
0.0000000001
 40
0.0
 40
0.0
 40
0.0
 40
0.0
 40
0.2373753215
 40
0.4884764532
 40
0.7444372057
 40
1.0
 40
1.0
 40
1.0
 40
1.0
 10
282.6636139948
 20
830.4480839075
 30
0.0
 10
282.6127445261
 20
830.905320049
 30
0.0
 10
282.4296841614
 20
831.8388834646
 30
0.0
 10
281.9236483411
 20
833.1979109692
 30
0.0
 10
281.1377862914
 20
834.4636461387
 30
0.0
 10
280.4101609204
 20
835.1587242948
 30
0.0
 10
280.0061388847
 20
835.4452457288
 30
0.0
  0
SPLINE
  5
35C
100
AcDbEntity
  8
00_COMPONENTS_39
100
AcDbSpline
 62
7
  6
CONTINUOUS
 70
0
 71
3
 72
9
 73
5
 74
0
 42
0.0000001
 43
0.0000001
 44
0.0000000001
 40
0.0
 40
0.0
 40
0.0
 40
0.0
 40
0.2601008781
 40
1.0
 40
1.0
 40
1.0
 40
1.0
 10
280.0061388847
 20
835.4452458992
 30
0.0
 10
279.9970535964
 20
835.4516887746
 30
0.0
 10
279.9634626344
 20
835.4782229119
 30
0.0
 10
279.9350873712
 20
835.5118986684
 30
0.0
 10
279.9200342829
 20
835.5397779624
 30
0.0
  0
SPLINE
  5
35D
100
AcDbEntity
  8
00_COMPONENTS_39
100
AcDbSpline
 62
7
  6
CONTINUOUS
 70
0
 71
3
 72
11
 73
7
 74
0
 42
0.0000001
 43
0.0000001
 44
0.0000000001
 40
0.0
 40
0.0
 40
0.0
 40
0.0
 40
0.2615330361
 40
0.5110177498
 40
0.7546738975
 40
1.0
 40
1.0
 40
1.0
 40
1.0
 10
279.9200290572
 20
835.5397867316
 30
0.0
 10
279.7452653995
 20
835.8634593696
 30
0.0
 10
279.3335736468
 20
836.463171047
 30
0.0
 10
278.4999294345
 20
837.1467316589
 30
0.0
 10
277.5126507601
 20
837.5228952345
 30
0.0
 10
276.8145465668
 20
837.5587728338
 30
0.0
 10
276.4705988599
 20
837.5312719595
 30
0.0
  0
SPLINE
  5
35E
100
AcDbEntity
  8
00_COMPONENTS_39
100
AcDbSpline
 62
7
  6
CONTINUOUS
 70
0
 71
3
 72
9
 73
5
 74
0
 42
0.0000001
 43
0.0000001
 44
0.0000000001
 40
0.0
 40
0.0
 40
0.0
 40
0.0
 40
0.3064815807
 40
1.0
 40
1.0
 40
1.0
 40
1.0
 10
276.470587298
 20
837.5312720543
 30
0.0
 10
276.4617821039
 20
837.5305680156
 30
0.0
 10
276.4331133871
 20
837.5291879003
 30
0.0
 10
276.4035087327
 20
837.530041071
 30
0.0
 10
276.3844809755
 20
837.5361629642
 30
0.0
  0
SPLINE
  5
35F
100
AcDbEntity
  8
00_COMPONENTS_39
100
AcDbSpline
 62
7
  6
CONTINUOUS
 70
0
 71
3
 72
9
 73
5
 74
0
 42
0.0000001
 43
0.0000001
 44
0.0000000001
 40
0.0
 40
0.0
 40
0.0
 40
0.0
 40
0.2185966263
 40
1.0
 40
1.0
 40
1.0
 40
1.0
 10
269.9257337309
 20
816.9501405797
 30
0.0
 10
269.9299338186
 20
816.9459926787
 30
0.0
 10
269.951090741
 20
816.929001859
 30
0.0
 10
269.9769933905
 20
816.9188345575
 30
0.0
 10
269.9974243089
 20
816.9135583622
 30
0.0
  0
SPLINE
  5
360
100
AcDbEntity
  8
00_COMPONENTS_39
100
AcDbSpline
 62
7
  6
CONTINUOUS
 70
0
 71
3
 72
8
 73
4
 74
0
 42
0.0000001
 43
0.0000001
 44
0.0000000001
 40
0.0
 40
0.0
 40
0.0
 40
0.0
 40
1.0
 40
1.0
 40
1.0
 40
1.0
 10
276.3844792726
 20
820.5232634993
 30
0.0
 10
276.4041862272
 20
820.4854664415
 30
0.0
 10
276.4352623633
 20
820.4525776782
 30
0.0
 10
276.470587298
 20
820.4287212194
 30
0.0
  0
SPLINE
  5
361
100
AcDbEntity
  8
00_COMPONENTS_39
100
AcDbSpline
 62
7
  6
CONTINUOUS
 70
0
 71
3
 72
8
 73
4
 74
0
 42
0.0000001
 43
0.0000001
 44
0.0000000001
 40
0.0
 40
0.0
 40
0.0
 40
0.0
 40
1.0
 40
1.0
 40
1.0
 40
1.0
 10
276.4200229057
 20
810.2020532011
 30
0.0
 10
276.4065484077
 20
810.2124257128
 30
0.0
 10
276.3942263772
 20
810.2247188624
 30
0.0
 10
276.3845041198
 20
810.2386698052
 30
0.0
  0
SPLINE
  5
362
100
AcDbEntity
  8
00_COMPONENTS_39
100
AcDbSpline
 62
7
  6
CONTINUOUS
 70
0
 71
3
 72
9
 73
5
 74
0
 42
0.0000001
 43
0.0000001
 44
0.0000000001
 40
0.0
 40
0.0
 40
0.0
 40
0.0
 40
0.2219013554
 40
1.0
 40
1.0
 40
1.0
 40
1.0
 10
276.3844792726
 20
810.2386848286
 30
0.0
 10
276.3894145754
 20
810.2331590256
 30
0.0
 10
276.414127841
 20
810.2104602358
 30
0.0
 10
276.4456878488
 20
810.196384897
 30
0.0
 10
276.470587298
 20
810.1889725108
 30
0.0
  0
SPLINE
  5
363
100
AcDbEntity
  8
00_COMPONENTS_39
100
AcDbSpline
 62
7
  6
CONTINUOUS
 70
0
 71
3
 72
20
 73
16
 74
0
 42
0.0000001
 43
0.0000001
 44
0.0000000001
 40
0.0
 40
0.0
 40
0.0
 40
0.0
 40
0.0510561369
 40
0.091838231
 40
0.1256504193
 40
0.161529203
 40
0.2072651743
 40
0.2641023417
 40
0.3301871398
 40
0.4026988443
 40
0.4789533602
 40
0.5568564371
 40
0.7119548976
 40
0.8608648363
 40
1.0
 40
1.0
 40
1.0
 40
1.0
 10
276.4199930914
 20
810.2020410017
 30
0.0
 10
276.4058717447
 20
810.1002917071
 30
0.0
 10
276.3759063496
 20
809.9176875402
 30
0.0
 10
276.2740794641
 20
809.6799915946
 30
0.0
 10
276.0894112941
 20
809.5342919394
 30
0.0
 10
275.8457828571
 20
809.5263086923
 30
0.0
 10
275.5823493564
 20
809.624688237
 30
0.0
 10
275.2900990375
 20
809.7992162077
 30
0.0
 10
274.9789756035
 20
810.0407746068
 30
0.0
 10
274.6600656862
 20
810.3331011528
 30
0.0
 10
274.3447409648
 20
810.6630120263
 30
0.0
 10
273.9425580683
 20
811.1382147148
 30
0.0
 10
273.5011886909
 20
811.7696306933
 30
0.0
 10
273.0895620975
 20
812.5649780429
 30
0.0
 10
272.9296428433
 20
813.1271425847
 30
0.0
 10
272.8811983687
 20
813.4028578155
 30
0.0
  0
SPLINE
  5
364
100
AcDbEntity
  8
00_COMPONENTS_39
100
AcDbSpline
 62
7
  6
CONTINUOUS
 70
0
 71
3
 72
8
 73
4
 74
0
 42
0.0000001
 43
0.0000001
 44
0.0000000001
 40
0.0
 40
0.0
 40
0.0
 40
0.0
 40
1.0
 40
1.0
 40
1.0
 40
1.0
 10
272.8813465293
 20
813.4089359945
 30
0.0
 10
272.8906855443
 20
813.4066419782
 30
0.0
 10
272.9001340713
 20
813.4044552537
 30
0.0
 10
272.9097236574
 20
813.4037344564
 30
0.0
  0
SPLINE
  5
365
100
AcDbEntity
  8
00_COMPONENTS_39
100
AcDbSpline
 62
7
  6
CONTINUOUS
 70
0
 71
3
 72
9
 73
5
 74
0
 42
0.0000001
 43
0.0000001
 44
0.0000000001
 40
0.0
 40
0.0
 40
0.0
 40
0.0
 40
0.4522508982
 40
1.0
 40
1.0
 40
1.0
 40
1.0
 10
275.4380163015
 20
837.4101292509
 30
0.0
 10
275.1107006427
 20
837.2306247963
 30
0.0
 10
274.5202853151
 20
836.5952451975
 30
0.0
 10
274.2508184793
 20
835.7942424491
 30
0.0
 10
274.1758962076
 20
835.3483591976
 30
0.0
  0
SPLINE
  5
366
100
AcDbEntity
  8
00_COMPONENTS_39
100
AcDbSpline
 62
7
  6
CONTINUOUS
 70
0
 71
3
 72
8
 73
4
 74
0
 42
0.0000001
 43
0.0000001
 44
0.0000000001
 40
0.0
 40
0.0
 40
0.0
 40
0.0
 40
1.0
 40
1.0
 40
1.0
 40
1.0
 10
272.9097160658
 20
813.4046608236
 30
0.0
 10
272.9178916913
 20
813.4027612479
 30
0.0
 10
272.9256105167
 20
813.3989198423
 30
0.0
 10
272.9339145675
 20
813.397698376
 30
0.0
  0
SPLINE
  5
367
100
AcDbEntity
  8
00_COMPONENTS_39
100
AcDbSpline
 62
7
  6
CONTINUOUS
 70
0
 71
3
 72
9
 73
5
 74
0
 42
0.0000001
 43
0.0000001
 44
0.0000000001
 40
0.0
 40
0.0
 40
0.0
 40
0.0
 40
0.2286542521
 40
1.0
 40
1.0
 40
1.0
 40
1.0
 10
272.8537679704
 20
813.4412359246
 30
0.0
 10
272.8573898974
 20
813.4376303377
 30
0.0
 10
272.8741940181
 20
813.4227815767
 30
0.0
 10
272.8943038249
 20
813.4123868078
 30
0.0
 10
272.9097160658
 20
813.4046608236
 30
0.0
  0
SPLINE
  5
368
100
AcDbEntity
  8
00_COMPONENTS_39
100
AcDbSpline
 62
7
  6
CONTINUOUS
 70
0
 71
3
 72
9
 73
5
 74
0
 42
0.0000001
 43
0.0000001
 44
0.0000000001
 40
0.0
 40
0.0
 40
0.0
 40
0.0
 40
0.2811087826
 40
1.0
 40
1.0
 40
1.0
 40
1.0
 10
272.8813465293
 20
813.4089359945
 30
0.0
 10
272.8791009906
 20
813.4122274648
 30
0.0
 10
272.8709855069
 20
813.4238982209
 30
0.0
 10
272.8600854436
 20
813.4332409284
 30
0.0
 10
272.8537679704
 20
813.4412359246
 30
0.0
  0
SPLINE
  5
369
100
AcDbEntity
  8
00_COMPONENTS_39
100
AcDbSpline
 62
7
  6
CONTINUOUS
 70
0
 71
3
 72
8
 73
4
 74
0
 42
0.0000001
 43
0.0000001
 44
0.0000000001
 40
0.0
 40
0.0
 40
0.0
 40
0.0
 40
1.0
 40
1.0
 40
1.0
 40
1.0
 10
272.8489482745
 20
828.1633050218
 30
0.0
 10
272.8672578087
 20
828.0764432673
 30
0.0
 10
272.8952769469
 20
827.9906601271
 30
0.0
 10
272.9350386723
 20
827.9112925731
 30
0.0
  0
SPLINE
  5
36A
100
AcDbEntity
  8
00_COMPONENTS_39
100
AcDbSpline
 62
7
  6
CONTINUOUS
 70
0
 71
3
 72
22
 73
18
 74
0
 42
0.0000001
 43
0.0000001
 44
0.0000000001
 40
0.0
 40
0.0
 40
0.0
 40
0.0
 40
0.0510356882
 40
0.0917855099
 40
0.1256384292
 40
0.1617894624
 40
0.2079736205
 40
0.2651728384
 40
0.3316055523
 40
0.4041550768
 40
0.4803138283
 40
0.5579755035
 40
0.6357464034
 40
0.7125775667
 40
0.861068695
 40
0.9319278113
 40
1.0
 40
1.0
 40
1.0
 40
1.0
 10
276.3844763162
 20
810.2386940277
 30
0.0
 10
276.3733395452
 20
810.138596395
 30
0.0
 10
276.3416675223
 20
809.959741096
 30
0.0
 10
276.2413401545
 20
809.7269266494
 30
0.0
 10
276.0584131953
 20
809.5850912453
 30
0.0
 10
275.8176596515
 20
809.5796264423
 30
0.0
 10
275.5587913096
 20
809.6807227959
 30
0.0
 10
275.2707273268
 20
809.8538360622
 30
0.0
 10
274.9670848264
 20
810.0952242942
 30
0.0
 10
274.6551475474
 20
810.3836700218
 30
0.0
 10
274.350220543
 20
810.7106367053
 30
0.0
 10
274.0574816135
 20
811.0618160674
 30
0.0
 10
273.7841180718
 20
811.4302652662
 30
0.0
 10
273.4644220904
 20
811.9359962331
 30
0.0
 10
273.1976246214
 20
812.459413595
 30
0.0
 10
273.0138695359
 20
812.9966316119
 30
0.0
 10
272.9516191841
 20
813.2647789392
 30
0.0
 10
272.9336192567
 20
813.3979031212
 30
0.0
  0
SPLINE
  5
36B
100
AcDbEntity
  8
00_COMPONENTS_39
100
AcDbSpline
 62
7
  6
CONTINUOUS
 70
0
 71
3
 72
9
 73
5
 74
0
 42
0.0000001
 43
0.0000001
 44
0.0000000001
 40
0.0
 40
0.0
 40
0.0
 40
0.0
 40
0.244385064
 40
1.0
 40
1.0
 40
1.0
 40
1.0
 10
272.9350386723
 20
827.9112925731
 30
0.0
 10
273.020980936
 20
827.7397450061
 30
0.0
 10
273.3884281847
 20
827.0456492721
 30
0.0
 10
273.8065531786
 20
826.3796836973
 30
0.0
 10
274.1339184381
 20
825.884936317
 30
0.0
  0
SPLINE
  5
36C
100
AcDbEntity
  8
00_COMPONENTS_39
100
AcDbSpline
 62
7
  6
CONTINUOUS
 70
0
 71
3
 72
9
 73
5
 74
0
 42
0.0000001
 43
0.0000001
 44
0.0000000001
 40
0.0
 40
0.0
 40
0.0
 40
0.0
 40
0.2619670986
 40
1.0
 40
1.0
 40
1.0
 40
1.0
 10
274.1339184381
 20
825.884936317
 30
0.0
 10
274.139398304
 20
825.8766366143
 30
0.0
 10
274.1587360261
 20
825.8439872708
 30
0.0
 10
274.1718914311
 20
825.8073113816
 30
0.0
 10
274.1758962076
 20
825.7795797212
 30
0.0
  0
SPLINE
  5
36D
100
AcDbEntity
  8
00_COMPONENTS_39
100
AcDbSpline
 62
7
  6
CONTINUOUS
 70
0
 71
3
 72
11
 73
7
 74
0
 42
0.0000001
 43
0.0000001
 44
0.0000000001
 40
0.0
 40
0.0
 40
0.0
 40
0.0
 40
0.2373667082
 40
0.491382435
 40
0.7513811445
 40
1.0
 40
1.0
 40
1.0
 40
1.0
 10
274.1758962076
 20
825.7795797212
 30
0.0
 10
274.2413917408
 20
825.3310974419
 30
0.0
 10
274.4769927764
 20
824.4167568457
 30
0.0
 10
275.0293825121
 20
823.0901001126
 30
0.0
 10
275.697834674
 20
821.7956192182
 30
0.0
 10
276.1649774809
 20
820.9441951652
 30
0.0
 10
276.3844792722
 20
820.5232644547
 30
0.0
  0
SPLINE
  5
36E
100
AcDbEntity
  8
00_COMPONENTS_39
100
AcDbSpline
 62
7
  6
CONTINUOUS
 70
0
 71
3
 72
8
 73
4
 74
0
 42
0.0000001
 43
0.0000001
 44
0.0000000001
 40
0.0
 40
0.0
 40
0.0
 40
0.0
 40
1.0
 40
1.0
 40
1.0
 40
1.0
 10
277.2046861466
 20
827.6295411604
 30
0.0
 10
276.181344809
 20
827.0475921531
 30
0.0
 10
275.1572891016
 20
826.466899944
 30
0.0
 10
274.1339477759
 20
825.8849509157
 30
0.0
  0
LINE
  5
36F
100
AcDbEntity
  8
00_COMPONENTS_39
100
AcDbLine
 62
7
  6
CONTINUOUS
 10
274.1339477759
 20
835.2803127958
 11
277.2046803907
 21
836.9679395356
  0
SPLINE
  5
370
100
AcDbEntity
  8
00_COMPONENTS_39
100
AcDbSpline
 62
7
  6
CONTINUOUS
 70
0
 71
3
 72
9
 73
5
 74
0
 42
0.0000001
 43
0.0000001
 44
0.0000000001
 40
0.0
 40
0.0
 40
0.0
 40
0.0
 40
0.2471828243
 40
1.0
 40
1.0
 40
1.0
 40
1.0
 10
277.2047255271
 20
836.9678560474
 30
0.0
 10
277.2358910175
 20
836.9848551469
 30
0.0
 10
277.3608430673
 20
837.0556751245
 30
0.0
 10
277.4851355663
 20
837.1276553889
 30
0.0
 10
277.5798993137
 20
837.1797081085
 30
0.0
  0
SPLINE
  5
371
100
AcDbEntity
  8
00_COMPONENTS_39
100
AcDbSpline
 62
7
  6
CONTINUOUS
 70
0
 71
3
 72
9
 73
5
 74
0
 42
0.0000001
 43
0.0000001
 44
0.0000000001
 40
0.0
 40
0.0
 40
0.0
 40
0.0
 40
0.5205155786
 40
1.0
 40
1.0
 40
1.0
 40
1.0
 10
270.6329926375
 20
814.8279010242
 30
0.0
 10
270.6772944941
 20
814.565970139
 30
0.0
 10
270.8141404411
 20
814.0689487326
 30
0.0
 10
271.0784774891
 20
813.6226254222
 30
0.0
 10
271.2352947679
 20
813.4347652188
 30
0.0
  0
SPLINE
  5
372
100
AcDbEntity
  8
00_COMPONENTS_39
100
AcDbSpline
 62
7
  6
CONTINUOUS
 70
0
 71
3
 72
15
 73
11
 74
0
 42
0.0000001
 43
0.0000001
 44
0.0000000001
 40
0.0
 40
0.0
 40
0.0
 40
0.0
 40
0.1415987472
 40
0.2602248611
 40
0.3609361312
 40
0.4550767555
 40
0.5577367405
 40
0.6805693488
 40
0.8283614565
 40
1.0
 40
1.0
 40
1.0
 40
1.0
 10
279.9200404302
 20
808.1974754661
 30
0.0
 10
279.9090392246
 20
808.091275502
 30
0.0
 10
279.876836377
 20
807.8967696243
 30
0.0
 10
279.7817631506
 20
807.6393998657
 30
0.0
 10
279.6370106258
 20
807.446066287
 30
0.0
 10
279.4348676341
 20
807.3333733328
 30
0.0
 10
279.1893766954
 20
807.3121554117
 30
0.0
 10
278.9116009689
 20
807.370780391
 30
0.0
 10
278.6031150732
 20
807.5009182052
 30
0.0
 10
278.3951923297
 20
807.6237424216
 30
0.0
 10
278.2871578231
 20
807.6950009892
 30
0.0
  0
SPLINE
  5
373
100
AcDbEntity
  8
00_COMPONENTS_39
100
AcDbSpline
 62
7
  6
CONTINUOUS
 70
0
 71
3
 72
9
 73
5
 74
0
 42
0.0000001
 43
0.0000001
 44
0.0000000001
 40
0.0
 40
0.0
 40
0.0
 40
0.0
 40
0.2362415993
 40
1.0
 40
1.0
 40
1.0
 40
1.0
 10
278.2871578231
 20
807.6950009892
 30
0.0
 10
278.2212958482
 20
807.7384429425
 30
0.0
 10
277.9482407295
 20
807.9309363401
 30
0.0
 10
277.6968403104
 20
808.1536914812
 30
0.0
 10
277.5187702243
 20
808.3363243204
 30
0.0
  0
SPLINE
  5
374
100
AcDbEntity
  8
00_COMPONENTS_39
100
AcDbSpline
 62
7
  6
CONTINUOUS
 70
0
 71
3
 72
9
 73
5
 74
0
 42
0.0000001
 43
0.0000001
 44
0.0000000001
 40
0.0
 40
0.0
 40
0.0
 40
0.0
 40
0.5191044052
 40
1.0
 40
1.0
 40
1.0
 40
1.0
 10
277.5187702243
 20
808.3363243204
 30
0.0
 10
277.258892218
 20
808.6028612731
 30
0.0
 10
276.8111561218
 20
809.1704392873
 30
0.0
 10
276.5285156964
 20
809.8490227792
 30
0.0
 10
276.4706076927
 20
810.1889871235
 30
0.0
  0
SPLINE
  5
375
100
AcDbEntity
  8
00_COMPONENTS_39
100
AcDbSpline
 62
7
  6
CONTINUOUS
 70
0
 71
3
 72
11
 73
7
 74
0
 42
0.0000001
 43
0.0000001
 44
0.0000000001
 40
0.0
 40
0.0
 40
0.0
 40
0.0
 40
0.3091006294
 40
0.5903010629
 40
0.8245509844
 40
1.0
 40
1.0
 40
1.0
 40
1.0
 10
276.4705891587
 20
820.4287202623
 30
0.0
 10
276.8111372496
 20
820.1987332883
 30
0.0
 10
277.4690965326
 20
819.770734465
 30
0.0
 10
278.4068386212
 20
819.2024082541
 30
0.0
 10
279.2103168652
 20
818.7573592861
 30
0.0
 10
279.7025240738
 20
818.5214621252
 30
0.0
 10
279.9200339294
 20
818.4372274736
 30
0.0
  0
SPLINE
  5
376
100
AcDbEntity
  8
00_COMPONENTS_39
100
AcDbSpline
 62
7
  6
CONTINUOUS
 70
0
 71
3
 72
15
 73
11
 74
0
 42
0.0000001
 43
0.0000001
 44
0.0000000001
 40
0.0
 40
0.0
 40
0.0
 40
0.0
 40
0.1213250249
 40
0.2174904118
 40
0.3001042264
 40
0.3906751674
 40
0.5061380271
 40
0.65042829
 40
0.8182652924
 40
1.0
 40
1.0
 40
1.0
 40
1.0
 10
279.9575987824
 20
808.1596591472
 30
0.0
 10
279.9440624946
 20
808.0224864676
 30
0.0
 10
279.9014178487
 20
807.7777606798
 30
0.0
 10
279.7542324444
 20
807.4609610508
 30
0.0
 10
279.4949456296
 20
807.2695942657
 30
0.0
 10
279.1540753821
 20
807.252324888
 30
0.0
 10
278.7705009283
 20
807.3703750679
 30
0.0
 10
278.3407144003
 20
807.6015054596
 30
0.0
 10
277.8869056872
 20
807.9336852596
 30
0.0
 10
277.5951103941
 20
808.2047069543
 30
0.0
 10
277.4523634167
 20
808.3538835175
 30
0.0
  0
SPLINE
  5
377
100
AcDbEntity
  8
00_COMPONENTS_39
100
AcDbSpline
 62
7
  6
CONTINUOUS
 70
0
 71
3
 72
9
 73
5
 74
0
 42
0.0000001
 43
0.0000001
 44
0.0000000001
 40
0.0
 40
0.0
 40
0.0
 40
0.0
 40
0.5201841884
 40
1.0
 40
1.0
 40
1.0
 40
1.0
 10
277.4523634167
 20
808.3538835175
 30
0.0
 10
277.1959320798
 20
808.6218649923
 30
0.0
 10
276.7544843532
 20
809.1890013515
 30
0.0
 10
276.477021976
 20
809.8647055956
 30
0.0
 10
276.4199930914
 20
810.2020410017
 30
0.0
  0
SPLINE
  5
378
100
AcDbEntity
  8
00_COMPONENTS_39
100
AcDbSpline
 62
7
  6
CONTINUOUS
 70
0
 71
3
 72
10
 73
6
 74
0
 42
0.0000001
 43
0.0000001
 44
0.0000000001
 40
0.0
 40
0.0
 40
0.0
 40
0.0
 40
0.2136742683
 40
0.4613043544
 40
1.0
 40
1.0
 40
1.0
 40
1.0
 10
289.4962474324
 20
803.227877687
 30
0.0
 10
289.6445533711
 20
803.233948966
 30
0.0
 10
289.9634194164
 20
803.2791483864
 30
0.0
 10
290.6343852517
 20
803.4632640112
 30
0.0
 10
291.1356894575
 20
803.6884367077
 30
0.0
 10
291.4684326484
 20
803.8596494527
 30
0.0
  0
SPLINE
  5
379
100
AcDbEntity
  8
00_COMPONENTS_39
100
AcDbSpline
 62
7
  6
CONTINUOUS
 70
0
 71
3
 72
8
 73
4
 74
0
 42
0.0000001
 43
0.0000001
 44
0.0000000001
 40
0.0
 40
0.0
 40
0.0
 40
0.0
 40
1.0
 40
1.0
 40
1.0
 40
1.0
 10
276.4200275999
 20
810.2020607636
 30
0.0
 10
276.4361530319
 20
810.1954912117
 30
0.0
 10
276.4533602503
 20
810.191426763
 30
0.0
 10
276.4705992684
 20
810.1889762886
 30
0.0
  0
SPLINE
  5
37A
100
AcDbEntity
  8
00_COMPONENTS_39
100
AcDbSpline
 62
7
  6
CONTINUOUS
 70
0
 71
3
 72
17
 73
13
 74
0
 42
0.0000001
 43
0.0000001
 44
0.0000000001
 40
0.0
 40
0.0
 40
0.0
 40
0.0
 40
0.1589051757
 40
0.3305297901
 40
0.4904615025
 40
0.5587413013
 40
0.6178200429
 40
0.7123975831
 40
0.7534967281
 40
0.7944110375
 40
0.8855900099
 40
1.0
 40
1.0
 40
1.0
 40
1.0
 10
279.9575987824
 20
808.1596591472
 30
0.0
 10
280.0092155656
 20
807.8756440292
 30
0.0
 10
280.2475463413
 20
807.3062569476
 30
0.0
 10
280.8431738651
 20
806.6293894905
 30
0.0
 10
281.4505600435
 20
806.2155880232
 30
0.0
 10
281.9349411816
 20
806.0156109231
 30
0.0
 10
282.3265626652
 20
805.9196533924
 30
0.0
 10
282.6959774453
 20
805.9290741288
 30
0.0
 10
282.9870974287
 20
806.0740681461
 30
0.0
 10
283.220967122
 20
806.2902728176
 30
0.0
 10
283.4195361475
 20
806.7059589956
 30
0.0
 10
283.4785904754
 20
807.0771892835
 30
0.0
 10
283.4952047382
 20
807.2843615457
 30
0.0
  0
SPLINE
  5
37B
100
AcDbEntity
  8
00_COMPONENTS_39
100
AcDbSpline
 62
7
  6
CONTINUOUS
 70
0
 71
3
 72
10
 73
6
 74
0
 42
0.0000001
 43
0.0000001
 44
0.0000000001
 40
0.0
 40
0.0
 40
0.0
 40
0.0
 40
0.2569571372
 40
0.5262826313
 40
1.0
 40
1.0
 40
1.0
 40
1.0
 10
286.7287542525
 20
807.249133472
 30
0.0
 10
287.0895390617
 20
807.0905798007
 30
0.0
 10
287.8670645371
 20
806.8458391952
 30
0.0
 10
289.3944963739
 20
806.6849398097
 30
0.0
 10
290.5707934684
 20
806.908810208
 30
0.0
 10
291.2121777861
 20
807.2500820063
 30
0.0
  0
SPLINE
  5
37C
100
AcDbEntity
  8
00_COMPONENTS_39
100
AcDbSpline
 62
7
  6
CONTINUOUS
 70
0
 71
3
 72
13
 73
9
 74
0
 42
0.0000001
 43
0.0000001
 44
0.0000000001
 40
0.0
 40
0.0
 40
0.0
 40
0.0
 40
0.1447188964
 40
0.3009934335
 40
0.6018414646
 40
0.8264410057
 40
0.916676785
 40
1.0
 40
1.0
 40
1.0
 40
1.0
 10
283.4952047382
 20
807.2843615457
 30
0.0
 10
283.5262371623
 20
807.1137238709
 30
0.0
 10
283.6374694625
 20
806.7653328251
 30
0.0
 10
284.0364234889
 20
806.1555841526
 30
0.0
 10
284.7333032582
 20
805.6638448367
 30
0.0
 10
285.4925222193
 20
805.5447109014
 30
0.0
 10
285.9597195251
 20
805.6646352266
 30
0.0
 10
286.1433129518
 20
805.7676879662
 30
0.0
 10
286.2238002088
 20
805.8267925464
 30
0.0
  0
SPLINE
  5
37D
100
AcDbEntity
  8
00_COMPONENTS_39
100
AcDbSpline
 62
7
  6
CONTINUOUS
 70
0
 71
3
 72
11
 73
7
 74
0
 42
0.0000001
 43
0.0000001
 44
0.0000000001
 40
0.0
 40
0.0
 40
0.0
 40
0.0
 40
0.2365054459
 40
0.472719211
 40
0.7242042871
 40
1.0
 40
1.0
 40
1.0
 40
1.0
 10
289.1831749449
 20
803.2395651407
 30
0.0
 10
288.858351238
 20
803.2685724397
 30
0.0
 10
288.212268802
 20
803.4320526355
 30
0.0
 10
287.368425296
 20
803.9965895622
 30
0.0
 10
286.6918847536
 20
804.8182580818
 30
0.0
 10
286.365071936
 20
805.4737125895
 30
0.0
 10
286.2238002088
 20
805.8267925464
 30
0.0
  0
SPLINE
  5
37E
100
AcDbEntity
  8
00_COMPONENTS_39
100
AcDbSpline
 62
7
  6
CONTINUOUS
 70
0
 71
3
 72
10
 73
6
 74
0
 42
0.0000001
 43
0.0000001
 44
0.0000000001
 40
0.0
 40
0.0
 40
0.0
 40
0.0
 40
0.5530287596
 40
0.7902623654
 40
1.0
 40
1.0
 40
1.0
 40
1.0
 10
286.7287534366
 20
807.2491328381
 30
0.0
 10
286.7075323369
 20
806.9649373166
 30
0.0
 10
286.6514508666
 20
806.5556309976
 30
0.0
 10
286.4617873518
 20
806.0754228291
 30
0.0
 10
286.313722806
 20
805.8867111025
 30
0.0
 10
286.2237834445
 20
805.8267725973
 30
0.0
  0
SPLINE
  5
37F
100
AcDbEntity
  8
00_COMPONENTS_39
100
AcDbSpline
 62
7
  6
CONTINUOUS
 70
0
 71
3
 72
8
 73
4
 74
0
 42
0.0000001
 43
0.0000001
 44
0.0000000001
 40
0.0
 40
0.0
 40
0.0
 40
0.0
 40
1.0
 40
1.0
 40
1.0
 40
1.0
 10
286.2237834445
 20
805.8267725973
 30
0.0
 10
286.2052600502
 20
805.844458553
 30
0.0
 10
286.1894834307
 20
805.8655262633
 30
0.0
 10
286.1777645116
 20
805.8882985294
 30
0.0
  0
SPLINE
  5
380
100
AcDbEntity
  8
00_COMPONENTS_39
100
AcDbSpline
 62
7
  6
CONTINUOUS
 70
0
 71
3
 72
9
 73
5
 74
0
 42
0.0000001
 43
0.0000001
 44
0.0000000001
 40
0.0
 40
0.0
 40
0.0
 40
0.0
 40
0.2219102025
 40
1.0
 40
1.0
 40
1.0
 40
1.0
 10
283.4555829087
 20
807.3227152913
 30
0.0
 10
283.4605182222
 20
807.3171892493
 30
0.0
 10
283.4852313717
 20
807.2944910266
 30
0.0
 10
283.5167907992
 20
807.2804156261
 30
0.0
 10
283.54168978
 20
807.2730040533
 30
0.0
  0
SPLINE
  5
381
100
AcDbEntity
  8
00_COMPONENTS_39
100
AcDbSpline
 62
7
  6
CONTINUOUS
 70
0
 71
3
 72
12
 73
8
 74
0
 42
0.0000001
 43
0.0000001
 44
0.0000000001
 40
0.0
 40
0.0
 40
0.0
 40
0.0
 40
0.2150806581
 40
0.3395814515
 40
0.471718356
 40
0.7435978169
 40
1.0
 40
1.0
 40
1.0
 40
1.0
 10
282.5789380723
 20
820.4741436521
 30
0.0
 10
281.9361741408
 20
820.6378655776
 30
0.0
 10
280.9905752513
 20
821.1650023098
 30
0.0
 10
279.9032231195
 20
822.1306653404
 30
0.0
 10
278.83819847
 20
823.3719722363
 30
0.0
 10
277.8084260252
 20
825.1502452815
 30
0.0
 10
277.3405748794
 20
826.7357300372
 30
0.0
 10
277.2422037146
 20
827.5203061637
 30
0.0
  0
SPLINE
  5
382
100
AcDbEntity
  8
00_COMPONENTS_39
100
AcDbSpline
 62
7
  6
CONTINUOUS
 70
0
 71
3
 72
8
 73
4
 74
0
 42
0.0000001
 43
0.0000001
 44
0.0000000001
 40
0.0
 40
0.0
 40
0.0
 40
0.0
 40
1.0
 40
1.0
 40
1.0
 40
1.0
 10
283.5416926287
 20
807.2730185625
 30
0.0
 10
283.5258934395
 20
807.2752327197
 30
0.0
 10
283.5101401017
 20
807.2787858476
 30
0.0
 10
283.4952008295
 20
807.2843836168
 30
0.0
  0
SPLINE
  5
383
100
AcDbEntity
  8
00_COMPONENTS_39
100
AcDbSpline
 62
7
  6
CONTINUOUS
 70
0
 71
3
 72
8
 73
4
 74
0
 42
0.0000001
 43
0.0000001
 44
0.0000000001
 40
0.0
 40
0.0
 40
0.0
 40
0.0
 40
1.0
 40
1.0
 40
1.0
 40
1.0
 10
283.4952008295
 20
807.2843836168
 30
0.0
 10
283.4801712299
 20
807.2949570921
 30
0.0
 10
283.4663336395
 20
807.3078151878
 30
0.0
 10
283.4555811756
 20
807.3227172603
 30
0.0
  0
SPLINE
  5
384
100
AcDbEntity
  8
00_COMPONENTS_39
100
AcDbSpline
 62
7
  6
CONTINUOUS
 70
0
 71
3
 72
19
 73
15
 74
0
 42
0.0000001
 43
0.0000001
 44
0.0000000001
 40
0.0
 40
0.0
 40
0.0
 40
0.0
 40
0.055104286
 40
0.1032786533
 40
0.1434462981
 40
0.1781901951
 40
0.2138879553
 40
0.2572360827
 40
0.3105711302
 40
0.3729422957
 40
0.5165153427
 40
0.6738828398
 40
0.8365441833
 40
1.0
 40
1.0
 40
1.0
 40
1.0
 10
272.8811983687
 20
813.4028578155
 30
0.0
 10
272.8718287366
 20
813.3388922856
 30
0.0
 10
272.8522362591
 20
813.2192465352
 30
0.0
 10
272.8056060816
 20
813.0566996444
 30
0.0
 10
272.7320138863
 20
812.9297220169
 30
0.0
 10
272.6234496408
 20
812.849169219
 30
0.0
 10
272.4848584112
 20
812.8371168521
 30
0.0
 10
272.3351615149
 20
812.8861930383
 30
0.0
 10
272.1737114471
 20
812.9811647403
 30
0.0
 10
271.9337018507
 20
813.1689722608
 30
0.0
 10
271.633033349
 20
813.4728312971
 30
0.0
 10
271.283310116
 20
813.8896838026
 30
0.0
 10
270.9460121024
 20
814.3461828693
 30
0.0
 10
270.7355918277
 20
814.6658902796
 30
0.0
 10
270.6329926375
 20
814.8279010242
 30
0.0
  0
SPLINE
  5
385
100
AcDbEntity
  8
00_COMPONENTS_39
100
AcDbSpline
 62
7
  6
CONTINUOUS
 70
0
 71
3
 72
17
 73
13
 74
0
 42
0.0000001
 43
0.0000001
 44
0.0000000001
 40
0.0
 40
0.0
 40
0.0
 40
0.0
 40
0.1148179789
 40
0.2068846588
 40
0.2482747386
 40
0.2897024832
 40
0.3841209934
 40
0.4427885717
 40
0.5103151119
 40
0.6690724939
 40
0.8405516592
 40
1.0
 40
1.0
 40
1.0
 40
1.0
 10
283.4555826943
 20
807.3227051869
 30
0.0
 10
283.437342044
 20
807.1203026548
 30
0.0
 10
283.3753688868
 20
806.7568978817
 30
0.0
 10
283.1775750034
 20
806.3510665099
 30
0.0
 10
282.9484062995
 20
806.1377080119
 30
0.0
 10
282.665546627
 20
805.9927593262
 30
0.0
 10
282.3063645855
 20
805.977248559
 30
0.0
 10
281.9258775428
 20
806.0659328268
 30
0.0
 10
281.4561745942
 20
806.255349684
 30
0.0
 10
280.8658456239
 20
806.6547614436
 30
0.0
 10
280.2867258407
 20
807.3137253261
 30
0.0
 10
280.0556181287
 20
807.8699372723
 30
0.0
 10
280.0061325347
 20
808.1477814342
 30
0.0
  0
SPLINE
  5
386
100
AcDbEntity
  8
00_COMPONENTS_39
100
AcDbSpline
 62
7
  6
CONTINUOUS
 70
0
 71
3
 72
9
 73
5
 74
0
 42
0.0000001
 43
0.0000001
 44
0.0000000001
 40
0.0
 40
0.0
 40
0.0
 40
0.0
 40
0.5263316521
 40
1.0
 40
1.0
 40
1.0
 40
1.0
 10
277.5991638137
 20
827.0590872578
 30
0.0
 10
278.1385656952
 20
826.1947723807
 30
0.0
 10
279.3341801864
 20
824.653217011
 30
0.0
 10
280.8622028184
 20
823.4186905177
 30
0.0
 10
281.6619609551
 20
822.9702983225
 30
0.0
  0
SPLINE
  5
387
100
AcDbEntity
  8
00_COMPONENTS_39
100
AcDbSpline
 62
7
  6
CONTINUOUS
 70
0
 71
3
 72
11
 73
7
 74
0
 42
0.0000001
 43
0.0000001
 44
0.0000000001
 40
0.0
 40
0.0
 40
0.0
 40
0.0
 40
0.2141658548
 40
0.467504818
 40
0.7386444463
 40
1.0
 40
1.0
 40
1.0
 40
1.0
 10
282.6491345696
 20
820.7415777753
 30
0.0
 10
282.0680088918
 20
820.8951616489
 30
0.0
 10
280.8849694872
 20
821.5416094502
 30
0.0
 10
279.4106752813
 20
823.0231108639
 30
0.0
 10
278.2361249111
 20
824.9105384863
 30
0.0
 10
277.7402235078
 20
826.3392573297
 30
0.0
 10
277.5991638137
 20
827.0590872578
 30
0.0
  0
SPLINE
  5
388
100
AcDbEntity
  8
00_COMPONENTS_39
100
AcDbSpline
 62
7
  6
CONTINUOUS
 70
0
 71
3
 72
9
 73
5
 74
0
 42
0.0000001
 43
0.0000001
 44
0.0000000001
 40
0.0
 40
0.0
 40
0.0
 40
0.0
 40
0.2685014315
 40
1.0
 40
1.0
 40
1.0
 40
1.0
 10
281.6619609551
 20
822.9702983225
 30
0.0
 10
281.8274801752
 20
822.8774983583
 30
0.0
 10
282.4556952876
 20
822.5546685142
 30
0.0
 10
283.1384031848
 20
822.3272097687
 30
0.0
 10
283.649576504
 20
822.2499802552
 30
0.0
  0
SPLINE
  5
389
100
AcDbEntity
  8
00_COMPONENTS_39
100
AcDbSpline
 62
7
  6
CONTINUOUS
 70
0
 71
3
 72
9
 73
5
 74
0
 42
0.0000001
 43
0.0000001
 44
0.0000000001
 40
0.0
 40
0.0
 40
0.0
 40
0.0
 40
0.2781593664
 40
1.0
 40
1.0
 40
1.0
 40
1.0
 10
280.0061434353
 20
818.4323392171
 30
0.0
 10
280.1524450046
 20
818.4489862305
 30
0.0
 10
280.6750468821
 20
818.5254271999
 30
0.0
 10
281.1945049541
 20
818.6889924556
 30
0.0
 10
281.5213832491
 20
818.8868806015
 30
0.0
  0
SPLINE
  5
38A
100
AcDbEntity
  8
00_COMPONENTS_39
100
AcDbSpline
 62
7
  6
CONTINUOUS
 70
0
 71
3
 72
9
 73
5
 74
0
 42
0.0000001
 43
0.0000001
 44
0.0000000001
 40
0.0
 40
0.0
 40
0.0
 40
0.0
 40
0.5253965103
 40
1.0
 40
1.0
 40
1.0
 40
1.0
 10
277.831986992
 20
827.2072224628
 30
0.0
 10
278.3487983534
 20
826.3791056906
 30
0.0
 10
279.4934541356
 20
824.8978053526
 30
0.0
 10
280.9507646624
 20
823.7038991456
 30
0.0
 10
281.714413985
 20
823.2630159778
 30
0.0
  0
SPLINE
  5
38B
100
AcDbEntity
  8
00_COMPONENTS_39
100
AcDbSpline
 62
7
  6
CONTINUOUS
 70
0
 71
3
 72
9
 73
5
 74
0
 42
0.0000001
 43
0.0000001
 44
0.0000000001
 40
0.0
 40
0.0
 40
0.0
 40
0.0
 40
0.193592995
 40
1.0
 40
1.0
 40
1.0
 40
1.0
 10
277.599163774
 20
827.0590876928
 30
0.0
 10
277.6135940995
 20
827.0695273256
 30
0.0
 10
277.6896505348
 20
827.1213205496
 30
0.0
 10
277.7677830774
 20
827.1700470072
 30
0.0
 10
277.8319869488
 20
827.207222427
 30
0.0
  0
SPLINE
  5
38C
100
AcDbEntity
  8
00_COMPONENTS_39
100
AcDbSpline
 62
7
  6
CONTINUOUS
 70
0
 71
3
 72
9
 73
5
 74
0
 42
0.0000001
 43
0.0000001
 44
0.0000000001
 40
0.0
 40
0.0
 40
0.0
 40
0.0
 40
0.2685050931
 40
1.0
 40
1.0
 40
1.0
 40
1.0
 10
281.7988715456
 20
823.2149597147
 30
0.0
 10
281.961051185
 20
823.124032119
 30
0.0
 10
282.5766367932
 20
822.8078405121
 30
0.0
 10
283.2458237069
 20
822.585392422
 30
0.0
 10
283.7467975867
 20
822.5105447372
 30
0.0
  0
SPLINE
  5
38D
100
AcDbEntity
  8
00_COMPONENTS_39
100
AcDbSpline
 62
7
  6
CONTINUOUS
 70
0
 71
3
 72
9
 73
5
 74
0
 42
0.0000001
 43
0.0000001
 44
0.0000000001
 40
0.0
 40
0.0
 40
0.0
 40
0.0
 40
0.1859940614
 40
1.0
 40
1.0
 40
1.0
 40
1.0
 10
270.6329888378
 20
814.8279045184
 30
0.0
 10
270.6352339657
 20
814.8285927523
 30
0.0
 10
270.647137546
 20
814.8328283842
 30
0.0
 10
270.658583549
 20
814.8382279313
 30
0.0
 10
270.6678037401
 20
814.8427675026
 30
0.0
  0
SPLINE
  5
38E
100
AcDbEntity
  8
00_COMPONENTS_39
100
AcDbSpline
 62
7
  6
CONTINUOUS
 70
0
 71
3
 72
12
 73
8
 74
0
 42
0.0000001
 43
0.0000001
 44
0.0000000001
 40
0.0
 40
0.0
 40
0.0
 40
0.0
 40
0.1098935254
 40
0.2265522077
 40
0.4756106405
 40
0.7362654161
 40
1.0
 40
1.0
 40
1.0
 40
1.0
 10
277.2047273041
 20
827.6295625895
 30
0.0
 10
277.2289260192
 20
827.6467949061
 30
0.0
 10
277.2944061086
 20
827.6568206186
 30
0.0
 10
277.4206148037
 20
827.630172293
 30
0.0
 10
277.5654637645
 20
827.5333573336
 30
0.0
 10
277.7118935141
 20
827.3839609157
 30
0.0
 10
277.7931678698
 20
827.2670227219
 30
0.0
 10
277.831986992
 20
827.2072224628
 30
0.0
  0
SPLINE
  5
38F
100
AcDbEntity
  8
00_COMPONENTS_39
100
AcDbSpline
 62
7
  6
CONTINUOUS
 70
0
 71
3
 72
9
 73
5
 74
0
 42
0.0000001
 43
0.0000001
 44
0.0000000001
 40
0.0
 40
0.0
 40
0.0
 40
0.0
 40
0.2225482987
 40
1.0
 40
1.0
 40
1.0
 40
1.0
 10
277.2421916745
 20
827.5203607306
 30
0.0
 10
277.2410804817
 20
827.5288794941
 30
0.0
 10
277.2338383036
 20
827.5668400993
 30
0.0
 10
277.219270328
 20
827.6033102217
 30
0.0
 10
277.2047251032
 20
827.6295615707
 30
0.0
  0
SPLINE
  5
390
100
AcDbEntity
  8
00_COMPONENTS_39
100
AcDbSpline
 62
7
  6
CONTINUOUS
 70
0
 71
3
 72
11
 73
7
 74
0
 42
0.0000001
 43
0.0000001
 44
0.0000000001
 40
0.0
 40
0.0
 40
0.0
 40
0.0
 40
0.1723019393
 40
0.2921454751
 40
0.4238657337
 40
1.0
 40
1.0
 40
1.0
 40
1.0
 10
277.2422065458
 20
827.5202974694
 30
0.0
 10
277.2723979624
 20
827.5377836564
 30
0.0
 10
277.3407489125
 20
827.4956942526
 30
0.0
 10
277.3930683631
 20
827.4343459966
 30
0.0
 10
277.4920774105
 20
827.2958117588
 30
0.0
 10
277.5535626294
 20
827.1664681945
 30
0.0
 10
277.5991630004
 20
827.0590871799
 30
0.0
  0
SPLINE
  5
391
100
AcDbEntity
  8
00_COMPONENTS_39
100
AcDbSpline
 62
7
  6
CONTINUOUS
 70
0
 71
3
 72
9
 73
5
 74
0
 42
0.0000001
 43
0.0000001
 44
0.0000000001
 40
0.0
 40
0.0
 40
0.0
 40
0.0
 40
0.2642533895
 40
1.0
 40
1.0
 40
1.0
 40
1.0
 10
289.4669767354
 20
839.071845916
 30
0.0
 10
289.5163460095
 20
839.109165404
 30
0.0
 10
289.7049421538
 20
839.2480003642
 30
0.0
 10
289.9001227381
 20
839.3781462496
 30
0.0
 10
290.0482623116
 20
839.4661546421
 30
0.0
  0
SPLINE
  5
392
100
AcDbEntity
  8
00_COMPONENTS_39
100
AcDbSpline
 62
7
  6
CONTINUOUS
 70
0
 71
3
 72
9
 73
5
 74
0
 42
0.0000001
 43
0.0000001
 44
0.0000000001
 40
0.0
 40
0.0
 40
0.0
 40
0.0
 40
0.4886042404
 40
1.0
 40
1.0
 40
1.0
 40
1.0
 10
286.2237806516
 20
833.5713061883
 30
0.0
 10
286.5630223195
 20
834.560274477
 30
0.0
 10
287.4573470736
 20
836.5179807295
 30
0.0
 10
288.7152588467
 20
838.276605984
 30
0.0
 10
289.4669552638
 20
839.0718770776
 30
0.0
  0
SPLINE
  5
393
100
AcDbEntity
  8
00_COMPONENTS_39
100
AcDbSpline
 62
7
  6
CONTINUOUS
 70
0
 71
3
 72
11
 73
7
 74
0
 42
0.0000001
 43
0.0000001
 44
0.0000000001
 40
0.0
 40
0.0
 40
0.0
 40
0.0
 40
0.2602030811
 40
0.5200368502
 40
0.7681886977
 40
1.0
 40
1.0
 40
1.0
 40
1.0
 10
289.4669204957
 20
839.0718358443
 30
0.0
 10
289.6230132369
 20
838.9141218692
 30
0.0
 10
289.9796197117
 20
838.6426108918
 30
0.0
 10
290.5692768512
 20
838.3497872446
 30
0.0
 10
291.1821614773
 20
838.1825739293
 30
0.0
 10
291.5936583666
 20
838.1570820942
 30
0.0
 10
291.7912508021
 20
838.1631530352
 30
0.0
  0
SPLINE
  5
394
100
AcDbEntity
  8
00_COMPONENTS_39
100
AcDbSpline
 62
7
  6
CONTINUOUS
 70
0
 71
3
 72
9
 73
5
 74
0
 42
0.0000001
 43
0.0000001
 44
0.0000000001
 40
0.0
 40
0.0
 40
0.0
 40
0.0
 40
0.5209183193
 40
1.0
 40
1.0
 40
1.0
 40
1.0
 10
270.6329682551
 20
814.8278896414
 30
0.0
 10
270.4231113605
 20
815.1575159556
 30
0.0
 10
270.1215385993
 20
815.8551154434
 30
0.0
 10
269.9642798722
 20
816.5928379698
 30
0.0
 10
269.9257336166
 20
816.9501416328
 30
0.0
  0
SPLINE
  5
395
100
AcDbEntity
  8
00_COMPONENTS_39
100
AcDbSpline
 62
7
  6
CONTINUOUS
 70
0
 71
3
 72
11
 73
7
 74
0
 42
0.0000001
 43
0.0000001
 44
0.0000000001
 40
0.0
 40
0.0
 40
0.0
 40
0.0
 40
0.2257609501
 40
0.4870856689
 40
0.7556616302
 40
1.0
 40
1.0
 40
1.0
 40
1.0
 10
291.2121776151
 20
832.1214347289
 30
0.0
 10
290.9073713843
 20
831.9550497061
 30
0.0
 10
290.2127550668
 20
831.6629377558
 30
0.0
 10
289.0817646561
 20
831.3788063239
 30
0.0
 10
287.8936720941
 20
831.2531057418
 30
0.0
 10
287.1014682118
 20
831.2839279807
 30
0.0
 10
286.728754074
 20
831.3322798265
 30
0.0
  0
SPLINE
  5
396
100
AcDbEntity
  8
00_COMPONENTS_39
100
AcDbSpline
 62
7
  6
CONTINUOUS
 70
0
 71
3
 72
10
 73
6
 74
0
 42
0.0000001
 43
0.0000001
 44
0.0000000001
 40
0.0
 40
0.0
 40
0.0
 40
0.0
 40
0.2632372325
 40
0.5191408753
 40
1.0
 40
1.0
 40
1.0
 40
1.0
 10
286.2237616047
 20
833.5712924973
 30
0.0
 10
286.310419016
 20
833.3884571887
 30
0.0
 10
286.4472800151
 20
833.011744011
 30
0.0
 10
286.6324202027
 20
832.2652469557
 30
0.0
 10
286.7046184576
 20
831.7010902054
 30
0.0
 10
286.7287534677
 20
831.332276282
 30
0.0
  0
SPLINE
  5
397
100
AcDbEntity
  8
00_COMPONENTS_39
100
AcDbSpline
 62
7
  6
CONTINUOUS
 70
0
 71
3
 72
9
 73
5
 74
0
 42
0.0000001
 43
0.0000001
 44
0.0000000001
 40
0.0
 40
0.0
 40
0.0
 40
0.0
 40
0.2781197344
 40
1.0
 40
1.0
 40
1.0
 40
1.0
 10
286.7287533957
 20
831.3322773596
 30
0.0
 10
286.7209515939
 20
831.3338596585
 30
0.0
 10
286.6932401101
 20
831.3407631508
 30
0.0
 10
286.666053652
 20
831.3521096304
 30
0.0
 10
286.6495234617
 20
831.3645067539
 30
0.0
  0
SPLINE
  5
398
100
AcDbEntity
  8
00_COMPONENTS_39
100
AcDbSpline
 62
7
  6
CONTINUOUS
 70
0
 71
3
 72
14
 73
10
 74
0
 42
0.0000001
 43
0.0000001
 44
0.0000000001
 40
0.0
 40
0.0
 40
0.0
 40
0.0
 40
0.1312504357
 40
0.2600355877
 40
0.5126045524
 40
0.6371702652
 40
0.7603885102
 40
0.8816099971
 40
1.0
 40
1.0
 40
1.0
 40
1.0
 10
286.728765866
 20
831.3322901958
 30
0.0
 10
286.7908811065
 20
830.280018297
 30
0.0
 10
286.895931527
 20
828.1940070961
 30
0.0
 10
286.9941681638
 20
824.0780550853
 30
0.0
 10
287.0186392276
 20
820.0147764861
 30
0.0
 10
287.0068654735
 20
815.9963111912
 30
0.0
 10
286.9706889853
 20
813.0329399865
 30
0.0
 10
286.8983927615
 20
810.1196149539
 30
0.0
 10
286.7922219026
 20
808.1978476051
 30
0.0
 10
286.7287660024
 20
807.2491490194
 30
0.0
  0
SPLINE
  5
399
100
AcDbEntity
  8
00_COMPONENTS_39
100
AcDbSpline
 62
7
  6
CONTINUOUS
 70
0
 71
3
 72
9
 73
5
 74
0
 42
0.0000001
 43
0.0000001
 44
0.0000000001
 40
0.0
 40
0.0
 40
0.0
 40
0.0
 40
0.2674299033
 40
1.0
 40
1.0
 40
1.0
 40
1.0
 10
286.7287660153
 20
807.2491494524
 30
0.0
 10
286.7208778629
 20
807.2520884039
 30
0.0
 10
286.6920219989
 20
807.2645701668
 30
0.0
 10
286.6651530576
 20
807.2827404339
 30
0.0
 10
286.6495147619
 20
807.2996863011
 30
0.0
  0
SPLINE
  5
39A
100
AcDbEntity
  8
00_COMPONENTS_39
100
AcDbSpline
 62
7
  6
CONTINUOUS
 70
0
 71
3
 72
9
 73
5
 74
0
 42
0.0000001
 43
0.0000001
 44
0.0000000001
 40
0.0
 40
0.0
 40
0.0
 40
0.0
 40
0.252951003
 40
1.0
 40
1.0
 40
1.0
 40
1.0
 10
291.2121794581
 20
832.1214324497
 30
0.0
 10
291.279710376
 20
831.6484412474
 30
0.0
 10
291.5336918179
 20
829.776724212
 30
0.0
 10
291.7351968295
 20
827.8978288347
 30
0.0
 10
291.8540251943
 20
826.4917740206
 30
0.0
  0
SPLINE
  5
39B
100
AcDbEntity
  8
00_COMPONENTS_39
100
AcDbSpline
 62
7
  6
CONTINUOUS
 70
0
 71
3
 72
9
 73
5
 74
0
 42
0.0000001
 43
0.0000001
 44
0.0000000001
 40
0.0
 40
0.0
 40
0.0
 40
0.0
 40
0.5180914583
 40
1.0
 40
1.0
 40
1.0
 40
1.0
 10
291.8540251943
 20
826.4917740206
 30
0.0
 10
292.1345727527
 20
823.1721520957
 30
0.0
 10
292.3376460478
 20
816.7295771037
 30
0.0
 10
291.7343662439
 20
810.3045578412
 30
0.0
 10
291.2121795852
 20
807.2500817623
 30
0.0
  0
SPLINE
  5
39C
100
AcDbEntity
  8
00_COMPONENTS_39
100
AcDbSpline
 62
7
  6
CONTINUOUS
 70
0
 71
3
 72
13
 73
9
 74
0
 42
0.0000001
 43
0.0000001
 44
0.0000000001
 40
0.0
 40
0.0
 40
0.0
 40
0.0
 40
0.1058998204
 40
0.2030693057
 40
0.4092007397
 40
0.5331415104
 40
0.6732241953
 40
1.0
 40
1.0
 40
1.0
 40
1.0
 10
292.1282169931
 20
804.8364412645
 30
0.0
 10
292.0241617203
 20
804.8344012953
 30
0.0
 10
291.8217597761
 20
804.8580516458
 30
0.0
 10
291.4566953312
 20
805.0494909855
 30
0.0
 10
291.2365338142
 20
805.4414150657
 30
0.0
 10
291.1423037024
 20
805.8925763722
 30
0.0
 10
291.1066753479
 20
806.4745971259
 30
0.0
 10
291.1580613939
 20
806.9335291753
 30
0.0
 10
291.2121770954
 20
807.2500826397
 30
0.0
  0
SPLINE
  5
39D
100
AcDbEntity
  8
00_COMPONENTS_39
100
AcDbSpline
 62
7
  6
CONTINUOUS
 70
0
 71
3
 72
10
 73
6
 74
0
 42
0.0000001
 43
0.0000001
 44
0.0000000001
 40
0.0
 40
0.0
 40
0.0
 40
0.0
 40
0.5091459802
 40
0.7627658912
 40
1.0
 40
1.0
 40
1.0
 40
1.0
 10
291.2121769649
 20
832.1214326198
 30
0.0
 10
291.0914182225
 20
832.9672587776
 30
0.0
 10
291.0917471527
 20
834.274711955
 30
0.0
 10
291.5125289332
 20
835.9059325735
 30
0.0
 10
291.892169328
 20
836.6506572786
 30
0.0
 10
292.1282169977
 20
836.9712334231
 30
0.0
  0
SPLINE
  5
39E
100
AcDbEntity
  8
00_COMPONENTS_39
100
AcDbSpline
 62
7
  6
CONTINUOUS
 70
0
 71
3
 72
15
 73
11
 74
0
 42
0.0000001
 43
0.0000001
 44
0.0000000001
 40
0.0
 40
0.0
 40
0.0
 40
0.0
 40
0.1078646844
 40
0.2098169015
 40
0.3170847
 40
0.438590843
 40
0.5718432637
 40
0.7118256923
 40
0.8551003585
 40
1.0
 40
1.0
 40
1.0
 40
1.0
 10
283.5415984927
 20
834.6833739314
 30
0.0
 10
283.5679848072
 20
834.8207806089
 30
0.0
 10
283.6576213987
 20
835.0857800438
 30
0.0
 10
283.9754050584
 20
835.3833059123
 30
0.0
 10
284.4274090865
 20
835.4335316685
 30
0.0
 10
284.8743100682
 20
835.2564602133
 30
0.0
 10
285.2801995462
 20
834.9373868813
 30
0.0
 10
285.6331604177
 20
834.5250857001
 30
0.0
 10
285.9335924465
 20
834.0564910757
 30
0.0
 10
286.100734374
 20
833.7214172828
 30
0.0
 10
286.1777493613
 20
833.5499627802
 30
0.0
  0
SPLINE
  5
39F
100
AcDbEntity
  8
00_COMPONENTS_39
100
AcDbSpline
 62
7
  6
CONTINUOUS
 70
0
 71
3
 72
10
 73
6
 74
0
 42
0.0000001
 43
0.0000001
 44
0.0000000001
 40
0.0
 40
0.0
 40
0.0
 40
0.0
 40
0.2623181506
 40
0.5178525531
 40
1.0
 40
1.0
 40
1.0
 40
1.0
 10
286.1777930844
 20
833.5499820957
 30
0.0
 10
286.2582086342
 20
833.3708990893
 30
0.0
 10
286.3857820861
 20
833.0032952252
 30
0.0
 10
286.5572599958
 20
832.2743932736
 30
0.0
 10
286.6260681025
 20
831.7245475525
 30
0.0
 10
286.649546349
 20
831.3644905175
 30
0.0
  0
SPLINE
  5
3A0
100
AcDbEntity
  8
00_COMPONENTS_39
100
AcDbSpline
 62
7
  6
CONTINUOUS
 70
0
 71
3
 72
11
 73
7
 74
0
 42
0.0000001
 43
0.0000001
 44
0.0000000001
 40
0.0
 40
0.0
 40
0.0
 40
0.0
 40
0.2600838246
 40
0.5127685777
 40
0.7604770648
 40
1.0
 40
1.0
 40
1.0
 40
1.0
 10
286.6495148648
 20
831.3645117868
 30
0.0
 10
286.785450747
 20
829.2816906963
 30
0.0
 10
286.9292102858
 20
825.1674114563
 30
0.0
 10
286.9706348543
 20
819.0643512586
 30
0.0
 10
286.9313466379
 20
813.1265808269
 30
0.0
 10
286.7916233689
 20
809.2166720836
 30
0.0
 10
286.6495148374
 20
807.2996873201
 30
0.0
  0
SPLINE
  5
3A1
100
AcDbEntity
  8
00_COMPONENTS_39
100
AcDbSpline
 62
7
  6
CONTINUOUS
 70
0
 71
3
 72
10
 73
6
 74
0
 42
0.0000001
 43
0.0000001
 44
0.0000000001
 40
0.0
 40
0.0
 40
0.0
 40
0.0
 40
0.5532475477
 40
0.7911191981
 40
1.0
 40
1.0
 40
1.0
 40
1.0
 10
286.6495468129
 20
807.2996562976
 30
0.0
 10
286.6288515552
 20
807.0202384708
 30
0.0
 10
286.5742719319
 20
806.6182979595
 30
0.0
 10
286.3992199332
 20
806.1424305061
 30
0.0
 10
286.2623192557
 20
805.9518481145
 30
0.0
 10
286.1777948463
 20
805.8882404425
 30
0.0
  0
SPLINE
  5
3A2
100
AcDbEntity
  8
00_COMPONENTS_39
100
AcDbSpline
 62
7
  6
CONTINUOUS
 70
0
 71
3
 72
13
 73
9
 74
0
 42
0.0000001
 43
0.0000001
 44
0.0000000001
 40
0.0
 40
0.0
 40
0.0
 40
0.0
 40
0.0843500219
 40
0.1749163478
 40
0.3980121365
 40
0.6975670763
 40
0.854475983
 40
1.0
 40
1.0
 40
1.0
 40
1.0
 10
286.1777529196
 20
805.8883079657
 30
0.0
 10
286.0995045898
 20
805.8294695844
 30
0.0
 10
285.922242304
 20
805.7257240618
 30
0.0
 10
285.4722684445
 20
805.6010802771
 30
0.0
 10
284.7370998887
 20
805.7009707125
 30
0.0
 10
284.0602671482
 20
806.1742765804
 30
0.0
 10
283.6759716678
 20
806.7665789411
 30
0.0
 10
283.5704169182
 20
807.1065827485
 30
0.0
 10
283.5416762943
 20
807.273023572
 30
0.0
  0
SPLINE
  5
3A3
100
AcDbEntity
  8
00_COMPONENTS_39
100
AcDbSpline
 62
7
  6
CONTINUOUS
 70
0
 71
3
 72
18
 73
14
 74
0
 42
0.0000001
 43
0.0000001
 44
0.0000000001
 40
0.0
 40
0.0
 40
0.0
 40
0.0
 40
0.0534353981
 40
0.1044240817
 40
0.1546083644
 40
0.206043232
 40
0.2606749049
 40
0.319160242
 40
0.4469155389
 40
0.5850024543
 40
0.7269874525
 40
0.8674366657
 40
1.0
 40
1.0
 40
1.0
 40
1.0
 10
280.0061388847
 20
837.891377422
 30
0.0
 10
280.0291408084
 20
838.0043886822
 30
0.0
 10
280.1007287894
 20
838.2215074401
 30
0.0
 10
280.2994238636
 20
838.4972319197
 30
0.0
 10
280.578778566
 20
838.6847470302
 30
0.0
 10
280.9135709162
 20
838.765500994
 30
0.0
 10
281.2723073938
 20
838.7259348278
 30
0.0
 10
281.7604257582
 20
838.5329672253
 30
0.0
 10
282.2994209321
 20
838.0582430363
 30
0.0
 10
282.7799527132
 20
837.3143838236
 30
0.0
 10
283.1258742839
 20
836.4707209933
 30
0.0
 10
283.3500985233
 20
835.6019535027
 30
0.0
 10
283.4371464139
 20
835.0172411003
 30
0.0
 10
283.4563147299
 20
834.7317755801
 30
0.0
  0
SPLINE
  5
3A4
100
AcDbEntity
  8
00_COMPONENTS_39
100
AcDbSpline
 62
7
  6
CONTINUOUS
 70
0
 71
3
 72
8
 73
4
 74
0
 42
0.0000001
 43
0.0000001
 44
0.0000000001
 40
0.0
 40
0.0
 40
0.0
 40
0.0
 40
1.0
 40
1.0
 40
1.0
 40
1.0
 10
279.9576046899
 20
808.1596616903
 30
0.0
 10
279.9433381703
 20
808.1702465357
 30
0.0
 10
279.9302627701
 20
808.1829365263
 30
0.0
 10
279.920040904
 20
808.1974653248
 30
0.0
  0
SPLINE
  5
3A5
100
AcDbEntity
  8
00_COMPONENTS_39
100
AcDbSpline
 62
7
  6
CONTINUOUS
 70
0
 71
3
 72
17
 73
13
 74
0
 42
0.0000001
 43
0.0000001
 44
0.0000000001
 40
0.0
 40
0.0
 40
0.0
 40
0.0
 40
0.0535428409
 40
0.1047832154
 40
0.1552323745
 40
0.2069144896
 40
0.3189541484
 40
0.4463336556
 40
0.5842589241
 40
0.7263860724
 40
0.8670602154
 40
1.0
 40
1.0
 40
1.0
 40
1.0
 10
279.9576144106
 20
837.9205435015
 30
0.0
 10
279.9842476807
 20
838.0355613074
 30
0.0
 10
280.0556559093
 20
838.2582721982
 30
0.0
 10
280.26034839
 20
838.5409090739
 30
0.0
 10
280.5461160686
 20
838.7343459557
 30
0.0
 10
281.0134283063
 20
838.8519560619
 30
0.0
 10
281.6702143859
 20
838.6741091653
 30
0.0
 10
282.310668858
 20
838.1199756623
 30
0.0
 10
282.8102651023
 20
837.3637764446
 30
0.0
 10
283.1620216441
 20
836.5013149471
 30
0.0
 10
283.3951161558
 20
835.6119777228
 30
0.0
 10
283.4693218283
 20
835.0120212266
 30
0.0
 10
283.4973217448
 20
834.720231458
 30
0.0
  0
SPLINE
  5
3A6
100
AcDbEntity
  8
00_COMPONENTS_39
100
AcDbSpline
 62
7
  6
CONTINUOUS
 70
0
 71
3
 72
8
 73
4
 74
0
 42
0.0000001
 43
0.0000001
 44
0.0000000001
 40
0.0
 40
0.0
 40
0.0
 40
0.0
 40
1.0
 40
1.0
 40
1.0
 40
1.0
 10
283.4966756707
 20
834.7138657915
 30
0.0
 10
283.4879751342
 20
834.7152746563
 30
0.0
 10
283.4795278639
 20
834.7180168774
 30
0.0
 10
283.4711336243
 20
834.7207040648
 30
0.0
  0
SPLINE
  5
3A7
100
AcDbEntity
  8
00_COMPONENTS_39
100
AcDbSpline
 62
7
  6
CONTINUOUS
 70
0
 71
3
 72
8
 73
4
 74
0
 42
0.0000001
 43
0.0000001
 44
0.0000000001
 40
0.0
 40
0.0
 40
0.0
 40
0.0
 40
1.0
 40
1.0
 40
1.0
 40
1.0
 10
283.471123097
 20
834.7197672439
 30
0.0
 10
283.4655778177
 20
834.7227919896
 30
0.0
 10
283.4604606652
 20
834.7272508265
 30
0.0
 10
283.4572804739
 20
834.7327084444
 30
0.0
  0
SPLINE
  5
3A8
100
AcDbEntity
  8
00_COMPONENTS_39
100
AcDbSpline
 62
7
  6
CONTINUOUS
 70
0
 71
3
 72
15
 73
11
 74
0
 42
0.0000001
 43
0.0000001
 44
0.0000000001
 40
0.0
 40
0.0
 40
0.0
 40
0.0
 40
0.151779504
 40
0.311787495
 40
0.4625898247
 40
0.5903509053
 40
0.6987654984
 40
0.7988191085
 40
0.8981038939
 40
1.0
 40
1.0
 40
1.0
 40
1.0
 10
272.8823966845
 20
840.8381973121
 30
0.0
 10
272.8657945521
 20
841.0190832956
 30
0.0
 10
272.8090728178
 20
841.3890544374
 30
0.0
 10
272.6465858045
 20
841.9209391353
 30
0.0
 10
272.3915098683
 20
842.3860486032
 30
0.0
 10
272.0506219944
 20
842.7138924058
 30
0.0
 10
271.6674071449
 20
842.866946895
 30
0.0
 10
271.292009531
 20
842.8687999897
 30
0.0
 10
270.9432082602
 20
842.7632785127
 30
0.0
 10
270.7328896185
 20
842.642296226
 30
0.0
 10
270.6329577077
 20
842.5724057908
 30
0.0
  0
SPLINE
  5
3A9
100
AcDbEntity
  8
00_COMPONENTS_39
100
AcDbSpline
 62
7
  6
CONTINUOUS
 70
0
 71
3
 72
15
 73
11
 74
0
 42
0.0000001
 43
0.0000001
 44
0.0000000001
 40
0.0
 40
0.0
 40
0.0
 40
0.0
 40
0.1519494379
 40
0.3068112448
 40
0.4419605517
 40
0.5558341423
 40
0.6614950624
 40
0.7685580504
 40
0.8807402118
 40
1.0
 40
1.0
 40
1.0
 40
1.0
 10
276.4200037176
 20
839.9628930362
 30
0.0
 10
276.393256154
 20
840.2639222033
 30
0.0
 10
276.2784074166
 20
840.8677767242
 30
0.0
 10
275.9325310258
 20
841.6858140932
 30
0.0
 10
275.3800757438
 20
842.3022923141
 30
0.0
 10
274.6864845133
 20
842.5541721668
 30
0.0
 10
274.0221495931
 20
842.4384317646
 30
0.0
 10
273.4739105241
 20
842.0688256652
 30
0.0
 10
273.0671110947
 20
841.518549938
 30
0.0
 10
272.9196739156
 20
841.0724478907
 30
0.0
 10
272.8823966845
 20
840.8381973121
 30
0.0
  0
SPLINE
  5
3AA
100
AcDbEntity
  8
00_COMPONENTS_39
100
AcDbSpline
 62
7
  6
CONTINUOUS
 70
0
 71
3
 72
9
 73
5
 74
0
 42
0.0000001
 43
0.0000001
 44
0.0000000001
 40
0.0
 40
0.0
 40
0.0
 40
0.0
 40
0.2789175955
 40
1.0
 40
1.0
 40
1.0
 40
1.0
 10
272.9350386723
 20
840.8073607136
 30
0.0
 10
272.9261229128
 20
840.8100148192
 30
0.0
 10
272.8947724994
 20
840.8210944422
 30
0.0
 10
272.8649534761
 20
840.8391356679
 30
0.0
 10
272.8489343346
 20
840.8570734143
 30
0.0
  0
SPLINE
  5
3AB
100
AcDbEntity
  8
00_COMPONENTS_39
100
AcDbSpline
 62
7
  6
CONTINUOUS
 70
0
 71
3
 72
8
 73
4
 74
0
 42
0.0000001
 43
0.0000001
 44
0.0000000001
 40
0.0
 40
0.0
 40
0.0
 40
0.0
 40
1.0
 40
1.0
 40
1.0
 40
1.0
 10
272.8489328668
 20
840.8570597024
 30
0.0
 10
272.858864922
 20
840.8489711989
 30
0.0
 10
272.8705116136
 20
840.8429455893
 30
0.0
 10
272.8823987074
 20
840.8381741523
 30
0.0
  0
SPLINE
  5
3AC
100
AcDbEntity
  8
00_COMPONENTS_39
100
AcDbSpline
 62
7
  6
CONTINUOUS
 70
0
 71
3
 72
8
 73
4
 74
0
 42
0.0000001
 43
0.0000001
 44
0.0000000001
 40
0.0
 40
0.0
 40
0.0
 40
0.0
 40
1.0
 40
1.0
 40
1.0
 40
1.0
 10
272.8823987074
 20
840.8381741523
 30
0.0
 10
272.8984377575
 20
840.8256770814
 30
0.0
 10
272.9163969755
 20
840.8154707712
 30
0.0
 10
272.9350420333
 20
840.8073596845
 30
0.0
  0
SPLINE
  5
3AD
100
AcDbEntity
  8
00_COMPONENTS_39
100
AcDbSpline
 62
7
  6
CONTINUOUS
 70
0
 71
3
 72
9
 73
5
 74
0
 42
0.0000001
 43
0.0000001
 44
0.0000000001
 40
0.0
 40
0.0
 40
0.0
 40
0.0
 40
0.2773034439
 40
1.0
 40
1.0
 40
1.0
 40
1.0
 10
272.9350386723
 20
834.1311092227
 30
0.0
 10
272.9256137268
 20
834.1179077272
 30
0.0
 10
272.892864779
 20
834.0694672823
 30
0.0
 10
272.8646024401
 20
834.0177172089
 30
0.0
 10
272.8489343346
 20
833.9784544679
 30
0.0
  0
SPLINE
  5
3AE
100
AcDbEntity
  8
00_COMPONENTS_39
100
AcDbSpline
 62
7
  6
CONTINUOUS
 70
0
 71
3
 72
15
 73
11
 74
0
 42
0.0000001
 43
0.0000001
 44
0.0000000001
 40
0.0
 40
0.0
 40
0.0
 40
0.0
 40
0.1195811387
 40
0.232005333
 40
0.33912013
 40
0.4445567293
 40
0.5578417316
 40
0.6923648198
 40
0.8473319104
 40
1.0
 40
1.0
 40
1.0
 40
1.0
 10
272.9350389501
 20
840.8073710691
 30
0.0
 10
272.9730477938
 20
841.0354788095
 30
0.0
 10
273.118953756
 20
841.4692569755
 30
0.0
 10
273.5148576602
 20
842.0050620635
 30
0.0
 10
274.0455485246
 20
842.3673457279
 30
0.0
 10
274.6882321689
 20
842.4868492496
 30
0.0
 10
275.3632069133
 20
842.2521824178
 30
0.0
 10
275.9053342316
 20
841.6594882682
 30
0.0
 10
276.246021262
 20
840.8651733018
 30
0.0
 10
276.3587501321
 20
840.2764025881
 30
0.0
 10
276.3844881667
 20
839.982288509
 30
0.0
  0
SPLINE
  5
3AF
100
AcDbEntity
  8
00_COMPONENTS_39
100
AcDbSpline
 62
7
  6
CONTINUOUS
 70
0
 71
3
 72
9
 73
5
 74
0
 42
0.0000001
 43
0.0000001
 44
0.0000000001
 40
0.0
 40
0.0
 40
0.0
 40
0.0
 40
0.2721741582
 40
1.0
 40
1.0
 40
1.0
 40
1.0
 10
274.1758962076
 20
835.3483591976
 30
0.0
 10
274.1746898683
 20
835.3410867906
 30
0.0
 10
274.1682570321
 20
835.3147895079
 30
0.0
 10
274.1505935983
 20
835.2908826902
 30
0.0
 10
274.1339184381
 20
835.2803687976
 30
0.0
  0
SPLINE
  5
3B0
100
AcDbEntity
  8
00_COMPONENTS_39
100
AcDbSpline
 62
7
  6
CONTINUOUS
 70
0
 71
3
 72
9
 73
5
 74
0
 42
0.0000001
 43
0.0000001
 44
0.0000000001
 40
0.0
 40
0.0
 40
0.0
 40
0.0
 40
0.2395446791
 40
1.0
 40
1.0
 40
1.0
 40
1.0
 10
274.1339184381
 20
835.2803687976
 30
0.0
 10
274.021175138
 20
835.2096526278
 30
0.0
 10
273.56685292
 20
834.8887501146
 30
0.0
 10
273.1805199197
 20
834.4749541694
 30
0.0
 10
272.9350321064
 20
834.1311002206
 30
0.0
  0
SPLINE
  5
3B1
100
AcDbEntity
  8
00_COMPONENTS_39
100
AcDbSpline
 62
7
  6
CONTINUOUS
 70
0
 71
3
 72
9
 73
5
 74
0
 42
0.0000001
 43
0.0000001
 44
0.0000000001
 40
0.0
 40
0.0
 40
0.0
 40
0.0
 40
0.2789190874
 40
1.0
 40
1.0
 40
1.0
 40
1.0
 10
276.470587298
 20
839.9326049966
 30
0.0
 10
276.4616712472
 20
839.9352592441
 30
0.0
 10
276.4303201756
 20
839.9463393564
 30
0.0
 10
276.4004988029
 20
839.9643801312
 30
0.0
 10
276.3844809755
 20
839.9823199198
 30
0.0
  0
SPLINE
  5
3B2
100
AcDbEntity
  8
00_COMPONENTS_39
100
AcDbSpline
 62
7
  6
CONTINUOUS
 70
0
 71
3
 72
8
 73
4
 74
0
 42
0.0000001
 43
0.0000001
 44
0.0000000001
 40
0.0
 40
0.0
 40
0.0
 40
0.0
 40
1.0
 40
1.0
 40
1.0
 40
1.0
 10
276.384468244
 20
839.9823338938
 30
0.0
 10
276.394988831
 20
839.9738719317
 30
0.0
 10
276.4073854746
 20
839.9677001696
 30
0.0
 10
276.42000252
 20
839.9628941614
 30
0.0
  0
SPLINE
  5
3B3
100
AcDbEntity
  8
00_COMPONENTS_39
100
AcDbSpline
 62
7
  6
CONTINUOUS
 70
0
 71
3
 72
15
 73
11
 74
0
 42
0.0000001
 43
0.0000001
 44
0.0000000001
 40
0.0
 40
0.0
 40
0.0
 40
0.0
 40
0.1107380851
 40
0.2153347411
 40
0.3205507177
 40
0.4349124283
 40
0.5647737214
 40
0.7086840867
 40
0.8579441521
 40
1.0
 40
1.0
 40
1.0
 40
1.0
 10
276.4200037176
 20
839.9628930362
 30
0.0
 10
276.4614768914
 20
840.1844227221
 30
0.0
 10
276.6353263295
 20
840.6055753056
 30
0.0
 10
277.1507989279
 20
841.0465904553
 30
0.0
 10
277.8286999449
 20
841.1784279063
 30
0.0
 10
278.5287594377
 20
840.9422102769
 30
0.0
 10
279.1202228385
 20
840.3932654816
 30
0.0
 10
279.556688236
 20
839.6411970203
 30
0.0
 10
279.8363738837
 20
838.7962905071
 30
0.0
 10
279.9345138604
 20
838.2087366749
 30
0.0
 10
279.9576144106
 20
837.9205435015
 30
0.0
  0
SPLINE
  5
3B4
100
AcDbEntity
  8
00_COMPONENTS_39
100
AcDbSpline
 62
7
  6
CONTINUOUS
 70
0
 71
3
 72
8
 73
4
 74
0
 42
0.0000001
 43
0.0000001
 44
0.0000000001
 40
0.0
 40
0.0
 40
0.0
 40
0.0
 40
1.0
 40
1.0
 40
1.0
 40
1.0
 10
276.4705886075
 20
839.9326063785
 30
0.0
 10
276.452690539
 20
839.940720109
 30
0.0
 10
276.4354713976
 20
839.9507641171
 30
0.0
 10
276.420007317
 20
839.9628899446
 30
0.0
  0
SPLINE
  5
3B5
100
AcDbEntity
  8
00_COMPONENTS_39
100
AcDbSpline
 62
7
  6
CONTINUOUS
 70
0
 71
3
 72
9
 73
5
 74
0
 42
0.0000001
 43
0.0000001
 44
0.0000000001
 40
0.0
 40
0.0
 40
0.0
 40
0.0
 40
0.2789152435
 40
1.0
 40
1.0
 40
1.0
 40
1.0
 10
280.0061388847
 20
837.8914003426
 30
0.0
 10
279.9972235523
 20
837.8940552849
 30
0.0
 10
279.9658731683
 20
837.9051331868
 30
0.0
 10
279.9360527806
 20
837.9231727979
 30
0.0
 10
279.9200342829
 20
837.9411109049
 30
0.0
  0
SPLINE
  5
3B6
100
AcDbEntity
  8
00_COMPONENTS_39
100
AcDbSpline
 62
7
  6
CONTINUOUS
 70
0
 71
3
 72
8
 73
4
 74
0
 42
0.0000001
 43
0.0000001
 44
0.0000000001
 40
0.0
 40
0.0
 40
0.0
 40
0.0
 40
1.0
 40
1.0
 40
1.0
 40
1.0
 10
279.920025072
 20
837.941121037
 30
0.0
 10
279.931090188
 20
837.9320687777
 30
0.0
 10
279.9442502145
 20
837.9255359
 30
0.0
 10
279.9576282855
 20
837.920495324
 30
0.0
  0
SPLINE
  5
3B7
100
AcDbEntity
  8
00_COMPONENTS_39
100
AcDbSpline
 62
7
  6
CONTINUOUS
 70
0
 71
3
 72
8
 73
4
 74
0
 42
0.0000001
 43
0.0000001
 44
0.0000000001
 40
0.0
 40
0.0
 40
0.0
 40
0.0
 40
1.0
 40
1.0
 40
1.0
 40
1.0
 10
279.9576324594
 20
837.9204867251
 30
0.0
 10
279.9725250699
 20
837.9089566407
 30
0.0
 10
279.9889847468
 20
837.8993100333
 30
0.0
 10
280.0060903265
 20
837.8914276581
 30
0.0
  0
SPLINE
  5
3B8
100
AcDbEntity
  8
00_COMPONENTS_39
100
AcDbSpline
 62
7
  6
CONTINUOUS
 70
0
 71
3
 72
15
 73
11
 74
0
 42
0.0000001
 43
0.0000001
 44
0.0000000001
 40
0.0
 40
0.0
 40
0.0
 40
0.0
 40
0.1109186669
 40
0.2153439843
 40
0.320137058
 40
0.4340571618
 40
0.5636157522
 40
0.70752591
 40
0.8571864574
 40
1.0
 40
1.0
 40
1.0
 40
1.0
 10
276.4706149119
 20
839.9325974278
 30
0.0
 10
276.5115725184
 20
840.1484407343
 30
0.0
 10
276.6815657395
 20
840.5579415459
 30
0.0
 10
277.1830574573
 20
840.9859432862
 30
0.0
 10
277.840890015
 20
841.1129611311
 30
0.0
 10
278.5194039008
 20
840.8828143009
 30
0.0
 10
279.0943754707
 20
840.3505527626
 30
0.0
 10
279.5216077421
 20
839.619943637
 30
0.0
 10
279.7979755967
 20
838.7966822483
 30
0.0
 10
279.8963440438
 20
838.2230012733
 30
0.0
 10
279.9200233346
 20
837.9411255094
 30
0.0
  0
SPLINE
  5
3B9
100
AcDbEntity
  8
00_COMPONENTS_39
100
AcDbSpline
 62
7
  6
CONTINUOUS
 70
0
 71
3
 72
10
 73
6
 74
0
 42
0.0000001
 43
0.0000001
 44
0.0000000001
 40
0.0
 40
0.0
 40
0.0
 40
0.0
 40
0.4987390125
 40
0.7659087263
 40
1.0
 40
1.0
 40
1.0
 40
1.0
 10
277.5259740096
 20
837.3169057253
 30
0.0
 10
277.4826005517
 20
837.266068019
 30
0.0
 10
277.4153268755
 20
837.1882601874
 30
0.0
 10
277.3211434174
 20
837.0934611762
 30
0.0
 10
277.2697592197
 20
837.0488277951
 30
0.0
 10
277.2422044852
 20
837.0338425438
 30
0.0
  0
SPLINE
  5
3BA
100
AcDbEntity
  8
00_COMPONENTS_39
100
AcDbSpline
 62
7
  6
CONTINUOUS
 70
0
 71
3
 72
9
 73
5
 74
0
 42
0.0000001
 43
0.0000001
 44
0.0000000001
 40
0.0
 40
0.0
 40
0.0
 40
0.0
 40
0.2546046066
 40
1.0
 40
1.0
 40
1.0
 40
1.0
 10
277.2422038108
 20
837.0338410285
 30
0.0
 10
277.2469856081
 20
837.066457599
 30
0.0
 10
277.2672085202
 20
837.1943468451
 30
0.0
 10
277.2932834055
 20
837.3213265214
 30
0.0
 10
277.3162683614
 20
837.4150604679
 30
0.0
  0
SPLINE
  5
3BB
100
AcDbEntity
  8
00_COMPONENTS_39
100
AcDbSpline
 62
7
  6
CONTINUOUS
 70
0
 71
3
 72
8
 73
4
 74
0
 42
0.0000001
 43
0.0000001
 44
0.0000000001
 40
0.0
 40
0.0
 40
0.0
 40
0.0
 40
1.0
 40
1.0
 40
1.0
 40
1.0
 10
277.5991639898
 20
837.4037794715
 30
0.0
 10
277.6118165974
 20
837.3800162024
 30
0.0
 10
277.6286432318
 20
837.3579612005
 30
0.0
 10
277.6486596576
 20
837.3399577525
 30
0.0
  0
SPLINE
  5
3BC
100
AcDbEntity
  8
00_COMPONENTS_39
100
AcDbSpline
 62
7
  6
CONTINUOUS
 70
0
 71
3
 72
9
 73
5
 74
0
 42
0.0000001
 43
0.0000001
 44
0.0000000001
 40
0.0
 40
0.0
 40
0.0
 40
0.0
 40
0.5363680133
 40
1.0
 40
1.0
 40
1.0
 40
1.0
 10
277.6486596576
 20
837.3399577525
 30
0.0
 10
277.6732577705
 20
837.3178333806
 30
0.0
 10
277.7298696364
 20
837.2856215132
 30
0.0
 10
277.7959271776
 20
837.2911718006
 30
0.0
 10
277.8220612554
 20
837.3027835047
 30
0.0
  0
SPLINE
  5
3BD
100
AcDbEntity
  8
00_COMPONENTS_39
100
AcDbSpline
 62
7
  6
CONTINUOUS
 70
0
 71
3
 72
8
 73
4
 74
0
 42
0.0000001
 43
0.0000001
 44
0.0000000001
 40
0.0
 40
0.0
 40
0.0
 40
0.0
 40
1.0
 40
1.0
 40
1.0
 40
1.0
 10
277.2421899427
 20
837.0337862642
 30
0.0
 10
277.2383950154
 20
837.0087951755
 30
0.0
 10
277.2260899553
 20
836.9813572988
 30
0.0
 10
277.2047187101
 20
836.9678581926
 30
0.0
  0
SPLINE
  5
3BE
100
AcDbEntity
  8
00_COMPONENTS_39
100
AcDbSpline
 62
7
  6
CONTINUOUS
 70
0
 71
3
 72
9
 73
5
 74
0
 42
0.0000001
 43
0.0000001
 44
0.0000000001
 40
0.0
 40
0.0
 40
0.0
 40
0.0
 40
0.221909976
 40
1.0
 40
1.0
 40
1.0
 40
1.0
 10
279.9200342829
 20
808.1974711223
 30
0.0
 10
279.9249697742
 20
808.1919450157
 30
0.0
 10
279.9496834493
 20
808.1692463764
 30
0.0
 10
279.9812433304
 20
808.1551691678
 30
0.0
 10
280.0061434354
 20
808.1477592053
 30
0.0
  0
SPLINE
  5
3BF
100
AcDbEntity
  8
00_COMPONENTS_39
100
AcDbSpline
 62
7
  6
CONTINUOUS
 70
0
 71
3
 72
10
 73
6
 74
0
 42
0.0000001
 43
0.0000001
 44
0.0000000001
 40
0.0
 40
0.0
 40
0.0
 40
0.0
 40
0.1949636614
 40
0.4320999865
 40
1.0
 40
1.0
 40
1.0
 40
1.0
 10
272.8489343345
 20
833.9784520105
 30
0.0
 10
272.707165714
 20
833.6232073896
 30
0.0
 10
272.4951134775
 20
832.7947815459
 30
0.0
 10
272.3591360779
 20
830.8296516653
 30
0.0
 10
272.6191959472
 20
829.2535344596
 30
0.0
 10
272.8489429828
 20
828.1633496437
 30
0.0
  0
SPLINE
  5
3C0
100
AcDbEntity
  8
00_COMPONENTS_39
100
AcDbSpline
 62
7
  6
CONTINUOUS
 70
0
 71
3
 72
18
 73
14
 74
0
 42
0.0000001
 43
0.0000001
 44
0.0000000001
 40
0.0
 40
0.0
 40
0.0
 40
0.0
 40
0.0561137793
 40
0.1046770812
 40
0.1452660406
 40
0.180048105
 40
0.2573040087
 40
0.3105792926
 40
0.3730267189
 40
0.5166306581
 40
0.673963223
 40
0.8364369322
 40
1.0
 40
1.0
 40
1.0
 40
1.0
 10
272.8489904677
 20
813.4466832401
 30
0.0
 10
272.8422752324
 20
813.3825566901
 30
0.0
 10
272.8249166222
 20
813.2632660212
 30
0.0
 10
272.7781970137
 20
813.1022239158
 30
0.0
 10
272.7090602105
 20
812.9757075115
 30
0.0
 10
272.5633472613
 20
812.862493997
 30
0.0
 10
272.3514635998
 20
812.9098749578
 30
0.0
 10
272.1655656981
 20
813.0240061953
 30
0.0
 10
271.92996125
 20
813.2097158447
 30
0.0
 10
271.6385140787
 20
813.5093495861
 30
0.0
 10
271.2987331233
 20
813.9199505617
 30
0.0
 10
270.9713223543
 20
814.3689174494
 30
0.0
 10
270.7666085275
 20
814.6828927593
 30
0.0
 10
270.6678131627
 20
814.8427719328
 30
0.0
  0
SPLINE
  5
3C1
100
AcDbEntity
  8
00_COMPONENTS_39
100
AcDbSpline
 62
7
  6
CONTINUOUS
 70
0
 71
3
 72
9
 73
5
 74
0
 42
0.0000001
 43
0.0000001
 44
0.0000000001
 40
0.0
 40
0.0
 40
0.0
 40
0.0
 40
0.5191372951
 40
1.0
 40
1.0
 40
1.0
 40
1.0
 10
270.667770081
 20
814.8427529875
 30
0.0
 10
270.468694415
 20
815.1650191822
 30
0.0
 10
270.1832549949
 20
815.846522352
 30
0.0
 10
270.0343540944
 20
816.5646509115
 30
0.0
 10
269.9973879619
 20
816.9135668277
 30
0.0
  0
SPLINE
  5
3C2
100
AcDbEntity
  8
00_COMPONENTS_39
100
AcDbSpline
 62
7
  6
CONTINUOUS
 70
0
 71
3
 72
13
 73
9
 74
0
 42
0.0000001
 43
0.0000001
 44
0.0000000001
 40
0.0
 40
0.0
 40
0.0
 40
0.0
 40
0.2560142688
 40
0.3820480559
 40
0.5073553861
 40
0.632056975
 40
0.7560285038
 40
1.0
 40
1.0
 40
1.0
 40
1.0
 10
269.9974330627
 20
816.9135534199
 30
0.0
 10
269.7807687864
 20
818.9585638288
 30
0.0
 10
269.5805569038
 20
822.0239588733
 30
0.0
 10
269.4800087459
 20
826.0980595434
 30
0.0
 10
269.456946206
 20
829.1187187758
 30
0.0
 10
269.4797146873
 20
832.1228596273
 30
0.0
 10
269.5786771309
 20
836.0786462145
 30
0.0
 10
269.7739330221
 20
839.0314428659
 30
0.0
 10
269.9974329154
 20
840.9783777857
 30
0.0
  0
SPLINE
  5
3C3
100
AcDbEntity
  8
00_COMPONENTS_39
100
AcDbSpline
 62
7
  6
CONTINUOUS
 70
0
 71
3
 72
10
 73
6
 74
0
 42
0.0000001
 43
0.0000001
 44
0.0000000001
 40
0.0
 40
0.0
 40
0.0
 40
0.0
 40
0.5265588127
 40
0.7710541348
 40
1.0
 40
1.0
 40
1.0
 40
1.0
 10
269.9973875192
 20
840.9784010598
 30
0.0
 10
270.0314842547
 20
841.2754557267
 30
0.0
 10
270.1273399227
 20
841.7105187828
 30
0.0
 10
270.3815878665
 20
842.2202464464
 30
0.0
 10
270.5619902968
 20
842.4289116575
 30
0.0
 10
270.6677678913
 20
842.5044943937
 30
0.0
  0
SPLINE
  5
3C4
100
AcDbEntity
  8
00_COMPONENTS_39
100
AcDbSpline
 62
7
  6
CONTINUOUS
 70
0
 71
3
 72
15
 73
11
 74
0
 42
0.0000001
 43
0.0000001
 44
0.0000000001
 40
0.0
 40
0.0
 40
0.0
 40
0.0
 40
0.1024861838
 40
0.201970214
 40
0.3018531429
 40
0.4094949849
 40
0.5362054689
 40
0.6867091281
 40
0.8473685169
 40
1.0
 40
1.0
 40
1.0
 40
1.0
 10
270.6678103351
 20
842.504427169
 30
0.0
 10
270.7644890881
 20
842.5734632803
 30
0.0
 10
270.9672450193
 20
842.6939949163
 30
0.0
 10
271.3040266387
 20
842.8015416965
 30
0.0
 10
271.6664619718
 20
842.8081724995
 30
0.0
 10
272.038991784
 20
842.6695453607
 30
0.0
 10
272.3729156716
 20
842.3589146404
 30
0.0
 10
272.622762335
 20
841.9104304778
 30
0.0
 10
272.7804842196
 20
841.3937417415
 30
0.0
 10
272.8339588282
 20
841.0333381031
 30
0.0
 10
272.8489418323
 20
840.8570504385
 30
0.0
  0
SPLINE
  5
3C5
100
AcDbEntity
  8
00_COMPONENTS_39
100
AcDbSpline
 62
7
  6
CONTINUOUS
 70
0
 71
3
 72
15
 73
11
 74
0
 42
0.0000001
 43
0.0000001
 44
0.0000000001
 40
0.0
 40
0.0
 40
0.0
 40
0.0
 40
0.1287043585
 40
0.2556545449
 40
0.381548058
 40
0.5067784218
 40
0.6315061043
 40
0.7555829049
 40
0.8786440683
 40
1.0
 40
1.0
 40
1.0
 40
1.0
 10
269.9257583848
 20
816.950149177
 30
0.0
 10
269.8177993721
 20
817.979181282
 30
0.0
 10
269.6387336484
 20
820.0272051767
 30
0.0
 10
269.4866371978
 20
823.09128168
 30
0.0
 10
269.4127598839
 20
826.1300006949
 30
0.0
 10
269.3925802204
 20
829.1515828688
 30
0.0
 10
269.4125296632
 20
832.1585664146
 30
0.0
 10
269.4859518414
 20
835.1473667116
 30
0.0
 10
269.6357385907
 20
838.1065331522
 30
0.0
 10
269.8164303032
 20
840.0638311098
 30
0.0
 10
269.9257582104
 20
841.0332903315
 30
0.0
  0
SPLINE
  5
3C6
100
AcDbEntity
  8
00_COMPONENTS_39
100
AcDbSpline
 62
7
  6
CONTINUOUS
 70
0
 71
3
 72
9
 73
5
 74
0
 42
0.0000001
 43
0.0000001
 44
0.0000000001
 40
0.0
 40
0.0
 40
0.0
 40
0.0
 40
0.2277235859
 40
1.0
 40
1.0
 40
1.0
 40
1.0
 10
269.9257581239
 20
841.033289856
 30
0.0
 10
269.9299013414
 20
841.0277821302
 30
0.0
 10
269.9501538433
 20
841.0051614664
 30
0.0
 10
269.9762701246
 20
840.9883003192
 30
0.0
 10
269.9974330353
 20
840.9783788303
 30
0.0
  0
SPLINE
  5
3C7
100
AcDbEntity
  8
00_COMPONENTS_39
100
AcDbSpline
 62
7
  6
CONTINUOUS
 70
0
 71
3
 72
8
 73
4
 74
0
 42
0.0000001
 43
0.0000001
 44
0.0000000001
 40
0.0
 40
0.0
 40
0.0
 40
0.0
 40
1.0
 40
1.0
 40
1.0
 40
1.0
 10
280.0061762362
 20
808.1477496002
 30
0.0
 10
279.9896525798
 20
808.1499759805
 30
0.0
 10
279.973160762
 20
808.1536833864
 30
0.0
 10
279.9575964991
 20
808.1596618237
 30
0.0
  0
SPLINE
  5
3C8
100
AcDbEntity
  8
00_COMPONENTS_39
100
AcDbSpline
 62
7
  6
CONTINUOUS
 70
0
 71
3
 72
9
 73
5
 74
0
 42
0.0000001
 43
0.0000001
 44
0.0000000001
 40
0.0
 40
0.0
 40
0.0
 40
0.0
 40
0.5113216042
 40
1.0
 40
1.0
 40
1.0
 40
1.0
 10
269.9257355307
 20
841.0332860011
 30
0.0
 10
269.7729023714
 20
841.2602963101
 30
0.0
 10
269.5342927424
 20
841.7524534278
 30
0.0
 10
269.5043303855
 20
842.3054959762
 30
0.0
 10
269.5480942119
 20
842.5633530886
 30
0.0
  0
SPLINE
  5
3C9
100
AcDbEntity
  8
00_COMPONENTS_39
100
AcDbSpline
 62
7
  6
CONTINUOUS
 70
0
 71
3
 72
9
 73
5
 74
0
 42
0.0000001
 43
0.0000001
 44
0.0000000001
 40
0.0
 40
0.0
 40
0.0
 40
0.0
 40
0.5022130091
 40
1.0
 40
1.0
 40
1.0
 40
1.0
 10
273.1450519276
 20
848.4951147106
 30
0.0
 10
272.4518082203
 20
847.6566818131
 30
0.0
 10
271.3271418712
 20
845.766818344
 30
0.0
 10
270.7505169718
 20
843.6443045121
 30
0.0
 10
270.6329577077
 20
842.5724057908
 30
0.0
  0
SPLINE
  5
3CA
100
AcDbEntity
  8
00_COMPONENTS_39
100
AcDbSpline
 62
7
  6
CONTINUOUS
 70
0
 71
3
 72
10
 73
6
 74
0
 42
0.0000001
 43
0.0000001
 44
0.0000000001
 40
0.0
 40
0.0
 40
0.0
 40
0.0
 40
0.5267989265
 40
0.7708018995
 40
1.0
 40
1.0
 40
1.0
 40
1.0
 10
269.9257334817
 20
841.033284981
 30
0.0
 10
269.9611482345
 20
841.3359399168
 30
0.0
 10
270.0608637774
 20
841.7794072294
 30
0.0
 10
270.3307423134
 20
842.2933405422
 30
0.0
 10
270.5217012657
 20
842.500264615
 30
0.0
 10
270.6329339441
 20
842.5724023412
 30
0.0
  0
SPLINE
  5
3CB
100
AcDbEntity
  8
00_COMPONENTS_39
100
AcDbSpline
 62
7
  6
CONTINUOUS
 70
0
 71
3
 72
8
 73
4
 74
0
 42
0.0000001
 43
0.0000001
 44
0.0000000001
 40
0.0
 40
0.0
 40
0.0
 40
0.0
 40
1.0
 40
1.0
 40
1.0
 40
1.0
 10
270.6329339441
 20
842.5724023412
 30
0.0
 10
270.640968539
 20
842.5482412292
 30
0.0
 10
270.6529722867
 20
842.5251355122
 30
0.0
 10
270.667806639
 20
842.504441164
 30
0.0
  0
SPLINE
  5
3CC
100
AcDbEntity
  8
00_COMPONENTS_39
100
AcDbSpline
 62
7
  6
CONTINUOUS
 70
0
 71
3
 72
14
 73
10
 74
0
 42
0.0000001
 43
0.0000001
 44
0.0000000001
 40
0.0
 40
0.0
 40
0.0
 40
0.0
 40
0.388659495
 40
0.5279379358
 40
0.6336777834
 40
0.7158039796
 40
0.7927098135
 40
0.8836766952
 40
1.0
 40
1.0
 40
1.0
 40
1.0
 10
273.1450276153
 20
848.4950638357
 30
0.0
 10
273.0653638628
 20
848.5035673696
 30
0.0
 10
272.9563585072
 20
848.5166341031
 30
0.0
 10
272.8327664812
 20
848.5608832663
 30
0.0
 10
272.7752540509
 20
848.5977499476
 30
0.0
 10
272.7428159167
 20
848.6446827779
 30
0.0
 10
272.7424284131
 20
848.6989085203
 30
0.0
 10
272.7695955861
 20
848.7522294155
 30
0.0
 10
272.7979458299
 20
848.7844652861
 30
0.0
 10
272.8148817005
 20
848.8014398315
 30
0.0
  0
SPLINE
  5
3CD
100
AcDbEntity
  8
00_COMPONENTS_39
100
AcDbSpline
 62
7
  6
CONTINUOUS
 70
0
 71
3
 72
9
 73
5
 74
0
 42
0.0000001
 43
0.0000001
 44
0.0000000001
 40
0.0
 40
0.0
 40
0.0
 40
0.0
 40
0.1957728422
 40
1.0
 40
1.0
 40
1.0
 40
1.0
 10
279.9200342829
 20
818.4372272485
 30
0.0
 10
279.9253111494
 20
818.4351836851
 30
0.0
 10
279.9535202962
 20
818.4280900404
 30
0.0
 10
279.9830465897
 20
818.429710104
 30
0.0
 10
280.0061434354
 20
818.4323385985
 30
0.0
  0
SPLINE
  5
3CE
100
AcDbEntity
  8
00_COMPONENTS_39
100
AcDbSpline
 62
7
  6
CONTINUOUS
 70
0
 71
3
 72
9
 73
5
 74
0
 42
0.0000001
 43
0.0000001
 44
0.0000000001
 40
0.0
 40
0.0
 40
0.0
 40
0.0
 40
0.2400617096
 40
1.0
 40
1.0
 40
1.0
 40
1.0
 10
273.6137291317
 20
848.9544195309
 30
0.0
 10
273.5691825092
 20
848.9262355525
 30
0.0
 10
273.3904104179
 20
848.7982421162
 30
0.0
 10
273.2397284229
 20
848.6325066112
 30
0.0
 10
273.1450399739
 20
848.4951027514
 30
0.0
  0
SPLINE
  5
3CF
100
AcDbEntity
  8
00_COMPONENTS_39
100
AcDbSpline
 62
7
  6
CONTINUOUS
 70
0
 71
3
 72
9
 73
5
 74
0
 42
0.0000001
 43
0.0000001
 44
0.0000000001
 40
0.0
 40
0.0
 40
0.0
 40
0.0
 40
0.4990068417
 40
1.0
 40
1.0
 40
1.0
 40
1.0
 10
291.2515854225
 20
839.0952534512
 30
0.0
 10
291.0383949785
 20
839.0491309912
 30
0.0
 10
290.5789404862
 20
839.0373465297
 30
0.0
 10
290.1895392475
 20
839.2988889989
 30
0.0
 10
290.0482445734
 20
839.4661994394
 30
0.0
  0
SPLINE
  5
3D0
100
AcDbEntity
  8
00_COMPONENTS_39
100
AcDbSpline
 62
7
  6
CONTINUOUS
 70
0
 71
3
 72
14
 73
10
 74
0
 42
0.0000001
 43
0.0000001
 44
0.0000000001
 40
0.0
 40
0.0
 40
0.0
 40
0.0
 40
0.1629064623
 40
0.2850660669
 40
0.3703811401
 40
0.4405457417
 40
0.5291682023
 40
0.6519143551
 40
1.0
 40
1.0
 40
1.0
 40
1.0
 10
273.6137794999
 20
848.9544288235
 30
0.0
 10
273.5819436561
 20
848.9534833024
 30
0.0
 10
273.5258442616
 20
848.9542864845
 30
0.0
 10
273.4547203661
 20
848.9663409823
 30
0.0
 10
273.4034608539
 20
848.9927206049
 30
0.0
 10
273.3871477112
 20
849.0423863542
 30
0.0
 10
273.4091560897
 20
849.0955912656
 30
0.0
 10
273.4737469603
 20
849.1833840778
 30
0.0
 10
273.5440589715
 20
849.2447458971
 30
0.0
 10
273.5963871295
 20
849.2882562721
 30
0.0
  0
SPLINE
  5
3D1
100
AcDbEntity
  8
00_COMPONENTS_39
100
AcDbSpline
 62
7
  6
CONTINUOUS
 70
0
 71
3
 72
11
 73
7
 74
0
 42
0.0000001
 43
0.0000001
 44
0.0000000001
 40
0.0
 40
0.0
 40
0.0
 40
0.0
 40
0.2919875816
 40
0.4295099255
 40
0.5600091622
 40
1.0
 40
1.0
 40
1.0
 40
1.0
 10
289.4669638766
 20
839.071866876
 30
0.0
 10
288.2536699671
 20
840.5089773064
 30
0.0
 10
286.3148496935
 20
842.5014425084
 30
0.0
 10
283.4805680565
 20
844.7470798242
 30
0.0
 10
279.6760422612
 20
847.2285494119
 30
0.0
 10
275.9779151762
 20
848.5795229543
 30
0.0
 10
273.1450447882
 20
848.4951144979
 30
0.0
  0
SPLINE
  5
3D2
100
AcDbEntity
  8
00_COMPONENTS_39
100
AcDbSpline
 62
7
  6
CONTINUOUS
 70
0
 71
3
 72
10
 73
6
 74
0
 42
0.0000001
 43
0.0000001
 44
0.0000000001
 40
0.0
 40
0.0
 40
0.0
 40
0.0
 40
0.2252528211
 40
0.592765099
 40
1.0
 40
1.0
 40
1.0
 40
1.0
 10
273.6137664711
 20
848.9544209163
 30
0.0
 10
274.2634468802
 20
848.9737773889
 30
0.0
 10
275.9798391518
 20
848.8671063366
 30
0.0
 10
278.7892329167
 20
848.1175492539
 30
0.0
 10
280.8133435479
 20
847.1402691723
 30
0.0
 10
281.8309978697
 20
846.5527394673
 30
0.0
  0
SPLINE
  5
3D3
100
AcDbEntity
  8
00_COMPONENTS_39
100
AcDbSpline
 62
7
  6
CONTINUOUS
 70
0
 71
3
 72
9
 73
5
 74
0
 42
0.0000001
 43
0.0000001
 44
0.0000000001
 40
0.0
 40
0.0
 40
0.0
 40
0.0
 40
0.4783284493
 40
1.0
 40
1.0
 40
1.0
 40
1.0
 10
281.8309978697
 20
846.5527394673
 30
0.0
 10
283.3347846027
 20
845.6845474334
 30
0.0
 10
286.2836622613
 20
843.5251404506
 30
0.0
 10
288.8265711595
 20
840.9132091453
 30
0.0
 10
290.0482312938
 20
839.4661916496
 30
0.0
  0
SPLINE
  5
3D4
100
AcDbEntity
  8
00_COMPONENTS_39
100
AcDbSpline
 62
7
  6
CONTINUOUS
 70
0
 71
3
 72
15
 73
11
 74
0
 42
0.0000001
 43
0.0000001
 44
0.0000000001
 40
0.0
 40
0.0
 40
0.0
 40
0.0
 40
0.1072491389
 40
0.2096109395
 40
0.3177717263
 40
0.439782927
 40
0.5730269267
 40
0.7127173792
 40
0.8556875606
 40
1.0
 40
1.0
 40
1.0
 40
1.0
 10
283.4973217448
 20
834.720231458
 30
0.0
 10
283.5305563235
 20
834.8587411306
 30
0.0
 10
283.6221912176
 20
835.1294490534
 30
0.0
 10
283.9556125974
 20
835.426743202
 30
0.0
 10
284.4182210455
 20
835.4808737903
 30
0.0
 10
284.8803548435
 20
835.3054505686
 30
0.0
 10
285.2998921936
 20
834.9832477292
 30
0.0
 10
285.6646350631
 20
834.5649533113
 30
0.0
 10
285.9733096991
 20
834.0874354627
 30
0.0
 10
286.1427994622
 20
833.7450241627
 30
0.0
 10
286.2237806516
 20
833.5713061883
 30
0.0
  0
LINE
  5
3D5
100
AcDbEntity
  8
00_COMPONENTS_39
100
AcDbLine
 62
7
  6
CONTINUOUS
 10
286.2237853267
 20
833.5713031995
 11
286.1777567417
 21
833.5499660313
  0
SPLINE
  5
3D6
100
AcDbEntity
  8
00_COMPONENTS_39
100
AcDbSpline
 62
7
  6
CONTINUOUS
 70
0
 71
3
 72
8
 73
4
 74
0
 42
0.0000001
 43
0.0000001
 44
0.0000000001
 40
0.0
 40
0.0
 40
0.0
 40
0.0
 40
1.0
 40
1.0
 40
1.0
 40
1.0
 10
283.532867059
 20
834.6865384574
 30
0.0
 10
283.5107151825
 20
834.6939928999
 30
0.0
 10
283.4883372955
 20
834.7039575724
 30
0.0
 10
283.471123097
 20
834.7197672439
 30
0.0
  0
SPLINE
  5
3D7
100
AcDbEntity
  8
00_COMPONENTS_39
100
AcDbSpline
 62
7
  6
CONTINUOUS
 70
0
 71
3
 72
8
 73
4
 74
0
 42
0.0000001
 43
0.0000001
 44
0.0000000001
 40
0.0
 40
0.0
 40
0.0
 40
0.0
 40
1.0
 40
1.0
 40
1.0
 40
1.0
 10
283.4966756707
 20
834.7138657915
 30
0.0
 10
283.5047727547
 20
834.7011006704
 30
0.0
 10
283.5193108867
 20
834.6932273495
 30
0.0
 10
283.532867059
 20
834.6865384574
 30
0.0
  0
SPLINE
  5
3D8
100
AcDbEntity
  8
00_COMPONENTS_41
100
AcDbSpline
 62
7
  6
CONTINUOUS
 70
0
 71
3
 72
8
 73
4
 74
0
 42
0.0000001
 43
0.0000001
 44
0.0000000001
 40
0.0
 40
0.0
 40
0.0
 40
0.0
 40
1.0
 40
1.0
 40
1.0
 40
1.0
 10
255.2065944994
 20
360.0753856527
 30
0.0
 10
255.0705136983
 20
360.0498020594
 30
0.0
 10
254.9334505074
 20
360.0286627767
 30
0.0
 10
254.7957728916
 20
360.0139190058
 30
0.0
  0
SPLINE
  5
3D9
100
AcDbEntity
  8
00_COMPONENTS_41
100
AcDbSpline
 62
7
  6
CONTINUOUS
 70
0
 71
3
 72
8
 73
4
 74
0
 42
0.0000001
 43
0.0000001
 44
0.0000000001
 40
0.0
 40
0.0
 40
0.0
 40
0.0
 40
1.0
 40
1.0
 40
1.0
 40
1.0
 10
254.7957728916
 20
360.0139190058
 30
0.0
 10
254.6960143681
 20
360.003235956
 30
0.0
 10
254.595740833
 20
359.9956537662
 30
0.0
 10
254.4954197619
 20
359.9943994603
 30
0.0
  0
SPLINE
  5
3DA
100
AcDbEntity
  8
00_COMPONENTS_41
100
AcDbSpline
 62
7
  6
CONTINUOUS
 70
0
 71
3
 72
9
 73
5
 74
0
 42
0.0000001
 43
0.0000001
 44
0.0000000001
 40
0.0
 40
0.0
 40
0.0
 40
0.0
 40
0.5887797333
 40
1.0
 40
1.0
 40
1.0
 40
1.0
 10
254.4954197619
 20
359.9943994603
 30
0.0
 10
254.4605236459
 20
359.9939631571
 30
0.0
 10
254.4012430605
 20
359.9946364049
 30
0.0
 10
254.3420209363
 20
359.9992668669
 30
0.0
 10
254.3179442824
 20
360.0030645921
 30
0.0
  0
SPLINE
  5
3DB
100
AcDbEntity
  8
00_COMPONENTS_41
100
AcDbSpline
 62
7
  6
CONTINUOUS
 70
0
 71
3
 72
8
 73
4
 74
0
 42
0.0000001
 43
0.0000001
 44
0.0000000001
 40
0.0
 40
0.0
 40
0.0
 40
0.0
 40
1.0
 40
1.0
 40
1.0
 40
1.0
 10
255.2065944994
 20
1332.2031634872
 30
0.0
 10
255.0614447642
 20
1332.649609214
 30
0.0
 10
254.985657838
 20
1333.1217384876
 30
0.0
 10
254.9657611557
 20
1333.5907655173
 30
0.0
  0
SPLINE
  5
3DC
100
AcDbEntity
  8
00_COMPONENTS_41
100
AcDbSpline
 62
7
  6
CONTINUOUS
 70
0
 71
3
 72
8
 73
4
 74
0
 42
0.0000001
 43
0.0000001
 44
0.0000000001
 40
0.0
 40
0.0
 40
0.0
 40
0.0
 40
1.0
 40
1.0
 40
1.0
 40
1.0
 10
255.1925834002
 20
1336.7062260753
 30
0.0
 10
255.2436301273
 20
1336.9173849423
 30
0.0
 10
255.3033792282
 20
1337.126725307
 30
0.0
 10
255.3735528649
 20
1337.3323207744
 30
0.0
  0
SPLINE
  5
3DD
100
AcDbEntity
  8
00_COMPONENTS_41
100
AcDbSpline
 62
7
  6
CONTINUOUS
 70
0
 71
3
 72
8
 73
4
 74
0
 42
0.0000001
 43
0.0000001
 44
0.0000000001
 40
0.0
 40
0.0
 40
0.0
 40
0.0
 40
1.0
 40
1.0
 40
1.0
 40
1.0
 10
663.6989018078
 20
1098.637252978
 30
0.0
 10
663.9858670949
 20
1098.7229095136
 30
0.0
 10
664.2770459224
 20
1098.796320426
 30
0.0
 10
664.5713407519
 20
1098.8517881781
 30
0.0
  0
SPLINE
  5
3DE
100
AcDbEntity
  8
00_COMPONENTS_41
100
AcDbSpline
 62
7
  6
CONTINUOUS
 70
0
 71
3
 72
8
 73
4
 74
0
 42
0.0000001
 43
0.0000001
 44
0.0000000001
 40
0.0
 40
0.0
 40
0.0
 40
0.0
 40
1.0
 40
1.0
 40
1.0
 40
1.0
 10
664.5713407519
 20
1098.8517881781
 30
0.0
 10
664.8045612062
 20
1098.8957448265
 30
0.0
 10
665.0402446029
 20
1098.9286694748
 30
0.0
 10
665.2767714766
 20
1098.9481375325
 30
0.0
  0
SPLINE
  5
3DF
100
AcDbEntity
  8
00_COMPONENTS_41
100
AcDbSpline
 62
7
  6
CONTINUOUS
 70
0
 71
3
 72
8
 73
4
 74
0
 42
0.0000001
 43
0.0000001
 44
0.0000000001
 40
0.0
 40
0.0
 40
0.0
 40
0.0
 40
1.0
 40
1.0
 40
1.0
 40
1.0
 10
665.2767714766
 20
1098.9481375325
 30
0.0
 10
665.5637330309
 20
1098.9717567687
 30
0.0
 10
665.8532389759
 20
1098.9757589772
 30
0.0
 10
666.1405267262
 20
1098.9565092895
 30
0.0
  0
SPLINE
  5
3E0
100
AcDbEntity
  8
00_COMPONENTS_41
100
AcDbSpline
 62
7
  6
CONTINUOUS
 70
0
 71
3
 72
9
 73
5
 74
0
 42
0.0000001
 43
0.0000001
 44
0.0000000001
 40
0.0
 40
0.0
 40
0.0
 40
0.0
 40
0.3105647876
 40
1.0
 40
1.0
 40
1.0
 40
1.0
 10
681.9402763824
 20
1103.3442820298
 30
0.0
 10
681.9602206893
 20
1103.3922120792
 30
0.0
 10
682.0160878782
 20
1103.5481898896
 30
0.0
 10
682.0520292157
 20
1103.7221450259
 30
0.0
 10
682.0277850646
 20
1103.8348120677
 30
0.0
  0
SPLINE
  5
3E1
100
AcDbEntity
  8
00_COMPONENTS_41
100
AcDbSpline
 62
7
  6
CONTINUOUS
 70
0
 71
3
 72
9
 73
5
 74
0
 42
0.0000001
 43
0.0000001
 44
0.0000000001
 40
0.0
 40
0.0
 40
0.0
 40
0.0
 40
0.5432575946
 40
1.0
 40
1.0
 40
1.0
 40
1.0
 10
682.0277850646
 20
1103.8348120677
 30
0.0
 10
682.0220872598
 20
1103.8612908175
 30
0.0
 10
682.005474662
 20
1103.9095393621
 30
0.0
 10
681.9690653499
 20
1103.9468556498
 30
0.0
 10
681.9493456518
 20
1103.9582431669
 30
0.0
  0
SPLINE
  5
3E2
100
AcDbEntity
  8
00_COMPONENTS_41
100
AcDbSpline
 62
7
  6
CONTINUOUS
 70
0
 71
3
 72
8
 73
4
 74
0
 42
0.0000001
 43
0.0000001
 44
0.0000000001
 40
0.0
 40
0.0
 40
0.0
 40
0.0
 40
1.0
 40
1.0
 40
1.0
 40
1.0
 10
681.806231853
 20
1103.0784434966
 30
0.0
 10
681.8564482907
 20
1103.1640412938
 30
0.0
 10
681.9021502111
 20
1103.252657423
 30
0.0
 10
681.9402763824
 20
1103.3442820298
 30
0.0
  0
SPLINE
  5
3E3
100
AcDbEntity
  8
00_COMPONENTS_41
100
AcDbSpline
 62
7
  6
CONTINUOUS
 70
0
 71
3
 72
9
 73
5
 74
0
 42
0.0000001
 43
0.0000001
 44
0.0000000001
 40
0.0
 40
0.0
 40
0.0
 40
0.0
 40
0.7185175774
 40
1.0
 40
1.0
 40
1.0
 40
1.0
 10
252.6141395413
 20
1340.3177679729
 30
0.0
 10
252.6141478625
 20
1340.6014313425
 30
0.0
 10
252.7927415482
 20
1340.9998794342
 30
0.0
 10
253.0733972557
 20
1341.2753800484
 30
0.0
 10
253.1576826728
 20
1341.347802692
 30
0.0
  0
SPLINE
  5
3E4
100
AcDbEntity
  8
00_COMPONENTS_41
100
AcDbSpline
 62
7
  6
CONTINUOUS
 70
0
 71
3
 72
8
 73
4
 74
0
 42
0.0000001
 43
0.0000001
 44
0.0000000001
 40
0.0
 40
0.0
 40
0.0
 40
0.0
 40
1.0
 40
1.0
 40
1.0
 40
1.0
 10
253.1576826728
 20
1341.347802692
 30
0.0
 10
253.2792421674
 20
1341.4522532632
 30
0.0
 10
253.41235427
 20
1341.5440026567
 30
0.0
 10
253.5511528
 20
1341.624137547
 30
0.0
  0
SPLINE
  5
3E5
100
AcDbEntity
  8
00_COMPONENTS_41
100
AcDbSpline
 62
7
  6
CONTINUOUS
 70
0
 71
3
 72
8
 73
4
 74
0
 42
0.0000001
 43
0.0000001
 44
0.0000000001
 40
0.0
 40
0.0
 40
0.0
 40
0.0
 40
1.0
 40
1.0
 40
1.0
 40
1.0
 10
673.8965987296
 20
122.4789080527
 30
0.0
 10
674.2249495376
 20
122.5065741099
 30
0.0
 10
674.5527122536
 20
122.5640740983
 30
0.0
 10
674.8691586707
 20
122.6559508034
 30
0.0
  0
SPLINE
  5
3E6
100
AcDbEntity
  8
00_COMPONENTS_41
100
AcDbSpline
 62
7
  6
CONTINUOUS
 70
0
 71
3
 72
8
 73
4
 74
0
 42
0.0000001
 43
0.0000001
 44
0.0000000001
 40
0.0
 40
0.0
 40
0.0
 40
0.0
 40
1.0
 40
1.0
 40
1.0
 40
1.0
 10
674.8691586707
 20
122.6559508034
 30
0.0
 10
675.155804809
 20
122.7391753283
 30
0.0
 10
675.4371641344
 20
122.8512800221
 30
0.0
 10
675.6956587128
 20
123.0005210457
 30
0.0
  0
SPLINE
  5
3E7
100
AcDbEntity
  8
00_COMPONENTS_41
100
AcDbSpline
 62
7
  6
CONTINUOUS
 70
0
 71
3
 72
9
 73
5
 74
0
 42
0.0000001
 43
0.0000001
 44
0.0000000001
 40
0.0
 40
0.0
 40
0.0
 40
0.0
 40
0.2185633643
 40
1.0
 40
1.0
 40
1.0
 40
1.0
 10
682.4684172874
 20
1102.4295202269
 30
0.0
 10
682.4045003524
 20
1102.4378287764
 30
0.0
 10
682.1100872667
 20
1102.4597756776
 30
0.0
 10
681.8128112654
 20
1102.4294251718
 30
0.0
 10
681.5871189317
 20
1102.3828553184
 30
0.0
  0
SPLINE
  5
3E8
100
AcDbEntity
  8
00_COMPONENTS_41
100
AcDbSpline
 62
7
  6
CONTINUOUS
 70
0
 71
3
 72
9
 73
5
 74
0
 42
0.0000001
 43
0.0000001
 44
0.0000000001
 40
0.0
 40
0.0
 40
0.0
 40
0.0
 40
0.7711639276
 40
1.0
 40
1.0
 40
1.0
 40
1.0
 10
673.1377126605
 20
1098.2442062852
 30
0.0
 10
673.5303846653
 20
1098.2042328657
 30
0.0
 10
674.062925072
 20
1098.2510595772
 30
0.0
 10
674.5335614916
 20
1098.4582064215
 30
0.0
 10
674.634994125
 20
1098.5167682302
 30
0.0
  0
SPLINE
  5
3E9
100
AcDbEntity
  8
00_COMPONENTS_41
100
AcDbSpline
 62
7
  6
CONTINUOUS
 70
0
 71
3
 72
8
 73
4
 74
0
 42
0.0000001
 43
0.0000001
 44
0.0000000001
 40
0.0
 40
0.0
 40
0.0
 40
0.0
 40
1.0
 40
1.0
 40
1.0
 40
1.0
 10
663.4146702545
 20
1098.5694326035
 30
0.0
 10
663.3045037074
 20
1098.4740235427
 30
0.0
 10
663.192890105
 20
1098.3802956063
 30
0.0
 10
663.0814377822
 20
1098.2863917367
 30
0.0
  0
SPLINE
  5
3EA
100
AcDbEntity
  8
00_COMPONENTS_41
100
AcDbSpline
 62
7
  6
CONTINUOUS
 70
0
 71
3
 72
8
 73
4
 74
0
 42
0.0000001
 43
0.0000001
 44
0.0000000001
 40
0.0
 40
0.0
 40
0.0
 40
0.0
 40
1.0
 40
1.0
 40
1.0
 40
1.0
 10
663.8180243437
 20
123.1255306672
 30
0.0
 10
664.1759154551
 20
122.976276797
 30
0.0
 10
664.5583593025
 20
122.8779293828
 30
0.0
 10
664.9431465717
 20
122.8299551943
 30
0.0
  0
SPLINE
  5
3EB
100
AcDbEntity
  8
00_COMPONENTS_41
100
AcDbSpline
 62
7
  6
CONTINUOUS
 70
0
 71
3
 72
8
 73
4
 74
0
 42
0.0000001
 43
0.0000001
 44
0.0000000001
 40
0.0
 40
0.0
 40
0.0
 40
0.0
 40
1.0
 40
1.0
 40
1.0
 40
1.0
 10
664.9431465717
 20
122.8299551943
 30
0.0
 10
665.3392075015
 20
122.7805754376
 30
0.0
 10
665.7439578801
 20
122.7827500949
 30
0.0
 10
666.1405267262
 20
122.8278696111
 30
0.0
  0
SPLINE
  5
3EC
100
AcDbEntity
  8
00_COMPONENTS_41
100
AcDbSpline
 62
7
  6
CONTINUOUS
 70
0
 71
3
 72
9
 73
5
 74
0
 42
0.0000001
 43
0.0000001
 44
0.0000000001
 40
0.0
 40
0.0
 40
0.0
 40
0.0
 40
0.1804262706
 40
1.0
 40
1.0
 40
1.0
 40
1.0
 10
254.9769725699
 20
359.1818188247
 30
0.0
 10
254.9673649561
 20
359.2118235043
 30
0.0
 10
254.9435162455
 20
359.3869268224
 30
0.0
 10
254.9933622664
 20
359.5617985354
 30
0.0
 10
255.0403970507
 20
359.6969593434
 30
0.0
  0
SPLINE
  5
3ED
100
AcDbEntity
  8
00_COMPONENTS_41
100
AcDbSpline
 62
7
  6
CONTINUOUS
 70
0
 71
3
 72
8
 73
4
 74
0
 42
0.0000001
 43
0.0000001
 44
0.0000000001
 40
0.0
 40
0.0
 40
0.0
 40
0.0
 40
1.0
 40
1.0
 40
1.0
 40
1.0
 10
255.0754786863
 20
359.7910003948
 30
0.0
 10
255.1140016038
 20
359.8880171143
 30
0.0
 10
255.1583968415
 20
359.9827938344
 30
0.0
 10
255.2065944994
 20
360.0753856527
 30
0.0
  0
SPLINE
  5
3EE
100
AcDbEntity
  8
00_COMPONENTS_41
100
AcDbSpline
 62
7
  6
CONTINUOUS
 70
0
 71
3
 72
9
 73
5
 74
0
 42
0.0000001
 43
0.0000001
 44
0.0000000001
 40
0.0
 40
0.0
 40
0.0
 40
0.0
 40
0.1576009616
 40
1.0
 40
1.0
 40
1.0
 40
1.0
 10
683.0046497002
 20
1102.1304162334
 30
0.0
 10
683.0046467156
 20
1102.164152578
 30
0.0
 10
682.9051642799
 20
1102.3716839734
 30
0.0
 10
682.6472382662
 20
1102.4062753239
 30
0.0
 10
682.4684172874
 20
1102.4295202269
 30
0.0
  0
SPLINE
  5
3EF
100
AcDbEntity
  8
00_COMPONENTS_41
100
AcDbSpline
 62
7
  6
CONTINUOUS
 70
0
 71
3
 72
8
 73
4
 74
0
 42
0.0000001
 43
0.0000001
 44
0.0000000001
 40
0.0
 40
0.0
 40
0.0
 40
0.0
 40
1.0
 40
1.0
 40
1.0
 40
1.0
 10
262.2735878192
 20
1346.1919340546
 30
0.0
 10
261.9981468388
 20
1346.2600055069
 30
0.0
 10
261.6968282755
 20
1346.2420340338
 30
0.0
 10
261.4227193689
 20
1346.1687826608
 30
0.0
  0
SPLINE
  5
3F0
100
AcDbEntity
  8
00_COMPONENTS_41
100
AcDbSpline
 62
7
  6
CONTINUOUS
 70
0
 71
3
 72
8
 73
4
 74
0
 42
0.0000001
 43
0.0000001
 44
0.0000000001
 40
0.0
 40
0.0
 40
0.0
 40
0.0
 40
1.0
 40
1.0
 40
1.0
 40
1.0
 10
682.5065606939
 20
126.9327736655
 30
0.0
 10
682.6042654455
 20
127.0306112382
 30
0.0
 10
682.6927733937
 20
127.1389491344
 30
0.0
 10
682.7671490235
 20
127.255511027
 30
0.0
  0
SPLINE
  5
3F1
100
AcDbEntity
  8
00_COMPONENTS_41
100
AcDbSpline
 62
7
  6
CONTINUOUS
 70
0
 71
3
 72
8
 73
4
 74
0
 42
0.0000001
 43
0.0000001
 44
0.0000000001
 40
0.0
 40
0.0
 40
0.0
 40
0.0
 40
1.0
 40
1.0
 40
1.0
 40
1.0
 10
682.7671490235
 20
127.255511027
 30
0.0
 10
682.8370342716
 20
127.365035569
 30
0.0
 10
682.8953117873
 20
127.4833929439
 30
0.0
 10
682.9361564171
 20
127.6067270002
 30
0.0
  0
SPLINE
  5
3F2
100
AcDbEntity
  8
00_COMPONENTS_41
100
AcDbSpline
 62
7
  6
CONTINUOUS
 70
0
 71
3
 72
8
 73
4
 74
0
 42
0.0000001
 43
0.0000001
 44
0.0000000001
 40
0.0
 40
0.0
 40
0.0
 40
0.0
 40
1.0
 40
1.0
 40
1.0
 40
1.0
 10
682.9361564171
 20
127.6067270002
 30
0.0
 10
682.980783003
 20
127.7414810151
 30
0.0
 10
683.0046197558
 20
127.8850904514
 30
0.0
 10
683.0046187061
 20
128.0270417694
 30
0.0
  0
SPLINE
  5
3F3
100
AcDbEntity
  8
00_COMPONENTS_41
100
AcDbSpline
 62
7
  6
CONTINUOUS
 70
0
 71
3
 72
8
 73
4
 74
0
 42
0.0000001
 43
0.0000001
 44
0.0000000001
 40
0.0
 40
0.0
 40
0.0
 40
0.0
 40
1.0
 40
1.0
 40
1.0
 40
1.0
 10
661.7820205336
 20
125.3442643135
 30
0.0
 10
661.9184135044
 20
124.9247522912
 30
0.0
 10
662.1213272751
 20
124.5179170588
 30
0.0
 10
662.3929637714
 20
124.1703440548
 30
0.0
  0
SPLINE
  5
3F4
100
AcDbEntity
  8
00_COMPONENTS_41
100
AcDbSpline
 62
7
  6
CONTINUOUS
 70
0
 71
3
 72
8
 73
4
 74
0
 42
0.0000001
 43
0.0000001
 44
0.0000000001
 40
0.0
 40
0.0
 40
0.0
 40
0.0
 40
1.0
 40
1.0
 40
1.0
 40
1.0
 10
254.4954197619
 20
1333.5326849389
 30
0.0
 10
254.5762749969
 20
1333.2966045905
 30
0.0
 10
254.6777199936
 20
1333.0668029164
 30
0.0
 10
254.7957728916
 20
1332.8469506633
 30
0.0
  0
SPLINE
  5
3F5
100
AcDbEntity
  8
00_COMPONENTS_41
100
AcDbSpline
 62
7
  6
CONTINUOUS
 70
0
 71
3
 72
8
 73
4
 74
0
 42
0.0000001
 43
0.0000001
 44
0.0000000001
 40
0.0
 40
0.0
 40
0.0
 40
0.0
 40
1.0
 40
1.0
 40
1.0
 40
1.0
 10
254.7957728916
 20
1332.8469506633
 30
0.0
 10
254.9162024285
 20
1332.6226723487
 30
0.0
 10
255.0545375319
 20
1332.4073269373
 30
0.0
 10
255.2065944994
 20
1332.2031634872
 30
0.0
  0
SPLINE
  5
3F6
100
AcDbEntity
  8
00_COMPONENTS_41
100
AcDbSpline
 62
7
  6
CONTINUOUS
 70
0
 71
3
 72
9
 73
5
 74
0
 42
0.0000001
 43
0.0000001
 44
0.0000000001
 40
0.0
 40
0.0
 40
0.0
 40
0.0
 40
0.2186182577
 40
1.0
 40
1.0
 40
1.0
 40
1.0
 10
661.7820205336
 20
1097.472042148
 30
0.0
 10
661.8690911259
 20
1097.488411677
 30
0.0
 10
662.2657020869
 20
1097.5719563919
 30
0.0
 10
662.654961769
 20
1097.6898415423
 30
0.0
 10
662.9523148852
 20
1097.7987158431
 30
0.0
  0
SPLINE
  5
3F7
100
AcDbEntity
  8
00_COMPONENTS_41
100
AcDbSpline
 62
7
  6
CONTINUOUS
 70
0
 71
3
 72
8
 73
4
 74
0
 42
0.0000001
 43
0.0000001
 44
0.0000000001
 40
0.0
 40
0.0
 40
0.0
 40
0.0
 40
1.0
 40
1.0
 40
1.0
 40
1.0
 10
666.1405267262
 20
1100.1812629152
 30
0.0
 10
665.7344940575
 20
1100.1350666551
 30
0.0
 10
665.3319937049
 20
1100.0437845573
 30
0.0
 10
664.9431465717
 20
1099.9181082687
 30
0.0
  0
SPLINE
  5
3F8
100
AcDbEntity
  8
00_COMPONENTS_41
100
AcDbSpline
 62
7
  6
CONTINUOUS
 70
0
 71
3
 72
8
 73
4
 74
0
 42
0.0000001
 43
0.0000001
 44
0.0000000001
 40
0.0
 40
0.0
 40
0.0
 40
0.0
 40
1.0
 40
1.0
 40
1.0
 40
1.0
 10
664.9431465717
 20
1099.9181082687
 30
0.0
 10
664.5560033303
 20
1099.7929826818
 30
0.0
 10
664.1790231753
 20
1099.6325589946
 30
0.0
 10
663.8180243437
 20
1099.4448993413
 30
0.0
  0
SPLINE
  5
3F9
100
AcDbEntity
  8
00_COMPONENTS_41
100
AcDbSpline
 62
7
  6
CONTINUOUS
 70
0
 71
3
 72
8
 73
4
 74
0
 42
0.0000001
 43
0.0000001
 44
0.0000000001
 40
0.0
 40
0.0
 40
0.0
 40
0.0
 40
1.0
 40
1.0
 40
1.0
 40
1.0
 10
662.3929637714
 20
1098.3678818647
 30
0.0
 10
662.2683087962
 20
1098.2194452899
 30
0.0
 10
662.1504148391
 20
1098.0649328222
 30
0.0
 10
662.0417113763
 20
1097.9044465712
 30
0.0
  0
SPLINE
  5
3FA
100
AcDbEntity
  8
00_COMPONENTS_41
100
AcDbSpline
 62
7
  6
CONTINUOUS
 70
0
 71
3
 72
8
 73
4
 74
0
 42
0.0000001
 43
0.0000001
 44
0.0000000001
 40
0.0
 40
0.0
 40
0.0
 40
0.0
 40
1.0
 40
1.0
 40
1.0
 40
1.0
 10
662.0417113763
 20
1097.9044465712
 30
0.0
 10
661.9474230489
 20
1097.7652423564
 30
0.0
 10
661.8596515999
 20
1097.621178058
 30
0.0
 10
661.7820205336
 20
1097.472042148
 30
0.0
  0
SPLINE
  5
3FB
100
AcDbEntity
  8
00_COMPONENTS_41
100
AcDbSpline
 62
7
  6
CONTINUOUS
 70
0
 71
3
 72
9
 73
5
 74
0
 42
0.0000001
 43
0.0000001
 44
0.0000000001
 40
0.0
 40
0.0
 40
0.0
 40
0.0
 40
0.6571198921
 40
1.0
 40
1.0
 40
1.0
 40
1.0
 10
681.9493456518
 20
1103.9582431669
 30
0.0
 10
681.8774189516
 20
1103.9997786167
 30
0.0
 10
681.7265933529
 20
1103.9421154107
 30
0.0
 10
681.6326306914
 20
1103.866294873
 30
0.0
 10
681.600129501
 20
1103.8376252521
 30
0.0
  0
SPLINE
  5
3FC
100
AcDbEntity
  8
00_COMPONENTS_41
100
AcDbSpline
 62
7
  6
CONTINUOUS
 70
0
 71
3
 72
9
 73
5
 74
0
 42
0.0000001
 43
0.0000001
 44
0.0000000001
 40
0.0
 40
0.0
 40
0.0
 40
0.0
 40
0.4745315153
 40
1.0
 40
1.0
 40
1.0
 40
1.0
 10
681.600129501
 20
1103.8376252521
 30
0.0
 10
681.5734126979
 20
1103.8140580963
 30
0.0
 10
681.5196726562
 20
1103.761459175
 30
0.0
 10
681.4705723526
 20
1103.7045540274
 30
0.0
 10
681.4458961062
 20
1103.6737744757
 30
0.0
  0
SPLINE
  5
3FD
100
AcDbEntity
  8
00_COMPONENTS_41
100
AcDbSpline
 62
7
  6
CONTINUOUS
 70
0
 71
3
 72
9
 73
5
 74
0
 42
0.0000001
 43
0.0000001
 44
0.0000000001
 40
0.0
 40
0.0
 40
0.0
 40
0.0
 40
0.3135227938
 40
1.0
 40
1.0
 40
1.0
 40
1.0
 10
682.5065606939
 20
1101.8366597182
 30
0.0
 10
682.5563640963
 20
1101.8442988126
 30
0.0
 10
682.7120416693
 20
1101.8765270738
 30
0.0
 10
682.8742188635
 20
1101.9352084916
 30
0.0
 10
682.9509860438
 20
1102.0144419539
 30
0.0
  0
SPLINE
  5
3FE
100
AcDbEntity
  8
00_COMPONENTS_41
100
AcDbSpline
 62
7
  6
CONTINUOUS
 70
0
 71
3
 72
9
 73
5
 74
0
 42
0.0000001
 43
0.0000001
 44
0.0000000001
 40
0.0
 40
0.0
 40
0.0
 40
0.0
 40
0.5358951801
 40
1.0
 40
1.0
 40
1.0
 40
1.0
 10
682.9509860438
 20
1102.0144419539
 30
0.0
 10
682.967177014
 20
1102.0311530877
 30
0.0
 10
682.9939252422
 20
1102.0665257191
 30
0.0
 10
683.004651483
 20
1102.1102651145
 30
0.0
 10
683.0046497002
 20
1102.1304162334
 30
0.0
  0
SPLINE
  5
3FF
100
AcDbEntity
  8
00_COMPONENTS_41
100
AcDbSpline
 62
7
  6
CONTINUOUS
 70
0
 71
3
 72
9
 73
5
 74
0
 42
0.0000001
 43
0.0000001
 44
0.0000000001
 40
0.0
 40
0.0
 40
0.0
 40
0.0
 40
0.2303288428
 40
1.0
 40
1.0
 40
1.0
 40
1.0
 10
675.6956587128
 20
1097.9044070984
 30
0.0
 10
675.5705448315
 20
1097.8321729965
 30
0.0
 10
675.0047740145
 20
1097.5580590145
 30
0.0
 10
674.3776539662
 20
1097.4233266742
 30
0.0
 10
673.8965987296
 20
1097.3827941054
 30
0.0
  0
SPLINE
  5
400
100
AcDbEntity
  8
00_COMPONENTS_36
100
AcDbSpline
 62
7
  6
CONTINUOUS
 70
0
 71
3
 72
8
 73
4
 74
0
 42
0.0000001
 43
0.0000001
 44
0.0000000001
 40
0.0
 40
0.0
 40
0.0
 40
0.0
 40
1.0
 40
1.0
 40
1.0
 40
1.0
 10
459.3083533048
 20
1463.8112406302
 30
0.0
 10
459.8360237297
 20
1463.961902042
 30
0.0
 10
460.4251660669
 20
1464.0007131351
 30
0.0
 10
460.9540602156
 20
1463.8544055221
 30
0.0
  0
SPLINE
  5
401
100
AcDbEntity
  8
00_COMPONENTS_36
100
AcDbSpline
 62
7
  6
CONTINUOUS
 70
0
 71
3
 72
8
 73
4
 74
0
 42
0.0000001
 43
0.0000001
 44
0.0000000001
 40
0.0
 40
0.0
 40
0.0
 40
0.0
 40
1.0
 40
1.0
 40
1.0
 40
1.0
 10
460.9540602156
 20
1463.8544055221
 30
0.0
 10
461.1473636447
 20
1463.8009321317
 30
0.0
 10
461.3356658041
 20
1463.7230108685
 30
0.0
 10
461.5093596229
 20
1463.622730878
 30
0.0
  0
SPLINE
  5
402
100
AcDbEntity
  8
00_COMPONENTS_36
100
AcDbSpline
 62
7
  6
CONTINUOUS
 70
0
 71
3
 72
9
 73
5
 74
0
 42
0.0000001
 43
0.0000001
 44
0.0000000001
 40
0.0
 40
0.0
 40
0.0
 40
0.0
 40
0.2997680373
 40
1.0
 40
1.0
 40
1.0
 40
1.0
 10
881.9508186774
 20
1218.8667378702
 30
0.0
 10
881.9508184876
 20
1218.8603702555
 30
0.0
 10
881.9255723631
 20
1218.8488949918
 30
0.0
 10
881.9076196899
 20
1218.8461939848
 30
0.0
 10
881.8928964708
 20
1218.8440801235
 30
0.0
  0
SPLINE
  5
403
100
AcDbEntity
  8
00_COMPONENTS_36
100
AcDbSpline
 62
7
  6
CONTINUOUS
 70
0
 71
3
 72
9
 73
5
 74
0
 42
0.0000001
 43
0.0000001
 44
0.0000000001
 40
0.0
 40
0.0
 40
0.0
 40
0.0
 40
0.4239900079
 40
1.0
 40
1.0
 40
1.0
 40
1.0
 10
881.8928964708
 20
1218.8440801235
 30
0.0
 10
881.8698973424
 20
1218.8407780626
 30
0.0
 10
881.8150943366
 20
1218.8371308597
 30
0.0
 10
881.7602704385
 20
1218.8375728107
 30
0.0
 10
881.7287248397
 20
1218.8387010907
 30
0.0
  0
SPLINE
  5
404
100
AcDbEntity
  8
00_COMPONENTS_36
100
AcDbSpline
 62
7
  6
CONTINUOUS
 70
0
 71
3
 72
8
 73
4
 74
0
 42
0.0000001
 43
0.0000001
 44
0.0000000001
 40
0.0
 40
0.0
 40
0.0
 40
0.0
 40
1.0
 40
1.0
 40
1.0
 40
1.0
 10
881.7287248397
 20
1218.8387010907
 30
0.0
 10
881.6363541293
 20
1218.8420048805
 30
0.0
 10
881.5441615291
 20
1218.8523686599
 30
0.0
 10
881.452858472
 20
1218.8667566735
 30
0.0
  0
SPLINE
  5
405
100
AcDbEntity
  8
00_COMPONENTS_36
100
AcDbSpline
 62
7
  6
CONTINUOUS
 70
0
 71
3
 72
8
 73
4
 74
0
 42
0.0000001
 43
0.0000001
 44
0.0000000001
 40
0.0
 40
0.0
 40
0.0
 40
0.0
 40
1.0
 40
1.0
 40
1.0
 40
1.0
 10
266.905390367
 20
1352.7279800987
 30
0.0
 10
266.511077468
 20
1352.3463341567
 30
0.0
 10
266.1828927853
 20
1351.8555267421
 30
0.0
 10
266.0451526427
 20
1351.3243356838
 30
0.0
  0
SPLINE
  5
406
100
AcDbEntity
  8
00_COMPONENTS_36
100
AcDbSpline
 62
7
  6
CONTINUOUS
 70
0
 71
3
 72
8
 73
4
 74
0
 42
0.0000001
 43
0.0000001
 44
0.0000000001
 40
0.0
 40
0.0
 40
0.0
 40
0.0
 40
1.0
 40
1.0
 40
1.0
 40
1.0
 10
266.0451526427
 20
1351.3243356838
 30
0.0
 10
265.9948099636
 20
1351.1301905312
 30
0.0
 10
265.968141394
 20
1350.9281523253
 30
0.0
 10
265.9681414875
 20
1350.7275863123
 30
0.0
  0
SPLINE
  5
407
100
AcDbEntity
  8
00_COMPONENTS_36
100
AcDbSpline
 62
7
  6
CONTINUOUS
 70
0
 71
3
 72
9
 73
5
 74
0
 42
0.0000001
 43
0.0000001
 44
0.0000000001
 40
0.0
 40
0.0
 40
0.0
 40
0.0
 40
0.3328951118
 40
1.0
 40
1.0
 40
1.0
 40
1.0
 10
881.4528592176
 20
1218.8667565559
 30
0.0
 10
881.4704311794
 20
1218.9124494284
 30
0.0
 10
881.5273968466
 20
1219.0476339163
 30
0.0
 10
881.592556975
 20
1219.1819520996
 30
0.0
 10
881.6531783932
 20
1219.2590843852
 30
0.0
  0
SPLINE
  5
408
100
AcDbEntity
  8
00_COMPONENTS_36
100
AcDbSpline
 62
7
  6
CONTINUOUS
 70
0
 71
3
 72
9
 73
5
 74
0
 42
0.0000001
 43
0.0000001
 44
0.0000000001
 40
0.0
 40
0.0
 40
0.0
 40
0.0
 40
0.7002852766
 40
1.0
 40
1.0
 40
1.0
 40
1.0
 10
881.6531783932
 20
1219.2590843852
 30
0.0
 10
881.6623856955
 20
1219.2707993911
 30
0.0
 10
881.6737180905
 20
1219.2850169576
 30
0.0
 10
881.6963125026
 20
1219.3011827311
 30
0.0
 10
881.7018353434
 20
1219.2979943198
 30
0.0
  0
SPLINE
  5
409
100
AcDbEntity
  8
00_COMPONENTS_36
100
AcDbSpline
 62
7
  6
CONTINUOUS
 70
0
 71
3
 72
9
 73
5
 74
0
 42
0.0000001
 43
0.0000001
 44
0.0000000001
 40
0.0
 40
0.0
 40
0.0
 40
0.0
 40
0.2150741236
 40
1.0
 40
1.0
 40
1.0
 40
1.0
 10
687.7063972639
 20
1107.0078279532
 30
0.0
 10
687.7420436467
 20
1107.0519035781
 30
0.0
 10
687.9136698915
 20
1107.2520247084
 30
0.0
 10
688.1072743832
 20
1107.4331001598
 30
0.0
 10
688.2680136412
 20
1107.5633387579
 30
0.0
  0
SPLINE
  5
40A
100
AcDbEntity
  8
00_COMPONENTS_36
100
AcDbSpline
 62
7
  6
CONTINUOUS
 70
0
 71
3
 72
9
 73
5
 74
0
 42
0.0000001
 43
0.0000001
 44
0.0000000001
 40
0.0
 40
0.0
 40
0.0
 40
0.0
 40
0.237137962
 40
1.0
 40
1.0
 40
1.0
 40
1.0
 10
688.2680136412
 20
1107.5633387579
 30
0.0
 10
688.3929667451
 20
1107.6645817106
 30
0.0
 10
688.9420649342
 20
1108.0611804028
 30
0.0
 10
689.5974059254
 20
1108.3301070121
 30
0.0
 10
690.1105608675
 20
1108.3958885183
 30
0.0
  0
SPLINE
  5
40B
100
AcDbEntity
  8
00_COMPONENTS_36
100
AcDbSpline
 62
7
  6
CONTINUOUS
 70
0
 71
3
 72
8
 73
4
 74
0
 42
0.0000001
 43
0.0000001
 44
0.0000000001
 40
0.0
 40
0.0
 40
0.0
 40
0.0
 40
1.0
 40
1.0
 40
1.0
 40
1.0
 10
883.4507726845
 20
242.9013959142
 30
0.0
 10
883.4507722128
 20
242.7008305852
 30
0.0
 10
883.4241032927
 20
242.4987931918
 30
0.0
 10
883.3737607361
 20
242.3046487141
 30
0.0
  0
SPLINE
  5
40C
100
AcDbEntity
  8
00_COMPONENTS_36
100
AcDbSpline
 62
7
  6
CONTINUOUS
 70
0
 71
3
 72
8
 73
4
 74
0
 42
0.0000001
 43
0.0000001
 44
0.0000000001
 40
0.0
 40
0.0
 40
0.0
 40
0.0
 40
1.0
 40
1.0
 40
1.0
 40
1.0
 10
883.3737607361
 20
242.3046487141
 30
0.0
 10
883.2360203385
 20
241.7734572249
 30
0.0
 10
882.9078534818
 20
241.2826314187
 30
0.0
 10
882.5135238053
 20
240.90100212
 30
0.0
  0
SPLINE
  5
40D
100
AcDbEntity
  8
00_COMPONENTS_36
100
AcDbSpline
 62
7
  6
CONTINUOUS
 70
0
 71
3
 72
8
 73
4
 74
0
 42
0.0000001
 43
0.0000001
 44
0.0000000001
 40
0.0
 40
0.0
 40
0.0
 40
0.0
 40
1.0
 40
1.0
 40
1.0
 40
1.0
 10
687.9095545478
 20
130.0062513417
 30
0.0
 10
688.0832562409
 20
129.9059669372
 30
0.0
 10
688.2716032662
 20
129.8281238246
 30
0.0
 10
688.4649200157
 20
129.7746647346
 30
0.0
  0
SPLINE
  5
40E
100
AcDbEntity
  8
00_COMPONENTS_36
100
AcDbSpline
 62
7
  6
CONTINUOUS
 70
0
 71
3
 72
8
 73
4
 74
0
 42
0.0000001
 43
0.0000001
 44
0.0000000001
 40
0.0
 40
0.0
 40
0.0
 40
0.0
 40
1.0
 40
1.0
 40
1.0
 40
1.0
 10
688.4649200157
 20
129.7746647346
 30
0.0
 10
688.9938052128
 20
129.6284088025
 30
0.0
 10
689.5829131519
 20
129.6670864899
 30
0.0
 10
690.1105619879
 20
129.8177419084
 30
0.0
  0
SPLINE
  5
40F
100
AcDbEntity
  8
00_COMPONENTS_36
100
AcDbSpline
 62
7
  6
CONTINUOUS
 70
0
 71
3
 72
8
 73
4
 74
0
 42
0.0000001
 43
0.0000001
 44
0.0000000001
 40
0.0
 40
0.0
 40
0.0
 40
0.0
 40
1.0
 40
1.0
 40
1.0
 40
1.0
 10
266.9054092084
 20
1348.7271742827
 30
0.0
 10
266.8567356697
 20
1348.9214575338
 30
0.0
 10
266.8228920939
 20
1349.1198644429
 30
0.0
 10
266.8018245089
 20
1349.319040877
 30
0.0
  0
SPLINE
  5
410
100
AcDbEntity
  8
00_COMPONENTS_36
100
AcDbSpline
 62
7
  6
CONTINUOUS
 70
0
 71
3
 72
8
 73
4
 74
0
 42
0.0000001
 43
0.0000001
 44
0.0000000001
 40
0.0
 40
0.0
 40
0.0
 40
0.0
 40
1.0
 40
1.0
 40
1.0
 40
1.0
 10
266.8018245089
 20
1349.319040877
 30
0.0
 10
266.7319810883
 20
1349.9793521318
 30
0.0
 10
266.8001422009
 20
1350.6614875861
 30
0.0
 10
266.9670574045
 20
1351.30416042
 30
0.0
  0
SPLINE
  5
411
100
AcDbEntity
  8
00_COMPONENTS_36
100
AcDbSpline
 62
7
  6
CONTINUOUS
 70
0
 71
3
 72
8
 73
4
 74
0
 42
0.0000001
 43
0.0000001
 44
0.0000000001
 40
0.0
 40
0.0
 40
0.0
 40
0.0
 40
1.0
 40
1.0
 40
1.0
 40
1.0
 10
266.9670574045
 20
1351.30416042
 30
0.0
 10
267.081506759
 20
1351.7448242384
 30
0.0
 10
267.2444024589
 20
1352.1766215716
 30
0.0
 10
267.4577362789
 20
1352.578830394
 30
0.0
  0
SPLINE
  5
412
100
AcDbEntity
  8
00_COMPONENTS_36
100
AcDbSpline
 62
7
  6
CONTINUOUS
 70
0
 71
3
 72
8
 73
4
 74
0
 42
0.0000001
 43
0.0000001
 44
0.0000000001
 40
0.0
 40
0.0
 40
0.0
 40
0.0
 40
1.0
 40
1.0
 40
1.0
 40
1.0
 10
267.4577362789
 20
1352.578830394
 30
0.0
 10
267.6007459436
 20
1352.8484536017
 30
0.0
 10
267.7675087222
 20
1353.1085810656
 30
0.0
 10
267.9660555088
 20
1353.3403732395
 30
0.0
  0
SPLINE
  5
413
100
AcDbEntity
  8
00_COMPONENTS_36
100
AcDbSpline
 62
7
  6
CONTINUOUS
 70
0
 71
3
 72
9
 73
5
 74
0
 42
0.0000001
 43
0.0000001
 44
0.0000000001
 40
0.0
 40
0.0
 40
0.0
 40
0.0
 40
0.2789309532
 40
1.0
 40
1.0
 40
1.0
 40
1.0
 10
690.1105608675
 20
1108.3958907107
 30
0.0
 10
689.9519374119
 20
1108.187699168
 30
0.0
 10
689.2808348011
 20
1107.5230839166
 30
0.0
 10
688.3747459091
 20
1107.1132741106
 30
0.0
 10
687.7063978115
 20
1107.0078286302
 30
0.0
  0
SPLINE
  5
414
100
AcDbEntity
  8
00_COMPONENTS_36
100
AcDbSpline
 62
7
  6
CONTINUOUS
 70
0
 71
3
 72
9
 73
5
 74
0
 42
0.0000001
 43
0.0000001
 44
0.0000000001
 40
0.0
 40
0.0
 40
0.0
 40
0.0
 40
0.2139673932
 40
1.0
 40
1.0
 40
1.0
 40
1.0
 10
691.1712254552
 20
130.4301340824
 30
0.0
 10
691.0115152195
 20
130.4002973721
 30
0.0
 10
690.2547694168
 20
130.3191989189
 30
0.0
 10
689.4840101375
 20
130.4241487317
 30
0.0
 10
688.9086697029
 20
130.5829868349
 30
0.0
  0
SPLINE
  5
415
100
AcDbEntity
  8
00_COMPONENTS_36
100
AcDbSpline
 62
7
  6
CONTINUOUS
 70
0
 71
3
 72
8
 73
4
 74
0
 42
0.0000001
 43
0.0000001
 44
0.0000000001
 40
0.0
 40
0.0
 40
0.0
 40
0.0
 40
1.0
 40
1.0
 40
1.0
 40
1.0
 10
688.3833800568
 20
130.7537912802
 30
0.0
 10
687.9322341279
 20
130.9234072067
 30
0.0
 10
687.4964733024
 20
131.1491043158
 30
0.0
 10
687.1066931918
 20
131.4326068329
 30
0.0
  0
SPLINE
  5
416
100
AcDbEntity
  8
00_COMPONENTS_36
100
AcDbSpline
 62
7
  6
CONTINUOUS
 70
0
 71
3
 72
8
 73
4
 74
0
 42
0.0000001
 43
0.0000001
 44
0.0000000001
 40
0.0
 40
0.0
 40
0.0
 40
0.0
 40
1.0
 40
1.0
 40
1.0
 40
1.0
 10
687.1066931918
 20
131.4326068329
 30
0.0
 10
686.94469511
 20
131.5504344559
 30
0.0
 10
686.7896812611
 20
131.6788638813
 30
0.0
 10
686.6457420557
 20
131.8181773136
 30
0.0
  0
SPLINE
  5
417
100
AcDbEntity
  8
00_COMPONENTS_36
100
AcDbSpline
 62
7
  6
CONTINUOUS
 70
0
 71
3
 72
8
 73
4
 74
0
 42
0.0000001
 43
0.0000001
 44
0.0000000001
 40
0.0
 40
0.0
 40
0.0
 40
0.0
 40
1.0
 40
1.0
 40
1.0
 40
1.0
 10
686.6457419394
 20
131.8181777776
 30
0.0
 10
686.7790997848
 20
131.2858719346
 30
0.0
 10
687.0401703884
 20
130.756328646
 30
0.0
 10
687.4312949068
 20
130.3714189986
 30
0.0
  0
SPLINE
  5
418
100
AcDbEntity
  8
00_COMPONENTS_36
100
AcDbSpline
 62
7
  6
CONTINUOUS
 70
0
 71
3
 72
8
 73
4
 74
0
 42
0.0000001
 43
0.0000001
 44
0.0000000001
 40
0.0
 40
0.0
 40
0.0
 40
0.0
 40
1.0
 40
1.0
 40
1.0
 40
1.0
 10
687.4312949068
 20
130.3714189986
 30
0.0
 10
687.5742554222
 20
130.23073009
 30
0.0
 10
687.7358488866
 20
130.106538037
 30
0.0
 10
687.9095545478
 20
130.0062513417
 30
0.0
  0
SPLINE
  5
419
100
AcDbEntity
  8
00_COMPONENTS_36
100
AcDbSpline
 62
7
  6
CONTINUOUS
 70
0
 71
3
 72
9
 73
5
 74
0
 42
0.0000001
 43
0.0000001
 44
0.0000000001
 40
0.0
 40
0.0
 40
0.0
 40
0.0
 40
0.3023374397
 40
1.0
 40
1.0
 40
1.0
 40
1.0
 10
882.5135238053
 20
1218.2543954241
 30
0.0
 10
882.597806266
 20
1218.2701490519
 30
0.0
 10
882.8722837309
 20
1218.3343949036
 30
0.0
 10
883.1487417188
 20
1218.4437532792
 30
0.0
 10
883.2964181181
 20
1218.5754286276
 30
0.0
  0
SPLINE
  5
41A
100
AcDbEntity
  8
00_COMPONENTS_36
100
AcDbSpline
 62
7
  6
CONTINUOUS
 70
0
 71
3
 72
8
 73
4
 74
0
 42
0.0000001
 43
0.0000001
 44
0.0000000001
 40
0.0
 40
0.0
 40
0.0
 40
0.0
 40
1.0
 40
1.0
 40
1.0
 40
1.0
 10
883.2964181181
 20
1218.5754286276
 30
0.0
 10
883.3784410219
 20
1218.648564176
 30
0.0
 10
883.4507723638
 20
1218.7568490429
 30
0.0
 10
883.450772685
 20
1218.8667424695
 30
0.0
  0
SPLINE
  5
41B
100
AcDbEntity
  8
00_COMPONENTS_36
100
AcDbSpline
 62
7
  6
CONTINUOUS
 70
0
 71
3
 72
8
 73
4
 74
0
 42
0.0000001
 43
0.0000001
 44
0.0000000001
 40
0.0
 40
0.0
 40
0.0
 40
0.0
 40
1.0
 40
1.0
 40
1.0
 40
1.0
 10
882.4517985955
 20
1220.5969984004
 30
0.0
 10
882.3566340625
 20
1220.6519401923
 30
0.0
 10
882.2267032199
 20
1220.6434493195
 30
0.0
 10
882.1223594657
 20
1220.608992538
 30
0.0
  0
SPLINE
  5
41C
100
AcDbEntity
  8
00_COMPONENTS_36
100
AcDbSpline
 62
7
  6
CONTINUOUS
 70
0
 71
3
 72
9
 73
5
 74
0
 42
0.0000001
 43
0.0000001
 44
0.0000000001
 40
0.0
 40
0.0
 40
0.0
 40
0.0
 40
0.1989647535
 40
1.0
 40
1.0
 40
1.0
 40
1.0
 10
882.1223594657
 20
1220.608992538
 30
0.0
 10
882.0687030451
 20
1220.5912739157
 30
0.0
 10
881.8100934109
 20
1220.4693890213
 30
0.0
 10
881.6008542781
 20
1220.2642861636
 30
0.0
 10
881.4528592176
 20
1220.0915101816
 30
0.0
  0
SPLINE
  5
41D
100
AcDbEntity
  8
00_COMPONENTS_36
100
AcDbSpline
 62
7
  6
CONTINUOUS
 70
0
 71
3
 72
9
 73
5
 74
0
 42
0.0000001
 43
0.0000001
 44
0.0000000001
 40
0.0
 40
0.0
 40
0.0
 40
0.0
 40
0.2997704235
 40
1.0
 40
1.0
 40
1.0
 40
1.0
 10
881.7018353434
 20
1219.2979943198
 30
0.0
 10
881.7073511791
 20
1219.2948099527
 30
0.0
 10
881.7046684651
 20
1219.2672029053
 30
0.0
 10
881.6980324654
 20
1219.2503000468
 30
0.0
 10
881.692502493
 20
1219.2364886445
 30
0.0
  0
SPLINE
  5
41E
100
AcDbEntity
  8
00_COMPONENTS_36
100
AcDbSpline
 62
7
  6
CONTINUOUS
 70
0
 71
3
 72
9
 73
5
 74
0
 42
0.0000001
 43
0.0000001
 44
0.0000000001
 40
0.0
 40
0.0
 40
0.0
 40
0.0
 40
0.4351459204
 40
1.0
 40
1.0
 40
1.0
 40
1.0
 10
881.692502493
 20
1219.2364886445
 30
0.0
 10
881.6859450994
 20
1219.2201112028
 30
0.0
 10
881.668609747
 20
1219.1833939722
 30
0.0
 10
881.6489113636
 20
1219.1479395988
 30
0.0
 10
881.6373096167
 20
1219.1281960285
 30
0.0
  0
SPLINE
  5
41F
100
AcDbEntity
  8
00_COMPONENTS_36
100
AcDbSpline
 62
7
  6
CONTINUOUS
 70
0
 71
3
 72
8
 73
4
 74
0
 42
0.0000001
 43
0.0000001
 44
0.0000000001
 40
0.0
 40
0.0
 40
0.0
 40
0.0
 40
1.0
 40
1.0
 40
1.0
 40
1.0
 10
881.6373096167
 20
1219.1281960285
 30
0.0
 10
881.5832715723
 20
1219.0362354015
 30
0.0
 10
881.5199225017
 20
1218.9496607434
 30
0.0
 10
881.4528492081
 20
1218.866726791
 30
0.0
  0
SPLINE
  5
420
100
AcDbEntity
  8
00_COMPONENTS_36
100
AcDbSpline
 62
7
  6
CONTINUOUS
 70
0
 71
3
 72
8
 73
4
 74
0
 42
0.0000001
 43
0.0000001
 44
0.0000000001
 40
0.0
 40
0.0
 40
0.0
 40
0.0
 40
1.0
 40
1.0
 40
1.0
 40
1.0
 10
265.9681414875
 20
1350.7275863123
 30
0.0
 10
265.968141581
 20
1350.5270187808
 30
0.0
 10
265.9948103156
 20
1350.3249790303
 30
0.0
 10
266.0451536405
 20
1350.1308324766
 30
0.0
  0
SPLINE
  5
421
100
AcDbEntity
  8
00_COMPONENTS_36
100
AcDbSpline
 62
7
  6
CONTINUOUS
 70
0
 71
3
 72
8
 73
4
 74
0
 42
0.0000001
 43
0.0000001
 44
0.0000000001
 40
0.0
 40
0.0
 40
0.0
 40
0.0
 40
1.0
 40
1.0
 40
1.0
 40
1.0
 10
266.0451536405
 20
1350.1308324766
 30
0.0
 10
266.1828962701
 20
1349.5996348068
 30
0.0
 10
266.5110887268
 20
1349.1088224901
 30
0.0
 10
266.9054092084
 20
1348.7271742827
 30
0.0
  0
SPLINE
  5
422
100
AcDbEntity
  8
00_COMPONENTS_36
100
AcDbSpline
 62
7
  6
CONTINUOUS
 70
0
 71
3
 72
8
 73
4
 74
0
 42
0.0000001
 43
0.0000001
 44
0.0000000001
 40
0.0
 40
0.0
 40
0.0
 40
0.0
 40
1.0
 40
1.0
 40
1.0
 40
1.0
 10
690.1105619879
 20
1109.6206424639
 30
0.0
 10
689.91796648
 20
1109.565652308
 30
0.0
 10
689.7292150038
 20
1109.4957561396
 30
0.0
 10
689.5461855421
 20
1109.4144101929
 30
0.0
  0
SPLINE
  5
423
100
AcDbEntity
  8
00_COMPONENTS_36
100
AcDbSpline
 62
7
  6
CONTINUOUS
 70
0
 71
3
 72
8
 73
4
 74
0
 42
0.0000001
 43
0.0000001
 44
0.0000000001
 40
0.0
 40
0.0
 40
0.0
 40
0.0
 40
1.0
 40
1.0
 40
1.0
 40
1.0
 10
689.5461855421
 20
1109.4144101929
 30
0.0
 10
688.9394241971
 20
1109.1447400777
 30
0.0
 10
688.3827656764
 20
1108.7446427277
 30
0.0
 10
687.9096591343
 20
1108.278754865
 30
0.0
  0
SPLINE
  5
424
100
AcDbEntity
  8
00_COMPONENTS_36
100
AcDbSpline
 62
7
  6
CONTINUOUS
 70
0
 71
3
 72
8
 73
4
 74
0
 42
0.0000001
 43
0.0000001
 44
0.0000000001
 40
0.0
 40
0.0
 40
0.0
 40
0.0
 40
1.0
 40
1.0
 40
1.0
 40
1.0
 10
687.9096591343
 20
1108.278754865
 30
0.0
 10
687.6059356428
 20
1107.9796655992
 30
0.0
 10
687.33054592
 20
1107.6477627505
 30
0.0
 10
687.0982492602
 20
1107.2903545664
 30
0.0
  0
SPLINE
  5
425
100
AcDbEntity
  8
00_COMPONENTS_36
100
AcDbSpline
 62
7
  6
CONTINUOUS
 70
0
 71
3
 72
8
 73
4
 74
0
 42
0.0000001
 43
0.0000001
 44
0.0000000001
 40
0.0
 40
0.0
 40
0.0
 40
0.0
 40
1.0
 40
1.0
 40
1.0
 40
1.0
 10
687.0982492602
 20
1107.2903545664
 30
0.0
 10
686.9160892921
 20
1107.0100859502
 30
0.0
 10
686.7568681751
 20
1106.7107142618
 30
0.0
 10
686.6457420556
 20
1106.3954623994
 30
0.0
  0
SPLINE
  5
426
100
AcDbEntity
  8
00_COMPONENTS_36
100
AcDbSpline
 62
7
  6
CONTINUOUS
 70
0
 71
3
 72
9
 73
5
 74
0
 42
0.0000001
 43
0.0000001
 44
0.0000000001
 40
0.0
 40
0.0
 40
0.0
 40
0.0
 40
0.3328926737
 40
1.0
 40
1.0
 40
1.0
 40
1.0
 10
881.4528492081
 20
1218.866726791
 30
0.0
 10
881.5012073923
 20
1218.8743562646
 30
0.0
 10
881.6467675225
 20
1218.8926177566
 30
0.0
 10
881.7956746321
 20
1218.9033518816
 30
0.0
 10
881.8927875895
 20
1218.8894208364
 30
0.0
  0
SPLINE
  5
427
100
AcDbEntity
  8
00_COMPONENTS_36
100
AcDbSpline
 62
7
  6
CONTINUOUS
 70
0
 71
3
 72
9
 73
5
 74
0
 42
0.0000001
 43
0.0000001
 44
0.0000000001
 40
0.0
 40
0.0
 40
0.0
 40
0.0
 40
0.7003003523
 40
1.0
 40
1.0
 40
1.0
 40
1.0
 10
881.8927875895
 20
1218.8894208364
 30
0.0
 10
881.907538308
 20
1218.8873048168
 30
0.0
 10
881.9255179472
 20
1218.8845994747
 30
0.0
 10
881.9508188675
 20
1218.873115191
 30
0.0
 10
881.9508186774
 20
1218.8667378702
 30
0.0
  0
SPLINE
  5
428
100
AcDbEntity
  8
00_COMPONENTS_36
100
AcDbSpline
 62
7
  6
CONTINUOUS
 70
0
 71
3
 72
9
 73
5
 74
0
 42
0.0000001
 43
0.0000001
 44
0.0000000001
 40
0.0
 40
0.0
 40
0.0
 40
0.0
 40
0.2139679136
 40
1.0
 40
1.0
 40
1.0
 40
1.0
 10
686.6457420557
 20
1106.3954623994
 30
0.0
 10
686.8054534593
 20
1106.365626499
 30
0.0
 10
687.5622024489
 20
1106.2845319173
 30
0.0
 10
688.3329642552
 20
1106.3894844111
 30
0.0
 10
688.9083056123
 20
1106.5483260291
 30
0.0
  0
SPLINE
  5
429
100
AcDbEntity
  8
00_COMPONENTS_36
100
AcDbSpline
 62
7
  6
CONTINUOUS
 70
0
 71
3
 72
8
 73
4
 74
0
 42
0.0000001
 43
0.0000001
 44
0.0000000001
 40
0.0
 40
0.0
 40
0.0
 40
0.0
 40
1.0
 40
1.0
 40
1.0
 40
1.0
 10
688.9083056123
 20
1106.5483260291
 30
0.0
 10
689.5484320257
 20
1106.7250536605
 30
0.0
 10
690.1732316578
 20
1107.0073346509
 30
0.0
 10
690.7102740952
 20
1107.3979494244
 30
0.0
  0
SPLINE
  5
42A
100
AcDbEntity
  8
00_COMPONENTS_36
100
AcDbSpline
 62
7
  6
CONTINUOUS
 70
0
 71
3
 72
8
 73
4
 74
0
 42
0.0000001
 43
0.0000001
 44
0.0000000001
 40
0.0
 40
0.0
 40
0.0
 40
0.0
 40
1.0
 40
1.0
 40
1.0
 40
1.0
 10
690.7102740952
 20
1107.3979494244
 30
0.0
 10
690.872273154
 20
1107.5157785218
 30
0.0
 10
691.0272874804
 20
1107.6442102997
 30
0.0
 10
691.1712254552
 20
1107.7835273865
 30
0.0
  0
ENDSEC
  0
SECTION
  2
OBJECTS
  0
DICTIONARY
  5
C
100
AcDbDictionary
280
0
281
1
  3
ACAD_GROUP
350
D
  3
ACAD_MLINESTYLE
350
17
  3
ACAD_LAYOUT
350
1A
  3
ACAD_PLOTSETTINGS
350
19
  3
ACAD_PLOTSTYLENAME
350
E
  0
DICTIONARY
  5
D
102
{ACAD_REACTORS
330
C
102
}
100
AcDbDictionary
280
0
281
1
  0
ACDBDICTIONARYWDFLT
  5
E
102
{ACAD_REACTORS
330
C
102
}
100
AcDbDictionary
281
1
  3
Normal
350
F
100
AcDbDictionaryWithDefault
340
F
  0
DICTIONARY
  5
17
102
{ACAD_REACTORS
330
C
102
}
100
AcDbDictionary
280
0
281
1
  3
Standard
350
18
  0
DICTIONARY
  5
19
102
{ACAD_REACTORS
330
C
102
}
100
AcDbDictionary
281
1
  0
DICTIONARY
  5
1A
102
{ACAD_REACTORS
330
C
102
}
100
AcDbDictionary
281
1
  3
Model
350
42B
  3
Layout1
350
42C
  0
ACDBPLACEHOLDER
  5
F
102
{ACAD_REACTORS
330
E
102
}
  0
MLINESTYLE
  5
18
102
{ACAD_REACTORS
330
17
102
}
100
AcDbMlineStyle
  2
STANDARD
 70
0
  3

 62
256
 51
90.0
 52
90.0
 71
2
 49
0.5
 62
256
  6
BYLAYER
 49
-0.5
 62
256
  6
BYLAYER
  0
LAYOUT
  5
42B
102
{ACAD_REACTORS
330
1A
102
}
100
AcDbPlotSettings
  1

  2
none_device
  4

  6

 40
0.0
 41
0.0
 42
0.0
 43
0.0
 44
210.0
 45
297.0
 46
0.0
 47
0.0
 48
0.0
 49
0.0
140
0.0
141
0.0
142
1.0
143
1.0
 70
1024
 72
1
 73
0
 74
0
  7

 75
0
147
1.0
148
0.0
149
0.0
100
AcDbLayout
  1
Model
 70
0
 71
0
 10
0.0
 20
0.0
 11
210.0
 21
297.0
 12
0.0
 22
0.0
 32
0.0
 14
0.0
 24
0.0
 34
0.0
 15
0.0
 25
0.0
 35
0.0
146
0.0
 13
0.0
 23
0.0
 33
0.0
 16
1.0
 26
0.0
 36
0.0
 17
0.0
 27
1.0
 37
0.0
 76
0
330
22F
345
0
346
0
  0
LAYOUT
  5
42C
102
{ACAD_REACTORS
330
1A
102
}
100
AcDbPlotSettings
  1

  2
none_device
  4

  6

 40
0.0
 41
0.0
 42
0.0
 43
0.0
 44
210.0
 45
297.0
 46
0.0
 47
0.0
 48
0.0
 49
0.0
140
0.0
141
0.0
142
1.0
143
1.0
 70
0
 72
1
 73
0
 74
0
  7

 75
0
147
1.0
148
0.0
149
0.0
100
AcDbLayout
  1
Layout1
 70
0
 71
1
 10
0.0
 20
0.0
 11
210.0
 21
297.0
 12
0.0
 22
0.0
 32
0.0
 14
0.0
 24
0.0
 34
0.0
 15
0.0
 25
0.0
 35
0.0
146
0.0
 13
0.0
 23
0.0
 33
0.0
 16
1.0
 26
0.0
 36
0.0
 17
0.0
 27
1.0
 37
0.0
 76
0
330
230
345
0
346
0
  0
ENDSEC
  0
EOF
