999
DXF file: Y:\001_SCHNEIDER_PARIS\maxime fuentes - génération CAD 2D\TRAVAIL\XB4FW35B5_2D-Views\xb4fw35b5_2d-views_5.dxf
999
Pro/ENGINEER 2018260 by Parametric Technology Corporation
  0
SECTION
  2
HEADER
  9
$ACADVER
  1
AC1027
  9
$DWGCODEPAGE
  3
ANSI_1252
  9
$EXTMAX
 10
558.8
 20
431.8
 30
0.0
  9
$EXTMIN
 10
0.0
 20
0.0
 30
0.0
  9
$LIMMIN
 10
0.0
 20
0.0
  9
$LIMMAX
 10
558.8
 20
431.8
  9
$VIEWCTR
 10
279.4
 20
215.9
  9
$VIEWSIZE
 40
431.8
  9
$CLAYER
  8
0
  9
$LTSCALE
 40
30.734
  9
$CELTYPE
  6
BYLAYER
  9
$DIMSCALE
 40
1.0
  9
$DIMASZ
 40
3.5
  9
$DIMEXO
 40
1.0
  9
$DIMDLI
 40
21.2344
  9
$DIMEXE
 40
3.0
  9
$DIMCEN
 40
5.0292
  9
$DIMLFAC
 40
1.0
  9
$DIMBLK
  1
_FILLED
  9
$DIMALT
 70
0
  9
$DIMALTF
 40
0.0393700787
  9
$DIMTXT
 40
4.0
  9
$DIMTOL
 70
1
  9
$DIMLIM
 70
0
  9
$DIMTFAC
 40
1.0
  9
$DIMTP
 40
0.0001
  9
$DIMTM
 40
0.0001
  9
$DIMGAP
 40
0.625
  9
$DIMDSEP
 70
46
  9
$AUNITS
 70
0
  9
$PDMODE
 70
0
  9
$PDSIZE
 40
0.01
  9
$HANDSEED
  5
351
  9
$TILEMODE
 70
1
  9
$MEASUREMENT
 70
1
  9
$INSUNITS
 70
4
  0
ENDSEC
  0
SECTION
  2
CLASSES
  0
CLASS
  1
ACDBDICTIONARYWDFLT
  2
AcDbDictionaryWithDefault
  3
AutoCAD 2000
 90
0
 91
1
280
0
281
0
  0
CLASS
  1
ACDBPLACEHOLDER
  2
AcDbPlaceHolder
  3
AutoCAD 2000
 90
0
 91
1
280
0
281
0
  0
CLASS
  1
LAYOUT
  2
AcDbLayout
  3
AutoCAD 2000
 90
0
 91
0
280
0
281
0
  0
ENDSEC
  0
SECTION
  2
TABLES
  0
TABLE
  2
VPORT
  5
8
100
AcDbSymbolTable
 70
2
  0
VPORT
  5
1F4
100
AcDbSymbolTableRecord
100
AcDbViewportTableRecord
  2
*ACTIVE
 70
0
 10
0.0
 20
0.0
 11
1.0
 21
1.0
 12
279.4
 22
215.9
 13
0.0
 23
0.0
 14
1.0
 24
1.0
 15
0.0
 25
0.0
 16
0.0
 26
0.0
 36
1.0
 17
0.0
 27
0.0
 37
0.0
 40
431.8
 41
1.2941176471
 42
50.0
 43
0.0
 44
0.0
 50
0.0
 51
0.0
 71
0
 72
100
 73
1
 74
1
 75
0
 76
0
 77
0
 78
0
  0
ENDTAB
  0
TABLE
  2
LTYPE
  5
5
100
AcDbSymbolTable
 70
6
  0
LTYPE
  5
14
100
AcDbSymbolTableRecord
100
AcDbLinetypeTableRecord
  2
BYBLOCK
 70
0
  3

 72
65
 73
0
 40
0.0
  0
LTYPE
  5
15
100
AcDbSymbolTableRecord
100
AcDbLinetypeTableRecord
  2
BYLAYER
 70
0
  3

 72
65
 73
0
 40
0.0
  0
LTYPE
  5
16
100
AcDbSymbolTableRecord
100
AcDbLinetypeTableRecord
  2
CONTINUOUS
 70
64
  3
Solid line
 72
65
 73
0
 40
0.0
  0
LTYPE
  5
1F5
100
AcDbSymbolTableRecord
100
AcDbLinetypeTableRecord
  2
CENTER
 70
64
  3
____ _ ____ _ ____ _ ____ _ ____ _ ____ _ ____
 72
65
 73
4
 40
0.6
 49
0.375
 74
0
 49
-0.075
 74
0
 49
0.075
 74
0
 49
-0.075
 74
0
  0
LTYPE
  5
1F6
100
AcDbSymbolTableRecord
100
AcDbLinetypeTableRecord
  2
HIDDEN
 70
64
  3
- - - - - - - - - - - - - - - - - - - -
 72
65
 73
2
 40
0.2
 49
0.1
 74
0
 49
-0.1
 74
0
  0
LTYPE
  5
1F7
100
AcDbSymbolTableRecord
100
AcDbLinetypeTableRecord
  2
PHANTOM
 70
64
  3
_____ _ _ _____ _ _ _____ _ _ _____
 72
65
 73
6
 40
0.8
 49
0.45
 74
0
 49
-0.05
 74
0
 49
0.1
 74
0
 49
-0.05
 74
0
 49
0.1
 74
0
 49
-0.05
 74
0
  0
LTYPE
  5
1F8
100
AcDbSymbolTableRecord
100
AcDbLinetypeTableRecord
  2
DOT
 70
64
  3
. . . . . . . . . . . . . . . . . . . .
 72
65
 73
2
 40
0.2
 49
0.1
 74
0
 49
-0.1
 74
0
  0
LTYPE
  5
1F9
100
AcDbSymbolTableRecord
100
AcDbLinetypeTableRecord
  2
DASHED
 70
64
  3
- - - - - - - - - - - - - - - - - - - -
 72
65
 73
2
 40
0.2
 49
0.1
 74
0
 49
-0.1
 74
0
  0
ENDTAB
  0
TABLE
  2
LAYER
  5
2
100
AcDbSymbolTable
 70
36
  0
LAYER
  5
10
100
AcDbSymbolTableRecord
100
AcDbLayerTableRecord
  2
0
 70
0
 62
7
  6
CONTINUOUS
370
-3
390
F
  0
LAYER
  5
1FA
100
AcDbSymbolTableRecord
100
AcDbLayerTableRecord
  2
DEFAULT_1
 70
0
 62
7
  6
CENTER
370
-3
390
F
  0
LAYER
  5
1FB
100
AcDbSymbolTableRecord
100
AcDbLayerTableRecord
  2
DEFAULT_2
 70
0
 62
8
  6
HIDDEN
370
-3
390
F
  0
LAYER
  5
1FC
100
AcDbSymbolTableRecord
100
AcDbLayerTableRecord
  2
DEFAULT_3
 70
0
 62
7
  6
PHANTOM
370
-3
390
F
  0
LAYER
  5
1FD
100
AcDbSymbolTableRecord
100
AcDbLayerTableRecord
  2
01_ALL_DTM_PLN
 70
0
 62
7
  6
CONTINUOUS
370
-3
390
F
  0
LAYER
  5
1FE
100
AcDbSymbolTableRecord
100
AcDbLayerTableRecord
  2
01__ASM_ALL_DTM_PLN
 70
0
 62
7
  6
CONTINUOUS
370
-3
390
F
  0
LAYER
  5
1FF
100
AcDbSymbolTableRecord
100
AcDbLayerTableRecord
  2
01__ASM_DEF_DTM_PLN
 70
0
 62
7
  6
CONTINUOUS
370
-3
390
F
  0
LAYER
  5
200
100
AcDbSymbolTableRecord
100
AcDbLayerTableRecord
  2
01___PRT_ALL_DTM_PLN
 70
0
 62
7
  6
CONTINUOUS
370
-3
390
F
  0
LAYER
  5
201
100
AcDbSymbolTableRecord
100
AcDbLayerTableRecord
  2
01___PRT_DEF_DTM_PLN
 70
0
 62
7
  6
CONTINUOUS
370
-3
390
F
  0
LAYER
  5
202
100
AcDbSymbolTableRecord
100
AcDbLayerTableRecord
  2
02_ALL_AXES
 70
0
 62
7
  6
CONTINUOUS
370
-3
390
F
  0
LAYER
  5
203
100
AcDbSymbolTableRecord
100
AcDbLayerTableRecord
  2
02__ASM_ALL_AXES
 70
0
 62
7
  6
CONTINUOUS
370
-3
390
F
  0
LAYER
  5
204
100
AcDbSymbolTableRecord
100
AcDbLayerTableRecord
  2
02___PRT_ALL_AXES
 70
0
 62
7
  6
CONTINUOUS
370
-3
390
F
  0
LAYER
  5
205
100
AcDbSymbolTableRecord
100
AcDbLayerTableRecord
  2
03_ALL_CURVES
 70
0
 62
7
  6
CONTINUOUS
370
-3
390
F
  0
LAYER
  5
206
100
AcDbSymbolTableRecord
100
AcDbLayerTableRecord
  2
03__ASM_ALL_CURVES
 70
0
 62
7
  6
CONTINUOUS
370
-3
390
F
  0
LAYER
  5
207
100
AcDbSymbolTableRecord
100
AcDbLayerTableRecord
  2
03___PRT_ALL_CURVES
 70
0
 62
7
  6
CONTINUOUS
370
-3
390
F
  0
LAYER
  5
208
100
AcDbSymbolTableRecord
100
AcDbLayerTableRecord
  2
04_ALL_DTM_PNT
 70
0
 62
7
  6
CONTINUOUS
370
-3
390
F
  0
LAYER
  5
209
100
AcDbSymbolTableRecord
100
AcDbLayerTableRecord
  2
04__ASM_ALL_DTM_PNT
 70
0
 62
7
  6
CONTINUOUS
370
-3
390
F
  0
LAYER
  5
20A
100
AcDbSymbolTableRecord
100
AcDbLayerTableRecord
  2
04___PRT_ALL_DTM_PNT
 70
0
 62
7
  6
CONTINUOUS
370
-3
390
F
  0
LAYER
  5
20B
100
AcDbSymbolTableRecord
100
AcDbLayerTableRecord
  2
05_ALL_DTM_CSYS
 70
0
 62
7
  6
CONTINUOUS
370
-3
390
F
  0
LAYER
  5
20C
100
AcDbSymbolTableRecord
100
AcDbLayerTableRecord
  2
05__ASM_ALL_DTM_CSYS
 70
0
 62
7
  6
CONTINUOUS
370
-3
390
F
  0
LAYER
  5
20D
100
AcDbSymbolTableRecord
100
AcDbLayerTableRecord
  2
05__ASM_DEF_DTM_CSYS
 70
0
 62
7
  6
CONTINUOUS
370
-3
390
F
  0
LAYER
  5
20E
100
AcDbSymbolTableRecord
100
AcDbLayerTableRecord
  2
05___PRT_ALL_DTM_CSYS
 70
0
 62
7
  6
CONTINUOUS
370
-3
390
F
  0
LAYER
  5
20F
100
AcDbSymbolTableRecord
100
AcDbLayerTableRecord
  2
05___PRT_DEF_DTM_CSYS
 70
0
 62
7
  6
CONTINUOUS
370
-3
390
F
  0
LAYER
  5
210
100
AcDbSymbolTableRecord
100
AcDbLayerTableRecord
  2
06_ALL_SURFS
 70
0
 62
7
  6
CONTINUOUS
370
-3
390
F
  0
LAYER
  5
211
100
AcDbSymbolTableRecord
100
AcDbLayerTableRecord
  2
06__ASM_ALL_SURFS
 70
0
 62
7
  6
CONTINUOUS
370
-3
390
F
  0
LAYER
  5
212
100
AcDbSymbolTableRecord
100
AcDbLayerTableRecord
  2
06___PRT_ALL_SURFS
 70
0
 62
7
  6
CONTINUOUS
370
-3
390
F
  0
LAYER
  5
213
100
AcDbSymbolTableRecord
100
AcDbLayerTableRecord
  2
07__ASM_ALL_SKELETONS
 70
0
 62
7
  6
CONTINUOUS
370
-3
390
F
  0
LAYER
  5
214
100
AcDbSymbolTableRecord
100
AcDbLayerTableRecord
  2
CLOSED_SHELL
 70
0
 62
7
  6
CONTINUOUS
370
-3
390
F
  0
LAYER
  5
215
100
AcDbSymbolTableRecord
100
AcDbLayerTableRecord
  2
Colour
 70
0
 62
7
  6
CONTINUOUS
370
-3
390
F
  0
LAYER
  5
216
100
AcDbSymbolTableRecord
100
AcDbLayerTableRecord
  2
ORIENTED_CLOSED_SHE
 70
0
 62
7
  6
CONTINUOUS
370
-3
390
F
  0
ENDTAB
  0
TABLE
  2
STYLE
  5
3
100
AcDbSymbolTable
 70
1
  0
STYLE
  5
11
100
AcDbSymbolTableRecord
100
AcDbTextStyleTableRecord
  2
STANDARD
 70
0
 40
0.0
 41
0.6
 50
0.0
 71
0
 42
0.2
  3
txt
  4

  0
STYLE
  5
217
100
AcDbSymbolTableRecord
100
AcDbTextStyleTableRecord
  2
TEXTSTYLE_1
 70
0
 40
0.0
 41
0.8
 50
0.0
 71
0
 42
0.2
  3
gdt
  4

  0
ENDTAB
  0
TABLE
  2
VIEW
  5
6
100
AcDbSymbolTable
 70
0
  0
ENDTAB
  0
TABLE
  2
UCS
  5
7
100
AcDbSymbolTable
 70
0
  0
ENDTAB
  0
TABLE
  2
APPID
  5
9
100
AcDbSymbolTable
 70
1
  0
APPID
  5
218
100
AcDbSymbolTableRecord
100
AcDbRegAppTableRecord
  2
ACAD
 70
0
  0
ENDTAB
  0
TABLE
  2
BLOCK_RECORD
  5
1
100
AcDbSymbolTable
 70
0
  0
BLOCK_RECORD
  5
219
100
AcDbSymbolTableRecord
100
AcDbBlockTableRecord
  2
*Model_Space
  0
BLOCK_RECORD
  5
21A
100
AcDbSymbolTableRecord
100
AcDbBlockTableRecord
  2
*Paper_Space
  0
BLOCK_RECORD
  5
21B
100
AcDbSymbolTableRecord
100
AcDbBlockTableRecord
  2
_FILLED
  0
ENDTAB
  0
TABLE
  2
DIMSTYLE
  5
A
100
AcDbSymbolTable
 70
1
100
AcDbDimStyleTable
 71
0
  0
DIMSTYLE
105
21C
100
AcDbSymbolTableRecord
100
AcDbDimStyleTableRecord
  2
STANDARD
 70
0
  3

  4

 40
1.0
 41
3.5
 42
1.0
 43
0.38
 44
3.0
 45
0.0
 46
0.0
 47
0.0001
 48
0.0001
140
4.0
141
0.09
142
0.0
143
25.4
144
1.0
145
0.0
146
1.0
147
0.625
 71
1.0
 72
0.0
 73
0
 74
0
 75
0
 76
0
 77
1
 78
8
 79
2
170
0
171
3
172
0
173
0
174
0
175
0
176
0
177
0
178
0
270
2
179
4
271
4
272
4
273
2
274
2
275
0
280
0
281
0
282
0
283
1
284
8
285
0
286
0
287
3
288
0
340
11
278
46
341
21B
342
21B
343
21B
344
21B
  0
ENDTAB
  0
ENDSEC
  0
SECTION
  2
BLOCKS
  0
BLOCK
  5
20
100
AcDbEntity
  8
0
100
AcDbBlockBegin
  2
*Model_Space
 70
0
 10
0.0
 20
0.0
 30
0.0
  3
*Model_Space
  1

  0
ENDBLK
  5
21
100
AcDbEntity
  8
0
100
AcDbBlockEnd
  0
BLOCK
  5
1C
100
AcDbEntity
  8
0
100
AcDbBlockBegin
  2
*Paper_Space
 70
0
 10
0.0
 20
0.0
 30
0.0
  3
*Paper_Space
  1

  0
ENDBLK
  5
1D
100
AcDbEntity
  8
0
100
AcDbBlockEnd
  0
BLOCK
  5
21D
100
AcDbEntity
  8
0
100
AcDbBlockBegin
  2
_FILLED
 70
64
 10
0.0
 20
0.0
  3
_FILLED
  1

  0
SOLID
  5
21E
100
AcDbEntity
  8
0
  6
BYBLOCK
 62
0
100
AcDbTrace
 10
0.0
 20
0.0
 11
-1.0
 21
0.2857142857
 12
-1.0
 22
-0.2857142857
 13
-1.0
 23
-0.2857142857
  0
ENDBLK
  5
21F
100
AcDbEntity
  8
0
  6
BYBLOCK
 62
0
100
AcDbBlockEnd
  0
ENDSEC
  0
SECTION
  2
ENTITIES
  0
LINE
  5
220
100
AcDbEntity
  8
0
100
AcDbLine
 62
7
  6
CONTINUOUS
 10
345.3142961273
 20
181.895532134
 11
345.3142961273
 21
210.895532134
  0
LINE
  5
221
100
AcDbEntity
  8
0
100
AcDbLine
 62
7
  6
CONTINUOUS
 10
345.790997565
 20
208.895532134
 11
345.3142961266
 21
208.4955321337
  0
LINE
  5
222
100
AcDbEntity
  8
0
100
AcDbLine
 62
7
  6
CONTINUOUS
 10
378.1257120326
 20
174.1569993622
 11
381.525712033
 21
174.8727888359
  0
LINE
  5
223
100
AcDbEntity
  8
0
100
AcDbLine
 62
7
  6
CONTINUOUS
 10
345.3142961266
 20
181.895532134
 11
349.9351306198
 21
180.2136859212
  0
LINE
  5
224
100
AcDbEntity
  8
0
100
AcDbLine
 62
7
  6
CONTINUOUS
 10
349.3142961266
 20
212.3514130703
 11
349.3142961266
 21
207.395532134
  0
LINE
  5
225
100
AcDbEntity
  8
0
100
AcDbLine
 62
7
  6
CONTINUOUS
 10
350.3142961273
 20
212.3955321335
 11
350.3142961273
 21
210.2858307646
  0
LINE
  5
226
100
AcDbEntity
  8
0
100
AcDbLine
 62
7
  6
CONTINUOUS
 10
350.3142961266
 20
180.395532134
 11
350.3142961266
 21
182.505233503
  0
LINE
  5
227
100
AcDbEntity
  8
0
100
AcDbLine
 62
7
  6
CONTINUOUS
 10
349.935130621
 20
212.5773783472
 11
345.3142961266
 21
210.895532134
  0
LINE
  5
228
100
AcDbEntity
  8
0
100
AcDbLine
 62
7
  6
CONTINUOUS
 10
361.3848518514
 20
174.7458431768
 11
363.0805002782
 21
174.9379297247
  0
LINE
  5
229
100
AcDbEntity
  8
0
100
AcDbLine
 62
7
  6
CONTINUOUS
 10
375.6257120323
 20
174.1569993622
 11
378.1257120326
 21
174.1569993622
  0
LINE
  5
22A
100
AcDbEntity
  8
0
100
AcDbLine
 62
7
  6
CONTINUOUS
 10
346.6058665906
 20
207.395532134
 11
346.3142961265
 21
208.895532134
  0
LINE
  5
22B
100
AcDbEntity
  8
0
100
AcDbLine
 62
7
  6
CONTINUOUS
 10
375.925712033
 20
178.3080007053
 11
372.2142961273
 21
177.55539808
  0
LINE
  5
22C
100
AcDbEntity
  8
0
100
AcDbLine
 62
7
  6
CONTINUOUS
 10
368.4142961273
 20
176.7848323313
 11
365.5940569927
 21
176.2129429418
  0
LINE
  5
22D
100
AcDbEntity
  8
0
100
AcDbLine
 62
7
  6
CONTINUOUS
 10
362.9809767046
 20
176.1834959848
 11
365.4965865954
 21
176.6936125161
  0
LINE
  5
22E
100
AcDbEntity
  8
0
100
AcDbLine
 62
7
  6
CONTINUOUS
 10
381.925712033
 20
180.0251181327
 11
382.5609582707
 21
180.1539336571
  0
LWPOLYLINE
  5
22F
100
AcDbEntity
  8
0
100
AcDbPolyline
 62
7
  6
CONTINUOUS
 90
3
 70
0
 10
368.8985909159
 20
176.1626260408
 10
369.6211573794
 20
176.2246729686
 10
370.4124646727
 20
176.2346817983
  0
LINE
  5
230
100
AcDbEntity
  8
0
100
AcDbLine
 62
7
  6
CONTINUOUS
 10
368.4142961273
 20
176.1459137475
 11
368.8985909073
 21
176.162626038
  0
LINE
  5
231
100
AcDbEntity
  8
0
100
AcDbLine
 62
7
  6
CONTINUOUS
 10
375.625712033
 20
176.6569993622
 11
375.925712033
 21
176.6569993622
  0
LINE
  5
232
100
AcDbEntity
  8
0
100
AcDbLine
 62
7
  6
CONTINUOUS
 10
381.525712033
 20
177.6569993622
 11
381.925712033
 21
177.6569993622
  0
LINE
  5
233
100
AcDbEntity
  8
0
100
AcDbLine
 62
9
  6
CONTINUOUS
 10
381.925712033
 20
177.9569993622
 11
375.925712033
 21
177.9569993622
  0
LINE
  5
234
100
AcDbEntity
  8
0
100
AcDbLine
 62
7
  6
CONTINUOUS
 10
398.4142961269
 20
178.390532134
 11
396.8142961273
 21
178.390532134
  0
LINE
  5
235
100
AcDbEntity
  8
0
100
AcDbLine
 62
7
  6
CONTINUOUS
 10
368.2462152107
 20
177.136395988
 11
368.2642327286
 21
177.1363213452
  0
LINE
  5
236
100
AcDbEntity
  8
0
100
AcDbLine
 62
7
  6
CONTINUOUS
 10
355.9142961273
 20
212.395532134
 11
355.9142961273
 21
212.5955321334
  0
LINE
  5
237
100
AcDbEntity
  8
0
100
AcDbLine
 62
7
  6
CONTINUOUS
 10
378.2741971023
 20
179.7293861826
 11
379.8741237773
 21
180.0538200501
  0
LINE
  5
238
100
AcDbEntity
  8
0
100
AcDbLine
 62
7
  6
CONTINUOUS
 10
379.7796109349
 20
180.5199046142
 11
377.8195046613
 21
180.122433362
  0
LINE
  5
239
100
AcDbEntity
  8
0
100
AcDbLine
 62
7
  6
CONTINUOUS
 10
379.541892834
 20
181.6921975473
 11
377.5817865609
 21
181.2947262953
  0
LINE
  5
23A
100
AcDbEntity
  8
0
100
AcDbLine
 62
7
  6
CONTINUOUS
 10
377.7961167315
 20
181.7732521826
 11
379.4571547943
 21
182.1100782453
  0
LINE
  5
23B
100
AcDbEntity
  8
0
100
AcDbLine
 62
7
  6
CONTINUOUS
 10
395.8142961273
 20
178.995532134
 11
396.8142961273
 21
178.995532134
  0
LINE
  5
23C
100
AcDbEntity
  8
0
100
AcDbLine
 62
7
  6
CONTINUOUS
 10
379.5582423718
 20
179.8569993622
 11
380.2218601727
 21
179.8569993622
  0
LINE
  5
23D
100
AcDbEntity
  8
0
100
AcDbLine
 62
7
  6
CONTINUOUS
 10
366.6533502436
 20
179.895532134
 11
370.1265542916
 21
179.895532134
  0
LINE
  5
23E
100
AcDbEntity
  8
0
100
AcDbLine
 62
7
  6
CONTINUOUS
 10
371.3310974417
 20
180.395532134
 11
367.4731418537
 21
180.395532134
  0
LINE
  5
23F
100
AcDbEntity
  8
0
100
AcDbLine
 62
7
  6
CONTINUOUS
 10
355.3013184335
 20
180.395532134
 11
349.4355122565
 21
180.395532134
  0
LINE
  5
240
100
AcDbEntity
  8
0
100
AcDbLine
 62
7
  6
CONTINUOUS
 10
350.666390568
 20
182.800675831
 11
358.0373778586
 21
181.5009718976
  0
LINE
  5
241
100
AcDbEntity
  8
0
100
AcDbLine
 62
9
  6
CONTINUOUS
 10
370.5535504588
 20
179.5959165072
 11
370.0793886316
 21
179.7545688352
  0
LINE
  5
242
100
AcDbEntity
  8
0
100
AcDbLine
 62
7
  6
CONTINUOUS
 10
362.3809938495
 20
179.1422764048
 11
364.8966037403
 21
179.6523929361
  0
LINE
  5
243
100
AcDbEntity
  8
0
100
AcDbLine
 62
7
  6
CONTINUOUS
 10
381.925712033
 20
183.1055633521
 11
381.9609754156
 21
183.1127140771
  0
LINE
  5
244
100
AcDbEntity
  8
0
100
AcDbLine
 62
7
  6
CONTINUOUS
 10
375.925712033
 20
182.3893152573
 11
372.2142961275
 21
181.636712632
  0
LINE
  5
245
100
AcDbEntity
  8
0
100
AcDbLine
 62
7
  6
CONTINUOUS
 10
366.3362565425
 20
180.44476106
 11
364.7991333424
 21
180.1330625101
  0
LINE
  5
246
100
AcDbEntity
  8
0
100
AcDbLine
 62
7
  6
CONTINUOUS
 10
378.7317523542
 20
182.0569993622
 11
378.0596866292
 21
182.0569993622
  0
LINE
  5
247
100
AcDbEntity
  8
0
100
AcDbLine
 62
7
  6
CONTINUOUS
 10
392.8142961273
 20
182.225532134
 11
395.8142961273
 21
182.225532134
  0
LINE
  5
248
100
AcDbEntity
  8
0
100
AcDbLine
 62
7
  6
CONTINUOUS
 10
387.8142961273
 20
182.345532134
 11
392.2142961265
 21
182.345532134
  0
LINE
  5
249
100
AcDbEntity
  8
0
100
AcDbLine
 62
7
  6
CONTINUOUS
 10
371.5642961275
 20
182.620532134
 11
371.3310974418
 21
182.620532134
  0
LINE
  5
24A
100
AcDbEntity
  8
0
100
AcDbLine
 62
7
  6
CONTINUOUS
 10
392.2142961265
 20
182.6407766355
 11
387.8142961273
 21
182.6407766355
  0
LINE
  5
24B
100
AcDbEntity
  8
0
100
AcDbLine
 62
7
  6
CONTINUOUS
 10
392.3142961273
 20
182.645532134
 11
392.8142961273
 21
182.645532134
  0
LINE
  5
24C
100
AcDbEntity
  8
0
100
AcDbLine
 62
7
  6
CONTINUOUS
 10
371.668211198
 20
182.927286297
 11
372.1381662193
 21
182.927286297
  0
LINE
  5
24D
100
AcDbEntity
  8
0
100
AcDbLine
 62
9
  6
CONTINUOUS
 10
392.3142961273
 20
183.1112534608
 11
387.8142961273
 21
183.1112534608
  0
LINE
  5
24E
100
AcDbEntity
  8
0
100
AcDbLine
 62
7
  6
CONTINUOUS
 10
372.2142961273
 20
182.8444870962
 11
372.1523751578
 21
182.8467034026
  0
LINE
  5
24F
100
AcDbEntity
  8
0
100
AcDbLine
 62
7
  6
CONTINUOUS
 10
360.5677893383
 20
174.7496908962
 11
359.5998995909
 21
179.5227826751
  0
LINE
  5
250
100
AcDbEntity
  8
0
100
AcDbLine
 62
7
  6
CONTINUOUS
 10
361.3848465456
 20
174.745869342
 11
361.3731643139
 21
174.8034795854
  0
LINE
  5
251
100
AcDbEntity
  8
0
100
AcDbLine
 62
7
  6
CONTINUOUS
 10
360.362609634
 20
179.7869709876
 11
360.3509274024
 21
179.8445812311
  0
LINE
  5
252
100
AcDbEntity
  8
0
100
AcDbLine
 62
9
  6
CONTINUOUS
 10
387.8142961273
 20
183.6625327413
 11
392.3142961273
 21
183.6625327413
  0
LINE
  5
253
100
AcDbEntity
  8
0
100
AcDbLine
 62
7
  6
CONTINUOUS
 10
392.2142961276
 20
183.6992567578
 11
387.8142961273
 21
183.6992567578
  0
LINE
  5
254
100
AcDbEntity
  8
0
100
AcDbLine
 62
9
  6
CONTINUOUS
 10
375.925712033
 20
183.9569993622
 11
381.925712033
 21
183.9569993622
  0
LINE
  5
255
100
AcDbEntity
  8
0
100
AcDbLine
 62
7
  6
CONTINUOUS
 10
375.925712033
 20
184.4569993622
 11
381.925712033
 21
184.4569993622
  0
LINE
  5
256
100
AcDbEntity
  8
0
100
AcDbLine
 62
7
  6
CONTINUOUS
 10
365.9142961273
 20
184.595532134
 11
365.6966832185
 21
184.595532134
  0
LINE
  5
257
100
AcDbEntity
  8
0
100
AcDbLine
 62
7
  6
CONTINUOUS
 10
373.7143075069
 20
185.195532134
 11
375.925712033
 21
185.195532134
  0
LINE
  5
258
100
AcDbEntity
  8
0
100
AcDbLine
 62
7
  6
CONTINUOUS
 10
375.714296128
 20
185.5632902269
 11
373.7142961273
 21
185.5632902269
  0
LINE
  5
259
100
AcDbEntity
  8
0
100
AcDbLine
 62
7
  6
CONTINUOUS
 10
371.5246753837
 20
184.0740756176
 11
371.714296128
 21
183.9955321334
  0
LINE
  5
25A
100
AcDbEntity
  8
0
100
AcDbLine
 62
7
  6
CONTINUOUS
 10
365.9142961273
 20
181.1756266208
 11
368.246224338
 21
177.1363801784
  0
LINE
  5
25B
100
AcDbEntity
  8
0
100
AcDbLine
 62
7
  6
CONTINUOUS
 10
365.9142961273
 20
183.0955321341
 11
367.4731418541
 21
180.3955321347
  0
LINE
  5
25C
100
AcDbEntity
  8
0
100
AcDbLine
 62
7
  6
CONTINUOUS
 10
361.9874731674
 20
180.3281291056
 11
363.0805002782
 21
174.9379297254
  0
LINE
  5
25D
100
AcDbEntity
  8
0
100
AcDbLine
 62
9
  6
CONTINUOUS
 10
362.9809767046
 20
176.1834959848
 11
362.3809938495
 21
179.1422764048
  0
LINE
  5
25E
100
AcDbEntity
  8
0
100
AcDbLine
 62
7
  6
CONTINUOUS
 10
375.7142961273
 20
185.8682270982
 11
372.1249900717
 21
185.8682270982
  0
LINE
  5
25F
100
AcDbEntity
  8
0
100
AcDbLine
 62
7
  6
CONTINUOUS
 10
381.925712033
 20
186.495532134
 11
386.8142961273
 21
186.495532134
  0
LINE
  5
260
100
AcDbEntity
  8
0
100
AcDbLine
 62
7
  6
CONTINUOUS
 10
365.5940569929
 20
176.2129429418
 11
364.7991333429
 21
180.1330625102
  0
LINE
  5
261
100
AcDbEntity
  8
0
100
AcDbLine
 62
7
  6
CONTINUOUS
 10
365.1142961273
 20
188.7389141648
 11
365.1142961273
 21
184.3602324752
  0
LINE
  5
262
100
AcDbEntity
  8
0
100
AcDbLine
 62
7
  6
CONTINUOUS
 10
379.1271356745
 20
219.9304617073
 11
376.1064801125
 21
215.6152394757
  0
LINE
  5
263
100
AcDbEntity
  8
0
100
AcDbLine
 62
7
  6
CONTINUOUS
 10
370.5059841129
 20
207.5392224941
 11
372.4606507722
 21
209.6379335154
  0
LINE
  5
264
100
AcDbEntity
  8
0
100
AcDbLine
 62
7
  6
CONTINUOUS
 10
374.1888040038
 20
210.4311734958
 11
370.8363680033
 21
207.2955321333
  0
LINE
  5
265
100
AcDbEntity
  8
0
100
AcDbLine
 62
9
  6
CONTINUOUS
 10
381.925712033
 20
188.2569993623
 11
375.925712033
 21
188.2569993623
  0
LINE
  5
266
100
AcDbEntity
  8
0
100
AcDbLine
 62
7
  6
CONTINUOUS
 10
373.0375335714
 20
188.5955321333
 11
375.925712033
 21
188.5955321333
  0
LINE
  5
267
100
AcDbEntity
  8
0
100
AcDbLine
 62
7
  6
CONTINUOUS
 10
396.8142961273
 20
190.0811250236
 11
395.8142961273
 21
190.0811250236
  0
LINE
  5
268
100
AcDbEntity
  8
0
100
AcDbLine
 62
9
  6
CONTINUOUS
 10
387.7698532529
 20
189.8301319753
 11
381.925712033
 21
189.8917228369
  0
LINE
  5
269
100
AcDbEntity
  8
0
100
AcDbLine
 62
7
  6
CONTINUOUS
 10
381.925712033
 20
189.6923479856
 11
387.665301468
 21
189.5921630793
  0
LINE
  5
26A
100
AcDbEntity
  8
0
100
AcDbLine
 62
7
  6
CONTINUOUS
 10
365.9142961273
 20
181.1755734721
 11
365.9142961273
 21
188.9021282559
  0
LINE
  5
26B
100
AcDbEntity
  8
0
100
AcDbLine
 62
7
  6
CONTINUOUS
 10
366.5142961276
 20
208.6955321339
 11
366.5142961276
 21
211.8955321336
  0
LINE
  5
26C
100
AcDbEntity
  8
0
100
AcDbLine
 62
7
  6
CONTINUOUS
 10
366.6142961273
 20
211.995532134
 11
366.6142961273
 21
208.695532134
  0
LINE
  5
26D
100
AcDbEntity
  8
0
100
AcDbLine
 62
7
  6
CONTINUOUS
 10
367.4142961273
 20
211.995532134
 11
367.4142961273
 21
211.845532134
  0
LINE
  5
26E
100
AcDbEntity
  8
0
100
AcDbLine
 62
7
  6
CONTINUOUS
 10
367.4142961273
 20
209.295532134
 11
367.4142961273
 21
208.695532134
  0
LINE
  5
26F
100
AcDbEntity
  8
0
100
AcDbLine
 62
7
  6
CONTINUOUS
 10
367.714296127
 20
211.9955321347
 11
367.7142961271
 21
211.8455321344
  0
LINE
  5
270
100
AcDbEntity
  8
0
100
AcDbLine
 62
7
  6
CONTINUOUS
 10
367.7142961271
 20
209.2955321336
 11
367.714296127
 21
209.195532134
  0
LINE
  5
271
100
AcDbEntity
  8
0
100
AcDbLine
 62
9
  6
CONTINUOUS
 10
367.7142961271
 20
209.2955321336
 11
367.7142961271
 21
211.8455321344
  0
LINE
  5
272
100
AcDbEntity
  8
0
100
AcDbLine
 62
7
  6
CONTINUOUS
 10
392.2142961265
 20
190.8344372682
 11
387.8142961273
 21
190.8344372682
  0
LINE
  5
273
100
AcDbEntity
  8
0
100
AcDbLine
 62
9
  6
CONTINUOUS
 10
392.3142961273
 20
191.6683568515
 11
387.8142961273
 21
191.6683568515
  0
LINE
  5
274
100
AcDbEntity
  8
0
100
AcDbLine
 62
7
  6
CONTINUOUS
 10
368.914296128
 20
192.5955321333
 11
368.414296128
 21
192.5955321333
  0
LINE
  5
275
100
AcDbEntity
  8
0
100
AcDbLine
 62
7
  6
CONTINUOUS
 10
367.9142961273
 20
209.195532134
 11
367.9142961273
 21
209.0709543021
  0
LINE
  5
276
100
AcDbEntity
  8
0
100
AcDbLine
 62
7
  6
CONTINUOUS
 10
368.4142961273
 20
200.1955321348
 11
368.4142961273
 21
192.595532134
  0
LINE
  5
277
100
AcDbEntity
  8
0
100
AcDbLine
 62
7
  6
CONTINUOUS
 10
368.4142961273
 20
176.1459268048
 11
368.4142961273
 21
177.0784780247
  0
LINE
  5
278
100
AcDbEntity
  8
0
100
AcDbLine
 62
7
  6
CONTINUOUS
 10
368.9142961273
 20
191.6955321349
 11
368.9142961269
 21
209.195532134
  0
LINE
  5
279
100
AcDbEntity
  8
0
100
AcDbLine
 62
7
  6
CONTINUOUS
 10
368.9142961269
 20
211.9955321347
 11
368.9142961273
 21
215.095532134
  0
LINE
  5
27A
100
AcDbEntity
  8
0
100
AcDbLine
 62
7
  6
CONTINUOUS
 10
369.914296128
 20
194.4431223056
 11
369.914296128
 21
193.0095321347
  0
LINE
  5
27B
100
AcDbEntity
  8
0
100
AcDbLine
 62
7
  6
CONTINUOUS
 10
369.914296128
 20
198.3479419625
 11
369.9142961273
 21
199.9490886989
  0
LINE
  5
27C
100
AcDbEntity
  8
0
100
AcDbLine
 62
7
  6
CONTINUOUS
 10
369.9142961273
 20
206.795532134
 11
369.9142961273
 21
207.0955321338
  0
LINE
  5
27D
100
AcDbEntity
  8
0
100
AcDbLine
 62
7
  6
CONTINUOUS
 10
369.9142961273
 20
213.145532134
 11
369.9142961273
 21
215.095532134
  0
LINE
  5
27E
100
AcDbEntity
  8
0
100
AcDbLine
 62
7
  6
CONTINUOUS
 10
370.1142961269
 20
199.2638649469
 11
370.1142961269
 21
199.7289510887
  0
LINE
  5
27F
100
AcDbEntity
  8
0
100
AcDbLine
 62
7
  6
CONTINUOUS
 10
369.6443988534
 20
194.395532134
 11
370.4142961273
 21
194.5312857958
  0
LINE
  5
280
100
AcDbEntity
  8
0
100
AcDbLine
 62
7
  6
CONTINUOUS
 10
369.914296128
 20
193.2955321341
 11
369.7142961273
 21
193.2955321341
  0
LINE
  5
281
100
AcDbEntity
  8
0
100
AcDbLine
 62
9
  6
CONTINUOUS
 10
392.3142961273
 20
193.3350209211
 11
387.8142961273
 21
193.3350209211
  0
LINE
  5
282
100
AcDbEntity
  8
0
100
AcDbLine
 62
7
  6
CONTINUOUS
 10
381.925712033
 20
193.395532134
 11
387.8142961273
 21
193.395532134
  0
LINE
  5
283
100
AcDbEntity
  8
0
100
AcDbLine
 62
7
  6
CONTINUOUS
 10
392.2142961276
 20
194.034504549
 11
387.8142961273
 21
194.034504549
  0
LINE
  5
284
100
AcDbEntity
  8
0
100
AcDbLine
 62
7
  6
CONTINUOUS
 10
369.6443988533
 20
194.395532134
 11
368.9142961273
 21
194.395532134
  0
LINE
  5
285
100
AcDbEntity
  8
0
100
AcDbLine
 62
7
  6
CONTINUOUS
 10
392.5142961265
 20
194.845532134
 11
388.6803215304
 21
194.845532134
  0
LINE
  5
286
100
AcDbEntity
  8
0
100
AcDbLine
 62
7
  6
CONTINUOUS
 10
383.1150931791
 20
181.8065239986
 11
381.9609754156
 21
183.1127140771
  0
LINE
  5
287
100
AcDbEntity
  8
0
100
AcDbLine
 62
7
  6
CONTINUOUS
 10
372.2142961273
 20
182.4955321341
 11
372.0851540168
 21
183.2279334372
  0
LINE
  5
288
100
AcDbEntity
  8
0
100
AcDbLine
 62
7
  6
CONTINUOUS
 10
370.4142961273
 20
198.8455321338
 11
370.4142961273
 21
193.0922340731
  0
LINE
  5
289
100
AcDbEntity
  8
0
100
AcDbLine
 62
7
  6
CONTINUOUS
 10
371.3310974418
 20
183.4955321342
 11
371.3310974418
 21
180.395532134
  0
LINE
  5
28A
100
AcDbEntity
  8
0
100
AcDbLine
 62
7
  6
CONTINUOUS
 10
371.5642961273
 20
183.845532134
 11
371.5642961273
 21
182.620532134
  0
LINE
  5
28B
100
AcDbEntity
  8
0
100
AcDbLine
 62
7
  6
CONTINUOUS
 10
371.7142961273
 20
184.6407922825
 11
371.7142961273
 21
183.9955321333
  0
LINE
  5
28C
100
AcDbEntity
  8
0
100
AcDbLine
 62
7
  6
CONTINUOUS
 10
372.2142961273
 20
179.591292711
 11
372.2142961273
 21
176.9455321336
  0
LINE
  5
28D
100
AcDbEntity
  8
0
100
AcDbLine
 62
7
  6
CONTINUOUS
 10
372.2142961273
 20
179.5954974598
 11
372.2142961273
 21
182.8459348236
  0
LINE
  5
28E
100
AcDbEntity
  8
0
100
AcDbLine
 62
7
  6
CONTINUOUS
 10
372.5142961273
 20
210.8800620802
 11
372.5142961273
 21
209.7742431559
  0
LINE
  5
28F
100
AcDbEntity
  8
0
100
AcDbLine
 62
7
  6
CONTINUOUS
 10
349.9351306198
 20
180.2136859212
 11
350.1678831583
 21
180.3955321341
  0
LINE
  5
290
100
AcDbEntity
  8
0
100
AcDbLine
 62
7
  6
CONTINUOUS
 10
350.1678831591
 20
212.3955321341
 11
349.935130621
 21
212.5773783472
  0
LINE
  5
291
100
AcDbEntity
  8
0
100
AcDbLine
 62
7
  6
CONTINUOUS
 10
370.1141806835
 20
207.2955321333
 11
369.7642961269
 21
209.095532134
  0
LINE
  5
292
100
AcDbEntity
  8
0
100
AcDbLine
 62
7
  6
CONTINUOUS
 10
369.7380021626
 20
209.4336939327
 11
370.0369905291
 21
207.8955321335
  0
LINE
  5
293
100
AcDbEntity
  8
0
100
AcDbLine
 62
7
  6
CONTINUOUS
 10
373.7142961273
 20
185.5632902275
 11
373.7142961273
 21
185.1955212972
  0
LINE
  5
294
100
AcDbEntity
  8
0
100
AcDbLine
 62
7
  6
CONTINUOUS
 10
373.8142961273
 20
213.145532134
 11
373.8142961273
 21
219.595532134
  0
LINE
  5
295
100
AcDbEntity
  8
0
100
AcDbLine
 62
7
  6
CONTINUOUS
 10
374.1888040042
 20
210.4311734963
 11
374.1888040042
 21
213.145532134
  0
LINE
  5
296
100
AcDbEntity
  8
0
100
AcDbLine
 62
7
  6
CONTINUOUS
 10
370.4142961273
 20
193.509532134
 11
369.5000825649
 21
192.5953185717
  0
LINE
  5
297
100
AcDbEntity
  8
0
100
AcDbLine
 62
7
  6
CONTINUOUS
 10
365.4986346514
 20
189.5269249184
 11
368.914296128
 21
192.1955321348
  0
LINE
  5
298
100
AcDbEntity
  8
0
100
AcDbLine
 62
7
  6
CONTINUOUS
 10
370.2185118994
 20
192.6954308933
 11
366.3058645831
 21
189.6957346181
  0
LINE
  5
299
100
AcDbEntity
  8
0
100
AcDbLine
 62
7
  6
CONTINUOUS
 10
388.6803215311
 20
198.345532134
 11
392.5142961273
 21
198.345532134
  0
LINE
  5
29A
100
AcDbEntity
  8
0
100
AcDbLine
 62
7
  6
CONTINUOUS
 10
369.6443988535
 20
198.395532134
 11
368.9142961273
 21
198.395532134
  0
LINE
  5
29B
100
AcDbEntity
  8
0
100
AcDbLine
 62
7
  6
CONTINUOUS
 10
392.2142961273
 20
199.156559719
 11
387.8142961273
 21
199.156559719
  0
LINE
  5
29C
100
AcDbEntity
  8
0
100
AcDbLine
 62
7
  6
CONTINUOUS
 10
370.1142961273
 20
199.2638649469
 11
370.3481218038
 21
199.2638649469
  0
LINE
  5
29D
100
AcDbEntity
  8
0
100
AcDbLine
 62
7
  6
CONTINUOUS
 10
369.7142961265
 20
199.4955321341
 11
369.9142961273
 21
199.4955321341
  0
LINE
  5
29E
100
AcDbEntity
  8
0
100
AcDbLine
 62
9
  6
CONTINUOUS
 10
392.3142961273
 20
199.856043347
 11
387.8142961273
 21
199.856043347
  0
LINE
  5
29F
100
AcDbEntity
  8
0
100
AcDbLine
 62
7
  6
CONTINUOUS
 10
370.4142961273
 20
198.2597784723
 11
369.6443988535
 21
198.395532134
  0
LINE
  5
2A0
100
AcDbEntity
  8
0
100
AcDbLine
 62
7
  6
CONTINUOUS
 10
377.822139585
 20
180.10943939
 11
377.577405963
 21
181.3163289579
  0
LINE
  5
2A1
100
AcDbEntity
  8
0
100
AcDbLine
 62
7
  6
CONTINUOUS
 10
375.3142961273
 20
213.145532134
 11
375.3142961273
 21
219.595532134
  0
LINE
  5
2A2
100
AcDbEntity
  8
0
100
AcDbLine
 62
7
  6
CONTINUOUS
 10
375.6257120323
 20
176.6569993622
 11
375.6257120323
 21
174.1569993622
  0
LINE
  5
2A3
100
AcDbEntity
  8
0
100
AcDbLine
 62
7
  6
CONTINUOUS
 10
375.7142961273
 20
213.145532134
 11
375.7142961273
 21
196.595532134
  0
LINE
  5
2A4
100
AcDbEntity
  8
0
100
AcDbLine
 62
7
  6
CONTINUOUS
 10
375.7142961273
 20
185.5632902218
 11
375.7142961273
 21
185.868227098
  0
LINE
  5
2A5
100
AcDbEntity
  8
0
100
AcDbLine
 62
7
  6
CONTINUOUS
 10
375.925712033
 20
174.1569993622
 11
375.925712033
 21
215.0417771315
  0
LINE
  5
2A6
100
AcDbEntity
  8
0
100
AcDbLine
 62
7
  6
CONTINUOUS
 10
369.1524126042
 20
176.9841295215
 11
370.2938519513
 21
180.395532134
  0
LINE
  5
2A7
100
AcDbEntity
  8
0
100
AcDbLine
 62
7
  6
CONTINUOUS
 10
371.3310974421
 20
183.4955321344
 11
375.714296128
 21
196.595532134
  0
LINE
  5
2A8
100
AcDbEntity
  8
0
100
AcDbLine
 62
9
  6
CONTINUOUS
 10
371.668211198
 20
182.927286297
 11
371.3310974418
 21
181.9197594831
  0
LINE
  5
2A9
100
AcDbEntity
  8
0
100
AcDbLine
 62
9
  6
CONTINUOUS
 10
370.8210981049
 20
180.395532134
 11
370.5536446972
 21
179.5961981561
  0
LINE
  5
2AA
100
AcDbEntity
  8
0
100
AcDbLine
 62
7
  6
CONTINUOUS
 10
372.0851540168
 20
183.2279334372
 11
372.2142908831
 21
183.6138828476
  0
LINE
  5
2AB
100
AcDbEntity
  8
0
100
AcDbLine
 62
7
  6
CONTINUOUS
 10
368.9142961273
 20
200.195532134
 11
368.4142961273
 21
200.195532134
  0
LINE
  5
2AC
100
AcDbEntity
  8
0
100
AcDbLine
 62
9
  6
CONTINUOUS
 10
392.3142961273
 20
201.5227074166
 11
387.8142961273
 21
201.5227074166
  0
LINE
  5
2AD
100
AcDbEntity
  8
0
100
AcDbLine
 62
7
  6
CONTINUOUS
 10
370.0904942677
 20
207.7485318228
 11
370.1847646745
 21
207.5784635139
  0
LINE
  5
2AE
100
AcDbEntity
  8
0
100
AcDbLine
 62
9
  6
CONTINUOUS
 10
379.4571547942
 20
182.1100782453
 11
379.5418928343
 21
181.6921975481
  0
LINE
  5
2AF
100
AcDbEntity
  8
0
100
AcDbLine
 62
9
  6
CONTINUOUS
 10
379.7796109349
 20
180.5199046142
 11
379.8741237773
 21
180.0538200501
  0
LINE
  5
2B0
100
AcDbEntity
  8
0
100
AcDbLine
 62
7
  6
CONTINUOUS
 10
380.3768939916
 20
180.0903433172
 11
379.924559903
 21
182.3210024657
  0
LINE
  5
2B1
100
AcDbEntity
  8
0
100
AcDbLine
 62
7
  6
CONTINUOUS
 10
392.2142961276
 20
202.3566269999
 11
387.8142961273
 21
202.3566269999
  0
LINE
  5
2B2
100
AcDbEntity
  8
0
100
AcDbLine
 62
7
  6
CONTINUOUS
 10
395.8142961273
 20
203.1099392444
 11
396.8142961273
 21
203.1099392444
  0
LINE
  5
2B3
100
AcDbEntity
  8
0
100
AcDbLine
 62
7
  6
CONTINUOUS
 10
386.8142935639
 20
204.4217696475
 11
381.925712033
 21
204.4217696475
  0
LINE
  5
2B4
100
AcDbEntity
  8
0
100
AcDbLine
 62
7
  6
CONTINUOUS
 10
366.5142961276
 20
211.8955321336
 11
366.0142961272
 21
212.395532134
  0
LINE
  5
2B5
100
AcDbEntity
  8
0
100
AcDbLine
 62
7
  6
CONTINUOUS
 10
381.9609754157
 20
183.1127140771
 11
382.5609582707
 21
180.1539336571
  0
LINE
  5
2B6
100
AcDbEntity
  8
0
100
AcDbLine
 62
7
  6
CONTINUOUS
 10
381.525712033
 20
177.6569993615
 11
381.525712033
 21
174.872788836
  0
LINE
  5
2B7
100
AcDbEntity
  8
0
100
AcDbLine
 62
7
  6
CONTINUOUS
 10
381.925712033
 20
219.8569993622
 11
381.925712033
 21
177.6569993622
  0
LINE
  5
2B8
100
AcDbEntity
  8
0
100
AcDbLine
 62
7
  6
CONTINUOUS
 10
372.2143142123
 20
183.613860723
 11
373.7143021427
 21
185.1955155924
  0
LINE
  5
2B9
100
AcDbEntity
  8
0
100
AcDbLine
 62
7
  6
CONTINUOUS
 10
371.7142961269
 20
183.9955321337
 11
371.389830382
 21
183.6710663888
  0
LINE
  5
2BA
100
AcDbEntity
  8
0
100
AcDbLine
 62
7
  6
CONTINUOUS
 10
355.3013184332
 20
180.395532134
 11
365.9142961273
 21
184.683453456
  0
LINE
  5
2BB
100
AcDbEntity
  8
0
100
AcDbLine
 62
7
  6
CONTINUOUS
 10
381.925712033
 20
206.695532134
 11
387.7698532576
 21
206.695532134
  0
LINE
  5
2BC
100
AcDbEntity
  8
0
100
AcDbLine
 62
7
  6
CONTINUOUS
 10
368.9142961273
 20
206.795532134
 11
369.9142961269
 21
206.795532134
  0
LINE
  5
2BD
100
AcDbEntity
  8
0
100
AcDbLine
 62
7
  6
CONTINUOUS
 10
366.5142961277
 20
208.6955321347
 11
355.3013184335
 21
212.395532134
  0
LINE
  5
2BE
100
AcDbEntity
  8
0
100
AcDbLine
 62
7
  6
CONTINUOUS
 10
369.1618048127
 20
206.795532134
 11
368.914296128
 21
206.8955321338
  0
LINE
  5
2BF
100
AcDbEntity
  8
0
100
AcDbLine
 62
7
  6
CONTINUOUS
 10
388.6803215311
 20
198.345532134
 11
387.8142961273
 21
198.845532134
  0
LINE
  5
2C0
100
AcDbEntity
  8
0
100
AcDbLine
 62
7
  6
CONTINUOUS
 10
383.0142961273
 20
206.6955321336
 11
383.0142961273
 21
206.9032961981
  0
LINE
  5
2C1
100
AcDbEntity
  8
0
100
AcDbLine
 62
7
  6
CONTINUOUS
 10
387.8142961273
 20
194.345532134
 11
388.6803215306
 21
194.8455321338
  0
LINE
  5
2C2
100
AcDbEntity
  8
0
100
AcDbLine
 62
7
  6
CONTINUOUS
 10
369.9142961273
 20
207.095532134
 11
368.9142961273
 21
207.095532134
  0
LINE
  5
2C3
100
AcDbEntity
  8
0
100
AcDbLine
 62
7
  6
CONTINUOUS
 10
381.925712033
 20
207.095532134
 11
386.8142961273
 21
207.095532134
  0
LINE
  5
2C4
100
AcDbEntity
  8
0
100
AcDbLine
 62
7
  6
CONTINUOUS
 10
370.1141806842
 20
207.295532134
 11
370.836368004
 21
207.295532134
  0
LINE
  5
2C5
100
AcDbEntity
  8
0
100
AcDbLine
 62
7
  6
CONTINUOUS
 10
346.6058665911
 20
207.395532134
 11
349.3142961273
 21
207.395532134
  0
LINE
  5
2C6
100
AcDbEntity
  8
0
100
AcDbLine
 62
7
  6
CONTINUOUS
 10
366.5142961278
 20
208.695532134
 11
368.9142961273
 21
208.695532134
  0
LINE
  5
2C7
100
AcDbEntity
  8
0
100
AcDbLine
 62
7
  6
CONTINUOUS
 10
345.7909975645
 20
208.895532134
 11
346.3142961273
 21
208.895532134
  0
LINE
  5
2C8
100
AcDbEntity
  8
0
100
AcDbLine
 62
7
  6
CONTINUOUS
 10
369.7642961269
 20
209.095532134
 11
368.9142961273
 21
209.095532134
  0
LINE
  5
2C9
100
AcDbEntity
  8
0
100
AcDbLine
 62
7
  6
CONTINUOUS
 10
368.9916767267
 20
209.195532134
 11
367.7142961273
 21
209.195532134
  0
LINE
  5
2CA
100
AcDbEntity
  8
0
100
AcDbLine
 62
7
  6
CONTINUOUS
 10
367.7142961273
 20
209.295532134
 11
366.6142961273
 21
209.295532134
  0
LINE
  5
2CB
100
AcDbEntity
  8
0
100
AcDbLine
 62
7
  6
CONTINUOUS
 10
366.5142961273
 20
209.3685334877
 11
366.6142961273
 21
209.3472778315
  0
LINE
  5
2CC
100
AcDbEntity
  8
0
100
AcDbLine
 62
7
  6
CONTINUOUS
 10
367.4142961273
 20
209.1772325823
 11
368.9142961273
 21
208.8583977401
  0
LINE
  5
2CD
100
AcDbEntity
  8
0
100
AcDbLine
 62
7
  6
CONTINUOUS
 10
366.6142961273
 20
211.0591980948
 11
366.5142961273
 21
211.0859930141
  0
LINE
  5
2CE
100
AcDbEntity
  8
0
100
AcDbLine
 62
7
  6
CONTINUOUS
 10
372.414296128
 20
211.0532671607
 11
370.8286554815
 21
211.9687372151
  0
LINE
  5
2CF
100
AcDbEntity
  8
0
100
AcDbLine
 62
9
  6
CONTINUOUS
 10
386.8142961273
 20
207.095532134
 11
386.8142961273
 21
206.695532134
  0
LINE
  5
2D0
100
AcDbEntity
  8
0
100
AcDbLine
 62
9
  6
CONTINUOUS
 10
386.8142961273
 20
204.4217696475
 11
386.8142961273
 21
193.3955317179
  0
LINE
  5
2D1
100
AcDbEntity
  8
0
100
AcDbLine
 62
9
  6
CONTINUOUS
 10
386.8142961273
 20
189.6070174328
 11
386.8142961273
 21
186.4955321342
  0
LINE
  5
2D2
100
AcDbEntity
  8
0
100
AcDbLine
 62
7
  6
CONTINUOUS
 10
360.3509220966
 20
179.8446073962
 11
361.9874543348
 21
180.328221977
  0
LINE
  5
2D3
100
AcDbEntity
  8
0
100
AcDbLine
 62
7
  6
CONTINUOUS
 10
392.2142961273
 20
209.4918075103
 11
387.8142961273
 21
209.4918075103
  0
LINE
  5
2D4
100
AcDbEntity
  8
0
100
AcDbLine
 62
9
  6
CONTINUOUS
 10
387.8142961273
 20
209.5285315268
 11
392.3142961273
 21
209.5285315268
  0
LINE
  5
2D5
100
AcDbEntity
  8
0
100
AcDbLine
 62
7
  6
CONTINUOUS
 10
369.3916767279
 20
209.5955321344
 11
369.5416767259
 21
209.5955321344
  0
LINE
  5
2D6
100
AcDbEntity
  8
0
100
AcDbLine
 62
9
  6
CONTINUOUS
 10
392.3142961273
 20
210.0798108074
 11
387.8142961273
 21
210.0798108074
  0
LINE
  5
2D7
100
AcDbEntity
  8
0
100
AcDbLine
 62
7
  6
CONTINUOUS
 10
392.3142961273
 20
210.545532134
 11
392.8142961273
 21
210.545532134
  0
LINE
  5
2D8
100
AcDbEntity
  8
0
100
AcDbLine
 62
7
  6
CONTINUOUS
 10
392.2142961276
 20
210.5502876326
 11
387.8142961273
 21
210.5502876326
  0
LINE
  5
2D9
100
AcDbEntity
  8
0
100
AcDbLine
 62
7
  6
CONTINUOUS
 10
387.8142961273
 20
210.845532134
 11
392.2142961273
 21
210.845532134
  0
LINE
  5
2DA
100
AcDbEntity
  8
0
100
AcDbLine
 62
7
  6
CONTINUOUS
 10
392.8142961273
 20
210.965532134
 11
395.8142961273
 21
210.965532134
  0
LINE
  5
2DB
100
AcDbEntity
  8
0
100
AcDbLine
 62
7
  6
CONTINUOUS
 10
387.769853258
 20
206.6955321341
 11
387.769853258
 21
205.3451820054
  0
LINE
  5
2DC
100
AcDbEntity
  8
0
100
AcDbLine
 62
7
  6
CONTINUOUS
 10
387.7698532529
 20
189.818590038
 11
387.7698532529
 21
189.8301319753
  0
LINE
  5
2DD
100
AcDbEntity
  8
0
100
AcDbLine
 62
7
  6
CONTINUOUS
 10
387.8142961273
 20
182.345652098
 11
387.8142961273
 21
210.8454121701
  0
LINE
  5
2DE
100
AcDbEntity
  8
0
100
AcDbLine
 62
7
  6
CONTINUOUS
 10
387.7697302611
 20
189.7961347425
 11
387.7698532529
 21
189.818590038
  0
LINE
  5
2DF
100
AcDbEntity
  8
0
100
AcDbLine
 62
7
  6
CONTINUOUS
 10
383.1150931791
 20
181.8065239986
 11
382.5609582707
 21
180.1539336573
  0
LINE
  5
2E0
100
AcDbEntity
  8
0
100
AcDbLine
 62
7
  6
CONTINUOUS
 10
378.7317523543
 20
182.0569993622
 11
379.7674707178
 21
182.4339700176
  0
LINE
  5
2E1
100
AcDbEntity
  8
0
100
AcDbLine
 62
7
  6
CONTINUOUS
 10
358.4375524764
 20
211.3606539528
 11
350.6663905793
 21
209.9903884388
  0
LINE
  5
2E2
100
AcDbEntity
  8
0
100
AcDbLine
 62
7
  6
CONTINUOUS
 10
366.6142961273
 20
211.845532134
 11
367.7142961273
 21
211.845532134
  0
LINE
  5
2E3
100
AcDbEntity
  8
0
100
AcDbLine
 62
7
  6
CONTINUOUS
 10
370.7286554819
 20
211.9955321347
 11
367.714296127
 21
211.9955321347
  0
LINE
  5
2E4
100
AcDbEntity
  8
0
100
AcDbLine
 62
7
  6
CONTINUOUS
 10
366.6142961273
 20
211.995532134
 11
367.4142961273
 21
211.995532134
  0
LINE
  5
2E5
100
AcDbEntity
  8
0
100
AcDbLine
 62
7
  6
CONTINUOUS
 10
349.4355122561
 20
212.395532134
 11
366.0142961266
 21
212.395532134
  0
LINE
  5
2E6
100
AcDbEntity
  8
0
100
AcDbLine
 62
7
  6
CONTINUOUS
 10
356.2142961273
 20
212.8955321341
 11
357.1063409766
 21
212.8955321341
  0
LINE
  5
2E7
100
AcDbEntity
  8
0
100
AcDbLine
 62
7
  6
CONTINUOUS
 10
368.9142961273
 20
213.145532134
 11
375.925712033
 21
213.145532134
  0
LINE
  5
2E8
100
AcDbEntity
  8
0
100
AcDbLine
 62
7
  6
CONTINUOUS
 10
357.6979489544
 20
213.3955321341
 11
359.7358843294
 21
213.3955321341
  0
LINE
  5
2E9
100
AcDbEntity
  8
0
100
AcDbLine
 62
9
  6
CONTINUOUS
 10
375.925712033
 20
213.645532134
 11
375.3142961273
 21
213.645532134
  0
LINE
  5
2EA
100
AcDbEntity
  8
0
100
AcDbLine
 62
9
  6
CONTINUOUS
 10
373.8142961273
 20
213.645532134
 11
369.9142961273
 21
213.645532134
  0
LINE
  5
2EB
100
AcDbEntity
  8
0
100
AcDbLine
 62
7
  6
CONTINUOUS
 10
373.8142961273
 20
213.8955321337
 11
375.3142961273
 21
213.8955321337
  0
LINE
  5
2EC
100
AcDbEntity
  8
0
100
AcDbLine
 62
7
  6
CONTINUOUS
 10
372.2142961271
 20
176.945532134
 11
370.412579925
 21
176.2347272671
  0
LINE
  5
2ED
100
AcDbEntity
  8
0
100
AcDbLine
 62
7
  6
CONTINUOUS
 10
379.5582423717
 20
179.8569993622
 11
378.7607835587
 21
179.5667480913
  0
LINE
  5
2EE
100
AcDbEntity
  8
0
100
AcDbLine
 62
7
  6
CONTINUOUS
 10
395.8142961273
 20
214.195532134
 11
396.8142961273
 21
214.195532134
  0
LINE
  5
2EF
100
AcDbEntity
  8
0
100
AcDbLine
 62
9
  6
CONTINUOUS
 10
369.9142961273
 20
214.595532134
 11
373.8142961273
 21
214.595532134
  0
LINE
  5
2F0
100
AcDbEntity
  8
0
100
AcDbLine
 62
9
  6
CONTINUOUS
 10
375.3142961273
 20
214.595532134
 11
375.925712033
 21
214.595532134
  0
LINE
  5
2F1
100
AcDbEntity
  8
0
100
AcDbLine
 62
7
  6
CONTINUOUS
 10
398.4142961271
 20
214.800532134
 11
396.8142961273
 21
214.800532134
  0
LINE
  5
2F2
100
AcDbEntity
  8
0
100
AcDbLine
 62
7
  6
CONTINUOUS
 10
375.925712033
 20
215.095532134
 11
375.3142961273
 21
215.095532134
  0
LINE
  5
2F3
100
AcDbEntity
  8
0
100
AcDbLine
 62
7
  6
CONTINUOUS
 10
373.8142961273
 20
215.095532134
 11
368.9142961273
 21
215.095532134
  0
LINE
  5
2F4
100
AcDbEntity
  8
0
100
AcDbLine
 62
9
  6
CONTINUOUS
 10
392.2142961273
 20
210.845532134
 11
392.2142961273
 21
210.5502876326
  0
LINE
  5
2F5
100
AcDbEntity
  8
0
100
AcDbLine
 62
9
  6
CONTINUOUS
 10
392.2142961273
 20
209.4918075103
 11
392.2142961273
 21
202.3566269998
  0
LINE
  5
2F6
100
AcDbEntity
  8
0
100
AcDbLine
 62
9
  6
CONTINUOUS
 10
392.2142961273
 20
199.156559719
 11
392.2142961273
 21
198.345532134
  0
LINE
  5
2F7
100
AcDbEntity
  8
0
100
AcDbLine
 62
9
  6
CONTINUOUS
 10
392.2142961265
 20
194.845532134
 11
392.2142961265
 21
194.0345045491
  0
LINE
  5
2F8
100
AcDbEntity
  8
0
100
AcDbLine
 62
9
  6
CONTINUOUS
 10
392.2142961265
 20
190.8344372682
 11
392.2142961265
 21
183.6992567578
  0
LINE
  5
2F9
100
AcDbEntity
  8
0
100
AcDbLine
 62
9
  6
CONTINUOUS
 10
392.2142961265
 20
182.6407766355
 11
392.2142961265
 21
182.345540564
  0
LINE
  5
2FA
100
AcDbEntity
  8
0
100
AcDbLine
 62
7
  6
CONTINUOUS
 10
392.3142961273
 20
210.7455308051
 11
392.3142961273
 21
210.0798108073
  0
LINE
  5
2FB
100
AcDbEntity
  8
0
100
AcDbLine
 62
7
  6
CONTINUOUS
 10
392.3142961273
 20
209.5285315267
 11
392.3142961273
 21
201.5227074156
  0
LINE
  5
2FC
100
AcDbEntity
  8
0
100
AcDbLine
 62
7
  6
CONTINUOUS
 10
392.3142961273
 20
199.8560433461
 11
392.3142961273
 21
198.345532134
  0
LINE
  5
2FD
100
AcDbEntity
  8
0
100
AcDbLine
 62
7
  6
CONTINUOUS
 10
392.3142961273
 20
194.845532134
 11
392.3142961273
 21
193.3350209177
  0
LINE
  5
2FE
100
AcDbEntity
  8
0
100
AcDbLine
 62
7
  6
CONTINUOUS
 10
392.3142961273
 20
191.6683568543
 11
392.3142961273
 21
183.6625327412
  0
LINE
  5
2FF
100
AcDbEntity
  8
0
100
AcDbLine
 62
7
  6
CONTINUOUS
 10
392.3142961273
 20
183.1112534609
 11
392.3142961273
 21
182.4455405044
  0
LINE
  5
300
100
AcDbEntity
  8
0
100
AcDbLine
 62
7
  6
CONTINUOUS
 10
392.5142961273
 20
194.845532134
 11
392.5142961273
 21
198.345532134
  0
LINE
  5
301
100
AcDbEntity
  8
0
100
AcDbLine
 62
7
  6
CONTINUOUS
 10
392.8142961273
 20
182.2255400972
 11
392.8142961273
 21
210.9655241709
  0
LINE
  5
302
100
AcDbEntity
  8
0
100
AcDbLine
 62
9
  6
CONTINUOUS
 10
373.8142961273
 20
217.6327425551
 11
375.3142961273
 21
217.6327425551
  0
LINE
  5
303
100
AcDbEntity
  8
0
100
AcDbLine
 62
7
  6
CONTINUOUS
 10
373.8142961273
 20
217.895532134
 11
375.3142961273
 21
217.895532134
  0
LINE
  5
304
100
AcDbEntity
  8
0
100
AcDbLine
 62
7
  6
CONTINUOUS
 10
395.8142961273
 20
178.9955396915
 11
395.8142961273
 21
214.1955245766
  0
LINE
  5
305
100
AcDbEntity
  8
0
100
AcDbLine
 62
7
  6
CONTINUOUS
 10
373.8142961273
 20
219.595532134
 11
375.3142961273
 21
219.595532134
  0
LINE
  5
306
100
AcDbEntity
  8
0
100
AcDbLine
 62
7
  6
CONTINUOUS
 10
379.9463675942
 20
220.3569993622
 11
381.425712033
 21
220.3569993622
  0
LINE
  5
307
100
AcDbEntity
  8
0
100
AcDbLine
 62
7
  6
CONTINUOUS
 10
396.8142961273
 20
178.3905321339
 11
396.8142961273
 21
214.8005321341
  0
LINE
  5
308
100
AcDbEntity
  8
0
100
AcDbLine
 62
9
  6
CONTINUOUS
 10
398.4142961271
 20
214.800532134
 11
398.4142961271
 21
178.390532134
  0
LINE
  5
309
100
AcDbEntity
  8
0
100
AcDbLine
 62
7
  6
CONTINUOUS
 10
398.8142961273
 20
214.400532134
 11
398.8142961273
 21
178.790532134
  0
LINE
  5
30A
100
AcDbEntity
  8
0
100
AcDbLine
 62
9
  6
CONTINUOUS
 10
398.943557211
 20
184.6975849199
 11
398.9435572113
 21
208.4934793482
  0
LINE
  5
30B
100
AcDbEntity
  8
0
100
AcDbLine
 62
7
  6
CONTINUOUS
 10
399.3143785947
 20
205.7955321337
 11
399.3143785946
 21
187.3955321346
  0
LINE
  5
30C
100
AcDbEntity
  8
0
100
AcDbLine
 62
7
  6
CONTINUOUS
 10
398.8142961273
 20
208.9455321339
 11
398.9435572109
 21
208.4934793484
  0
LINE
  5
30D
100
AcDbEntity
  8
0
100
AcDbLine
 62
7
  6
CONTINUOUS
 10
398.9435572109
 20
184.6975849218
 11
398.8142961273
 21
184.2455321445
  0
ARC
  5
30E
100
AcDbEntity
  8
0
100
AcDbCircle
 62
7
  6
CONTINUOUS
 10
370.9142961273
 20
191.1811050093
 40
2.0
100
AcDbArc
 50
134.9999999982
 51
162.7430140421
  0
ARC
  5
30F
100
AcDbEntity
  8
0
100
AcDbCircle
 62
7
  6
CONTINUOUS
 10
366.1142961273
 20
188.7389141648
 40
1.0
100
AcDbArc
 50
128.0000000214
 51
179.9999999989
  0
ARC
  5
310
100
AcDbEntity
  8
0
100
AcDbCircle
 62
7
  6
CONTINUOUS
 10
366.9142961273
 20
188.9021282559
 40
1.0
100
AcDbArc
 50
127.4761795515
 51
179.9999999553
  0
ARC
  5
311
100
AcDbEntity
  8
0
100
AcDbCircle
 62
7
  6
CONTINUOUS
 10
369.7142961273
 20
192.4955321341
 40
0.8
100
AcDbArc
 50
89.9999999461
 51
172.8084682026
  0
ARC
  5
312
100
AcDbEntity
  8
0
100
AcDbCircle
 62
7
  6
CONTINUOUS
 10
369.9142961273
 20
193.0922340731
 40
0.5
100
AcDbArc
 50
307.4761796468
 51
359.9999999977
  0
ARC
  5
313
100
AcDbEntity
  8
0
100
AcDbCircle
 62
7
  6
CONTINUOUS
 10
350.6142961273
 20
182.5052335025
 40
0.3
100
AcDbArc
 50
80.0000024495
 51
179.9999999045
  0
ARC
  5
314
100
AcDbEntity
  8
0
100
AcDbCircle
 62
7
  6
CONTINUOUS
 10
362.3511835056
 20
179.2892843752
 40
0.15
100
AcDbArc
 50
191.463176491
 51
281.4630316251
  0
ARC
  5
315
100
AcDbEntity
  8
0
100
AcDbCircle
 62
7
  6
CONTINUOUS
 10
363.0107870486
 20
176.0364880142
 40
0.15
100
AcDbArc
 50
101.4630316251
 51
191.462886755
  0
ARC
  5
316
100
AcDbEntity
  8
0
100
AcDbCircle
 62
7
  6
CONTINUOUS
 10
363.8142961273
 20
215.6266499122
 40
4.5
100
AcDbArc
 50
211.8243002303
 51
226.103749217
  0
ARC
  5
317
100
AcDbEntity
  8
0
100
AcDbCircle
 62
7
  6
CONTINUOUS
 10
368.9142961273
 20
198.845532134
 40
1.5
100
AcDbArc
 50
0.0
 51
90.0
  0
ARC
  5
318
100
AcDbEntity
  8
0
100
AcDbCircle
 62
7
  6
CONTINUOUS
 10
369.7142961273
 20
200.2955321341
 40
0.8
100
AcDbArc
 50
187.1915925827
 51
270.0000001817
  0
ARC
  5
319
100
AcDbEntity
  8
0
100
AcDbCircle
 62
7
  6
CONTINUOUS
 10
370.5278041209
 20
207.9909366317
 40
0.5
100
AcDbArc
 50
191.0000000577
 51
208.9999999057
  0
ARC
  5
31A
100
AcDbEntity
  8
0
100
AcDbCircle
 62
7
  6
CONTINUOUS
 10
350.6142961273
 20
210.2858307655
 40
0.3
100
AcDbArc
 50
180.0000000955
 51
279.9999997246
  0
ARC
  5
31B
100
AcDbEntity
  8
0
100
AcDbCircle
 62
7
  6
CONTINUOUS
 10
359.7358843294
 20
213.0955321341
 40
0.3
100
AcDbArc
 50
31.824300249
 51
90.0000001241
  0
ARC
  5
31C
100
AcDbEntity
  8
0
100
AcDbCircle
 62
7
  6
CONTINUOUS
 10
357.6979489549
 20
213.0955321341
 40
0.3
100
AcDbArc
 50
90.0000000955
 51
170.4059317572
  0
ARC
  5
31D
100
AcDbEntity
  8
0
100
AcDbCircle
 62
7
  6
CONTINUOUS
 10
357.1063409766
 20
213.1955321341
 40
0.3
100
AcDbArc
 50
269.9999996425
 51
350.4059317888
  0
ARC
  5
31E
100
AcDbEntity
  8
0
100
AcDbCircle
 62
7
  6
CONTINUOUS
 10
356.2142961273
 20
212.5955321341
 40
0.3
100
AcDbArc
 50
89.9999998663
 51
180.0000001337
  0
ARC
  5
31F
100
AcDbEntity
  8
0
100
AcDbCircle
 62
7
  6
CONTINUOUS
 10
368.9916767265
 20
209.395532134
 40
0.2
100
AcDbArc
 50
270.0000253926
 51
0.0000062596
  0
ARC
  5
320
100
AcDbEntity
  8
0
100
AcDbCircle
 62
7
  6
CONTINUOUS
 10
369.3916767265
 20
209.395532134
 40
0.2
100
AcDbArc
 50
89.9999995967
 51
179.9999937404
  0
ARC
  5
321
100
AcDbEntity
  8
0
100
AcDbCircle
 62
7
  6
CONTINUOUS
 10
369.5416767265
 20
209.395532134
 40
0.2
100
AcDbArc
 50
10.9999999034
 51
90.0000001649
  0
ARC
  5
322
100
AcDbEntity
  8
0
100
AcDbCircle
 62
7
  6
CONTINUOUS
 10
370.3596294685
 20
207.675532134
 40
0.2
100
AcDbArc
 50
209.0349486424
 51
317.0352563331
  0
ARC
  5
323
100
AcDbEntity
  8
0
100
AcDbCircle
 62
7
  6
CONTINUOUS
 10
372.3142961273
 20
209.7742431559
 40
0.2
100
AcDbArc
 50
317.0352562717
 51
359.9999999427
  0
ARC
  5
324
100
AcDbEntity
  8
0
100
AcDbCircle
 62
7
  6
CONTINUOUS
 10
372.3142961273
 20
210.8800620802
 40
0.2
100
AcDbArc
 50
359.9999997422
 51
59.9999997692
  0
ARC
  5
325
100
AcDbEntity
  8
0
100
AcDbCircle
 62
7
  6
CONTINUOUS
 10
370.7286554812
 20
211.795532134
 40
0.2
100
AcDbArc
 50
59.9999999828
 51
89.9999997937
  0
ARC
  5
326
100
AcDbEntity
  8
0
100
AcDbCircle
 62
7
  6
CONTINUOUS
 10
380.2391547813
 20
196.2862894163
 40
10.5536116473
100
AcDbArc
 50
163.6121475756
 51
168.0488950125
  0
ARC
  5
327
100
AcDbEntity
  8
0
100
AcDbCircle
 62
7
  6
CONTINUOUS
 10
389.3143785946
 20
187.3955321338
 40
10.0000000001
100
AcDbArc
 50
344.3479480528
 51
360.0
  0
ARC
  5
328
100
AcDbEntity
  8
0
100
AcDbCircle
 62
7
  6
CONTINUOUS
 10
378.925712033
 20
180.9569993622
 40
1.7
100
AcDbArc
 50
319.6797849289
 51
60.3202150668
  0
ARC
  5
329
100
AcDbEntity
  8
0
100
AcDbCircle
 62
7
  6
CONTINUOUS
 10
378.925712033
 20
180.9569993622
 40
1.4
100
AcDbArc
 50
128.213210694
 51
263.2344994764
  0
ARC
  5
32A
100
AcDbEntity
  8
0
100
AcDbCircle
 62
7
  6
CONTINUOUS
 10
386.8142961273
 20
185.495532134
 40
1.0
100
AcDbArc
 50
0.0
 51
90.0
  0
ARC
  5
32B
100
AcDbEntity
  8
0
100
AcDbCircle
 62
7
  6
CONTINUOUS
 10
398.4142961273
 20
178.790532134
 40
0.4
100
AcDbArc
 50
270.0
 51
360.0
  0
ARC
  5
32C
100
AcDbEntity
  8
0
100
AcDbCircle
 62
7
  6
CONTINUOUS
 10
392.2142961273
 20
182.445532134
 40
0.1
100
AcDbArc
 50
270.0
 51
360.0
  0
ARC
  5
32D
100
AcDbEntity
  8
0
100
AcDbCircle
 62
7
  6
CONTINUOUS
 10
389.3143785946
 20
205.7955321343
 40
10.0000000001
100
AcDbArc
 50
0.0
 51
15.6520519471
  0
ARC
  5
32E
100
AcDbEntity
  8
0
100
AcDbCircle
 62
7
  6
CONTINUOUS
 10
379.9463675946
 20
219.3569993622
 40
1.0
100
AcDbArc
 50
90.0
 51
145.0079797544
  0
ARC
  5
32F
100
AcDbEntity
  8
0
100
AcDbCircle
 62
7
  6
CONTINUOUS
 10
376.925712033
 20
215.0417771314
 40
1.0
100
AcDbArc
 50
145.0079798059
 51
179.9999999972
  0
ARC
  5
330
100
AcDbEntity
  8
0
100
AcDbCircle
 62
7
  6
CONTINUOUS
 10
386.8142961273
 20
208.095532134
 40
1.0
100
AcDbArc
 50
270.0
 51
360.0
  0
ARC
  5
331
100
AcDbEntity
  8
0
100
AcDbCircle
 62
7
  6
CONTINUOUS
 10
381.425712033
 20
219.8569993622
 40
0.5
100
AcDbArc
 50
0.0000000458
 51
90.0
  0
ARC
  5
332
100
AcDbEntity
  8
0
100
AcDbCircle
 62
7
  6
CONTINUOUS
 10
398.4142961273
 20
214.400532134
 40
0.4
100
AcDbArc
 50
0.0
 51
90.0
  0
ARC
  5
333
100
AcDbEntity
  8
0
100
AcDbCircle
 62
7
  6
CONTINUOUS
 10
392.2142961273
 20
210.745532134
 40
0.1
100
AcDbArc
 50
0.0
 51
90.0
  0
SPLINE
  5
334
100
AcDbEntity
  8
0
100
AcDbSpline
 62
7
  6
CONTINUOUS
 70
0
 71
3
 72
11
 73
7
 74
0
 42
0.0000001
 43
0.0000001
 44
0.0000000001
 40
0.0
 40
0.0
 40
0.0
 40
0.0
 40
0.1532569086
 40
0.3815953648
 40
0.6745117166
 40
1.0
 40
1.0
 40
1.0
 40
1.0
 10
368.414296408
 20
177.0784841995
 30
0.0
 10
368.41429574
 20
177.0871719001
 30
0.0
 10
368.3998454137
 20
177.1070966519
 30
0.0
 10
368.3647641455
 20
177.1224779443
 30
0.0
 10
368.3177832021
 20
177.1336733694
 30
0.0
 10
368.2826811378
 20
177.1362430901
 30
0.0
 10
368.2642302981
 20
177.136322353
 30
0.0
  0
SPLINE
  5
335
100
AcDbEntity
  8
0
100
AcDbSpline
 62
7
  6
CONTINUOUS
 70
0
 71
3
 72
8
 73
4
 74
0
 42
0.0000001
 43
0.0000001
 44
0.0000000001
 40
0.0
 40
0.0
 40
0.0
 40
0.0
 40
1.0
 40
1.0
 40
1.0
 40
1.0
 10
371.6682111979
 20
182.9272862966
 30
0.0
 10
371.6330314022
 20
182.9272862966
 30
0.0
 10
371.5976702954
 20
182.921312617
 30
0.0
 10
371.563828849
 20
182.9117014502
 30
0.0
  0
SPLINE
  5
336
100
AcDbEntity
  8
0
100
AcDbSpline
 62
7
  6
CONTINUOUS
 70
0
 71
3
 72
18
 73
14
 74
0
 42
0.0000001
 43
0.0000001
 44
0.0000000001
 40
0.0
 40
0.0
 40
0.0
 40
0.0
 40
0.2282000386
 40
0.4374954519
 40
0.6196795383
 40
0.7640690369
 40
0.8702984872
 40
0.9105413624
 40
0.9428873417
 40
0.9678020606
 40
0.9856114019
 40
0.9963475118
 40
1.0
 40
1.0
 40
1.0
 40
1.0
 10
369.0122438941
 20
176.4467007107
 30
0.0
 10
369.0087406838
 20
176.4238365853
 30
0.0
 10
368.9973893707
 20
176.3806559394
 30
0.0
 10
368.9727105655
 20
176.322782088
 30
0.0
 10
368.9476071867
 20
176.2746088179
 30
0.0
 10
368.928669406
 20
176.2350126146
 30
0.0
 10
368.9180890323
 20
176.2074442884
 30
0.0
 10
368.9124732914
 20
176.1902327032
 30
0.0
 10
368.9097491537
 20
176.180680087
 30
0.0
 10
368.907614205
 20
176.1735075464
 30
0.0
 10
368.9064516791
 20
176.167908642
 30
0.0
 10
368.9050291478
 20
176.1654420458
 30
0.0
 10
368.9051448079
 20
176.1633461588
 30
0.0
 10
368.9047782453
 20
176.1632942075
 30
0.0
  0
SPLINE
  5
337
100
AcDbEntity
  8
0
100
AcDbSpline
 62
7
  6
CONTINUOUS
 70
0
 71
3
 72
10
 73
6
 74
0
 42
0.0000001
 43
0.0000001
 44
0.0000000001
 40
0.0
 40
0.0
 40
0.0
 40
0.0
 40
0.2051233527
 40
0.4423312007
 40
1.0
 40
1.0
 40
1.0
 40
1.0
 10
369.0126585817
 20
176.4474512576
 30
0.0
 10
369.0256986296
 20
176.481827622
 30
0.0
 10
369.0570654697
 20
176.5546993915
 30
0.0
 10
369.1326505888
 20
176.7172220241
 30
0.0
 10
369.1983097176
 20
176.8437580838
 30
0.0
 10
369.2457303939
 20
176.9317507474
 30
0.0
  0
SPLINE
  5
338
100
AcDbEntity
  8
0
100
AcDbSpline
 62
7
  6
CONTINUOUS
 70
0
 71
3
 72
12
 73
8
 74
0
 42
0.0000001
 43
0.0000001
 44
0.0000000001
 40
0.0
 40
0.0
 40
0.0
 40
0.0
 40
0.2175574206
 40
0.4642134419
 40
0.7274764885
 40
0.863100236
 40
1.0
 40
1.0
 40
1.0
 40
1.0
 10
369.2457303939
 20
176.9317507474
 30
0.0
 10
369.3479921063
 20
177.1215051152
 30
0.0
 10
369.5750207828
 20
177.5215549469
 30
0.0
 10
369.924177011
 20
178.152154806
 30
0.0
 10
370.2095784097
 20
178.7250359492
 30
0.0
 10
370.4187429639
 20
179.213192286
 30
0.0
 10
370.5103450889
 20
179.4673476103
 30
0.0
 10
370.5540594637
 20
179.5957503962
 30
0.0
  0
SPLINE
  5
339
100
AcDbEntity
  8
0
100
AcDbSpline
 62
7
  6
CONTINUOUS
 70
0
 71
3
 72
12
 73
8
 74
0
 42
0.0000001
 43
0.0000001
 44
0.0000000001
 40
0.0
 40
0.0
 40
0.0
 40
0.0
 40
0.2502184326
 40
0.4970796624
 40
0.621105686
 40
0.7474379695
 40
1.0
 40
1.0
 40
1.0
 40
1.0
 10
369.1516353503
 20
176.983800627
 30
0.0
 10
369.1401853776
 20
176.9389944391
 30
0.0
 10
369.1146096661
 20
176.8506860901
 30
0.0
 10
369.0919496816
 20
176.7380864882
 30
0.0
 10
369.0734456912
 20
176.6480646691
 30
0.0
 10
369.0501137397
 20
176.5580478432
 30
0.0
 10
369.0283195308
 20
176.4914249041
 30
0.0
 10
369.0126585817
 20
176.4474512576
 30
0.0
  0
SPLINE
  5
33A
100
AcDbEntity
  8
0
100
AcDbSpline
 62
7
  6
CONTINUOUS
 70
0
 71
3
 72
8
 73
4
 74
0
 42
0.0000001
 43
0.0000001
 44
0.0000000001
 40
0.0
 40
0.0
 40
0.0
 40
0.0
 40
1.0
 40
1.0
 40
1.0
 40
1.0
 10
369.7919893775
 20
178.895628024
 30
0.0
 10
368.9382095529
 20
178.8953781356
 30
0.0
 10
368.0844296349
 20
178.8953615653
 30
0.0
 10
367.2306497951
 20
178.8955523576
 30
0.0
  0
SPLINE
  5
33B
100
AcDbEntity
  8
0
100
AcDbSpline
 62
7
  6
CONTINUOUS
 70
0
 71
3
 72
11
 73
7
 74
0
 42
0.0000001
 43
0.0000001
 44
0.0000000001
 40
0.0
 40
0.0
 40
0.0
 40
0.0
 40
0.2499307554
 40
0.4998384761
 40
0.7498732719
 40
1.0
 40
1.0
 40
1.0
 40
1.0
 10
379.541892834
 20
181.6921975473
 30
0.0
 10
379.6067357096
 20
181.7053464155
 30
0.0
 10
379.7435324783
 20
181.704481886
 30
0.0
 10
379.9297859469
 20
181.6219984253
 30
0.0
 10
380.0705342919
 20
181.4752520516
 30
0.0
 10
380.1216333542
 20
181.3491462468
 30
0.0
 10
380.1347925326
 20
181.2842525274
 30
0.0
  0
SPLINE
  5
33C
100
AcDbEntity
  8
0
100
AcDbSpline
 62
7
  6
CONTINUOUS
 70
0
 71
3
 72
11
 73
7
 74
0
 42
0.0000001
 43
0.0000001
 44
0.0000000001
 40
0.0
 40
0.0
 40
0.0
 40
0.0
 40
0.2502670952
 40
0.5003166166
 40
0.7501982126
 40
1.0
 40
1.0
 40
1.0
 40
1.0
 10
379.8741237771
 20
180.0538200506
 30
0.0
 10
379.9398539498
 20
180.0671488453
 30
0.0
 10
380.0669845362
 20
180.123224181
 30
0.0
 10
380.2053734377
 20
180.27637852
 30
0.0
 10
380.2751430343
 20
180.4697605964
 30
0.0
 10
380.2721117329
 20
180.6070709091
 30
0.0
 10
380.2588077196
 20
180.6726788733
 30
0.0
  0
SPLINE
  5
33D
100
AcDbEntity
  8
0
100
AcDbSpline
 62
7
  6
CONTINUOUS
 70
0
 71
3
 72
11
 73
7
 74
0
 42
0.0000001
 43
0.0000001
 44
0.0000000001
 40
0.0
 40
0.0
 40
0.0
 40
0.0
 40
0.2501341623
 40
0.5001834366
 40
0.7500990712
 40
1.0
 40
1.0
 40
1.0
 40
1.0
 10
380.1667643733
 20
181.1265852614
 30
0.0
 10
380.1799239607
 20
181.0616895251
 30
0.0
 10
380.1819944919
 20
180.9256329241
 30
0.0
 10
380.1095089238
 20
180.7356465903
 30
0.0
 10
379.9700942286
 20
180.5871338607
 30
0.0
 10
379.8444461603
 20
180.5330519304
 30
0.0
 10
379.7796109349
 20
180.5199046135
 30
0.0
  0
SPLINE
  5
33E
100
AcDbEntity
  8
0
100
AcDbSpline
 62
7
  6
CONTINUOUS
 70
0
 71
3
 72
8
 73
4
 74
0
 42
0.0000001
 43
0.0000001
 44
0.0000000001
 40
0.0
 40
0.0
 40
0.0
 40
0.0
 40
1.0
 40
1.0
 40
1.0
 40
1.0
 10
372.2142961273
 20
179.5954974598
 30
0.0
 10
371.6607462828
 20
179.5963660521
 30
0.0
 10
371.1071946073
 20
179.5953724252
 30
0.0
 10
370.5536446972
 20
179.5961981561
 30
0.0
  0
SPLINE
  5
33F
100
AcDbEntity
  8
0
100
AcDbSpline
 62
7
  6
CONTINUOUS
 70
0
 71
3
 72
10
 73
6
 74
0
 42
0.0000001
 43
0.0000001
 44
0.0000000001
 40
0.0
 40
0.0
 40
0.0
 40
0.0
 40
0.262851968
 40
0.564887498
 40
1.0
 40
1.0
 40
1.0
 40
1.0
 10
392.3142961273
 20
183.7363553827
 30
0.0
 10
392.3142961272
 20
183.7266369045
 30
0.0
 10
392.2914747085
 20
183.7127058574
 30
0.0
 10
392.2585132321
 20
183.7026280874
 30
0.0
 10
392.2303836288
 20
183.6992567578
 30
0.0
 10
392.2142961276
 20
183.6992567578
 30
0.0
  0
SPLINE
  5
340
100
AcDbEntity
  8
0
100
AcDbSpline
 62
7
  6
CONTINUOUS
 70
0
 71
3
 72
11
 73
7
 74
0
 42
0.0000001
 43
0.0000001
 44
0.0000000001
 40
0.0
 40
0.0
 40
0.0
 40
0.0
 40
0.0960464298
 40
0.2701241153
 40
0.5673633487
 40
1.0
 40
1.0
 40
1.0
 40
1.0
 10
392.3142961273
 20
209.4547088854
 30
0.0
 10
392.3142961272
 20
209.4582877279
 30
0.0
 10
392.3082357601
 20
209.4676125674
 30
0.0
 10
392.2900610861
 20
209.4784483975
 30
0.0
 10
392.2577154128
 20
209.4890187665
 30
0.0
 10
392.2304168563
 20
209.4918075103
 30
0.0
 10
392.2142961276
 20
209.4918075103
 30
0.0
  0
SPLINE
  5
341
100
AcDbEntity
  8
0
100
AcDbSpline
 62
7
  6
CONTINUOUS
 70
0
 71
3
 72
10
 73
6
 74
0
 42
0.0000001
 43
0.0000001
 44
0.0000000001
 40
0.0
 40
0.0
 40
0.0
 40
0.0
 40
0.452432441
 40
0.7119283131
 40
1.0
 40
1.0
 40
1.0
 40
1.0
 10
392.3142961273
 20
182.7649256874
 30
0.0
 10
392.3142961273
 20
182.7385606626
 30
0.0
 10
392.3040764067
 20
182.6954080851
 30
0.0
 10
392.2634923171
 20
182.6515867891
 30
0.0
 10
392.2310832023
 20
182.6407766354
 30
0.0
 10
392.2142961276
 20
182.6407766354
 30
0.0
  0
SPLINE
  5
342
100
AcDbEntity
  8
0
100
AcDbSpline
 62
7
  6
CONTINUOUS
 70
0
 71
3
 72
9
 73
5
 74
0
 42
0.0000001
 43
0.0000001
 44
0.0000000001
 40
0.0
 40
0.0
 40
0.0
 40
0.0
 40
0.4483567083
 40
1.0
 40
1.0
 40
1.0
 40
1.0
 10
392.3142961273
 20
193.927904532
 30
0.0
 10
392.3142961273
 20
193.9518014553
 30
0.0
 10
392.301890313
 20
194.0088621559
 30
0.0
 10
392.2436981132
 20
194.034504549
 30
0.0
 10
392.2142961276
 20
194.034504549
 30
0.0
  0
SPLINE
  5
343
100
AcDbEntity
  8
0
100
AcDbSpline
 62
7
  6
CONTINUOUS
 70
0
 71
3
 72
10
 73
6
 74
0
 42
0.0000001
 43
0.0000001
 44
0.0000000001
 40
0.0
 40
0.0
 40
0.0
 40
0.0
 40
0.452018856
 40
0.712124088
 40
1.0
 40
1.0
 40
1.0
 40
1.0
 10
392.3142961273
 20
210.4261385807
 30
0.0
 10
392.3142961272
 20
210.4524747362
 30
0.0
 10
392.3044754328
 20
210.4958913047
 30
0.0
 10
392.2632856152
 20
210.5390671152
 30
0.0
 10
392.2310687571
 20
210.5502876326
 30
0.0
 10
392.2142961276
 20
210.5502876326
 30
0.0
  0
SPLINE
  5
344
100
AcDbEntity
  8
0
100
AcDbSpline
 62
7
  6
CONTINUOUS
 70
0
 71
3
 72
11
 73
7
 74
0
 42
0.0000001
 43
0.0000001
 44
0.0000000001
 40
0.0
 40
0.0
 40
0.0
 40
0.0
 40
0.2505612853
 40
0.4992145317
 40
0.7484175382
 40
1.0
 40
1.0
 40
1.0
 40
1.0
 10
392.3142961273
 20
202.2000503946
 30
0.0
 10
392.3142961272
 20
202.2170627123
 30
0.0
 10
392.312130773
 20
202.2511092766
 30
0.0
 10
392.2965090031
 20
202.3001901469
 30
0.0
 10
392.2654596986
 20
202.3420070695
 30
0.0
 10
392.23137778
 20
202.3566269999
 30
0.0
 10
392.2142961276
 20
202.3566269999
 30
0.0
  0
SPLINE
  5
345
100
AcDbEntity
  8
0
100
AcDbSpline
 62
7
  6
CONTINUOUS
 70
0
 71
3
 72
11
 73
7
 74
0
 42
0.0000001
 43
0.0000001
 44
0.0000000001
 40
0.0
 40
0.0
 40
0.0
 40
0.0
 40
0.2409686193
 40
0.4590497243
 40
0.7010719415
 40
1.0
 40
1.0
 40
1.0
 40
1.0
 10
387.6653014672
 20
189.5921630794
 30
0.0
 10
387.6766680561
 20
189.5919646748
 30
0.0
 10
387.6988065895
 20
189.5942626332
 30
0.0
 10
387.7278907371
 20
189.6124655569
 30
0.0
 10
387.7469799227
 20
189.6437703993
 30
0.0
 10
387.7542282211
 20
189.6683606251
 30
0.0
 10
387.7573893834
 20
189.682104475
 30
0.0
  0
SPLINE
  5
346
100
AcDbEntity
  8
0
100
AcDbSpline
 62
7
  6
CONTINUOUS
 70
0
 71
3
 72
9
 73
5
 74
0
 42
0.0000001
 43
0.0000001
 44
0.0000000001
 40
0.0
 40
0.0
 40
0.0
 40
0.0
 40
0.2189200099
 40
1.0
 40
1.0
 40
1.0
 40
1.0
 10
387.7573893834
 20
189.682104475
 30
0.0
 10
387.759267291
 20
189.6902690923
 30
0.0
 10
387.7663518077
 20
189.7279075402
 30
0.0
 10
387.7688800593
 20
189.7662558683
 30
0.0
 10
387.7697302611
 20
189.7961347425
 30
0.0
  0
SPLINE
  5
347
100
AcDbEntity
  8
0
100
AcDbSpline
 62
7
  6
CONTINUOUS
 70
0
 71
3
 72
8
 73
4
 74
0
 42
0.0000001
 43
0.0000001
 44
0.0000000001
 40
0.0
 40
0.0
 40
0.0
 40
0.0
 40
1.0
 40
1.0
 40
1.0
 40
1.0
 10
381.9257118266
 20
205.2139792747
 30
0.0
 10
383.8737572913
 20
205.2577882419
 30
0.0
 10
385.8218019021
 20
205.3016357742
 30
0.0
 10
387.7698532576
 20
205.3451820056
 30
0.0
  0
SPLINE
  5
348
100
AcDbEntity
  8
0
100
AcDbSpline
 62
7
  6
CONTINUOUS
 70
0
 71
3
 72
11
 73
7
 74
0
 42
0.0000001
 43
0.0000001
 44
0.0000000001
 40
0.0
 40
0.0
 40
0.0
 40
0.0
 40
0.2493041806
 40
0.4991886273
 40
0.7494953624
 40
1.0
 40
1.0
 40
1.0
 40
1.0
 10
386.8142935639
 20
204.4217696475
 30
0.0
 10
386.932549846
 20
204.4217696475
 30
0.0
 10
387.1719161636
 20
204.4822550558
 30
0.0
 10
387.457202239
 20
204.7062426172
 30
0.0
 10
387.6604811022
 20
205.0038316212
 30
0.0
 10
387.7420233975
 20
205.2296612325
 30
0.0
 10
387.7698532576
 20
205.3451820056
 30
0.0
  0
SPLINE
  5
349
100
AcDbEntity
  8
0
100
AcDbSpline
 62
7
  6
CONTINUOUS
 70
0
 71
3
 72
10
 73
6
 74
0
 42
0.0000001
 43
0.0000001
 44
0.0000000001
 40
0.0
 40
0.0
 40
0.0
 40
0.0
 40
0.4425810505
 40
0.6952450219
 40
1.0
 40
1.0
 40
1.0
 40
1.0
 10
392.3142961273
 20
199.2631597361
 30
0.0
 10
392.3142961273
 20
199.2392356179
 30
0.0
 10
392.3046568676
 20
199.1990764342
 30
0.0
 10
392.2614709665
 20
199.1636072534
 30
0.0
 10
392.2307699327
 20
199.156559719
 30
0.0
 10
392.2142961273
 20
199.156559719
 30
0.0
  0
SPLINE
  5
34A
100
AcDbEntity
  8
0
100
AcDbSpline
 62
7
  6
CONTINUOUS
 70
0
 71
3
 72
11
 73
7
 74
0
 42
0.0000001
 43
0.0000001
 44
0.0000000001
 40
0.0
 40
0.0
 40
0.0
 40
0.0
 40
0.2505870685
 40
0.4993087192
 40
0.7483207392
 40
1.0
 40
1.0
 40
1.0
 40
1.0
 10
392.3142961273
 20
190.9910138735
 30
0.0
 10
392.3142961272
 20
190.9740003895
 30
0.0
 10
392.3115289856
 20
190.9399894828
 30
0.0
 10
392.2963142638
 20
190.8909335795
 30
0.0
 10
392.265672769
 20
190.8486136481
 30
0.0
 10
392.2313837655
 20
190.8344372682
 30
0.0
 10
392.2142961276
 20
190.8344372682
 30
0.0
  0
ELLIPSE
  5
34B
100
AcDbEntity
  8
0
100
AcDbEllipse
 62
7
  6
CONTINUOUS
 10
374.4399428046
 20
180.0473730134
 30
0.0
 11
21.1923502607
 21
4.2973945382
 31
0.0
 40
0.153091273
 41
2.2658444509
 42
2.3150444015
  0
ELLIPSE
  5
34C
100
AcDbEntity
  8
0
100
AcDbEllipse
 62
7
  6
CONTINUOUS
 10
374.4399428046
 20
180.0473730134
 30
0.0
 11
21.1923502607
 21
4.2973945382
 31
0.0
 40
0.153091273
 41
-2.3150444015
 42
-2.2658444509
  0
ELLIPSE
  5
34D
100
AcDbEntity
  8
0
100
AcDbEllipse
 62
7
  6
CONTINUOUS
 10
379.5576715582
 20
181.6143856922
 30
0.0
 11
-0.100516764
 21
0.4956925531
 31
0.0
 40
0.9885695586
 41
-1.5707963283
 42
-0.0000000003
  0
ELLIPSE
  5
34E
100
AcDbEntity
  8
0
100
AcDbEllipse
 62
7
  6
CONTINUOUS
 10
378.5853597499
 20
196.595532134
 30
0.0
 11
23.2519159813
 21
-0.0
 31
0.0
 40
0.4515756899
 41
1.3791491318
 42
1.4266334608
  0
ENDSEC
  0
SECTION
  2
OBJECTS
  0
DICTIONARY
  5
C
100
AcDbDictionary
280
0
281
1
  3
ACAD_GROUP
350
D
  3
ACAD_MLINESTYLE
350
17
  3
ACAD_LAYOUT
350
1A
  3
ACAD_PLOTSETTINGS
350
19
  3
ACAD_PLOTSTYLENAME
350
E
  0
DICTIONARY
  5
D
102
{ACAD_REACTORS
330
C
102
}
100
AcDbDictionary
280
0
281
1
  0
ACDBDICTIONARYWDFLT
  5
E
102
{ACAD_REACTORS
330
C
102
}
100
AcDbDictionary
281
1
  3
Normal
350
F
100
AcDbDictionaryWithDefault
340
F
  0
DICTIONARY
  5
17
102
{ACAD_REACTORS
330
C
102
}
100
AcDbDictionary
280
0
281
1
  3
Standard
350
18
  0
DICTIONARY
  5
19
102
{ACAD_REACTORS
330
C
102
}
100
AcDbDictionary
281
1
  0
DICTIONARY
  5
1A
102
{ACAD_REACTORS
330
C
102
}
100
AcDbDictionary
281
1
  3
Model
350
34F
  3
Layout1
350
350
  0
ACDBPLACEHOLDER
  5
F
102
{ACAD_REACTORS
330
E
102
}
  0
MLINESTYLE
  5
18
102
{ACAD_REACTORS
330
17
102
}
100
AcDbMlineStyle
  2
STANDARD
 70
0
  3

 62
256
 51
90.0
 52
90.0
 71
2
 49
0.5
 62
256
  6
BYLAYER
 49
-0.5
 62
256
  6
BYLAYER
  0
LAYOUT
  5
34F
102
{ACAD_REACTORS
330
1A
102
}
100
AcDbPlotSettings
  1

  2
none_device
  4
ANSI_C_(22.00_x_17.00_Inches)
  6

 40
0.0
 41
0.0
 42
0.0
 43
0.0
 44
558.8
 45
431.8
 46
0.0
 47
0.0
 48
0.0
 49
0.0
140
0.0
141
0.0
142
1.0
143
1.0
 70
1024
 72
1
 73
0
 74
0
  7

 75
0
147
1.0
148
0.0
149
0.0
100
AcDbLayout
  1
Model
 70
0
 71
0
 10
0.0
 20
0.0
 11
558.8
 21
431.8
 12
0.0
 22
0.0
 32
0.0
 14
0.0
 24
0.0
 34
0.0
 15
0.0
 25
0.0
 35
0.0
146
0.0
 13
0.0
 23
0.0
 33
0.0
 16
1.0
 26
0.0
 36
0.0
 17
0.0
 27
1.0
 37
0.0
 76
0
330
219
345
0
346
0
  0
LAYOUT
  5
350
102
{ACAD_REACTORS
330
1A
102
}
100
AcDbPlotSettings
  1

  2
none_device
  4
ANSI_C_(22.00_x_17.00_Inches)
  6

 40
0.0
 41
0.0
 42
0.0
 43
0.0
 44
558.8
 45
431.8
 46
0.0
 47
0.0
 48
0.0
 49
0.0
140
0.0
141
0.0
142
1.0
143
1.0
 70
0
 72
1
 73
0
 74
0
  7

 75
0
147
1.0
148
0.0
149
0.0
100
AcDbLayout
  1
Layout1
 70
0
 71
1
 10
0.0
 20
0.0
 11
558.8
 21
431.8
 12
0.0
 22
0.0
 32
0.0
 14
0.0
 24
0.0
 34
0.0
 15
0.0
 25
0.0
 35
0.0
146
0.0
 13
0.0
 23
0.0
 33
0.0
 16
1.0
 26
0.0
 36
0.0
 17
0.0
 27
1.0
 37
0.0
 76
0
330
21A
345
0
346
0
  0
ENDSEC
  0
EOF
