  0
SECTION
  2
HEADER
  9
$ACADVER
  1
AC1009
  9
$DWGCODEPAGE
  3
ansi_1250
  9
$INSBASE
 10
0.0
 20
0.0
 30
0.0
  9
$EXTMIN
 10
-10.498031
 20
-16.563603
 30
0.0
  9
$EXTMAX
 10
10.498031
 20
16.132515
 30
0.0
  9
$LIMMIN
 10
0.0
 20
0.0
  9
$LIMMAX
 10
0.0
 20
0.0
  9
$ORTHOMODE
 70
     0
  9
$REGENMODE
 70
     1
  9
$FILLMODE
 70
     1
  9
$QTEXTMODE
 70
     0
  9
$MIRRTEXT
 70
     1
  9
$DRAGMODE
 70
     2
  9
$LTSCALE
 40
1.0
  9
$OSMODE
 70
     0
  9
$ATTMODE
 70
     1
  9
$TEXTSIZE
 40
0.2
  9
$TRACEWID
 40
0.05
  9
$TEXTSTYLE
  7
STANDARD
  9
$CLAYER
  8
0
  9
$CELTYPE
  6
CONTINUOUS
  9
$CECOLOR
 62
   256
  9
$DIMSCALE
 40
1.0
  9
$DIMASZ
 40
0.18
  9
$DIMEXO
 40
0.0625
  9
$DIMDLI
 40
0.38
  9
$DIMRND
 40
0.0
  9
$DIMDLE
 40
0.0
  9
$DIMEXE
 40
0.18
  9
$DIMTP
 40
0.0
  9
$DIMTM
 40
0.0
  9
$DIMTXT
 40
0.18
  9
$DIMCEN
 40
0.09
  9
$DIMTSZ
 40
0.0
  9
$DIMTOL
 70
     0
  9
$DIMLIM
 70
     0
  9
$DIMTIH
 70
     1
  9
$DIMTOH
 70
     1
  9
$DIMSE1
 70
     0
  9
$DIMSE2
 70
     0
  9
$DIMTAD
 70
     0
  9
$DIMZIN
 70
     0
  9
$DIMBLK
  1

  9
$DIMASO
 70
     1
  9
$DIMSHO
 70
     1
  9
$DIMPOST
  1

  9
$DIMAPOST
  1

  9
$DIMALT
 70
     0
  9
$DIMALTD
 70
     2
  9
$DIMALTF
 40
25.4
  9
$DIMLFAC
 40
1.0
  9
$DIMTOFL
 70
     0
  9
$DIMTVP
 40
0.0
  9
$DIMTIX
 70
     0
  9
$DIMSOXD
 70
     0
  9
$DIMSAH
 70
     0
  9
$DIMBLK1
  1

  9
$DIMBLK2
  1

  9
$DIMSTYLE
  2
STANDARD
  9
$DIMCLRD
 70
     0
  9
$DIMCLRE
 70
     0
  9
$DIMCLRT
 70
     0
  9
$DIMTFAC
 40
1.0
  9
$DIMGAP
 40
0.09
  9
$LUNITS
 70
     2
  9
$LUPREC
 70
     4
  9
$AXISMODE
 70
     0
  9
$AXISUNIT
 10
0.0
 20
0.0
  9
$SKETCHINC
 40
0.1
  9
$FILLETRAD
 40
0.0
  9
$AUNITS
 70
     0
  9
$AUPREC
 70
     0
  9
$MENU
  1
acad
  9
$ELEVATION
 40
0.0
  9
$PELEVATION
 40
0.0
  9
$THICKNESS
 40
0.0
  9
$LIMCHECK
 70
     0
  9
$BLIPMODE
 70
     1
  9
$CHAMFERA
 40
0.0
  9
$CHAMFERB
 40
0.0
  9
$SKPOLY
 70
     0
  9
$TDCREATE
 40
0.000000000
  9
$TDUPDATE
 40
0.000000000
  9
$TDINDWG
 40
0.0000000000
  9
$TDUSRTIMER
 40
0.0000000000
  9
$USRTIMER
 70
     1
  9
$ANGBASE
 50
0.0
  9
$ANGDIR
 70
     0
  9
$PDMODE
 70
     0
  9
$PDSIZE
 40
0.0
  9
$PLINEWID
 40
0.0
  9
$COORDS
 70
     0
  9
$SPLFRAME
 70
     0
  9
$SPLINETYPE
 70
     6
  9
$SPLINESEGS
 70
     8
  9
$ATTDIA
 70
     0
  9
$ATTREQ
 70
     1
  9
$HANDLING
 70
     1
  9
$HANDSEED
  5
13B5
  9
$SURFTAB1
 70
     6
  9
$SURFTAB2
 70
     6
  9
$SURFTYPE
 70
     6
  9
$SURFU
 70
     6
  9
$SURFV
 70
     6
  9
$UCSNAME
  2

  9
$UCSORG
 10
0.0
 20
0.0
 30
0.0
  9
$UCSXDIR
 10
1.0
 20
0.0
 30
0.0
  9
$UCSYDIR
 10
0.0
 20
1.0
 30
0.0
  9
$PUCSNAME
  2

  9
$PUCSORG
 10
0.0
 20
0.0
 30
0.0
  9
$PUCSXDIR
 10
1.0
 20
0.0
 30
0.0
  9
$PUCSYDIR
 10
0.0
 20
1.0
 30
0.0
  9
$USERI1
 70
     0
  9
$USERI2
 70
     0
  9
$USERI3
 70
     0
  9
$USERI4
 70
     0
  9
$USERI5
 70
     0
  9
$USERR1
 40
0.0
  9
$USERR2
 40
0.0
  9
$USERR3
 40
0.0
  9
$USERR4
 40
0.0
  9
$USERR5
 40
0.0
  9
$WORLDVIEW
 70
     1
  9
$SHADEDGE
 70
     3
  9
$SHADEDIF
 70
    70
  9
$TILEMODE
 70
     1
  9
$MAXACTVP
 70
    16
  9
$PINSBASE
 10
0.0
 20
0.0
 30
0.0
  9
$PLIMCHECK
 70
     0
  9
$PEXTMIN
 10
1.000000E+20
 20
1.000000E+20
 30
1.000000E+20
  9
$PEXTMAX
 10
-1.000000E+20
 20
-1.000000E+20
 30
-1.000000E+20
  9
$PLIMMIN
 10
0.0
 20
0.0
  9
$PLIMMAX
 10
12.0
 20
9.0
  9
$UNITMODE
 70
     0
  9
$VISRETAIN
 70
     0
  9
$PLINEGEN
 70
     1
  9
$PSLTSCALE
 70
     0
  9
$TREEDEPTH
 70
  3020
  0
ENDSEC
  0
SECTION
  2
TABLES
  0
TABLE
  2
VPORT
 70
     1
  0
VPORT
  2
*ACTIVE
 70
     0
 10
0.0
 20
0.0
 11
1.0
 21
1.0
 12
6.591288
 22
4.579184
 13
0.0
 23
0.0
 14
1.0
 24
1.0
 15
0.0
 25
0.0
 16
0.0
 26
0.0
 36
1.0
 17
0.0
 27
0.0
 37
0.0
 40
9.158369
 41
0.688564
 42
50.0
 43
0.0
 44
0.0
 50
0.0
 51
0.0
 71
     0
 72
   100
 73
     1
 74
     1
 75
     0
 76
     0
 77
     0
 78
     0
  0
ENDTAB
  0
TABLE
  2
LTYPE
 70
     5
  0
LTYPE
  2
CONTINUOUS
 70
    64
  3
Solid line
 72
    65
 73
     0
 40
0.0
  0
LTYPE
  2
CENTER
 70
    64
  3
Center ____ _ ____ _ ____ _ ____ _ ____ _ ____
 72
    65
 73
     4
 40
50.8
 49
31.75
 49
-6.35
 49
6.35
 49
-6.35
  0
LTYPE
  2
HIDDEN
 70
    64
  3
Hidden __ __ __ __ __ __ __ __ __ __ __ __ __ __
 72
    65
 73
     2
 40
9.525
 49
6.35
 49
-3.175
  0
LTYPE
  2
CENTER2
 70
    64
  3
Center (.5x) ___ _ ___ _ ___ _ ___ _ ___ _ ___
 72
    65
 73
     4
 40
28.575
 49
19.05
 49
-3.175
 49
3.175
 49
-3.175
  0
LTYPE
  2
HIDDEN2
 70
    64
  3
Hidden (.5x) _ _ _ _ _ _ _ _ _ _ _ _ _ _ _ _ _
 72
    65
 73
     2
 40
4.7625
 49
3.175
 49
-1.5875
  0
ENDTAB
  0
TABLE
  2
LAYER
 70
     1
  0
LAYER
  2
0
 70
     0
 62
     7
  6
CONTINUOUS
  0
ENDTAB
  0
TABLE
  2
STYLE
 70
     1
  0
STYLE
  2
STANDARD
 70
     0
 40
0.0
 41
1.0
 50
0.0
 71
     0
 42
0.0
  3
txt
  4

  0
ENDTAB
  0
TABLE
  2
VIEW
 70
     0
  0
ENDTAB
  0
TABLE
  2
UCS
 70
     0
  0
ENDTAB
  0
TABLE
  2
APPID
 70
     1
  0
APPID
  2
ACAD
 70
     0
  0
ENDTAB
  0
TABLE
  2
DIMSTYLE
 70
     1
  0
DIMSTYLE
  2
STANDARD
 70
     0
  3

  4

  5

  6

  7

 40
1.0
 41
0.18
 42
0.0625
 43
0.38
 44
0.18
 45
0.0
 46
0.0
 47
0.0
 48
0.0
 71
     0
 72
     0
 73
     1
 74
     1
 75
     0
 76
     0
 77
     0
 78
     0
140
0.18
141
0.09
142
0.0
143
25.4
144
1.0
145
0.0
146
1.0
147
0.09
170
     0
171
     2
172
     0
173
     0
174
     0
175
     0
176
     0
177
     0
178
     0
  0
ENDTAB
  0
ENDSEC
  0
SECTION
  2
BLOCKS
  0
ENDSEC
  0
SECTION
  2
ENTITIES
  0
LINE
  8
0
  6
CONTINUOUS
 62
     7
  5
A6D
 10
7.102472
 20
5.704724
 30
0.0
 11
7.102472
 21
4.783465
 31
0.0
  0
ARC
  8
0
  6
CONTINUOUS
 62
     7
  5
A6E
 10
7.043307
 20
5.704724
 30
0.0
 40
0.059165
 50
0.0
 51
90.0
  0
LINE
  8
0
  6
CONTINUOUS
 62
     7
  5
A6F
 10
6.688976
 20
5.763889
 30
0.0
 11
7.043307
 21
5.763889
 31
0.0
  0
LINE
  8
0
  6
CONTINUOUS
 62
     7
  5
A70
 10
7.043307
 20
-2.937118
 30
0.0
 11
6.688976
 21
-2.937118
 31
0.0
  0
ARC
  8
0
  6
CONTINUOUS
 62
     7
  5
A71
 10
7.043307
 20
-2.877953
 30
0.0
 40
0.059165
 50
270.0
 51
360.0
  0
LINE
  8
0
  6
CONTINUOUS
 62
     7
  5
A72
 10
7.102472
 20
-1.956693
 30
0.0
 11
7.102472
 21
-2.877953
 31
0.0
  0
LINE
  8
0
  6
CONTINUOUS
 62
     7
  5
A73
 10
-7.102472
 20
-2.877953
 30
0.0
 11
-7.102472
 21
-1.956693
 31
0.0
  0
ARC
  8
0
  6
CONTINUOUS
 62
     7
  5
A74
 10
-7.043307
 20
-2.877953
 30
0.0
 40
0.059165
 50
180.0
 51
270.0
  0
LINE
  8
0
  6
CONTINUOUS
 62
     7
  5
A75
 10
-6.688976
 20
-2.937118
 30
0.0
 11
-7.043307
 21
-2.937118
 31
0.0
  0
LINE
  8
0
  6
CONTINUOUS
 62
     7
  5
A76
 10
-7.043307
 20
5.763889
 30
0.0
 11
-6.688976
 21
5.763889
 31
0.0
  0
ARC
  8
0
  6
CONTINUOUS
 62
     7
  5
A77
 10
-7.043307
 20
5.704724
 30
0.0
 40
0.059165
 50
90.0
 51
180.0
  0
LINE
  8
0
  6
CONTINUOUS
 62
     7
  5
A78
 10
-7.102472
 20
4.783465
 30
0.0
 11
-7.102472
 21
5.704724
 31
0.0
  0
LINE
  8
0
  6
CONTINUOUS
 62
     7
  5
A79
 10
-7.677165
 20
-0.26378
 30
0.0
 11
-7.122047
 21
-0.26378
 31
0.0
  0
LINE
  8
0
  6
CONTINUOUS
 62
     7
  5
A7A
 10
-8.267717
 20
-0.854331
 30
0.0
 11
-7.677165
 21
-0.26378
 31
0.0
  0
LINE
  8
0
  6
CONTINUOUS
 62
     7
  5
A7B
 10
-8.267717
 20
-2.366142
 30
0.0
 11
-8.267717
 21
-0.854331
 31
0.0
  0
LINE
  8
0
  6
CONTINUOUS
 62
     7
  5
A7C
 10
-7.677165
 20
-2.956693
 30
0.0
 11
-8.267717
 21
-2.366142
 31
0.0
  0
LINE
  8
0
  6
CONTINUOUS
 62
     7
  5
A7D
 10
-6.688976
 20
-2.956693
 30
0.0
 11
-7.677165
 21
-2.956693
 31
0.0
  0
LINE
  8
0
  6
CONTINUOUS
 62
     7
  5
A7E
 10
7.677165
 20
-2.956693
 30
0.0
 11
6.688976
 21
-2.956693
 31
0.0
  0
LINE
  8
0
  6
CONTINUOUS
 62
     7
  5
A7F
 10
8.267717
 20
-2.366142
 30
0.0
 11
7.677165
 21
-2.956693
 31
0.0
  0
LINE
  8
0
  6
CONTINUOUS
 62
     7
  5
A80
 10
8.267717
 20
-0.854331
 30
0.0
 11
8.267717
 21
-2.366142
 31
0.0
  0
LINE
  8
0
  6
CONTINUOUS
 62
     7
  5
A81
 10
7.677165
 20
-0.26378
 30
0.0
 11
8.267717
 21
-0.854331
 31
0.0
  0
LINE
  8
0
  6
CONTINUOUS
 62
     7
  5
A82
 10
7.122047
 20
-0.26378
 30
0.0
 11
7.677165
 21
-0.26378
 31
0.0
  0
CIRCLE
  8
0
  6
CONTINUOUS
 62
     7
  5
A83
 10
-7.677165
 20
-1.53937
 30
0.0
 40
0.216535
  0
CIRCLE
  8
0
  6
CONTINUOUS
 62
     7
  5
A84
 10
7.677165
 20
-1.53937
 30
0.0
 40
0.216535
  0
ARC
  8
0
  6
CONTINUOUS
 62
     7
  5
A85
 10
7.043307
 20
-2.877953
 30
0.0
 40
0.07874
 50
270.0
 51
360.0
  0
LINE
  8
0
  6
CONTINUOUS
 62
     7
  5
A86
 10
7.122047
 20
4.783465
 30
0.0
 11
7.122047
 21
5.704724
 31
0.0
  0
LINE
  8
0
  6
CONTINUOUS
 62
     7
  5
A87
 10
7.122047
 20
-2.877953
 30
0.0
 11
7.122047
 21
-1.956693
 31
0.0
  0
LINE
  8
0
  6
CONTINUOUS
 62
     7
  5
A88
 10
-7.122047
 20
3.090551
 30
0.0
 11
-7.677165
 21
3.090551
 31
0.0
  0
LINE
  8
0
  6
CONTINUOUS
 62
     7
  5
A89
 10
7.677165
 20
3.090551
 30
0.0
 11
7.122047
 21
3.090551
 31
0.0
  0
CIRCLE
  8
0
  6
CONTINUOUS
 62
     7
  5
A8A
 10
-7.677165
 20
4.366142
 30
0.0
 40
0.216535
  0
CIRCLE
  8
0
  6
CONTINUOUS
 62
     7
  5
A8B
 10
7.677165
 20
4.366142
 30
0.0
 40
0.216535
  0
LINE
  8
0
  6
CONTINUOUS
 62
     7
  5
A8C
 10
-8.267717
 20
3.681102
 30
0.0
 11
-8.267717
 21
5.192913
 31
0.0
  0
LINE
  8
0
  6
CONTINUOUS
 62
     7
  5
A8D
 10
-8.267717
 20
5.192913
 30
0.0
 11
-7.677165
 21
5.783465
 31
0.0
  0
LINE
  8
0
  6
CONTINUOUS
 62
     7
  5
A8E
 10
6.688976
 20
5.783465
 30
0.0
 11
7.677165
 21
5.783465
 31
0.0
  0
LINE
  8
0
  6
CONTINUOUS
 62
     7
  5
A8F
 10
-7.677165
 20
5.783465
 30
0.0
 11
-6.688976
 21
5.783465
 31
0.0
  0
LINE
  8
0
  6
CONTINUOUS
 62
     7
  5
A90
 10
7.677165
 20
5.783465
 30
0.0
 11
8.267717
 21
5.192913
 31
0.0
  0
LINE
  8
0
  6
CONTINUOUS
 62
     7
  5
A91
 10
8.267717
 20
5.192913
 30
0.0
 11
8.267717
 21
3.681102
 31
0.0
  0
LINE
  8
0
  6
CONTINUOUS
 62
     7
  5
A92
 10
8.267717
 20
3.681102
 30
0.0
 11
7.677165
 21
3.090551
 31
0.0
  0
LINE
  8
0
  6
CONTINUOUS
 62
     7
  5
A93
 10
-7.677165
 20
3.090551
 30
0.0
 11
-8.267717
 21
3.681102
 31
0.0
  0
ARC
  8
0
  6
CONTINUOUS
 62
     7
  5
A94
 10
7.043307
 20
5.704724
 30
0.0
 40
0.07874
 50
0.0
 51
90.0
  0
LINE
  8
0
  6
CONTINUOUS
 62
     7
  5
A95
 10
-6.688976
 20
5.783465
 30
0.0
 11
-7.043307
 21
5.783465
 31
0.0
  0
LINE
  8
0
  6
CONTINUOUS
 62
     7
  5
A96
 10
7.043307
 20
5.783465
 30
0.0
 11
6.688976
 21
5.783465
 31
0.0
  0
ARC
  8
0
  6
CONTINUOUS
 62
     7
  5
A97
 10
-7.043307
 20
5.704724
 30
0.0
 40
0.07874
 50
90.0
 51
180.0
  0
LINE
  8
0
  6
CONTINUOUS
 62
     7
  5
A98
 10
-7.122047
 20
-1.956693
 30
0.0
 11
-7.122047
 21
-2.877953
 31
0.0
  0
LINE
  8
0
  6
CONTINUOUS
 62
     7
  5
A99
 10
-7.122047
 20
5.704724
 30
0.0
 11
-7.122047
 21
4.783465
 31
0.0
  0
ARC
  8
0
  6
CONTINUOUS
 62
     7
  5
A9A
 10
-7.043307
 20
-2.877953
 30
0.0
 40
0.07874
 50
180.0
 51
270.0
  0
LINE
  8
0
  6
CONTINUOUS
 62
     7
  5
A9B
 10
6.688976
 20
-2.956693
 30
0.0
 11
7.043307
 21
-2.956693
 31
0.0
  0
LINE
  8
0
  6
CONTINUOUS
 62
     7
  5
A9C
 10
-7.043307
 20
-2.956693
 30
0.0
 11
-6.688976
 21
-2.956693
 31
0.0
  0
LINE
  8
0
  6
CONTINUOUS
 62
     7
  5
A9D
 10
2.065575
 20
0.490561
 30
0.0
 11
-2.065575
 21
0.490561
 31
0.0
  0
LINE
  8
0
  6
CONTINUOUS
 62
     7
  5
A9E
 10
1.988588
 20
1.111385
 30
0.0
 11
2.065575
 21
0.490561
 31
0.0
  0
LINE
  8
0
  6
CONTINUOUS
 62
     7
  5
A9F
 10
1.884238
 20
1.158357
 30
0.0
 11
1.888929
 21
1.158087
 31
0.0
  0
LINE
  8
0
  6
CONTINUOUS
 62
     7
  5
AA0
 10
1.888929
 20
1.158087
 30
0.0
 11
1.89359
 21
1.157737
 31
0.0
  0
LINE
  8
0
  6
CONTINUOUS
 62
     7
  5
AA1
 10
1.89359
 20
1.157737
 30
0.0
 11
1.898215
 21
1.157309
 31
0.0
  0
LINE
  8
0
  6
CONTINUOUS
 62
     7
  5
AA2
 10
1.898215
 20
1.157309
 30
0.0
 11
1.902795
 21
1.156803
 31
0.0
  0
LINE
  8
0
  6
CONTINUOUS
 62
     7
  5
AA3
 10
1.902795
 20
1.156803
 30
0.0
 11
1.907324
 21
1.15622
 31
0.0
  0
LINE
  8
0
  6
CONTINUOUS
 62
     7
  5
AA4
 10
1.907324
 20
1.15622
 30
0.0
 11
1.911794
 21
1.15556
 31
0.0
  0
LINE
  8
0
  6
CONTINUOUS
 62
     7
  5
AA5
 10
1.911794
 20
1.15556
 30
0.0
 11
1.916198
 21
1.154826
 31
0.0
  0
LINE
  8
0
  6
CONTINUOUS
 62
     7
  5
AA6
 10
1.916198
 20
1.154826
 30
0.0
 11
1.920528
 21
1.154017
 31
0.0
  0
LINE
  8
0
  6
CONTINUOUS
 62
     7
  5
AA7
 10
1.920528
 20
1.154017
 30
0.0
 11
1.924779
 21
1.153136
 31
0.0
  0
LINE
  8
0
  6
CONTINUOUS
 62
     7
  5
AA8
 10
1.924779
 20
1.153136
 30
0.0
 11
1.928942
 21
1.152183
 31
0.0
  0
LINE
  8
0
  6
CONTINUOUS
 62
     7
  5
AA9
 10
1.928942
 20
1.152183
 30
0.0
 11
1.933012
 21
1.151161
 31
0.0
  0
LINE
  8
0
  6
CONTINUOUS
 62
     7
  5
AAA
 10
1.933012
 20
1.151161
 30
0.0
 11
1.936981
 21
1.15007
 31
0.0
  0
LINE
  8
0
  6
CONTINUOUS
 62
     7
  5
AAB
 10
1.936981
 20
1.15007
 30
0.0
 11
1.940844
 21
1.148914
 31
0.0
  0
LINE
  8
0
  6
CONTINUOUS
 62
     7
  5
AAC
 10
1.940844
 20
1.148914
 30
0.0
 11
1.944594
 21
1.147692
 31
0.0
  0
LINE
  8
0
  6
CONTINUOUS
 62
     7
  5
AAD
 10
1.944594
 20
1.147692
 30
0.0
 11
1.948226
 21
1.146409
 31
0.0
  0
LINE
  8
0
  6
CONTINUOUS
 62
     7
  5
AAE
 10
1.948226
 20
1.146409
 30
0.0
 11
1.951732
 21
1.145064
 31
0.0
  0
LINE
  8
0
  6
CONTINUOUS
 62
     7
  5
AAF
 10
1.951732
 20
1.145064
 30
0.0
 11
1.955109
 21
1.143662
 31
0.0
  0
LINE
  8
0
  6
CONTINUOUS
 62
     7
  5
AB0
 10
1.955109
 20
1.143662
 30
0.0
 11
1.958349
 21
1.142203
 31
0.0
  0
LINE
  8
0
  6
CONTINUOUS
 62
     7
  5
AB1
 10
1.958349
 20
1.142203
 30
0.0
 11
1.961449
 21
1.14069
 31
0.0
  0
LINE
  8
0
  6
CONTINUOUS
 62
     7
  5
AB2
 10
1.961449
 20
1.14069
 30
0.0
 11
1.964403
 21
1.139127
 31
0.0
  0
LINE
  8
0
  6
CONTINUOUS
 62
     7
  5
AB3
 10
1.964403
 20
1.139127
 30
0.0
 11
1.967206
 21
1.137514
 31
0.0
  0
LINE
  8
0
  6
CONTINUOUS
 62
     7
  5
AB4
 10
1.967206
 20
1.137514
 30
0.0
 11
1.969854
 21
1.135856
 31
0.0
  0
LINE
  8
0
  6
CONTINUOUS
 62
     7
  5
AB5
 10
1.969854
 20
1.135856
 30
0.0
 11
1.972342
 21
1.134154
 31
0.0
  0
LINE
  8
0
  6
CONTINUOUS
 62
     7
  5
AB6
 10
1.972342
 20
1.134154
 30
0.0
 11
1.974667
 21
1.132411
 31
0.0
  0
LINE
  8
0
  6
CONTINUOUS
 62
     7
  5
AB7
 10
1.974667
 20
1.132411
 30
0.0
 11
1.976825
 21
1.13063
 31
0.0
  0
LINE
  8
0
  6
CONTINUOUS
 62
     7
  5
AB8
 10
1.976825
 20
1.13063
 30
0.0
 11
1.978813
 21
1.128814
 31
0.0
  0
LINE
  8
0
  6
CONTINUOUS
 62
     7
  5
AB9
 10
1.978813
 20
1.128814
 30
0.0
 11
1.980626
 21
1.126965
 31
0.0
  0
LINE
  8
0
  6
CONTINUOUS
 62
     7
  5
ABA
 10
1.980626
 20
1.126965
 30
0.0
 11
1.982263
 21
1.125088
 31
0.0
  0
LINE
  8
0
  6
CONTINUOUS
 62
     7
  5
ABB
 10
1.982263
 20
1.125088
 30
0.0
 11
1.98372
 21
1.123184
 31
0.0
  0
LINE
  8
0
  6
CONTINUOUS
 62
     7
  5
ABC
 10
1.98372
 20
1.123184
 30
0.0
 11
1.984996
 21
1.121258
 31
0.0
  0
LINE
  8
0
  6
CONTINUOUS
 62
     7
  5
ABD
 10
1.984996
 20
1.121258
 30
0.0
 11
1.986088
 21
1.119311
 31
0.0
  0
LINE
  8
0
  6
CONTINUOUS
 62
     7
  5
ABE
 10
1.986088
 20
1.119311
 30
0.0
 11
1.986995
 21
1.117347
 31
0.0
  0
LINE
  8
0
  6
CONTINUOUS
 62
     7
  5
ABF
 10
1.986995
 20
1.117347
 30
0.0
 11
1.987714
 21
1.115369
 31
0.0
  0
LINE
  8
0
  6
CONTINUOUS
 62
     7
  5
AC0
 10
1.987714
 20
1.115369
 30
0.0
 11
1.988246
 21
1.113381
 31
0.0
  0
LINE
  8
0
  6
CONTINUOUS
 62
     7
  5
AC1
 10
1.988246
 20
1.113381
 30
0.0
 11
1.988588
 21
1.111385
 31
0.0
  0
LINE
  8
0
  6
CONTINUOUS
 62
     7
  5
AC2
 10
0.48341
 20
1.22697
 30
0.0
 11
1.884238
 21
1.158357
 31
0.0
  0
LINE
  8
0
  6
CONTINUOUS
 62
     7
  5
AC3
 10
0.425847
 20
1.228375
 30
0.0
 11
0.427495
 21
1.228374
 31
0.0
  0
LINE
  8
0
  6
CONTINUOUS
 62
     7
  5
AC4
 10
0.427495
 20
1.228374
 30
0.0
 11
0.429143
 21
1.22837
 31
0.0
  0
LINE
  8
0
  6
CONTINUOUS
 62
     7
  5
AC5
 10
0.429143
 20
1.22837
 30
0.0
 11
0.430792
 21
1.228364
 31
0.0
  0
LINE
  8
0
  6
CONTINUOUS
 62
     7
  5
AC6
 10
0.430792
 20
1.228364
 30
0.0
 11
0.43244
 21
1.228356
 31
0.0
  0
LINE
  8
0
  6
CONTINUOUS
 62
     7
  5
AC7
 10
0.43244
 20
1.228356
 30
0.0
 11
0.434088
 21
1.228346
 31
0.0
  0
LINE
  8
0
  6
CONTINUOUS
 62
     7
  5
AC8
 10
0.434088
 20
1.228346
 30
0.0
 11
0.435736
 21
1.228333
 31
0.0
  0
LINE
  8
0
  6
CONTINUOUS
 62
     7
  5
AC9
 10
0.435736
 20
1.228333
 30
0.0
 11
0.437384
 21
1.228318
 31
0.0
  0
LINE
  8
0
  6
CONTINUOUS
 62
     7
  5
ACA
 10
0.437384
 20
1.228318
 30
0.0
 11
0.439032
 21
1.228301
 31
0.0
  0
LINE
  8
0
  6
CONTINUOUS
 62
     7
  5
ACB
 10
0.439032
 20
1.228301
 30
0.0
 11
0.440679
 21
1.228282
 31
0.0
  0
LINE
  8
0
  6
CONTINUOUS
 62
     7
  5
ACC
 10
0.440679
 20
1.228282
 30
0.0
 11
0.442327
 21
1.22826
 31
0.0
  0
LINE
  8
0
  6
CONTINUOUS
 62
     7
  5
ACD
 10
0.442327
 20
1.22826
 30
0.0
 11
0.443974
 21
1.228236
 31
0.0
  0
LINE
  8
0
  6
CONTINUOUS
 62
     7
  5
ACE
 10
0.443974
 20
1.228236
 30
0.0
 11
0.445621
 21
1.228209
 31
0.0
  0
LINE
  8
0
  6
CONTINUOUS
 62
     7
  5
ACF
 10
0.445621
 20
1.228209
 30
0.0
 11
0.447268
 21
1.228181
 31
0.0
  0
LINE
  8
0
  6
CONTINUOUS
 62
     7
  5
AD0
 10
0.447268
 20
1.228181
 30
0.0
 11
0.448915
 21
1.22815
 31
0.0
  0
LINE
  8
0
  6
CONTINUOUS
 62
     7
  5
AD1
 10
0.448915
 20
1.22815
 30
0.0
 11
0.450561
 21
1.228116
 31
0.0
  0
LINE
  8
0
  6
CONTINUOUS
 62
     7
  5
AD2
 10
0.450561
 20
1.228116
 30
0.0
 11
0.452208
 21
1.228081
 31
0.0
  0
LINE
  8
0
  6
CONTINUOUS
 62
     7
  5
AD3
 10
0.452208
 20
1.228081
 30
0.0
 11
0.453854
 21
1.228043
 31
0.0
  0
LINE
  8
0
  6
CONTINUOUS
 62
     7
  5
AD4
 10
0.453854
 20
1.228043
 30
0.0
 11
0.455499
 21
1.228003
 31
0.0
  0
LINE
  8
0
  6
CONTINUOUS
 62
     7
  5
AD5
 10
0.455499
 20
1.228003
 30
0.0
 11
0.457144
 21
1.22796
 31
0.0
  0
LINE
  8
0
  6
CONTINUOUS
 62
     7
  5
AD6
 10
0.457144
 20
1.22796
 30
0.0
 11
0.458789
 21
1.227916
 31
0.0
  0
LINE
  8
0
  6
CONTINUOUS
 62
     7
  5
AD7
 10
0.458789
 20
1.227916
 30
0.0
 11
0.460434
 21
1.227868
 31
0.0
  0
LINE
  8
0
  6
CONTINUOUS
 62
     7
  5
AD8
 10
0.460434
 20
1.227868
 30
0.0
 11
0.462078
 21
1.227819
 31
0.0
  0
LINE
  8
0
  6
CONTINUOUS
 62
     7
  5
AD9
 10
0.462078
 20
1.227819
 30
0.0
 11
0.463722
 21
1.227768
 31
0.0
  0
LINE
  8
0
  6
CONTINUOUS
 62
     7
  5
ADA
 10
0.463722
 20
1.227768
 30
0.0
 11
0.465365
 21
1.227714
 31
0.0
  0
LINE
  8
0
  6
CONTINUOUS
 62
     7
  5
ADB
 10
0.465365
 20
1.227714
 30
0.0
 11
0.467008
 21
1.227657
 31
0.0
  0
LINE
  8
0
  6
CONTINUOUS
 62
     7
  5
ADC
 10
0.467008
 20
1.227657
 30
0.0
 11
0.468651
 21
1.227599
 31
0.0
  0
LINE
  8
0
  6
CONTINUOUS
 62
     7
  5
ADD
 10
0.468651
 20
1.227599
 30
0.0
 11
0.470293
 21
1.227538
 31
0.0
  0
LINE
  8
0
  6
CONTINUOUS
 62
     7
  5
ADE
 10
0.470293
 20
1.227538
 30
0.0
 11
0.471934
 21
1.227475
 31
0.0
  0
LINE
  8
0
  6
CONTINUOUS
 62
     7
  5
ADF
 10
0.471934
 20
1.227475
 30
0.0
 11
0.473575
 21
1.22741
 31
0.0
  0
LINE
  8
0
  6
CONTINUOUS
 62
     7
  5
AE0
 10
0.473575
 20
1.22741
 30
0.0
 11
0.475216
 21
1.227342
 31
0.0
  0
LINE
  8
0
  6
CONTINUOUS
 62
     7
  5
AE1
 10
0.475216
 20
1.227342
 30
0.0
 11
0.476856
 21
1.227272
 31
0.0
  0
LINE
  8
0
  6
CONTINUOUS
 62
     7
  5
AE2
 10
0.476856
 20
1.227272
 30
0.0
 11
0.478495
 21
1.2272
 31
0.0
  0
LINE
  8
0
  6
CONTINUOUS
 62
     7
  5
AE3
 10
0.478495
 20
1.2272
 30
0.0
 11
0.480134
 21
1.227125
 31
0.0
  0
LINE
  8
0
  6
CONTINUOUS
 62
     7
  5
AE4
 10
0.480134
 20
1.227125
 30
0.0
 11
0.481772
 21
1.227049
 31
0.0
  0
LINE
  8
0
  6
CONTINUOUS
 62
     7
  5
AE5
 10
0.481772
 20
1.227049
 30
0.0
 11
0.48341
 21
1.22697
 31
0.0
  0
LINE
  8
0
  6
CONTINUOUS
 62
     7
  5
AE6
 10
0.393701
 20
1.228375
 30
0.0
 11
0.425847
 21
1.228375
 31
0.0
  0
LINE
  8
0
  6
CONTINUOUS
 62
     7
  5
AE7
 10
-0.492126
 20
1.086947
 30
0.0
 11
-0.492043
 21
1.090771
 31
0.0
  0
LINE
  8
0
  6
CONTINUOUS
 62
     7
  5
AE8
 10
-0.492043
 20
1.090771
 30
0.0
 11
-0.491793
 21
1.094593
 31
0.0
  0
LINE
  8
0
  6
CONTINUOUS
 62
     7
  5
AE9
 10
-0.491793
 20
1.094593
 30
0.0
 11
-0.491378
 21
1.098413
 31
0.0
  0
LINE
  8
0
  6
CONTINUOUS
 62
     7
  5
AEA
 10
-0.491378
 20
1.098413
 30
0.0
 11
-0.490796
 21
1.102229
 31
0.0
  0
LINE
  8
0
  6
CONTINUOUS
 62
     7
  5
AEB
 10
-0.490796
 20
1.102229
 30
0.0
 11
-0.490048
 21
1.10604
 31
0.0
  0
LINE
  8
0
  6
CONTINUOUS
 62
     7
  5
AEC
 10
-0.490048
 20
1.10604
 30
0.0
 11
-0.489135
 21
1.109844
 31
0.0
  0
LINE
  8
0
  6
CONTINUOUS
 62
     7
  5
AED
 10
-0.489135
 20
1.109844
 30
0.0
 11
-0.488056
 21
1.113641
 31
0.0
  0
LINE
  8
0
  6
CONTINUOUS
 62
     7
  5
AEE
 10
-0.488056
 20
1.113641
 30
0.0
 11
-0.486812
 21
1.117428
 31
0.0
  0
LINE
  8
0
  6
CONTINUOUS
 62
     7
  5
AEF
 10
-0.486812
 20
1.117428
 30
0.0
 11
-0.485404
 21
1.121205
 31
0.0
  0
LINE
  8
0
  6
CONTINUOUS
 62
     7
  5
AF0
 10
-0.485404
 20
1.121205
 30
0.0
 11
-0.483832
 21
1.124971
 31
0.0
  0
LINE
  8
0
  6
CONTINUOUS
 62
     7
  5
AF1
 10
-0.483832
 20
1.124971
 30
0.0
 11
-0.482096
 21
1.128724
 31
0.0
  0
LINE
  8
0
  6
CONTINUOUS
 62
     7
  5
AF2
 10
-0.482096
 20
1.128724
 30
0.0
 11
-0.480197
 21
1.132463
 31
0.0
  0
LINE
  8
0
  6
CONTINUOUS
 62
     7
  5
AF3
 10
-0.480197
 20
1.132463
 30
0.0
 11
-0.478136
 21
1.136186
 31
0.0
  0
LINE
  8
0
  6
CONTINUOUS
 62
     7
  5
AF4
 10
-0.478136
 20
1.136186
 30
0.0
 11
-0.475913
 21
1.139893
 31
0.0
  0
LINE
  8
0
  6
CONTINUOUS
 62
     7
  5
AF5
 10
-0.475913
 20
1.139893
 30
0.0
 11
-0.473529
 21
1.143581
 31
0.0
  0
LINE
  8
0
  6
CONTINUOUS
 62
     7
  5
AF6
 10
-0.473529
 20
1.143581
 30
0.0
 11
-0.470986
 21
1.147251
 31
0.0
  0
LINE
  8
0
  6
CONTINUOUS
 62
     7
  5
AF7
 10
-0.470986
 20
1.147251
 30
0.0
 11
-0.468283
 21
1.1509
 31
0.0
  0
LINE
  8
0
  6
CONTINUOUS
 62
     7
  5
AF8
 10
-0.468283
 20
1.1509
 30
0.0
 11
-0.465421
 21
1.154528
 31
0.0
  0
LINE
  8
0
  6
CONTINUOUS
 62
     7
  5
AF9
 10
-0.465421
 20
1.154528
 30
0.0
 11
-0.462403
 21
1.158133
 31
0.0
  0
LINE
  8
0
  6
CONTINUOUS
 62
     7
  5
AFA
 10
-0.462403
 20
1.158133
 30
0.0
 11
-0.459228
 21
1.161713
 31
0.0
  0
LINE
  8
0
  6
CONTINUOUS
 62
     7
  5
AFB
 10
-0.459228
 20
1.161713
 30
0.0
 11
-0.455898
 21
1.165269
 31
0.0
  0
LINE
  8
0
  6
CONTINUOUS
 62
     7
  5
AFC
 10
-0.455898
 20
1.165269
 30
0.0
 11
-0.452414
 21
1.168798
 31
0.0
  0
LINE
  8
0
  6
CONTINUOUS
 62
     7
  5
AFD
 10
-0.452414
 20
1.168798
 30
0.0
 11
-0.448777
 21
1.172299
 31
0.0
  0
LINE
  8
0
  6
CONTINUOUS
 62
     7
  5
AFE
 10
-0.448777
 20
1.172299
 30
0.0
 11
-0.444988
 21
1.175771
 31
0.0
  0
LINE
  8
0
  6
CONTINUOUS
 62
     7
  5
AFF
 10
-0.444988
 20
1.175771
 30
0.0
 11
-0.441049
 21
1.179214
 31
0.0
  0
LINE
  8
0
  6
CONTINUOUS
 62
     7
  5
B00
 10
-0.441049
 20
1.179214
 30
0.0
 11
-0.43696
 21
1.182625
 31
0.0
  0
LINE
  8
0
  6
CONTINUOUS
 62
     7
  5
B01
 10
-0.43696
 20
1.182625
 30
0.0
 11
-0.432724
 21
1.186004
 31
0.0
  0
LINE
  8
0
  6
CONTINUOUS
 62
     7
  5
B02
 10
-0.432724
 20
1.186004
 30
0.0
 11
-0.428342
 21
1.189349
 31
0.0
  0
LINE
  8
0
  6
CONTINUOUS
 62
     7
  5
B03
 10
-0.428342
 20
1.189349
 30
0.0
 11
-0.423815
 21
1.19266
 31
0.0
  0
LINE
  8
0
  6
CONTINUOUS
 62
     7
  5
B04
 10
-0.423815
 20
1.19266
 30
0.0
 11
-0.419144
 21
1.195935
 31
0.0
  0
LINE
  8
0
  6
CONTINUOUS
 62
     7
  5
B05
 10
-0.419144
 20
1.195935
 30
0.0
 11
-0.414332
 21
1.199173
 31
0.0
  0
LINE
  8
0
  6
CONTINUOUS
 62
     7
  5
B06
 10
-0.414332
 20
1.199173
 30
0.0
 11
-0.40938
 21
1.202374
 31
0.0
  0
LINE
  8
0
  6
CONTINUOUS
 62
     7
  5
B07
 10
-0.40938
 20
1.202374
 30
0.0
 11
-0.40429
 21
1.205535
 31
0.0
  0
LINE
  8
0
  6
CONTINUOUS
 62
     7
  5
B08
 10
-0.40429
 20
1.205535
 30
0.0
 11
-0.399063
 21
1.208656
 31
0.0
  0
LINE
  8
0
  6
CONTINUOUS
 62
     7
  5
B09
 10
-0.399063
 20
1.208656
 30
0.0
 11
-0.393701
 21
1.211736
 31
0.0
  0
LINE
  8
0
  6
CONTINUOUS
 62
     7
  5
B0A
 10
0.393701
 20
1.211736
 30
0.0
 11
0.399063
 21
1.208656
 31
0.0
  0
LINE
  8
0
  6
CONTINUOUS
 62
     7
  5
B0B
 10
0.399063
 20
1.208656
 30
0.0
 11
0.40429
 21
1.205535
 31
0.0
  0
LINE
  8
0
  6
CONTINUOUS
 62
     7
  5
B0C
 10
0.40429
 20
1.205535
 30
0.0
 11
0.40938
 21
1.202374
 31
0.0
  0
LINE
  8
0
  6
CONTINUOUS
 62
     7
  5
B0D
 10
0.40938
 20
1.202374
 30
0.0
 11
0.414332
 21
1.199173
 31
0.0
  0
LINE
  8
0
  6
CONTINUOUS
 62
     7
  5
B0E
 10
0.414332
 20
1.199173
 30
0.0
 11
0.419144
 21
1.195935
 31
0.0
  0
LINE
  8
0
  6
CONTINUOUS
 62
     7
  5
B0F
 10
0.419144
 20
1.195935
 30
0.0
 11
0.423815
 21
1.19266
 31
0.0
  0
LINE
  8
0
  6
CONTINUOUS
 62
     7
  5
B10
 10
0.423815
 20
1.19266
 30
0.0
 11
0.428342
 21
1.189349
 31
0.0
  0
LINE
  8
0
  6
CONTINUOUS
 62
     7
  5
B11
 10
0.428342
 20
1.189349
 30
0.0
 11
0.432724
 21
1.186004
 31
0.0
  0
LINE
  8
0
  6
CONTINUOUS
 62
     7
  5
B12
 10
0.432724
 20
1.186004
 30
0.0
 11
0.43696
 21
1.182625
 31
0.0
  0
LINE
  8
0
  6
CONTINUOUS
 62
     7
  5
B13
 10
0.43696
 20
1.182625
 30
0.0
 11
0.441049
 21
1.179214
 31
0.0
  0
LINE
  8
0
  6
CONTINUOUS
 62
     7
  5
B14
 10
0.441049
 20
1.179214
 30
0.0
 11
0.444988
 21
1.175771
 31
0.0
  0
LINE
  8
0
  6
CONTINUOUS
 62
     7
  5
B15
 10
0.444988
 20
1.175771
 30
0.0
 11
0.448777
 21
1.172299
 31
0.0
  0
LINE
  8
0
  6
CONTINUOUS
 62
     7
  5
B16
 10
0.448777
 20
1.172299
 30
0.0
 11
0.452414
 21
1.168798
 31
0.0
  0
LINE
  8
0
  6
CONTINUOUS
 62
     7
  5
B17
 10
0.452414
 20
1.168798
 30
0.0
 11
0.455898
 21
1.165269
 31
0.0
  0
LINE
  8
0
  6
CONTINUOUS
 62
     7
  5
B18
 10
0.455898
 20
1.165269
 30
0.0
 11
0.459228
 21
1.161713
 31
0.0
  0
LINE
  8
0
  6
CONTINUOUS
 62
     7
  5
B19
 10
0.459228
 20
1.161713
 30
0.0
 11
0.462403
 21
1.158133
 31
0.0
  0
LINE
  8
0
  6
CONTINUOUS
 62
     7
  5
B1A
 10
0.462403
 20
1.158133
 30
0.0
 11
0.465421
 21
1.154528
 31
0.0
  0
LINE
  8
0
  6
CONTINUOUS
 62
     7
  5
B1B
 10
0.465421
 20
1.154528
 30
0.0
 11
0.468283
 21
1.1509
 31
0.0
  0
LINE
  8
0
  6
CONTINUOUS
 62
     7
  5
B1C
 10
0.468283
 20
1.1509
 30
0.0
 11
0.470986
 21
1.147251
 31
0.0
  0
LINE
  8
0
  6
CONTINUOUS
 62
     7
  5
B1D
 10
0.470986
 20
1.147251
 30
0.0
 11
0.473529
 21
1.143581
 31
0.0
  0
LINE
  8
0
  6
CONTINUOUS
 62
     7
  5
B1E
 10
0.473529
 20
1.143581
 30
0.0
 11
0.475913
 21
1.139893
 31
0.0
  0
LINE
  8
0
  6
CONTINUOUS
 62
     7
  5
B1F
 10
0.475913
 20
1.139893
 30
0.0
 11
0.478136
 21
1.136186
 31
0.0
  0
LINE
  8
0
  6
CONTINUOUS
 62
     7
  5
B20
 10
0.478136
 20
1.136186
 30
0.0
 11
0.480197
 21
1.132463
 31
0.0
  0
LINE
  8
0
  6
CONTINUOUS
 62
     7
  5
B21
 10
0.480197
 20
1.132463
 30
0.0
 11
0.482096
 21
1.128724
 31
0.0
  0
LINE
  8
0
  6
CONTINUOUS
 62
     7
  5
B22
 10
0.482096
 20
1.128724
 30
0.0
 11
0.483832
 21
1.124971
 31
0.0
  0
LINE
  8
0
  6
CONTINUOUS
 62
     7
  5
B23
 10
0.483832
 20
1.124971
 30
0.0
 11
0.485404
 21
1.121205
 31
0.0
  0
LINE
  8
0
  6
CONTINUOUS
 62
     7
  5
B24
 10
0.485404
 20
1.121205
 30
0.0
 11
0.486812
 21
1.117428
 31
0.0
  0
LINE
  8
0
  6
CONTINUOUS
 62
     7
  5
B25
 10
0.486812
 20
1.117428
 30
0.0
 11
0.488056
 21
1.113641
 31
0.0
  0
LINE
  8
0
  6
CONTINUOUS
 62
     7
  5
B26
 10
0.488056
 20
1.113641
 30
0.0
 11
0.489135
 21
1.109844
 31
0.0
  0
LINE
  8
0
  6
CONTINUOUS
 62
     7
  5
B27
 10
0.489135
 20
1.109844
 30
0.0
 11
0.490048
 21
1.10604
 31
0.0
  0
LINE
  8
0
  6
CONTINUOUS
 62
     7
  5
B28
 10
0.490048
 20
1.10604
 30
0.0
 11
0.490796
 21
1.102229
 31
0.0
  0
LINE
  8
0
  6
CONTINUOUS
 62
     7
  5
B29
 10
0.490796
 20
1.102229
 30
0.0
 11
0.491378
 21
1.098413
 31
0.0
  0
LINE
  8
0
  6
CONTINUOUS
 62
     7
  5
B2A
 10
0.491378
 20
1.098413
 30
0.0
 11
0.491793
 21
1.094593
 31
0.0
  0
LINE
  8
0
  6
CONTINUOUS
 62
     7
  5
B2B
 10
0.491793
 20
1.094593
 30
0.0
 11
0.492043
 21
1.090771
 31
0.0
  0
LINE
  8
0
  6
CONTINUOUS
 62
     7
  5
B2C
 10
0.492043
 20
1.090771
 30
0.0
 11
0.492126
 21
1.086947
 31
0.0
  0
LINE
  8
0
  6
CONTINUOUS
 62
     7
  5
B2D
 10
-0.425847
 20
1.228375
 30
0.0
 11
-0.393701
 21
1.228375
 31
0.0
  0
LINE
  8
0
  6
CONTINUOUS
 62
     7
  5
B2E
 10
-0.48341
 20
1.22697
 30
0.0
 11
-0.481772
 21
1.227049
 31
0.0
  0
LINE
  8
0
  6
CONTINUOUS
 62
     7
  5
B2F
 10
-0.481772
 20
1.227049
 30
0.0
 11
-0.480134
 21
1.227125
 31
0.0
  0
LINE
  8
0
  6
CONTINUOUS
 62
     7
  5
B30
 10
-0.480134
 20
1.227125
 30
0.0
 11
-0.478495
 21
1.2272
 31
0.0
  0
LINE
  8
0
  6
CONTINUOUS
 62
     7
  5
B31
 10
-0.478495
 20
1.2272
 30
0.0
 11
-0.476856
 21
1.227272
 31
0.0
  0
LINE
  8
0
  6
CONTINUOUS
 62
     7
  5
B32
 10
-0.476856
 20
1.227272
 30
0.0
 11
-0.475216
 21
1.227342
 31
0.0
  0
LINE
  8
0
  6
CONTINUOUS
 62
     7
  5
B33
 10
-0.475216
 20
1.227342
 30
0.0
 11
-0.473575
 21
1.22741
 31
0.0
  0
LINE
  8
0
  6
CONTINUOUS
 62
     7
  5
B34
 10
-0.473575
 20
1.22741
 30
0.0
 11
-0.471934
 21
1.227475
 31
0.0
  0
LINE
  8
0
  6
CONTINUOUS
 62
     7
  5
B35
 10
-0.471934
 20
1.227475
 30
0.0
 11
-0.470293
 21
1.227538
 31
0.0
  0
LINE
  8
0
  6
CONTINUOUS
 62
     7
  5
B36
 10
-0.470293
 20
1.227538
 30
0.0
 11
-0.468651
 21
1.227599
 31
0.0
  0
LINE
  8
0
  6
CONTINUOUS
 62
     7
  5
B37
 10
-0.468651
 20
1.227599
 30
0.0
 11
-0.467008
 21
1.227657
 31
0.0
  0
LINE
  8
0
  6
CONTINUOUS
 62
     7
  5
B38
 10
-0.467008
 20
1.227657
 30
0.0
 11
-0.465365
 21
1.227714
 31
0.0
  0
LINE
  8
0
  6
CONTINUOUS
 62
     7
  5
B39
 10
-0.465365
 20
1.227714
 30
0.0
 11
-0.463722
 21
1.227768
 31
0.0
  0
LINE
  8
0
  6
CONTINUOUS
 62
     7
  5
B3A
 10
-0.463722
 20
1.227768
 30
0.0
 11
-0.462078
 21
1.227819
 31
0.0
  0
LINE
  8
0
  6
CONTINUOUS
 62
     7
  5
B3B
 10
-0.462078
 20
1.227819
 30
0.0
 11
-0.460434
 21
1.227868
 31
0.0
  0
LINE
  8
0
  6
CONTINUOUS
 62
     7
  5
B3C
 10
-0.460434
 20
1.227868
 30
0.0
 11
-0.458789
 21
1.227916
 31
0.0
  0
LINE
  8
0
  6
CONTINUOUS
 62
     7
  5
B3D
 10
-0.458789
 20
1.227916
 30
0.0
 11
-0.457144
 21
1.22796
 31
0.0
  0
LINE
  8
0
  6
CONTINUOUS
 62
     7
  5
B3E
 10
-0.457144
 20
1.22796
 30
0.0
 11
-0.455499
 21
1.228003
 31
0.0
  0
LINE
  8
0
  6
CONTINUOUS
 62
     7
  5
B3F
 10
-0.455499
 20
1.228003
 30
0.0
 11
-0.453854
 21
1.228043
 31
0.0
  0
LINE
  8
0
  6
CONTINUOUS
 62
     7
  5
B40
 10
-0.453854
 20
1.228043
 30
0.0
 11
-0.452208
 21
1.228081
 31
0.0
  0
LINE
  8
0
  6
CONTINUOUS
 62
     7
  5
B41
 10
-0.452208
 20
1.228081
 30
0.0
 11
-0.450561
 21
1.228116
 31
0.0
  0
LINE
  8
0
  6
CONTINUOUS
 62
     7
  5
B42
 10
-0.450561
 20
1.228116
 30
0.0
 11
-0.448915
 21
1.22815
 31
0.0
  0
LINE
  8
0
  6
CONTINUOUS
 62
     7
  5
B43
 10
-0.448915
 20
1.22815
 30
0.0
 11
-0.447268
 21
1.228181
 31
0.0
  0
LINE
  8
0
  6
CONTINUOUS
 62
     7
  5
B44
 10
-0.447268
 20
1.228181
 30
0.0
 11
-0.445621
 21
1.228209
 31
0.0
  0
LINE
  8
0
  6
CONTINUOUS
 62
     7
  5
B45
 10
-0.445621
 20
1.228209
 30
0.0
 11
-0.443974
 21
1.228236
 31
0.0
  0
LINE
  8
0
  6
CONTINUOUS
 62
     7
  5
B46
 10
-0.443974
 20
1.228236
 30
0.0
 11
-0.442327
 21
1.22826
 31
0.0
  0
LINE
  8
0
  6
CONTINUOUS
 62
     7
  5
B47
 10
-0.442327
 20
1.22826
 30
0.0
 11
-0.440679
 21
1.228282
 31
0.0
  0
LINE
  8
0
  6
CONTINUOUS
 62
     7
  5
B48
 10
-0.440679
 20
1.228282
 30
0.0
 11
-0.439032
 21
1.228301
 31
0.0
  0
LINE
  8
0
  6
CONTINUOUS
 62
     7
  5
B49
 10
-0.439032
 20
1.228301
 30
0.0
 11
-0.437384
 21
1.228318
 31
0.0
  0
LINE
  8
0
  6
CONTINUOUS
 62
     7
  5
B4A
 10
-0.437384
 20
1.228318
 30
0.0
 11
-0.435736
 21
1.228333
 31
0.0
  0
LINE
  8
0
  6
CONTINUOUS
 62
     7
  5
B4B
 10
-0.435736
 20
1.228333
 30
0.0
 11
-0.434088
 21
1.228346
 31
0.0
  0
LINE
  8
0
  6
CONTINUOUS
 62
     7
  5
B4C
 10
-0.434088
 20
1.228346
 30
0.0
 11
-0.43244
 21
1.228356
 31
0.0
  0
LINE
  8
0
  6
CONTINUOUS
 62
     7
  5
B4D
 10
-0.43244
 20
1.228356
 30
0.0
 11
-0.430792
 21
1.228364
 31
0.0
  0
LINE
  8
0
  6
CONTINUOUS
 62
     7
  5
B4E
 10
-0.430792
 20
1.228364
 30
0.0
 11
-0.429143
 21
1.22837
 31
0.0
  0
LINE
  8
0
  6
CONTINUOUS
 62
     7
  5
B4F
 10
-0.429143
 20
1.22837
 30
0.0
 11
-0.427495
 21
1.228374
 31
0.0
  0
LINE
  8
0
  6
CONTINUOUS
 62
     7
  5
B50
 10
-0.427495
 20
1.228374
 30
0.0
 11
-0.425847
 21
1.228375
 31
0.0
  0
LINE
  8
0
  6
CONTINUOUS
 62
     7
  5
B51
 10
-1.884238
 20
1.158357
 30
0.0
 11
-0.48341
 21
1.22697
 31
0.0
  0
LINE
  8
0
  6
CONTINUOUS
 62
     7
  5
B52
 10
-1.988588
 20
1.111385
 30
0.0
 11
-1.988246
 21
1.113381
 31
0.0
  0
LINE
  8
0
  6
CONTINUOUS
 62
     7
  5
B53
 10
-1.988246
 20
1.113381
 30
0.0
 11
-1.987714
 21
1.115369
 31
0.0
  0
LINE
  8
0
  6
CONTINUOUS
 62
     7
  5
B54
 10
-1.987714
 20
1.115369
 30
0.0
 11
-1.986995
 21
1.117347
 31
0.0
  0
LINE
  8
0
  6
CONTINUOUS
 62
     7
  5
B55
 10
-1.986995
 20
1.117347
 30
0.0
 11
-1.986088
 21
1.119311
 31
0.0
  0
LINE
  8
0
  6
CONTINUOUS
 62
     7
  5
B56
 10
-1.986088
 20
1.119311
 30
0.0
 11
-1.984996
 21
1.121258
 31
0.0
  0
LINE
  8
0
  6
CONTINUOUS
 62
     7
  5
B57
 10
-1.984996
 20
1.121258
 30
0.0
 11
-1.98372
 21
1.123184
 31
0.0
  0
LINE
  8
0
  6
CONTINUOUS
 62
     7
  5
B58
 10
-1.98372
 20
1.123184
 30
0.0
 11
-1.982263
 21
1.125088
 31
0.0
  0
LINE
  8
0
  6
CONTINUOUS
 62
     7
  5
B59
 10
-1.982263
 20
1.125088
 30
0.0
 11
-1.980626
 21
1.126965
 31
0.0
  0
LINE
  8
0
  6
CONTINUOUS
 62
     7
  5
B5A
 10
-1.980626
 20
1.126965
 30
0.0
 11
-1.978813
 21
1.128814
 31
0.0
  0
LINE
  8
0
  6
CONTINUOUS
 62
     7
  5
B5B
 10
-1.978813
 20
1.128814
 30
0.0
 11
-1.976825
 21
1.13063
 31
0.0
  0
LINE
  8
0
  6
CONTINUOUS
 62
     7
  5
B5C
 10
-1.976825
 20
1.13063
 30
0.0
 11
-1.974667
 21
1.132411
 31
0.0
  0
LINE
  8
0
  6
CONTINUOUS
 62
     7
  5
B5D
 10
-1.974667
 20
1.132411
 30
0.0
 11
-1.972342
 21
1.134154
 31
0.0
  0
LINE
  8
0
  6
CONTINUOUS
 62
     7
  5
B5E
 10
-1.972342
 20
1.134154
 30
0.0
 11
-1.969854
 21
1.135856
 31
0.0
  0
LINE
  8
0
  6
CONTINUOUS
 62
     7
  5
B5F
 10
-1.969854
 20
1.135856
 30
0.0
 11
-1.967206
 21
1.137514
 31
0.0
  0
LINE
  8
0
  6
CONTINUOUS
 62
     7
  5
B60
 10
-1.967206
 20
1.137514
 30
0.0
 11
-1.964403
 21
1.139127
 31
0.0
  0
LINE
  8
0
  6
CONTINUOUS
 62
     7
  5
B61
 10
-1.964403
 20
1.139127
 30
0.0
 11
-1.961449
 21
1.14069
 31
0.0
  0
LINE
  8
0
  6
CONTINUOUS
 62
     7
  5
B62
 10
-1.961449
 20
1.14069
 30
0.0
 11
-1.958349
 21
1.142203
 31
0.0
  0
LINE
  8
0
  6
CONTINUOUS
 62
     7
  5
B63
 10
-1.958349
 20
1.142203
 30
0.0
 11
-1.955109
 21
1.143662
 31
0.0
  0
LINE
  8
0
  6
CONTINUOUS
 62
     7
  5
B64
 10
-1.955109
 20
1.143662
 30
0.0
 11
-1.951732
 21
1.145064
 31
0.0
  0
LINE
  8
0
  6
CONTINUOUS
 62
     7
  5
B65
 10
-1.951732
 20
1.145064
 30
0.0
 11
-1.948226
 21
1.146409
 31
0.0
  0
LINE
  8
0
  6
CONTINUOUS
 62
     7
  5
B66
 10
-1.948226
 20
1.146409
 30
0.0
 11
-1.944594
 21
1.147692
 31
0.0
  0
LINE
  8
0
  6
CONTINUOUS
 62
     7
  5
B67
 10
-1.944594
 20
1.147692
 30
0.0
 11
-1.940844
 21
1.148914
 31
0.0
  0
LINE
  8
0
  6
CONTINUOUS
 62
     7
  5
B68
 10
-1.940844
 20
1.148914
 30
0.0
 11
-1.936981
 21
1.15007
 31
0.0
  0
LINE
  8
0
  6
CONTINUOUS
 62
     7
  5
B69
 10
-1.936981
 20
1.15007
 30
0.0
 11
-1.933012
 21
1.151161
 31
0.0
  0
LINE
  8
0
  6
CONTINUOUS
 62
     7
  5
B6A
 10
-1.933012
 20
1.151161
 30
0.0
 11
-1.928942
 21
1.152183
 31
0.0
  0
LINE
  8
0
  6
CONTINUOUS
 62
     7
  5
B6B
 10
-1.928942
 20
1.152183
 30
0.0
 11
-1.924779
 21
1.153136
 31
0.0
  0
LINE
  8
0
  6
CONTINUOUS
 62
     7
  5
B6C
 10
-1.924779
 20
1.153136
 30
0.0
 11
-1.920528
 21
1.154017
 31
0.0
  0
LINE
  8
0
  6
CONTINUOUS
 62
     7
  5
B6D
 10
-1.920528
 20
1.154017
 30
0.0
 11
-1.916198
 21
1.154826
 31
0.0
  0
LINE
  8
0
  6
CONTINUOUS
 62
     7
  5
B6E
 10
-1.916198
 20
1.154826
 30
0.0
 11
-1.911794
 21
1.15556
 31
0.0
  0
LINE
  8
0
  6
CONTINUOUS
 62
     7
  5
B6F
 10
-1.911794
 20
1.15556
 30
0.0
 11
-1.907324
 21
1.15622
 31
0.0
  0
LINE
  8
0
  6
CONTINUOUS
 62
     7
  5
B70
 10
-1.907324
 20
1.15622
 30
0.0
 11
-1.902795
 21
1.156803
 31
0.0
  0
LINE
  8
0
  6
CONTINUOUS
 62
     7
  5
B71
 10
-1.902795
 20
1.156803
 30
0.0
 11
-1.898215
 21
1.157309
 31
0.0
  0
LINE
  8
0
  6
CONTINUOUS
 62
     7
  5
B72
 10
-1.898215
 20
1.157309
 30
0.0
 11
-1.89359
 21
1.157737
 31
0.0
  0
LINE
  8
0
  6
CONTINUOUS
 62
     7
  5
B73
 10
-1.89359
 20
1.157737
 30
0.0
 11
-1.888929
 21
1.158087
 31
0.0
  0
LINE
  8
0
  6
CONTINUOUS
 62
     7
  5
B74
 10
-1.888929
 20
1.158087
 30
0.0
 11
-1.884238
 21
1.158357
 31
0.0
  0
LINE
  8
0
  6
CONTINUOUS
 62
     7
  5
B75
 10
-2.065575
 20
0.490561
 30
0.0
 11
-1.988588
 21
1.111385
 31
0.0
  0
LINE
  8
0
  6
CONTINUOUS
 62
     7
  5
B76
 10
2.047295
 20
1.315922
 30
0.0
 11
2.065575
 21
0.490561
 31
0.0
  0
LINE
  8
0
  6
CONTINUOUS
 62
     7
  5
B77
 10
2.047295
 20
1.315922
 30
0.0
 11
1.988588
 21
1.789332
 31
0.0
  0
LINE
  8
0
  6
CONTINUOUS
 62
     7
  5
B78
 10
1.988588
 20
-1.941388
 30
0.0
 11
2.043049
 21
-1.453524
 31
0.0
  0
LINE
  8
0
  6
CONTINUOUS
 62
     7
  5
B79
 10
1.884238
 20
-1.993567
 30
0.0
 11
1.888929
 21
-1.993267
 31
0.0
  0
LINE
  8
0
  6
CONTINUOUS
 62
     7
  5
B7A
 10
1.888929
 20
-1.993267
 30
0.0
 11
1.89359
 21
-1.992879
 31
0.0
  0
LINE
  8
0
  6
CONTINUOUS
 62
     7
  5
B7B
 10
1.89359
 20
-1.992879
 30
0.0
 11
1.898215
 21
-1.992403
 31
0.0
  0
LINE
  8
0
  6
CONTINUOUS
 62
     7
  5
B7C
 10
1.898215
 20
-1.992403
 30
0.0
 11
1.902795
 21
-1.991841
 31
0.0
  0
LINE
  8
0
  6
CONTINUOUS
 62
     7
  5
B7D
 10
1.902795
 20
-1.991841
 30
0.0
 11
1.907324
 21
-1.991193
 31
0.0
  0
LINE
  8
0
  6
CONTINUOUS
 62
     7
  5
B7E
 10
1.907324
 20
-1.991193
 30
0.0
 11
1.911794
 21
-1.990461
 31
0.0
  0
LINE
  8
0
  6
CONTINUOUS
 62
     7
  5
B7F
 10
1.911794
 20
-1.990461
 30
0.0
 11
1.916198
 21
-1.989645
 31
0.0
  0
LINE
  8
0
  6
CONTINUOUS
 62
     7
  5
B80
 10
1.916198
 20
-1.989645
 30
0.0
 11
1.920528
 21
-1.988746
 31
0.0
  0
LINE
  8
0
  6
CONTINUOUS
 62
     7
  5
B81
 10
1.920528
 20
-1.988746
 30
0.0
 11
1.924779
 21
-1.987767
 31
0.0
  0
LINE
  8
0
  6
CONTINUOUS
 62
     7
  5
B82
 10
1.924779
 20
-1.987767
 30
0.0
 11
1.928942
 21
-1.986709
 31
0.0
  0
LINE
  8
0
  6
CONTINUOUS
 62
     7
  5
B83
 10
1.928942
 20
-1.986709
 30
0.0
 11
1.933012
 21
-1.985573
 31
0.0
  0
LINE
  8
0
  6
CONTINUOUS
 62
     7
  5
B84
 10
1.933012
 20
-1.985573
 30
0.0
 11
1.936981
 21
-1.984362
 31
0.0
  0
LINE
  8
0
  6
CONTINUOUS
 62
     7
  5
B85
 10
1.936981
 20
-1.984362
 30
0.0
 11
1.940844
 21
-1.983077
 31
0.0
  0
LINE
  8
0
  6
CONTINUOUS
 62
     7
  5
B86
 10
1.940844
 20
-1.983077
 30
0.0
 11
1.944594
 21
-1.98172
 31
0.0
  0
LINE
  8
0
  6
CONTINUOUS
 62
     7
  5
B87
 10
1.944594
 20
-1.98172
 30
0.0
 11
1.948226
 21
-1.980294
 31
0.0
  0
LINE
  8
0
  6
CONTINUOUS
 62
     7
  5
B88
 10
1.948226
 20
-1.980294
 30
0.0
 11
1.951732
 21
-1.978801
 31
0.0
  0
LINE
  8
0
  6
CONTINUOUS
 62
     7
  5
B89
 10
1.951732
 20
-1.978801
 30
0.0
 11
1.955109
 21
-1.977243
 31
0.0
  0
LINE
  8
0
  6
CONTINUOUS
 62
     7
  5
B8A
 10
1.955109
 20
-1.977243
 30
0.0
 11
1.958349
 21
-1.975622
 31
0.0
  0
LINE
  8
0
  6
CONTINUOUS
 62
     7
  5
B8B
 10
1.958349
 20
-1.975622
 30
0.0
 11
1.961449
 21
-1.973942
 31
0.0
  0
LINE
  8
0
  6
CONTINUOUS
 62
     7
  5
B8C
 10
1.961449
 20
-1.973942
 30
0.0
 11
1.964403
 21
-1.972205
 31
0.0
  0
LINE
  8
0
  6
CONTINUOUS
 62
     7
  5
B8D
 10
1.964403
 20
-1.972205
 30
0.0
 11
1.967206
 21
-1.970414
 31
0.0
  0
LINE
  8
0
  6
CONTINUOUS
 62
     7
  5
B8E
 10
1.967206
 20
-1.970414
 30
0.0
 11
1.969854
 21
-1.968571
 31
0.0
  0
LINE
  8
0
  6
CONTINUOUS
 62
     7
  5
B8F
 10
1.969854
 20
-1.968571
 30
0.0
 11
1.972342
 21
-1.966681
 31
0.0
  0
LINE
  8
0
  6
CONTINUOUS
 62
     7
  5
B90
 10
1.972342
 20
-1.966681
 30
0.0
 11
1.974667
 21
-1.964744
 31
0.0
  0
LINE
  8
0
  6
CONTINUOUS
 62
     7
  5
B91
 10
1.974667
 20
-1.964744
 30
0.0
 11
1.976825
 21
-1.962766
 31
0.0
  0
LINE
  8
0
  6
CONTINUOUS
 62
     7
  5
B92
 10
1.976825
 20
-1.962766
 30
0.0
 11
1.978813
 21
-1.960749
 31
0.0
  0
LINE
  8
0
  6
CONTINUOUS
 62
     7
  5
B93
 10
1.978813
 20
-1.960749
 30
0.0
 11
1.980626
 21
-1.958696
 31
0.0
  0
LINE
  8
0
  6
CONTINUOUS
 62
     7
  5
B94
 10
1.980626
 20
-1.958696
 30
0.0
 11
1.982263
 21
-1.95661
 31
0.0
  0
LINE
  8
0
  6
CONTINUOUS
 62
     7
  5
B95
 10
1.982263
 20
-1.95661
 30
0.0
 11
1.98372
 21
-1.954495
 31
0.0
  0
LINE
  8
0
  6
CONTINUOUS
 62
     7
  5
B96
 10
1.98372
 20
-1.954495
 30
0.0
 11
1.984996
 21
-1.952355
 31
0.0
  0
LINE
  8
0
  6
CONTINUOUS
 62
     7
  5
B97
 10
1.984996
 20
-1.952355
 30
0.0
 11
1.986088
 21
-1.950192
 31
0.0
  0
LINE
  8
0
  6
CONTINUOUS
 62
     7
  5
B98
 10
1.986088
 20
-1.950192
 30
0.0
 11
1.986995
 21
-1.94801
 31
0.0
  0
LINE
  8
0
  6
CONTINUOUS
 62
     7
  5
B99
 10
1.986995
 20
-1.94801
 30
0.0
 11
1.987714
 21
-1.945814
 31
0.0
  0
LINE
  8
0
  6
CONTINUOUS
 62
     7
  5
B9A
 10
1.987714
 20
-1.945814
 30
0.0
 11
1.988246
 21
-1.943605
 31
0.0
  0
LINE
  8
0
  6
CONTINUOUS
 62
     7
  5
B9B
 10
1.988246
 20
-1.943605
 30
0.0
 11
1.988588
 21
-1.941388
 31
0.0
  0
LINE
  8
0
  6
CONTINUOUS
 62
     7
  5
B9C
 10
0.48341
 20
-2.069787
 30
0.0
 11
1.884238
 21
-1.993567
 31
0.0
  0
LINE
  8
0
  6
CONTINUOUS
 62
     7
  5
B9D
 10
0.425847
 20
-2.071347
 30
0.0
 11
0.427495
 21
-2.071346
 31
0.0
  0
LINE
  8
0
  6
CONTINUOUS
 62
     7
  5
B9E
 10
0.427495
 20
-2.071346
 30
0.0
 11
0.429143
 21
-2.071342
 31
0.0
  0
LINE
  8
0
  6
CONTINUOUS
 62
     7
  5
B9F
 10
0.429143
 20
-2.071342
 30
0.0
 11
0.430792
 21
-2.071336
 31
0.0
  0
LINE
  8
0
  6
CONTINUOUS
 62
     7
  5
BA0
 10
0.430792
 20
-2.071336
 30
0.0
 11
0.43244
 21
-2.071327
 31
0.0
  0
LINE
  8
0
  6
CONTINUOUS
 62
     7
  5
BA1
 10
0.43244
 20
-2.071327
 30
0.0
 11
0.434088
 21
-2.071315
 31
0.0
  0
LINE
  8
0
  6
CONTINUOUS
 62
     7
  5
BA2
 10
0.434088
 20
-2.071315
 30
0.0
 11
0.435736
 21
-2.071301
 31
0.0
  0
LINE
  8
0
  6
CONTINUOUS
 62
     7
  5
BA3
 10
0.435736
 20
-2.071301
 30
0.0
 11
0.437384
 21
-2.071285
 31
0.0
  0
LINE
  8
0
  6
CONTINUOUS
 62
     7
  5
BA4
 10
0.437384
 20
-2.071285
 30
0.0
 11
0.439032
 21
-2.071266
 31
0.0
  0
LINE
  8
0
  6
CONTINUOUS
 62
     7
  5
BA5
 10
0.439032
 20
-2.071266
 30
0.0
 11
0.440679
 21
-2.071244
 31
0.0
  0
LINE
  8
0
  6
CONTINUOUS
 62
     7
  5
BA6
 10
0.440679
 20
-2.071244
 30
0.0
 11
0.442327
 21
-2.07122
 31
0.0
  0
LINE
  8
0
  6
CONTINUOUS
 62
     7
  5
BA7
 10
0.442327
 20
-2.07122
 30
0.0
 11
0.443974
 21
-2.071193
 31
0.0
  0
LINE
  8
0
  6
CONTINUOUS
 62
     7
  5
BA8
 10
0.443974
 20
-2.071193
 30
0.0
 11
0.445621
 21
-2.071164
 31
0.0
  0
LINE
  8
0
  6
CONTINUOUS
 62
     7
  5
BA9
 10
0.445621
 20
-2.071164
 30
0.0
 11
0.447268
 21
-2.071132
 31
0.0
  0
LINE
  8
0
  6
CONTINUOUS
 62
     7
  5
BAA
 10
0.447268
 20
-2.071132
 30
0.0
 11
0.448915
 21
-2.071097
 31
0.0
  0
LINE
  8
0
  6
CONTINUOUS
 62
     7
  5
BAB
 10
0.448915
 20
-2.071097
 30
0.0
 11
0.450561
 21
-2.07106
 31
0.0
  0
LINE
  8
0
  6
CONTINUOUS
 62
     7
  5
BAC
 10
0.450561
 20
-2.07106
 30
0.0
 11
0.452208
 21
-2.071021
 31
0.0
  0
LINE
  8
0
  6
CONTINUOUS
 62
     7
  5
BAD
 10
0.452208
 20
-2.071021
 30
0.0
 11
0.453854
 21
-2.070979
 31
0.0
  0
LINE
  8
0
  6
CONTINUOUS
 62
     7
  5
BAE
 10
0.453854
 20
-2.070979
 30
0.0
 11
0.455499
 21
-2.070934
 31
0.0
  0
LINE
  8
0
  6
CONTINUOUS
 62
     7
  5
BAF
 10
0.455499
 20
-2.070934
 30
0.0
 11
0.457144
 21
-2.070887
 31
0.0
  0
LINE
  8
0
  6
CONTINUOUS
 62
     7
  5
BB0
 10
0.457144
 20
-2.070887
 30
0.0
 11
0.458789
 21
-2.070837
 31
0.0
  0
LINE
  8
0
  6
CONTINUOUS
 62
     7
  5
BB1
 10
0.458789
 20
-2.070837
 30
0.0
 11
0.460434
 21
-2.070785
 31
0.0
  0
LINE
  8
0
  6
CONTINUOUS
 62
     7
  5
BB2
 10
0.460434
 20
-2.070785
 30
0.0
 11
0.462078
 21
-2.07073
 31
0.0
  0
LINE
  8
0
  6
CONTINUOUS
 62
     7
  5
BB3
 10
0.462078
 20
-2.07073
 30
0.0
 11
0.463722
 21
-2.070673
 31
0.0
  0
LINE
  8
0
  6
CONTINUOUS
 62
     7
  5
BB4
 10
0.463722
 20
-2.070673
 30
0.0
 11
0.465365
 21
-2.070613
 31
0.0
  0
LINE
  8
0
  6
CONTINUOUS
 62
     7
  5
BB5
 10
0.465365
 20
-2.070613
 30
0.0
 11
0.467008
 21
-2.070551
 31
0.0
  0
LINE
  8
0
  6
CONTINUOUS
 62
     7
  5
BB6
 10
0.467008
 20
-2.070551
 30
0.0
 11
0.468651
 21
-2.070486
 31
0.0
  0
LINE
  8
0
  6
CONTINUOUS
 62
     7
  5
BB7
 10
0.468651
 20
-2.070486
 30
0.0
 11
0.470293
 21
-2.070418
 31
0.0
  0
LINE
  8
0
  6
CONTINUOUS
 62
     7
  5
BB8
 10
0.470293
 20
-2.070418
 30
0.0
 11
0.471934
 21
-2.070348
 31
0.0
  0
LINE
  8
0
  6
CONTINUOUS
 62
     7
  5
BB9
 10
0.471934
 20
-2.070348
 30
0.0
 11
0.473575
 21
-2.070275
 31
0.0
  0
LINE
  8
0
  6
CONTINUOUS
 62
     7
  5
BBA
 10
0.473575
 20
-2.070275
 30
0.0
 11
0.475216
 21
-2.0702
 31
0.0
  0
LINE
  8
0
  6
CONTINUOUS
 62
     7
  5
BBB
 10
0.475216
 20
-2.0702
 30
0.0
 11
0.476856
 21
-2.070123
 31
0.0
  0
LINE
  8
0
  6
CONTINUOUS
 62
     7
  5
BBC
 10
0.476856
 20
-2.070123
 30
0.0
 11
0.478495
 21
-2.070042
 31
0.0
  0
LINE
  8
0
  6
CONTINUOUS
 62
     7
  5
BBD
 10
0.478495
 20
-2.070042
 30
0.0
 11
0.480134
 21
-2.06996
 31
0.0
  0
LINE
  8
0
  6
CONTINUOUS
 62
     7
  5
BBE
 10
0.480134
 20
-2.06996
 30
0.0
 11
0.481772
 21
-2.069874
 31
0.0
  0
LINE
  8
0
  6
CONTINUOUS
 62
     7
  5
BBF
 10
0.481772
 20
-2.069874
 30
0.0
 11
0.48341
 21
-2.069787
 31
0.0
  0
LINE
  8
0
  6
CONTINUOUS
 62
     7
  5
BC0
 10
0.393701
 20
-2.071347
 30
0.0
 11
0.425847
 21
-2.071347
 31
0.0
  0
LINE
  8
0
  6
CONTINUOUS
 62
     7
  5
BC1
 10
-0.425847
 20
-2.071347
 30
0.0
 11
-0.393701
 21
-2.071347
 31
0.0
  0
LINE
  8
0
  6
CONTINUOUS
 62
     7
  5
BC2
 10
-0.48341
 20
-2.069787
 30
0.0
 11
-0.481772
 21
-2.069874
 31
0.0
  0
LINE
  8
0
  6
CONTINUOUS
 62
     7
  5
BC3
 10
-0.481772
 20
-2.069874
 30
0.0
 11
-0.480134
 21
-2.06996
 31
0.0
  0
LINE
  8
0
  6
CONTINUOUS
 62
     7
  5
BC4
 10
-0.480134
 20
-2.06996
 30
0.0
 11
-0.478495
 21
-2.070042
 31
0.0
  0
LINE
  8
0
  6
CONTINUOUS
 62
     7
  5
BC5
 10
-0.478495
 20
-2.070042
 30
0.0
 11
-0.476856
 21
-2.070123
 31
0.0
  0
LINE
  8
0
  6
CONTINUOUS
 62
     7
  5
BC6
 10
-0.476856
 20
-2.070123
 30
0.0
 11
-0.475216
 21
-2.0702
 31
0.0
  0
LINE
  8
0
  6
CONTINUOUS
 62
     7
  5
BC7
 10
-0.475216
 20
-2.0702
 30
0.0
 11
-0.473575
 21
-2.070275
 31
0.0
  0
LINE
  8
0
  6
CONTINUOUS
 62
     7
  5
BC8
 10
-0.473575
 20
-2.070275
 30
0.0
 11
-0.471934
 21
-2.070348
 31
0.0
  0
LINE
  8
0
  6
CONTINUOUS
 62
     7
  5
BC9
 10
-0.471934
 20
-2.070348
 30
0.0
 11
-0.470293
 21
-2.070418
 31
0.0
  0
LINE
  8
0
  6
CONTINUOUS
 62
     7
  5
BCA
 10
-0.470293
 20
-2.070418
 30
0.0
 11
-0.468651
 21
-2.070486
 31
0.0
  0
LINE
  8
0
  6
CONTINUOUS
 62
     7
  5
BCB
 10
-0.468651
 20
-2.070486
 30
0.0
 11
-0.467008
 21
-2.070551
 31
0.0
  0
LINE
  8
0
  6
CONTINUOUS
 62
     7
  5
BCC
 10
-0.467008
 20
-2.070551
 30
0.0
 11
-0.465365
 21
-2.070613
 31
0.0
  0
LINE
  8
0
  6
CONTINUOUS
 62
     7
  5
BCD
 10
-0.465365
 20
-2.070613
 30
0.0
 11
-0.463722
 21
-2.070673
 31
0.0
  0
LINE
  8
0
  6
CONTINUOUS
 62
     7
  5
BCE
 10
-0.463722
 20
-2.070673
 30
0.0
 11
-0.462078
 21
-2.07073
 31
0.0
  0
LINE
  8
0
  6
CONTINUOUS
 62
     7
  5
BCF
 10
-0.462078
 20
-2.07073
 30
0.0
 11
-0.460434
 21
-2.070785
 31
0.0
  0
LINE
  8
0
  6
CONTINUOUS
 62
     7
  5
BD0
 10
-0.460434
 20
-2.070785
 30
0.0
 11
-0.458789
 21
-2.070837
 31
0.0
  0
LINE
  8
0
  6
CONTINUOUS
 62
     7
  5
BD1
 10
-0.458789
 20
-2.070837
 30
0.0
 11
-0.457144
 21
-2.070887
 31
0.0
  0
LINE
  8
0
  6
CONTINUOUS
 62
     7
  5
BD2
 10
-0.457144
 20
-2.070887
 30
0.0
 11
-0.455499
 21
-2.070934
 31
0.0
  0
LINE
  8
0
  6
CONTINUOUS
 62
     7
  5
BD3
 10
-0.455499
 20
-2.070934
 30
0.0
 11
-0.453854
 21
-2.070979
 31
0.0
  0
LINE
  8
0
  6
CONTINUOUS
 62
     7
  5
BD4
 10
-0.453854
 20
-2.070979
 30
0.0
 11
-0.452208
 21
-2.071021
 31
0.0
  0
LINE
  8
0
  6
CONTINUOUS
 62
     7
  5
BD5
 10
-0.452208
 20
-2.071021
 30
0.0
 11
-0.450561
 21
-2.07106
 31
0.0
  0
LINE
  8
0
  6
CONTINUOUS
 62
     7
  5
BD6
 10
-0.450561
 20
-2.07106
 30
0.0
 11
-0.448915
 21
-2.071097
 31
0.0
  0
LINE
  8
0
  6
CONTINUOUS
 62
     7
  5
BD7
 10
-0.448915
 20
-2.071097
 30
0.0
 11
-0.447268
 21
-2.071132
 31
0.0
  0
LINE
  8
0
  6
CONTINUOUS
 62
     7
  5
BD8
 10
-0.447268
 20
-2.071132
 30
0.0
 11
-0.445621
 21
-2.071164
 31
0.0
  0
LINE
  8
0
  6
CONTINUOUS
 62
     7
  5
BD9
 10
-0.445621
 20
-2.071164
 30
0.0
 11
-0.443974
 21
-2.071193
 31
0.0
  0
LINE
  8
0
  6
CONTINUOUS
 62
     7
  5
BDA
 10
-0.443974
 20
-2.071193
 30
0.0
 11
-0.442327
 21
-2.07122
 31
0.0
  0
LINE
  8
0
  6
CONTINUOUS
 62
     7
  5
BDB
 10
-0.442327
 20
-2.07122
 30
0.0
 11
-0.440679
 21
-2.071244
 31
0.0
  0
LINE
  8
0
  6
CONTINUOUS
 62
     7
  5
BDC
 10
-0.440679
 20
-2.071244
 30
0.0
 11
-0.439032
 21
-2.071266
 31
0.0
  0
LINE
  8
0
  6
CONTINUOUS
 62
     7
  5
BDD
 10
-0.439032
 20
-2.071266
 30
0.0
 11
-0.437384
 21
-2.071285
 31
0.0
  0
LINE
  8
0
  6
CONTINUOUS
 62
     7
  5
BDE
 10
-0.437384
 20
-2.071285
 30
0.0
 11
-0.435736
 21
-2.071301
 31
0.0
  0
LINE
  8
0
  6
CONTINUOUS
 62
     7
  5
BDF
 10
-0.435736
 20
-2.071301
 30
0.0
 11
-0.434088
 21
-2.071315
 31
0.0
  0
LINE
  8
0
  6
CONTINUOUS
 62
     7
  5
BE0
 10
-0.434088
 20
-2.071315
 30
0.0
 11
-0.43244
 21
-2.071327
 31
0.0
  0
LINE
  8
0
  6
CONTINUOUS
 62
     7
  5
BE1
 10
-0.43244
 20
-2.071327
 30
0.0
 11
-0.430792
 21
-2.071336
 31
0.0
  0
LINE
  8
0
  6
CONTINUOUS
 62
     7
  5
BE2
 10
-0.430792
 20
-2.071336
 30
0.0
 11
-0.429143
 21
-2.071342
 31
0.0
  0
LINE
  8
0
  6
CONTINUOUS
 62
     7
  5
BE3
 10
-0.429143
 20
-2.071342
 30
0.0
 11
-0.427495
 21
-2.071346
 31
0.0
  0
LINE
  8
0
  6
CONTINUOUS
 62
     7
  5
BE4
 10
-0.427495
 20
-2.071346
 30
0.0
 11
-0.425847
 21
-2.071347
 31
0.0
  0
LINE
  8
0
  6
CONTINUOUS
 62
     7
  5
BE5
 10
-1.884238
 20
-1.993567
 30
0.0
 11
-0.48341
 21
-2.069787
 31
0.0
  0
LINE
  8
0
  6
CONTINUOUS
 62
     7
  5
BE6
 10
-1.988588
 20
-1.941388
 30
0.0
 11
-1.988246
 21
-1.943605
 31
0.0
  0
LINE
  8
0
  6
CONTINUOUS
 62
     7
  5
BE7
 10
-1.988246
 20
-1.943605
 30
0.0
 11
-1.987714
 21
-1.945814
 31
0.0
  0
LINE
  8
0
  6
CONTINUOUS
 62
     7
  5
BE8
 10
-1.987714
 20
-1.945814
 30
0.0
 11
-1.986995
 21
-1.94801
 31
0.0
  0
LINE
  8
0
  6
CONTINUOUS
 62
     7
  5
BE9
 10
-1.986995
 20
-1.94801
 30
0.0
 11
-1.986088
 21
-1.950192
 31
0.0
  0
LINE
  8
0
  6
CONTINUOUS
 62
     7
  5
BEA
 10
-1.986088
 20
-1.950192
 30
0.0
 11
-1.984996
 21
-1.952355
 31
0.0
  0
LINE
  8
0
  6
CONTINUOUS
 62
     7
  5
BEB
 10
-1.984996
 20
-1.952355
 30
0.0
 11
-1.98372
 21
-1.954495
 31
0.0
  0
LINE
  8
0
  6
CONTINUOUS
 62
     7
  5
BEC
 10
-1.98372
 20
-1.954495
 30
0.0
 11
-1.982263
 21
-1.95661
 31
0.0
  0
LINE
  8
0
  6
CONTINUOUS
 62
     7
  5
BED
 10
-1.982263
 20
-1.95661
 30
0.0
 11
-1.980626
 21
-1.958696
 31
0.0
  0
LINE
  8
0
  6
CONTINUOUS
 62
     7
  5
BEE
 10
-1.980626
 20
-1.958696
 30
0.0
 11
-1.978813
 21
-1.960749
 31
0.0
  0
LINE
  8
0
  6
CONTINUOUS
 62
     7
  5
BEF
 10
-1.978813
 20
-1.960749
 30
0.0
 11
-1.976825
 21
-1.962766
 31
0.0
  0
LINE
  8
0
  6
CONTINUOUS
 62
     7
  5
BF0
 10
-1.976825
 20
-1.962766
 30
0.0
 11
-1.974667
 21
-1.964744
 31
0.0
  0
LINE
  8
0
  6
CONTINUOUS
 62
     7
  5
BF1
 10
-1.974667
 20
-1.964744
 30
0.0
 11
-1.972342
 21
-1.966681
 31
0.0
  0
LINE
  8
0
  6
CONTINUOUS
 62
     7
  5
BF2
 10
-1.972342
 20
-1.966681
 30
0.0
 11
-1.969854
 21
-1.968571
 31
0.0
  0
LINE
  8
0
  6
CONTINUOUS
 62
     7
  5
BF3
 10
-1.969854
 20
-1.968571
 30
0.0
 11
-1.967206
 21
-1.970414
 31
0.0
  0
LINE
  8
0
  6
CONTINUOUS
 62
     7
  5
BF4
 10
-1.967206
 20
-1.970414
 30
0.0
 11
-1.964403
 21
-1.972205
 31
0.0
  0
LINE
  8
0
  6
CONTINUOUS
 62
     7
  5
BF5
 10
-1.964403
 20
-1.972205
 30
0.0
 11
-1.961449
 21
-1.973942
 31
0.0
  0
LINE
  8
0
  6
CONTINUOUS
 62
     7
  5
BF6
 10
-1.961449
 20
-1.973942
 30
0.0
 11
-1.958349
 21
-1.975622
 31
0.0
  0
LINE
  8
0
  6
CONTINUOUS
 62
     7
  5
BF7
 10
-1.958349
 20
-1.975622
 30
0.0
 11
-1.955109
 21
-1.977243
 31
0.0
  0
LINE
  8
0
  6
CONTINUOUS
 62
     7
  5
BF8
 10
-1.955109
 20
-1.977243
 30
0.0
 11
-1.951732
 21
-1.978801
 31
0.0
  0
LINE
  8
0
  6
CONTINUOUS
 62
     7
  5
BF9
 10
-1.951732
 20
-1.978801
 30
0.0
 11
-1.948226
 21
-1.980294
 31
0.0
  0
LINE
  8
0
  6
CONTINUOUS
 62
     7
  5
BFA
 10
-1.948226
 20
-1.980294
 30
0.0
 11
-1.944594
 21
-1.98172
 31
0.0
  0
LINE
  8
0
  6
CONTINUOUS
 62
     7
  5
BFB
 10
-1.944594
 20
-1.98172
 30
0.0
 11
-1.940844
 21
-1.983077
 31
0.0
  0
LINE
  8
0
  6
CONTINUOUS
 62
     7
  5
BFC
 10
-1.940844
 20
-1.983077
 30
0.0
 11
-1.936981
 21
-1.984362
 31
0.0
  0
LINE
  8
0
  6
CONTINUOUS
 62
     7
  5
BFD
 10
-1.936981
 20
-1.984362
 30
0.0
 11
-1.933012
 21
-1.985573
 31
0.0
  0
LINE
  8
0
  6
CONTINUOUS
 62
     7
  5
BFE
 10
-1.933012
 20
-1.985573
 30
0.0
 11
-1.928942
 21
-1.986709
 31
0.0
  0
LINE
  8
0
  6
CONTINUOUS
 62
     7
  5
BFF
 10
-1.928942
 20
-1.986709
 30
0.0
 11
-1.924779
 21
-1.987767
 31
0.0
  0
LINE
  8
0
  6
CONTINUOUS
 62
     7
  5
C00
 10
-1.924779
 20
-1.987767
 30
0.0
 11
-1.920528
 21
-1.988746
 31
0.0
  0
LINE
  8
0
  6
CONTINUOUS
 62
     7
  5
C01
 10
-1.920528
 20
-1.988746
 30
0.0
 11
-1.916198
 21
-1.989645
 31
0.0
  0
LINE
  8
0
  6
CONTINUOUS
 62
     7
  5
C02
 10
-1.916198
 20
-1.989645
 30
0.0
 11
-1.911794
 21
-1.990461
 31
0.0
  0
LINE
  8
0
  6
CONTINUOUS
 62
     7
  5
C03
 10
-1.911794
 20
-1.990461
 30
0.0
 11
-1.907324
 21
-1.991193
 31
0.0
  0
LINE
  8
0
  6
CONTINUOUS
 62
     7
  5
C04
 10
-1.907324
 20
-1.991193
 30
0.0
 11
-1.902795
 21
-1.991841
 31
0.0
  0
LINE
  8
0
  6
CONTINUOUS
 62
     7
  5
C05
 10
-1.902795
 20
-1.991841
 30
0.0
 11
-1.898215
 21
-1.992403
 31
0.0
  0
LINE
  8
0
  6
CONTINUOUS
 62
     7
  5
C06
 10
-1.898215
 20
-1.992403
 30
0.0
 11
-1.89359
 21
-1.992879
 31
0.0
  0
LINE
  8
0
  6
CONTINUOUS
 62
     7
  5
C07
 10
-1.89359
 20
-1.992879
 30
0.0
 11
-1.888929
 21
-1.993267
 31
0.0
  0
LINE
  8
0
  6
CONTINUOUS
 62
     7
  5
C08
 10
-1.888929
 20
-1.993267
 30
0.0
 11
-1.884238
 21
-1.993567
 31
0.0
  0
LINE
  8
0
  6
CONTINUOUS
 62
     7
  5
C09
 10
-2.043049
 20
-1.453524
 30
0.0
 11
-1.988588
 21
-1.941388
 31
0.0
  0
LINE
  8
0
  6
CONTINUOUS
 62
     7
  5
C0A
 10
2.063894
 20
-0.606326
 30
0.0
 11
2.043049
 21
-1.453524
 31
0.0
  0
LINE
  8
0
  6
CONTINUOUS
 62
     7
  5
C0B
 10
2.063894
 20
-0.606326
 30
0.0
 11
1.988588
 21
-1.280916
 31
0.0
  0
LINE
  8
0
  6
CONTINUOUS
 62
     7
  5
C0C
 10
-2.063894
 20
-0.606326
 30
0.0
 11
2.063894
 21
-0.606326
 31
0.0
  0
LINE
  8
0
  6
CONTINUOUS
 62
     7
  5
C0D
 10
-1.988588
 20
-1.280916
 30
0.0
 11
-2.063894
 21
-0.606326
 31
0.0
  0
LINE
  8
0
  6
CONTINUOUS
 62
     7
  5
C0E
 10
-1.884238
 20
-1.333094
 30
0.0
 11
-1.888929
 21
-1.332794
 31
0.0
  0
LINE
  8
0
  6
CONTINUOUS
 62
     7
  5
C0F
 10
-1.888929
 20
-1.332794
 30
0.0
 11
-1.89359
 21
-1.332406
 31
0.0
  0
LINE
  8
0
  6
CONTINUOUS
 62
     7
  5
C10
 10
-1.89359
 20
-1.332406
 30
0.0
 11
-1.898215
 21
-1.331931
 31
0.0
  0
LINE
  8
0
  6
CONTINUOUS
 62
     7
  5
C11
 10
-1.898215
 20
-1.331931
 30
0.0
 11
-1.902795
 21
-1.331368
 31
0.0
  0
LINE
  8
0
  6
CONTINUOUS
 62
     7
  5
C12
 10
-1.902795
 20
-1.331368
 30
0.0
 11
-1.907324
 21
-1.330721
 31
0.0
  0
LINE
  8
0
  6
CONTINUOUS
 62
     7
  5
C13
 10
-1.907324
 20
-1.330721
 30
0.0
 11
-1.911794
 21
-1.329988
 31
0.0
  0
LINE
  8
0
  6
CONTINUOUS
 62
     7
  5
C14
 10
-1.911794
 20
-1.329988
 30
0.0
 11
-1.916198
 21
-1.329172
 31
0.0
  0
LINE
  8
0
  6
CONTINUOUS
 62
     7
  5
C15
 10
-1.916198
 20
-1.329172
 30
0.0
 11
-1.920528
 21
-1.328274
 31
0.0
  0
LINE
  8
0
  6
CONTINUOUS
 62
     7
  5
C16
 10
-1.920528
 20
-1.328274
 30
0.0
 11
-1.924779
 21
-1.327295
 31
0.0
  0
LINE
  8
0
  6
CONTINUOUS
 62
     7
  5
C17
 10
-1.924779
 20
-1.327295
 30
0.0
 11
-1.928942
 21
-1.326236
 31
0.0
  0
LINE
  8
0
  6
CONTINUOUS
 62
     7
  5
C18
 10
-1.928942
 20
-1.326236
 30
0.0
 11
-1.933012
 21
-1.325101
 31
0.0
  0
LINE
  8
0
  6
CONTINUOUS
 62
     7
  5
C19
 10
-1.933012
 20
-1.325101
 30
0.0
 11
-1.936981
 21
-1.323889
 31
0.0
  0
LINE
  8
0
  6
CONTINUOUS
 62
     7
  5
C1A
 10
-1.936981
 20
-1.323889
 30
0.0
 11
-1.940844
 21
-1.322604
 31
0.0
  0
LINE
  8
0
  6
CONTINUOUS
 62
     7
  5
C1B
 10
-1.940844
 20
-1.322604
 30
0.0
 11
-1.944594
 21
-1.321248
 31
0.0
  0
LINE
  8
0
  6
CONTINUOUS
 62
     7
  5
C1C
 10
-1.944594
 20
-1.321248
 30
0.0
 11
-1.948226
 21
-1.319821
 31
0.0
  0
LINE
  8
0
  6
CONTINUOUS
 62
     7
  5
C1D
 10
-1.948226
 20
-1.319821
 30
0.0
 11
-1.951732
 21
-1.318328
 31
0.0
  0
LINE
  8
0
  6
CONTINUOUS
 62
     7
  5
C1E
 10
-1.951732
 20
-1.318328
 30
0.0
 11
-1.955109
 21
-1.31677
 31
0.0
  0
LINE
  8
0
  6
CONTINUOUS
 62
     7
  5
C1F
 10
-1.955109
 20
-1.31677
 30
0.0
 11
-1.958349
 21
-1.31515
 31
0.0
  0
LINE
  8
0
  6
CONTINUOUS
 62
     7
  5
C20
 10
-1.958349
 20
-1.31515
 30
0.0
 11
-1.961449
 21
-1.31347
 31
0.0
  0
LINE
  8
0
  6
CONTINUOUS
 62
     7
  5
C21
 10
-1.961449
 20
-1.31347
 30
0.0
 11
-1.964403
 21
-1.311733
 31
0.0
  0
LINE
  8
0
  6
CONTINUOUS
 62
     7
  5
C22
 10
-1.964403
 20
-1.311733
 30
0.0
 11
-1.967206
 21
-1.309941
 31
0.0
  0
LINE
  8
0
  6
CONTINUOUS
 62
     7
  5
C23
 10
-1.967206
 20
-1.309941
 30
0.0
 11
-1.969854
 21
-1.308099
 31
0.0
  0
LINE
  8
0
  6
CONTINUOUS
 62
     7
  5
C24
 10
-1.969854
 20
-1.308099
 30
0.0
 11
-1.972342
 21
-1.306208
 31
0.0
  0
LINE
  8
0
  6
CONTINUOUS
 62
     7
  5
C25
 10
-1.972342
 20
-1.306208
 30
0.0
 11
-1.974667
 21
-1.304272
 31
0.0
  0
LINE
  8
0
  6
CONTINUOUS
 62
     7
  5
C26
 10
-1.974667
 20
-1.304272
 30
0.0
 11
-1.976825
 21
-1.302293
 31
0.0
  0
LINE
  8
0
  6
CONTINUOUS
 62
     7
  5
C27
 10
-1.976825
 20
-1.302293
 30
0.0
 11
-1.978813
 21
-1.300276
 31
0.0
  0
LINE
  8
0
  6
CONTINUOUS
 62
     7
  5
C28
 10
-1.978813
 20
-1.300276
 30
0.0
 11
-1.980626
 21
-1.298223
 31
0.0
  0
LINE
  8
0
  6
CONTINUOUS
 62
     7
  5
C29
 10
-1.980626
 20
-1.298223
 30
0.0
 11
-1.982263
 21
-1.296137
 31
0.0
  0
LINE
  8
0
  6
CONTINUOUS
 62
     7
  5
C2A
 10
-1.982263
 20
-1.296137
 30
0.0
 11
-1.98372
 21
-1.294023
 31
0.0
  0
LINE
  8
0
  6
CONTINUOUS
 62
     7
  5
C2B
 10
-1.98372
 20
-1.294023
 30
0.0
 11
-1.984996
 21
-1.291882
 31
0.0
  0
LINE
  8
0
  6
CONTINUOUS
 62
     7
  5
C2C
 10
-1.984996
 20
-1.291882
 30
0.0
 11
-1.986088
 21
-1.289719
 31
0.0
  0
LINE
  8
0
  6
CONTINUOUS
 62
     7
  5
C2D
 10
-1.986088
 20
-1.289719
 30
0.0
 11
-1.986995
 21
-1.287538
 31
0.0
  0
LINE
  8
0
  6
CONTINUOUS
 62
     7
  5
C2E
 10
-1.986995
 20
-1.287538
 30
0.0
 11
-1.987714
 21
-1.285341
 31
0.0
  0
LINE
  8
0
  6
CONTINUOUS
 62
     7
  5
C2F
 10
-1.987714
 20
-1.285341
 30
0.0
 11
-1.988246
 21
-1.283132
 31
0.0
  0
LINE
  8
0
  6
CONTINUOUS
 62
     7
  5
C30
 10
-1.988246
 20
-1.283132
 30
0.0
 11
-1.988588
 21
-1.280916
 31
0.0
  0
LINE
  8
0
  6
CONTINUOUS
 62
     7
  5
C31
 10
-0.48341
 20
-1.409314
 30
0.0
 11
-1.884238
 21
-1.333094
 31
0.0
  0
LINE
  8
0
  6
CONTINUOUS
 62
     7
  5
C32
 10
-0.425847
 20
-1.410875
 30
0.0
 11
-0.427495
 21
-1.410873
 31
0.0
  0
LINE
  8
0
  6
CONTINUOUS
 62
     7
  5
C33
 10
-0.427495
 20
-1.410873
 30
0.0
 11
-0.429143
 21
-1.41087
 31
0.0
  0
LINE
  8
0
  6
CONTINUOUS
 62
     7
  5
C34
 10
-0.429143
 20
-1.41087
 30
0.0
 11
-0.430792
 21
-1.410863
 31
0.0
  0
LINE
  8
0
  6
CONTINUOUS
 62
     7
  5
C35
 10
-0.430792
 20
-1.410863
 30
0.0
 11
-0.43244
 21
-1.410854
 31
0.0
  0
LINE
  8
0
  6
CONTINUOUS
 62
     7
  5
C36
 10
-0.43244
 20
-1.410854
 30
0.0
 11
-0.434088
 21
-1.410843
 31
0.0
  0
LINE
  8
0
  6
CONTINUOUS
 62
     7
  5
C37
 10
-0.434088
 20
-1.410843
 30
0.0
 11
-0.435736
 21
-1.410829
 31
0.0
  0
LINE
  8
0
  6
CONTINUOUS
 62
     7
  5
C38
 10
-0.435736
 20
-1.410829
 30
0.0
 11
-0.437384
 21
-1.410812
 31
0.0
  0
LINE
  8
0
  6
CONTINUOUS
 62
     7
  5
C39
 10
-0.437384
 20
-1.410812
 30
0.0
 11
-0.439032
 21
-1.410793
 31
0.0
  0
LINE
  8
0
  6
CONTINUOUS
 62
     7
  5
C3A
 10
-0.439032
 20
-1.410793
 30
0.0
 11
-0.440679
 21
-1.410771
 31
0.0
  0
LINE
  8
0
  6
CONTINUOUS
 62
     7
  5
C3B
 10
-0.440679
 20
-1.410771
 30
0.0
 11
-0.442327
 21
-1.410747
 31
0.0
  0
LINE
  8
0
  6
CONTINUOUS
 62
     7
  5
C3C
 10
-0.442327
 20
-1.410747
 30
0.0
 11
-0.443974
 21
-1.41072
 31
0.0
  0
LINE
  8
0
  6
CONTINUOUS
 62
     7
  5
C3D
 10
-0.443974
 20
-1.41072
 30
0.0
 11
-0.445621
 21
-1.410691
 31
0.0
  0
LINE
  8
0
  6
CONTINUOUS
 62
     7
  5
C3E
 10
-0.445621
 20
-1.410691
 30
0.0
 11
-0.447268
 21
-1.410659
 31
0.0
  0
LINE
  8
0
  6
CONTINUOUS
 62
     7
  5
C3F
 10
-0.447268
 20
-1.410659
 30
0.0
 11
-0.448915
 21
-1.410625
 31
0.0
  0
LINE
  8
0
  6
CONTINUOUS
 62
     7
  5
C40
 10
-0.448915
 20
-1.410625
 30
0.0
 11
-0.450561
 21
-1.410588
 31
0.0
  0
LINE
  8
0
  6
CONTINUOUS
 62
     7
  5
C41
 10
-0.450561
 20
-1.410588
 30
0.0
 11
-0.452208
 21
-1.410548
 31
0.0
  0
LINE
  8
0
  6
CONTINUOUS
 62
     7
  5
C42
 10
-0.452208
 20
-1.410548
 30
0.0
 11
-0.453854
 21
-1.410506
 31
0.0
  0
LINE
  8
0
  6
CONTINUOUS
 62
     7
  5
C43
 10
-0.453854
 20
-1.410506
 30
0.0
 11
-0.455499
 21
-1.410462
 31
0.0
  0
LINE
  8
0
  6
CONTINUOUS
 62
     7
  5
C44
 10
-0.455499
 20
-1.410462
 30
0.0
 11
-0.457144
 21
-1.410414
 31
0.0
  0
LINE
  8
0
  6
CONTINUOUS
 62
     7
  5
C45
 10
-0.457144
 20
-1.410414
 30
0.0
 11
-0.458789
 21
-1.410365
 31
0.0
  0
LINE
  8
0
  6
CONTINUOUS
 62
     7
  5
C46
 10
-0.458789
 20
-1.410365
 30
0.0
 11
-0.460434
 21
-1.410312
 31
0.0
  0
LINE
  8
0
  6
CONTINUOUS
 62
     7
  5
C47
 10
-0.460434
 20
-1.410312
 30
0.0
 11
-0.462078
 21
-1.410258
 31
0.0
  0
LINE
  8
0
  6
CONTINUOUS
 62
     7
  5
C48
 10
-0.462078
 20
-1.410258
 30
0.0
 11
-0.463722
 21
-1.4102
 31
0.0
  0
LINE
  8
0
  6
CONTINUOUS
 62
     7
  5
C49
 10
-0.463722
 20
-1.4102
 30
0.0
 11
-0.465365
 21
-1.41014
 31
0.0
  0
LINE
  8
0
  6
CONTINUOUS
 62
     7
  5
C4A
 10
-0.465365
 20
-1.41014
 30
0.0
 11
-0.467008
 21
-1.410078
 31
0.0
  0
LINE
  8
0
  6
CONTINUOUS
 62
     7
  5
C4B
 10
-0.467008
 20
-1.410078
 30
0.0
 11
-0.468651
 21
-1.410013
 31
0.0
  0
LINE
  8
0
  6
CONTINUOUS
 62
     7
  5
C4C
 10
-0.468651
 20
-1.410013
 30
0.0
 11
-0.470293
 21
-1.409946
 31
0.0
  0
LINE
  8
0
  6
CONTINUOUS
 62
     7
  5
C4D
 10
-0.470293
 20
-1.409946
 30
0.0
 11
-0.471934
 21
-1.409875
 31
0.0
  0
LINE
  8
0
  6
CONTINUOUS
 62
     7
  5
C4E
 10
-0.471934
 20
-1.409875
 30
0.0
 11
-0.473575
 21
-1.409803
 31
0.0
  0
LINE
  8
0
  6
CONTINUOUS
 62
     7
  5
C4F
 10
-0.473575
 20
-1.409803
 30
0.0
 11
-0.475216
 21
-1.409728
 31
0.0
  0
LINE
  8
0
  6
CONTINUOUS
 62
     7
  5
C50
 10
-0.475216
 20
-1.409728
 30
0.0
 11
-0.476856
 21
-1.40965
 31
0.0
  0
LINE
  8
0
  6
CONTINUOUS
 62
     7
  5
C51
 10
-0.476856
 20
-1.40965
 30
0.0
 11
-0.478495
 21
-1.40957
 31
0.0
  0
LINE
  8
0
  6
CONTINUOUS
 62
     7
  5
C52
 10
-0.478495
 20
-1.40957
 30
0.0
 11
-0.480134
 21
-1.409487
 31
0.0
  0
LINE
  8
0
  6
CONTINUOUS
 62
     7
  5
C53
 10
-0.480134
 20
-1.409487
 30
0.0
 11
-0.481772
 21
-1.409402
 31
0.0
  0
LINE
  8
0
  6
CONTINUOUS
 62
     7
  5
C54
 10
-0.481772
 20
-1.409402
 30
0.0
 11
-0.48341
 21
-1.409314
 31
0.0
  0
LINE
  8
0
  6
CONTINUOUS
 62
     7
  5
C55
 10
-0.393701
 20
-1.410875
 30
0.0
 11
-0.425847
 21
-1.410875
 31
0.0
  0
LINE
  8
0
  6
CONTINUOUS
 62
     7
  5
C56
 10
0.492126
 20
-1.253768
 30
0.0
 11
0.492043
 21
-1.258016
 31
0.0
  0
LINE
  8
0
  6
CONTINUOUS
 62
     7
  5
C57
 10
0.492043
 20
-1.258016
 30
0.0
 11
0.491793
 21
-1.262262
 31
0.0
  0
LINE
  8
0
  6
CONTINUOUS
 62
     7
  5
C58
 10
0.491793
 20
-1.262262
 30
0.0
 11
0.491378
 21
-1.266505
 31
0.0
  0
LINE
  8
0
  6
CONTINUOUS
 62
     7
  5
C59
 10
0.491378
 20
-1.266505
 30
0.0
 11
0.490796
 21
-1.270744
 31
0.0
  0
LINE
  8
0
  6
CONTINUOUS
 62
     7
  5
C5A
 10
0.490796
 20
-1.270744
 30
0.0
 11
0.490048
 21
-1.274977
 31
0.0
  0
LINE
  8
0
  6
CONTINUOUS
 62
     7
  5
C5B
 10
0.490048
 20
-1.274977
 30
0.0
 11
0.489135
 21
-1.279203
 31
0.0
  0
LINE
  8
0
  6
CONTINUOUS
 62
     7
  5
C5C
 10
0.489135
 20
-1.279203
 30
0.0
 11
0.488056
 21
-1.283421
 31
0.0
  0
LINE
  8
0
  6
CONTINUOUS
 62
     7
  5
C5D
 10
0.488056
 20
-1.283421
 30
0.0
 11
0.486812
 21
-1.287628
 31
0.0
  0
LINE
  8
0
  6
CONTINUOUS
 62
     7
  5
C5E
 10
0.486812
 20
-1.287628
 30
0.0
 11
0.485404
 21
-1.291824
 31
0.0
  0
LINE
  8
0
  6
CONTINUOUS
 62
     7
  5
C5F
 10
0.485404
 20
-1.291824
 30
0.0
 11
0.483832
 21
-1.296007
 31
0.0
  0
LINE
  8
0
  6
CONTINUOUS
 62
     7
  5
C60
 10
0.483832
 20
-1.296007
 30
0.0
 11
0.482096
 21
-1.300176
 31
0.0
  0
LINE
  8
0
  6
CONTINUOUS
 62
     7
  5
C61
 10
0.482096
 20
-1.300176
 30
0.0
 11
0.480197
 21
-1.30433
 31
0.0
  0
LINE
  8
0
  6
CONTINUOUS
 62
     7
  5
C62
 10
0.480197
 20
-1.30433
 30
0.0
 11
0.478136
 21
-1.308466
 31
0.0
  0
LINE
  8
0
  6
CONTINUOUS
 62
     7
  5
C63
 10
0.478136
 20
-1.308466
 30
0.0
 11
0.475913
 21
-1.312583
 31
0.0
  0
LINE
  8
0
  6
CONTINUOUS
 62
     7
  5
C64
 10
0.475913
 20
-1.312583
 30
0.0
 11
0.473529
 21
-1.316681
 31
0.0
  0
LINE
  8
0
  6
CONTINUOUS
 62
     7
  5
C65
 10
0.473529
 20
-1.316681
 30
0.0
 11
0.470986
 21
-1.320757
 31
0.0
  0
LINE
  8
0
  6
CONTINUOUS
 62
     7
  5
C66
 10
0.470986
 20
-1.320757
 30
0.0
 11
0.468283
 21
-1.324811
 31
0.0
  0
LINE
  8
0
  6
CONTINUOUS
 62
     7
  5
C67
 10
0.468283
 20
-1.324811
 30
0.0
 11
0.465421
 21
-1.328841
 31
0.0
  0
LINE
  8
0
  6
CONTINUOUS
 62
     7
  5
C68
 10
0.465421
 20
-1.328841
 30
0.0
 11
0.462403
 21
-1.332845
 31
0.0
  0
LINE
  8
0
  6
CONTINUOUS
 62
     7
  5
C69
 10
0.462403
 20
-1.332845
 30
0.0
 11
0.459228
 21
-1.336823
 31
0.0
  0
LINE
  8
0
  6
CONTINUOUS
 62
     7
  5
C6A
 10
0.459228
 20
-1.336823
 30
0.0
 11
0.455898
 21
-1.340773
 31
0.0
  0
LINE
  8
0
  6
CONTINUOUS
 62
     7
  5
C6B
 10
0.455898
 20
-1.340773
 30
0.0
 11
0.452414
 21
-1.344693
 31
0.0
  0
LINE
  8
0
  6
CONTINUOUS
 62
     7
  5
C6C
 10
0.452414
 20
-1.344693
 30
0.0
 11
0.448777
 21
-1.348582
 31
0.0
  0
LINE
  8
0
  6
CONTINUOUS
 62
     7
  5
C6D
 10
0.448777
 20
-1.348582
 30
0.0
 11
0.444988
 21
-1.35244
 31
0.0
  0
LINE
  8
0
  6
CONTINUOUS
 62
     7
  5
C6E
 10
0.444988
 20
-1.35244
 30
0.0
 11
0.441049
 21
-1.356264
 31
0.0
  0
LINE
  8
0
  6
CONTINUOUS
 62
     7
  5
C6F
 10
0.441049
 20
-1.356264
 30
0.0
 11
0.43696
 21
-1.360053
 31
0.0
  0
LINE
  8
0
  6
CONTINUOUS
 62
     7
  5
C70
 10
0.43696
 20
-1.360053
 30
0.0
 11
0.432724
 21
-1.363807
 31
0.0
  0
LINE
  8
0
  6
CONTINUOUS
 62
     7
  5
C71
 10
0.432724
 20
-1.363807
 30
0.0
 11
0.428342
 21
-1.367523
 31
0.0
  0
LINE
  8
0
  6
CONTINUOUS
 62
     7
  5
C72
 10
0.428342
 20
-1.367523
 30
0.0
 11
0.423815
 21
-1.371201
 31
0.0
  0
LINE
  8
0
  6
CONTINUOUS
 62
     7
  5
C73
 10
0.423815
 20
-1.371201
 30
0.0
 11
0.419144
 21
-1.374839
 31
0.0
  0
LINE
  8
0
  6
CONTINUOUS
 62
     7
  5
C74
 10
0.419144
 20
-1.374839
 30
0.0
 11
0.414332
 21
-1.378436
 31
0.0
  0
LINE
  8
0
  6
CONTINUOUS
 62
     7
  5
C75
 10
0.414332
 20
-1.378436
 30
0.0
 11
0.40938
 21
-1.381991
 31
0.0
  0
LINE
  8
0
  6
CONTINUOUS
 62
     7
  5
C76
 10
0.40938
 20
-1.381991
 30
0.0
 11
0.40429
 21
-1.385503
 31
0.0
  0
LINE
  8
0
  6
CONTINUOUS
 62
     7
  5
C77
 10
0.40429
 20
-1.385503
 30
0.0
 11
0.399063
 21
-1.38897
 31
0.0
  0
LINE
  8
0
  6
CONTINUOUS
 62
     7
  5
C78
 10
0.399063
 20
-1.38897
 30
0.0
 11
0.393701
 21
-1.392392
 31
0.0
  0
LINE
  8
0
  6
CONTINUOUS
 62
     7
  5
C79
 10
-0.393701
 20
-1.392392
 30
0.0
 11
-0.399063
 21
-1.38897
 31
0.0
  0
LINE
  8
0
  6
CONTINUOUS
 62
     7
  5
C7A
 10
-0.399063
 20
-1.38897
 30
0.0
 11
-0.40429
 21
-1.385503
 31
0.0
  0
LINE
  8
0
  6
CONTINUOUS
 62
     7
  5
C7B
 10
-0.40429
 20
-1.385503
 30
0.0
 11
-0.40938
 21
-1.381991
 31
0.0
  0
LINE
  8
0
  6
CONTINUOUS
 62
     7
  5
C7C
 10
-0.40938
 20
-1.381991
 30
0.0
 11
-0.414332
 21
-1.378436
 31
0.0
  0
LINE
  8
0
  6
CONTINUOUS
 62
     7
  5
C7D
 10
-0.414332
 20
-1.378436
 30
0.0
 11
-0.419144
 21
-1.374839
 31
0.0
  0
LINE
  8
0
  6
CONTINUOUS
 62
     7
  5
C7E
 10
-0.419144
 20
-1.374839
 30
0.0
 11
-0.423815
 21
-1.371201
 31
0.0
  0
LINE
  8
0
  6
CONTINUOUS
 62
     7
  5
C7F
 10
-0.423815
 20
-1.371201
 30
0.0
 11
-0.428342
 21
-1.367523
 31
0.0
  0
LINE
  8
0
  6
CONTINUOUS
 62
     7
  5
C80
 10
-0.428342
 20
-1.367523
 30
0.0
 11
-0.432724
 21
-1.363807
 31
0.0
  0
LINE
  8
0
  6
CONTINUOUS
 62
     7
  5
C81
 10
-0.432724
 20
-1.363807
 30
0.0
 11
-0.43696
 21
-1.360053
 31
0.0
  0
LINE
  8
0
  6
CONTINUOUS
 62
     7
  5
C82
 10
-0.43696
 20
-1.360053
 30
0.0
 11
-0.441049
 21
-1.356264
 31
0.0
  0
LINE
  8
0
  6
CONTINUOUS
 62
     7
  5
C83
 10
-0.441049
 20
-1.356264
 30
0.0
 11
-0.444988
 21
-1.35244
 31
0.0
  0
LINE
  8
0
  6
CONTINUOUS
 62
     7
  5
C84
 10
-0.444988
 20
-1.35244
 30
0.0
 11
-0.448777
 21
-1.348582
 31
0.0
  0
LINE
  8
0
  6
CONTINUOUS
 62
     7
  5
C85
 10
-0.448777
 20
-1.348582
 30
0.0
 11
-0.452414
 21
-1.344693
 31
0.0
  0
LINE
  8
0
  6
CONTINUOUS
 62
     7
  5
C86
 10
-0.452414
 20
-1.344693
 30
0.0
 11
-0.455898
 21
-1.340773
 31
0.0
  0
LINE
  8
0
  6
CONTINUOUS
 62
     7
  5
C87
 10
-0.455898
 20
-1.340773
 30
0.0
 11
-0.459228
 21
-1.336823
 31
0.0
  0
LINE
  8
0
  6
CONTINUOUS
 62
     7
  5
C88
 10
-0.459228
 20
-1.336823
 30
0.0
 11
-0.462403
 21
-1.332845
 31
0.0
  0
LINE
  8
0
  6
CONTINUOUS
 62
     7
  5
C89
 10
-0.462403
 20
-1.332845
 30
0.0
 11
-0.465421
 21
-1.328841
 31
0.0
  0
LINE
  8
0
  6
CONTINUOUS
 62
     7
  5
C8A
 10
-0.465421
 20
-1.328841
 30
0.0
 11
-0.468283
 21
-1.324811
 31
0.0
  0
LINE
  8
0
  6
CONTINUOUS
 62
     7
  5
C8B
 10
-0.468283
 20
-1.324811
 30
0.0
 11
-0.470986
 21
-1.320757
 31
0.0
  0
LINE
  8
0
  6
CONTINUOUS
 62
     7
  5
C8C
 10
-0.470986
 20
-1.320757
 30
0.0
 11
-0.473529
 21
-1.316681
 31
0.0
  0
LINE
  8
0
  6
CONTINUOUS
 62
     7
  5
C8D
 10
-0.473529
 20
-1.316681
 30
0.0
 11
-0.475913
 21
-1.312583
 31
0.0
  0
LINE
  8
0
  6
CONTINUOUS
 62
     7
  5
C8E
 10
-0.475913
 20
-1.312583
 30
0.0
 11
-0.478136
 21
-1.308466
 31
0.0
  0
LINE
  8
0
  6
CONTINUOUS
 62
     7
  5
C8F
 10
-0.478136
 20
-1.308466
 30
0.0
 11
-0.480197
 21
-1.30433
 31
0.0
  0
LINE
  8
0
  6
CONTINUOUS
 62
     7
  5
C90
 10
-0.480197
 20
-1.30433
 30
0.0
 11
-0.482096
 21
-1.300176
 31
0.0
  0
LINE
  8
0
  6
CONTINUOUS
 62
     7
  5
C91
 10
-0.482096
 20
-1.300176
 30
0.0
 11
-0.483832
 21
-1.296007
 31
0.0
  0
LINE
  8
0
  6
CONTINUOUS
 62
     7
  5
C92
 10
-0.483832
 20
-1.296007
 30
0.0
 11
-0.485404
 21
-1.291824
 31
0.0
  0
LINE
  8
0
  6
CONTINUOUS
 62
     7
  5
C93
 10
-0.485404
 20
-1.291824
 30
0.0
 11
-0.486812
 21
-1.287628
 31
0.0
  0
LINE
  8
0
  6
CONTINUOUS
 62
     7
  5
C94
 10
-0.486812
 20
-1.287628
 30
0.0
 11
-0.488056
 21
-1.283421
 31
0.0
  0
LINE
  8
0
  6
CONTINUOUS
 62
     7
  5
C95
 10
-0.488056
 20
-1.283421
 30
0.0
 11
-0.489135
 21
-1.279203
 31
0.0
  0
LINE
  8
0
  6
CONTINUOUS
 62
     7
  5
C96
 10
-0.489135
 20
-1.279203
 30
0.0
 11
-0.490048
 21
-1.274977
 31
0.0
  0
LINE
  8
0
  6
CONTINUOUS
 62
     7
  5
C97
 10
-0.490048
 20
-1.274977
 30
0.0
 11
-0.490796
 21
-1.270744
 31
0.0
  0
LINE
  8
0
  6
CONTINUOUS
 62
     7
  5
C98
 10
-0.490796
 20
-1.270744
 30
0.0
 11
-0.491378
 21
-1.266505
 31
0.0
  0
LINE
  8
0
  6
CONTINUOUS
 62
     7
  5
C99
 10
-0.491378
 20
-1.266505
 30
0.0
 11
-0.491793
 21
-1.262262
 31
0.0
  0
LINE
  8
0
  6
CONTINUOUS
 62
     7
  5
C9A
 10
-0.491793
 20
-1.262262
 30
0.0
 11
-0.492043
 21
-1.258016
 31
0.0
  0
LINE
  8
0
  6
CONTINUOUS
 62
     7
  5
C9B
 10
-0.492043
 20
-1.258016
 30
0.0
 11
-0.492126
 21
-1.253768
 31
0.0
  0
LINE
  8
0
  6
CONTINUOUS
 62
     7
  5
C9C
 10
0.425847
 20
-1.410875
 30
0.0
 11
0.393701
 21
-1.410875
 31
0.0
  0
LINE
  8
0
  6
CONTINUOUS
 62
     7
  5
C9D
 10
0.48341
 20
-1.409314
 30
0.0
 11
0.481772
 21
-1.409402
 31
0.0
  0
LINE
  8
0
  6
CONTINUOUS
 62
     7
  5
C9E
 10
0.481772
 20
-1.409402
 30
0.0
 11
0.480134
 21
-1.409487
 31
0.0
  0
LINE
  8
0
  6
CONTINUOUS
 62
     7
  5
C9F
 10
0.480134
 20
-1.409487
 30
0.0
 11
0.478495
 21
-1.40957
 31
0.0
  0
LINE
  8
0
  6
CONTINUOUS
 62
     7
  5
CA0
 10
0.478495
 20
-1.40957
 30
0.0
 11
0.476856
 21
-1.40965
 31
0.0
  0
LINE
  8
0
  6
CONTINUOUS
 62
     7
  5
CA1
 10
0.476856
 20
-1.40965
 30
0.0
 11
0.475216
 21
-1.409728
 31
0.0
  0
LINE
  8
0
  6
CONTINUOUS
 62
     7
  5
CA2
 10
0.475216
 20
-1.409728
 30
0.0
 11
0.473575
 21
-1.409803
 31
0.0
  0
LINE
  8
0
  6
CONTINUOUS
 62
     7
  5
CA3
 10
0.473575
 20
-1.409803
 30
0.0
 11
0.471934
 21
-1.409875
 31
0.0
  0
LINE
  8
0
  6
CONTINUOUS
 62
     7
  5
CA4
 10
0.471934
 20
-1.409875
 30
0.0
 11
0.470293
 21
-1.409946
 31
0.0
  0
LINE
  8
0
  6
CONTINUOUS
 62
     7
  5
CA5
 10
0.470293
 20
-1.409946
 30
0.0
 11
0.468651
 21
-1.410013
 31
0.0
  0
LINE
  8
0
  6
CONTINUOUS
 62
     7
  5
CA6
 10
0.468651
 20
-1.410013
 30
0.0
 11
0.467008
 21
-1.410078
 31
0.0
  0
LINE
  8
0
  6
CONTINUOUS
 62
     7
  5
CA7
 10
0.467008
 20
-1.410078
 30
0.0
 11
0.465365
 21
-1.41014
 31
0.0
  0
LINE
  8
0
  6
CONTINUOUS
 62
     7
  5
CA8
 10
0.465365
 20
-1.41014
 30
0.0
 11
0.463722
 21
-1.4102
 31
0.0
  0
LINE
  8
0
  6
CONTINUOUS
 62
     7
  5
CA9
 10
0.463722
 20
-1.4102
 30
0.0
 11
0.462078
 21
-1.410258
 31
0.0
  0
LINE
  8
0
  6
CONTINUOUS
 62
     7
  5
CAA
 10
0.462078
 20
-1.410258
 30
0.0
 11
0.460434
 21
-1.410312
 31
0.0
  0
LINE
  8
0
  6
CONTINUOUS
 62
     7
  5
CAB
 10
0.460434
 20
-1.410312
 30
0.0
 11
0.458789
 21
-1.410365
 31
0.0
  0
LINE
  8
0
  6
CONTINUOUS
 62
     7
  5
CAC
 10
0.458789
 20
-1.410365
 30
0.0
 11
0.457144
 21
-1.410414
 31
0.0
  0
LINE
  8
0
  6
CONTINUOUS
 62
     7
  5
CAD
 10
0.457144
 20
-1.410414
 30
0.0
 11
0.455499
 21
-1.410462
 31
0.0
  0
LINE
  8
0
  6
CONTINUOUS
 62
     7
  5
CAE
 10
0.455499
 20
-1.410462
 30
0.0
 11
0.453854
 21
-1.410506
 31
0.0
  0
LINE
  8
0
  6
CONTINUOUS
 62
     7
  5
CAF
 10
0.453854
 20
-1.410506
 30
0.0
 11
0.452208
 21
-1.410548
 31
0.0
  0
LINE
  8
0
  6
CONTINUOUS
 62
     7
  5
CB0
 10
0.452208
 20
-1.410548
 30
0.0
 11
0.450561
 21
-1.410588
 31
0.0
  0
LINE
  8
0
  6
CONTINUOUS
 62
     7
  5
CB1
 10
0.450561
 20
-1.410588
 30
0.0
 11
0.448915
 21
-1.410625
 31
0.0
  0
LINE
  8
0
  6
CONTINUOUS
 62
     7
  5
CB2
 10
0.448915
 20
-1.410625
 30
0.0
 11
0.447268
 21
-1.410659
 31
0.0
  0
LINE
  8
0
  6
CONTINUOUS
 62
     7
  5
CB3
 10
0.447268
 20
-1.410659
 30
0.0
 11
0.445621
 21
-1.410691
 31
0.0
  0
LINE
  8
0
  6
CONTINUOUS
 62
     7
  5
CB4
 10
0.445621
 20
-1.410691
 30
0.0
 11
0.443974
 21
-1.41072
 31
0.0
  0
LINE
  8
0
  6
CONTINUOUS
 62
     7
  5
CB5
 10
0.443974
 20
-1.41072
 30
0.0
 11
0.442327
 21
-1.410747
 31
0.0
  0
LINE
  8
0
  6
CONTINUOUS
 62
     7
  5
CB6
 10
0.442327
 20
-1.410747
 30
0.0
 11
0.440679
 21
-1.410771
 31
0.0
  0
LINE
  8
0
  6
CONTINUOUS
 62
     7
  5
CB7
 10
0.440679
 20
-1.410771
 30
0.0
 11
0.439032
 21
-1.410793
 31
0.0
  0
LINE
  8
0
  6
CONTINUOUS
 62
     7
  5
CB8
 10
0.439032
 20
-1.410793
 30
0.0
 11
0.437384
 21
-1.410812
 31
0.0
  0
LINE
  8
0
  6
CONTINUOUS
 62
     7
  5
CB9
 10
0.437384
 20
-1.410812
 30
0.0
 11
0.435736
 21
-1.410829
 31
0.0
  0
LINE
  8
0
  6
CONTINUOUS
 62
     7
  5
CBA
 10
0.435736
 20
-1.410829
 30
0.0
 11
0.434088
 21
-1.410843
 31
0.0
  0
LINE
  8
0
  6
CONTINUOUS
 62
     7
  5
CBB
 10
0.434088
 20
-1.410843
 30
0.0
 11
0.43244
 21
-1.410854
 31
0.0
  0
LINE
  8
0
  6
CONTINUOUS
 62
     7
  5
CBC
 10
0.43244
 20
-1.410854
 30
0.0
 11
0.430792
 21
-1.410863
 31
0.0
  0
LINE
  8
0
  6
CONTINUOUS
 62
     7
  5
CBD
 10
0.430792
 20
-1.410863
 30
0.0
 11
0.429143
 21
-1.41087
 31
0.0
  0
LINE
  8
0
  6
CONTINUOUS
 62
     7
  5
CBE
 10
0.429143
 20
-1.41087
 30
0.0
 11
0.427495
 21
-1.410873
 31
0.0
  0
LINE
  8
0
  6
CONTINUOUS
 62
     7
  5
CBF
 10
0.427495
 20
-1.410873
 30
0.0
 11
0.425847
 21
-1.410875
 31
0.0
  0
LINE
  8
0
  6
CONTINUOUS
 62
     7
  5
CC0
 10
1.884238
 20
-1.333094
 30
0.0
 11
0.48341
 21
-1.409314
 31
0.0
  0
LINE
  8
0
  6
CONTINUOUS
 62
     7
  5
CC1
 10
1.988588
 20
-1.280916
 30
0.0
 11
1.988246
 21
-1.283132
 31
0.0
  0
LINE
  8
0
  6
CONTINUOUS
 62
     7
  5
CC2
 10
1.988246
 20
-1.283132
 30
0.0
 11
1.987714
 21
-1.285341
 31
0.0
  0
LINE
  8
0
  6
CONTINUOUS
 62
     7
  5
CC3
 10
1.987714
 20
-1.285341
 30
0.0
 11
1.986995
 21
-1.287538
 31
0.0
  0
LINE
  8
0
  6
CONTINUOUS
 62
     7
  5
CC4
 10
1.986995
 20
-1.287538
 30
0.0
 11
1.986088
 21
-1.289719
 31
0.0
  0
LINE
  8
0
  6
CONTINUOUS
 62
     7
  5
CC5
 10
1.986088
 20
-1.289719
 30
0.0
 11
1.984996
 21
-1.291882
 31
0.0
  0
LINE
  8
0
  6
CONTINUOUS
 62
     7
  5
CC6
 10
1.984996
 20
-1.291882
 30
0.0
 11
1.98372
 21
-1.294023
 31
0.0
  0
LINE
  8
0
  6
CONTINUOUS
 62
     7
  5
CC7
 10
1.98372
 20
-1.294023
 30
0.0
 11
1.982263
 21
-1.296137
 31
0.0
  0
LINE
  8
0
  6
CONTINUOUS
 62
     7
  5
CC8
 10
1.982263
 20
-1.296137
 30
0.0
 11
1.980626
 21
-1.298223
 31
0.0
  0
LINE
  8
0
  6
CONTINUOUS
 62
     7
  5
CC9
 10
1.980626
 20
-1.298223
 30
0.0
 11
1.978813
 21
-1.300276
 31
0.0
  0
LINE
  8
0
  6
CONTINUOUS
 62
     7
  5
CCA
 10
1.978813
 20
-1.300276
 30
0.0
 11
1.976825
 21
-1.302293
 31
0.0
  0
LINE
  8
0
  6
CONTINUOUS
 62
     7
  5
CCB
 10
1.976825
 20
-1.302293
 30
0.0
 11
1.974667
 21
-1.304272
 31
0.0
  0
LINE
  8
0
  6
CONTINUOUS
 62
     7
  5
CCC
 10
1.974667
 20
-1.304272
 30
0.0
 11
1.972342
 21
-1.306208
 31
0.0
  0
LINE
  8
0
  6
CONTINUOUS
 62
     7
  5
CCD
 10
1.972342
 20
-1.306208
 30
0.0
 11
1.969854
 21
-1.308099
 31
0.0
  0
LINE
  8
0
  6
CONTINUOUS
 62
     7
  5
CCE
 10
1.969854
 20
-1.308099
 30
0.0
 11
1.967206
 21
-1.309941
 31
0.0
  0
LINE
  8
0
  6
CONTINUOUS
 62
     7
  5
CCF
 10
1.967206
 20
-1.309941
 30
0.0
 11
1.964403
 21
-1.311733
 31
0.0
  0
LINE
  8
0
  6
CONTINUOUS
 62
     7
  5
CD0
 10
1.964403
 20
-1.311733
 30
0.0
 11
1.961449
 21
-1.31347
 31
0.0
  0
LINE
  8
0
  6
CONTINUOUS
 62
     7
  5
CD1
 10
1.961449
 20
-1.31347
 30
0.0
 11
1.958349
 21
-1.31515
 31
0.0
  0
LINE
  8
0
  6
CONTINUOUS
 62
     7
  5
CD2
 10
1.958349
 20
-1.31515
 30
0.0
 11
1.955109
 21
-1.31677
 31
0.0
  0
LINE
  8
0
  6
CONTINUOUS
 62
     7
  5
CD3
 10
1.955109
 20
-1.31677
 30
0.0
 11
1.951732
 21
-1.318328
 31
0.0
  0
LINE
  8
0
  6
CONTINUOUS
 62
     7
  5
CD4
 10
1.951732
 20
-1.318328
 30
0.0
 11
1.948226
 21
-1.319821
 31
0.0
  0
LINE
  8
0
  6
CONTINUOUS
 62
     7
  5
CD5
 10
1.948226
 20
-1.319821
 30
0.0
 11
1.944594
 21
-1.321248
 31
0.0
  0
LINE
  8
0
  6
CONTINUOUS
 62
     7
  5
CD6
 10
1.944594
 20
-1.321248
 30
0.0
 11
1.940844
 21
-1.322604
 31
0.0
  0
LINE
  8
0
  6
CONTINUOUS
 62
     7
  5
CD7
 10
1.940844
 20
-1.322604
 30
0.0
 11
1.936981
 21
-1.323889
 31
0.0
  0
LINE
  8
0
  6
CONTINUOUS
 62
     7
  5
CD8
 10
1.936981
 20
-1.323889
 30
0.0
 11
1.933012
 21
-1.325101
 31
0.0
  0
LINE
  8
0
  6
CONTINUOUS
 62
     7
  5
CD9
 10
1.933012
 20
-1.325101
 30
0.0
 11
1.928942
 21
-1.326236
 31
0.0
  0
LINE
  8
0
  6
CONTINUOUS
 62
     7
  5
CDA
 10
1.928942
 20
-1.326236
 30
0.0
 11
1.924779
 21
-1.327295
 31
0.0
  0
LINE
  8
0
  6
CONTINUOUS
 62
     7
  5
CDB
 10
1.924779
 20
-1.327295
 30
0.0
 11
1.920528
 21
-1.328274
 31
0.0
  0
LINE
  8
0
  6
CONTINUOUS
 62
     7
  5
CDC
 10
1.920528
 20
-1.328274
 30
0.0
 11
1.916198
 21
-1.329172
 31
0.0
  0
LINE
  8
0
  6
CONTINUOUS
 62
     7
  5
CDD
 10
1.916198
 20
-1.329172
 30
0.0
 11
1.911794
 21
-1.329988
 31
0.0
  0
LINE
  8
0
  6
CONTINUOUS
 62
     7
  5
CDE
 10
1.911794
 20
-1.329988
 30
0.0
 11
1.907324
 21
-1.330721
 31
0.0
  0
LINE
  8
0
  6
CONTINUOUS
 62
     7
  5
CDF
 10
1.907324
 20
-1.330721
 30
0.0
 11
1.902795
 21
-1.331368
 31
0.0
  0
LINE
  8
0
  6
CONTINUOUS
 62
     7
  5
CE0
 10
1.902795
 20
-1.331368
 30
0.0
 11
1.898215
 21
-1.331931
 31
0.0
  0
LINE
  8
0
  6
CONTINUOUS
 62
     7
  5
CE1
 10
1.898215
 20
-1.331931
 30
0.0
 11
1.89359
 21
-1.332406
 31
0.0
  0
LINE
  8
0
  6
CONTINUOUS
 62
     7
  5
CE2
 10
1.89359
 20
-1.332406
 30
0.0
 11
1.888929
 21
-1.332794
 31
0.0
  0
LINE
  8
0
  6
CONTINUOUS
 62
     7
  5
CE3
 10
1.888929
 20
-1.332794
 30
0.0
 11
1.884238
 21
-1.333094
 31
0.0
  0
LINE
  8
0
  6
CONTINUOUS
 62
     7
  5
CE4
 10
0.485956
 20
1.90477
 30
0.0
 11
0.484833
 21
1.907612
 31
0.0
  0
LINE
  8
0
  6
CONTINUOUS
 62
     7
  5
CE5
 10
0.484833
 20
1.907612
 30
0.0
 11
0.483616
 21
1.910448
 31
0.0
  0
LINE
  8
0
  6
CONTINUOUS
 62
     7
  5
CE6
 10
0.483616
 20
1.910448
 30
0.0
 11
0.482307
 21
1.913276
 31
0.0
  0
LINE
  8
0
  6
CONTINUOUS
 62
     7
  5
CE7
 10
0.482307
 20
1.913276
 30
0.0
 11
0.480906
 21
1.916097
 31
0.0
  0
LINE
  8
0
  6
CONTINUOUS
 62
     7
  5
CE8
 10
0.480906
 20
1.916097
 30
0.0
 11
0.479412
 21
1.918909
 31
0.0
  0
LINE
  8
0
  6
CONTINUOUS
 62
     7
  5
CE9
 10
0.479412
 20
1.918909
 30
0.0
 11
0.477826
 21
1.921711
 31
0.0
  0
LINE
  8
0
  6
CONTINUOUS
 62
     7
  5
CEA
 10
0.477826
 20
1.921711
 30
0.0
 11
0.476148
 21
1.924505
 31
0.0
  0
LINE
  8
0
  6
CONTINUOUS
 62
     7
  5
CEB
 10
0.476148
 20
1.924505
 30
0.0
 11
0.474379
 21
1.927288
 31
0.0
  0
LINE
  8
0
  6
CONTINUOUS
 62
     7
  5
CEC
 10
0.474379
 20
1.927288
 30
0.0
 11
0.472519
 21
1.930061
 31
0.0
  0
LINE
  8
0
  6
CONTINUOUS
 62
     7
  5
CED
 10
0.472519
 20
1.930061
 30
0.0
 11
0.470568
 21
1.932822
 31
0.0
  0
LINE
  8
0
  6
CONTINUOUS
 62
     7
  5
CEE
 10
0.470568
 20
1.932822
 30
0.0
 11
0.468526
 21
1.935572
 31
0.0
  0
LINE
  8
0
  6
CONTINUOUS
 62
     7
  5
CEF
 10
0.468526
 20
1.935572
 30
0.0
 11
0.466395
 21
1.938309
 31
0.0
  0
LINE
  8
0
  6
CONTINUOUS
 62
     7
  5
CF0
 10
0.466395
 20
1.938309
 30
0.0
 11
0.464174
 21
1.941034
 31
0.0
  0
LINE
  8
0
  6
CONTINUOUS
 62
     7
  5
CF1
 10
0.464174
 20
1.941034
 30
0.0
 11
0.461864
 21
1.943745
 31
0.0
  0
LINE
  8
0
  6
CONTINUOUS
 62
     7
  5
CF2
 10
0.461864
 20
1.943745
 30
0.0
 11
0.459465
 21
1.946443
 31
0.0
  0
LINE
  8
0
  6
CONTINUOUS
 62
     7
  5
CF3
 10
0.459465
 20
1.946443
 30
0.0
 11
0.456979
 21
1.949127
 31
0.0
  0
LINE
  8
0
  6
CONTINUOUS
 62
     7
  5
CF4
 10
0.456979
 20
1.949127
 30
0.0
 11
0.454404
 21
1.951795
 31
0.0
  0
LINE
  8
0
  6
CONTINUOUS
 62
     7
  5
CF5
 10
0.454404
 20
1.951795
 30
0.0
 11
0.451742
 21
1.954448
 31
0.0
  0
LINE
  8
0
  6
CONTINUOUS
 62
     7
  5
CF6
 10
0.451742
 20
1.954448
 30
0.0
 11
0.448994
 21
1.957086
 31
0.0
  0
LINE
  8
0
  6
CONTINUOUS
 62
     7
  5
CF7
 10
0.448994
 20
1.957086
 30
0.0
 11
0.446159
 21
1.959707
 31
0.0
  0
LINE
  8
0
  6
CONTINUOUS
 62
     7
  5
CF8
 10
0.446159
 20
1.959707
 30
0.0
 11
0.443238
 21
1.962311
 31
0.0
  0
LINE
  8
0
  6
CONTINUOUS
 62
     7
  5
CF9
 10
0.443238
 20
1.962311
 30
0.0
 11
0.440233
 21
1.964898
 31
0.0
  0
LINE
  8
0
  6
CONTINUOUS
 62
     7
  5
CFA
 10
0.440233
 20
1.964898
 30
0.0
 11
0.437143
 21
1.967467
 31
0.0
  0
LINE
  8
0
  6
CONTINUOUS
 62
     7
  5
CFB
 10
0.437143
 20
1.967467
 30
0.0
 11
0.433969
 21
1.970018
 31
0.0
  0
LINE
  8
0
  6
CONTINUOUS
 62
     7
  5
CFC
 10
0.433969
 20
1.970018
 30
0.0
 11
0.430711
 21
1.97255
 31
0.0
  0
LINE
  8
0
  6
CONTINUOUS
 62
     7
  5
CFD
 10
0.430711
 20
1.97255
 30
0.0
 11
0.427371
 21
1.975062
 31
0.0
  0
LINE
  8
0
  6
CONTINUOUS
 62
     7
  5
CFE
 10
0.427371
 20
1.975062
 30
0.0
 11
0.423949
 21
1.977555
 31
0.0
  0
LINE
  8
0
  6
CONTINUOUS
 62
     7
  5
CFF
 10
0.423949
 20
1.977555
 30
0.0
 11
0.420446
 21
1.980027
 31
0.0
  0
LINE
  8
0
  6
CONTINUOUS
 62
     7
  5
D00
 10
0.420446
 20
1.980027
 30
0.0
 11
0.416862
 21
1.982479
 31
0.0
  0
LINE
  8
0
  6
CONTINUOUS
 62
     7
  5
D01
 10
0.416862
 20
1.982479
 30
0.0
 11
0.413197
 21
1.984909
 31
0.0
  0
LINE
  8
0
  6
CONTINUOUS
 62
     7
  5
D02
 10
0.413197
 20
1.984909
 30
0.0
 11
0.409454
 21
1.987318
 31
0.0
  0
LINE
  8
0
  6
CONTINUOUS
 62
     7
  5
D03
 10
0.409454
 20
1.987318
 30
0.0
 11
0.405632
 21
1.989705
 31
0.0
  0
LINE
  8
0
  6
CONTINUOUS
 62
     7
  5
D04
 10
0.405632
 20
1.989705
 30
0.0
 11
0.401732
 21
1.992069
 31
0.0
  0
LINE
  8
0
  6
CONTINUOUS
 62
     7
  5
D05
 10
0.401732
 20
1.992069
 30
0.0
 11
0.397754
 21
1.99441
 31
0.0
  0
LINE
  8
0
  6
CONTINUOUS
 62
     7
  5
D06
 10
0.397754
 20
1.99441
 30
0.0
 11
0.393701
 21
1.996727
 31
0.0
  0
LINE
  8
0
  6
CONTINUOUS
 62
     7
  5
D07
 10
-0.393701
 20
1.996727
 30
0.0
 11
-0.397754
 21
1.99441
 31
0.0
  0
LINE
  8
0
  6
CONTINUOUS
 62
     7
  5
D08
 10
-0.397754
 20
1.99441
 30
0.0
 11
-0.401732
 21
1.992069
 31
0.0
  0
LINE
  8
0
  6
CONTINUOUS
 62
     7
  5
D09
 10
-0.401732
 20
1.992069
 30
0.0
 11
-0.405632
 21
1.989705
 31
0.0
  0
LINE
  8
0
  6
CONTINUOUS
 62
     7
  5
D0A
 10
-0.405632
 20
1.989705
 30
0.0
 11
-0.409454
 21
1.987318
 31
0.0
  0
LINE
  8
0
  6
CONTINUOUS
 62
     7
  5
D0B
 10
-0.409454
 20
1.987318
 30
0.0
 11
-0.413197
 21
1.984909
 31
0.0
  0
LINE
  8
0
  6
CONTINUOUS
 62
     7
  5
D0C
 10
-0.413197
 20
1.984909
 30
0.0
 11
-0.416862
 21
1.982479
 31
0.0
  0
LINE
  8
0
  6
CONTINUOUS
 62
     7
  5
D0D
 10
-0.416862
 20
1.982479
 30
0.0
 11
-0.420446
 21
1.980027
 31
0.0
  0
LINE
  8
0
  6
CONTINUOUS
 62
     7
  5
D0E
 10
-0.420446
 20
1.980027
 30
0.0
 11
-0.423949
 21
1.977555
 31
0.0
  0
LINE
  8
0
  6
CONTINUOUS
 62
     7
  5
D0F
 10
-0.423949
 20
1.977555
 30
0.0
 11
-0.427371
 21
1.975062
 31
0.0
  0
LINE
  8
0
  6
CONTINUOUS
 62
     7
  5
D10
 10
-0.427371
 20
1.975062
 30
0.0
 11
-0.430711
 21
1.97255
 31
0.0
  0
LINE
  8
0
  6
CONTINUOUS
 62
     7
  5
D11
 10
-0.430711
 20
1.97255
 30
0.0
 11
-0.433969
 21
1.970018
 31
0.0
  0
LINE
  8
0
  6
CONTINUOUS
 62
     7
  5
D12
 10
-0.433969
 20
1.970018
 30
0.0
 11
-0.437143
 21
1.967467
 31
0.0
  0
LINE
  8
0
  6
CONTINUOUS
 62
     7
  5
D13
 10
-0.437143
 20
1.967467
 30
0.0
 11
-0.440233
 21
1.964898
 31
0.0
  0
LINE
  8
0
  6
CONTINUOUS
 62
     7
  5
D14
 10
-0.440233
 20
1.964898
 30
0.0
 11
-0.443238
 21
1.962311
 31
0.0
  0
LINE
  8
0
  6
CONTINUOUS
 62
     7
  5
D15
 10
-0.443238
 20
1.962311
 30
0.0
 11
-0.446159
 21
1.959707
 31
0.0
  0
LINE
  8
0
  6
CONTINUOUS
 62
     7
  5
D16
 10
-0.446159
 20
1.959707
 30
0.0
 11
-0.448994
 21
1.957086
 31
0.0
  0
LINE
  8
0
  6
CONTINUOUS
 62
     7
  5
D17
 10
-0.448994
 20
1.957086
 30
0.0
 11
-0.451742
 21
1.954448
 31
0.0
  0
LINE
  8
0
  6
CONTINUOUS
 62
     7
  5
D18
 10
-0.451742
 20
1.954448
 30
0.0
 11
-0.454404
 21
1.951795
 31
0.0
  0
LINE
  8
0
  6
CONTINUOUS
 62
     7
  5
D19
 10
-0.454404
 20
1.951795
 30
0.0
 11
-0.456979
 21
1.949127
 31
0.0
  0
LINE
  8
0
  6
CONTINUOUS
 62
     7
  5
D1A
 10
-0.456979
 20
1.949127
 30
0.0
 11
-0.459465
 21
1.946443
 31
0.0
  0
LINE
  8
0
  6
CONTINUOUS
 62
     7
  5
D1B
 10
-0.459465
 20
1.946443
 30
0.0
 11
-0.461864
 21
1.943745
 31
0.0
  0
LINE
  8
0
  6
CONTINUOUS
 62
     7
  5
D1C
 10
-0.461864
 20
1.943745
 30
0.0
 11
-0.464174
 21
1.941034
 31
0.0
  0
LINE
  8
0
  6
CONTINUOUS
 62
     7
  5
D1D
 10
-0.464174
 20
1.941034
 30
0.0
 11
-0.466395
 21
1.938309
 31
0.0
  0
LINE
  8
0
  6
CONTINUOUS
 62
     7
  5
D1E
 10
-0.466395
 20
1.938309
 30
0.0
 11
-0.468526
 21
1.935572
 31
0.0
  0
LINE
  8
0
  6
CONTINUOUS
 62
     7
  5
D1F
 10
-0.468526
 20
1.935572
 30
0.0
 11
-0.470568
 21
1.932822
 31
0.0
  0
LINE
  8
0
  6
CONTINUOUS
 62
     7
  5
D20
 10
-0.470568
 20
1.932822
 30
0.0
 11
-0.472519
 21
1.930061
 31
0.0
  0
LINE
  8
0
  6
CONTINUOUS
 62
     7
  5
D21
 10
-0.472519
 20
1.930061
 30
0.0
 11
-0.474379
 21
1.927288
 31
0.0
  0
LINE
  8
0
  6
CONTINUOUS
 62
     7
  5
D22
 10
-0.474379
 20
1.927288
 30
0.0
 11
-0.476148
 21
1.924505
 31
0.0
  0
LINE
  8
0
  6
CONTINUOUS
 62
     7
  5
D23
 10
-0.476148
 20
1.924505
 30
0.0
 11
-0.477826
 21
1.921711
 31
0.0
  0
LINE
  8
0
  6
CONTINUOUS
 62
     7
  5
D24
 10
-0.477826
 20
1.921711
 30
0.0
 11
-0.479412
 21
1.918909
 31
0.0
  0
LINE
  8
0
  6
CONTINUOUS
 62
     7
  5
D25
 10
-0.479412
 20
1.918909
 30
0.0
 11
-0.480906
 21
1.916097
 31
0.0
  0
LINE
  8
0
  6
CONTINUOUS
 62
     7
  5
D26
 10
-0.480906
 20
1.916097
 30
0.0
 11
-0.482307
 21
1.913276
 31
0.0
  0
LINE
  8
0
  6
CONTINUOUS
 62
     7
  5
D27
 10
-0.482307
 20
1.913276
 30
0.0
 11
-0.483616
 21
1.910448
 31
0.0
  0
LINE
  8
0
  6
CONTINUOUS
 62
     7
  5
D28
 10
-0.483616
 20
1.910448
 30
0.0
 11
-0.484833
 21
1.907612
 31
0.0
  0
LINE
  8
0
  6
CONTINUOUS
 62
     7
  5
D29
 10
-0.484833
 20
1.907612
 30
0.0
 11
-0.485956
 21
1.90477
 31
0.0
  0
LINE
  8
0
  6
CONTINUOUS
 62
     7
  5
D2A
 10
-0.492126
 20
0.979903
 30
0.0
 11
-0.492043
 21
0.983727
 31
0.0
  0
LINE
  8
0
  6
CONTINUOUS
 62
     7
  5
D2B
 10
-0.492043
 20
0.983727
 30
0.0
 11
-0.491793
 21
0.987549
 31
0.0
  0
LINE
  8
0
  6
CONTINUOUS
 62
     7
  5
D2C
 10
-0.491793
 20
0.987549
 30
0.0
 11
-0.491378
 21
0.991369
 31
0.0
  0
LINE
  8
0
  6
CONTINUOUS
 62
     7
  5
D2D
 10
-0.491378
 20
0.991369
 30
0.0
 11
-0.490796
 21
0.995185
 31
0.0
  0
LINE
  8
0
  6
CONTINUOUS
 62
     7
  5
D2E
 10
-0.490796
 20
0.995185
 30
0.0
 11
-0.490048
 21
0.998996
 31
0.0
  0
LINE
  8
0
  6
CONTINUOUS
 62
     7
  5
D2F
 10
-0.490048
 20
0.998996
 30
0.0
 11
-0.489135
 21
1.0028
 31
0.0
  0
LINE
  8
0
  6
CONTINUOUS
 62
     7
  5
D30
 10
-0.489135
 20
1.0028
 30
0.0
 11
-0.488056
 21
1.006596
 31
0.0
  0
LINE
  8
0
  6
CONTINUOUS
 62
     7
  5
D31
 10
-0.488056
 20
1.006596
 30
0.0
 11
-0.486812
 21
1.010384
 31
0.0
  0
LINE
  8
0
  6
CONTINUOUS
 62
     7
  5
D32
 10
-0.486812
 20
1.010384
 30
0.0
 11
-0.485404
 21
1.014161
 31
0.0
  0
LINE
  8
0
  6
CONTINUOUS
 62
     7
  5
D33
 10
-0.485404
 20
1.014161
 30
0.0
 11
-0.483832
 21
1.017927
 31
0.0
  0
LINE
  8
0
  6
CONTINUOUS
 62
     7
  5
D34
 10
-0.483832
 20
1.017927
 30
0.0
 11
-0.482096
 21
1.02168
 31
0.0
  0
LINE
  8
0
  6
CONTINUOUS
 62
     7
  5
D35
 10
-0.482096
 20
1.02168
 30
0.0
 11
-0.480197
 21
1.025418
 31
0.0
  0
LINE
  8
0
  6
CONTINUOUS
 62
     7
  5
D36
 10
-0.480197
 20
1.025418
 30
0.0
 11
-0.478136
 21
1.029142
 31
0.0
  0
LINE
  8
0
  6
CONTINUOUS
 62
     7
  5
D37
 10
-0.478136
 20
1.029142
 30
0.0
 11
-0.475913
 21
1.032848
 31
0.0
  0
LINE
  8
0
  6
CONTINUOUS
 62
     7
  5
D38
 10
-0.475913
 20
1.032848
 30
0.0
 11
-0.473529
 21
1.036537
 31
0.0
  0
LINE
  8
0
  6
CONTINUOUS
 62
     7
  5
D39
 10
-0.473529
 20
1.036537
 30
0.0
 11
-0.470986
 21
1.040207
 31
0.0
  0
LINE
  8
0
  6
CONTINUOUS
 62
     7
  5
D3A
 10
-0.470986
 20
1.040207
 30
0.0
 11
-0.468283
 21
1.043856
 31
0.0
  0
LINE
  8
0
  6
CONTINUOUS
 62
     7
  5
D3B
 10
-0.468283
 20
1.043856
 30
0.0
 11
-0.465421
 21
1.047484
 31
0.0
  0
LINE
  8
0
  6
CONTINUOUS
 62
     7
  5
D3C
 10
-0.465421
 20
1.047484
 30
0.0
 11
-0.462403
 21
1.051088
 31
0.0
  0
LINE
  8
0
  6
CONTINUOUS
 62
     7
  5
D3D
 10
-0.462403
 20
1.051088
 30
0.0
 11
-0.459228
 21
1.054669
 31
0.0
  0
LINE
  8
0
  6
CONTINUOUS
 62
     7
  5
D3E
 10
-0.459228
 20
1.054669
 30
0.0
 11
-0.455898
 21
1.058224
 31
0.0
  0
LINE
  8
0
  6
CONTINUOUS
 62
     7
  5
D3F
 10
-0.455898
 20
1.058224
 30
0.0
 11
-0.452414
 21
1.061753
 31
0.0
  0
LINE
  8
0
  6
CONTINUOUS
 62
     7
  5
D40
 10
-0.452414
 20
1.061753
 30
0.0
 11
-0.448777
 21
1.065255
 31
0.0
  0
LINE
  8
0
  6
CONTINUOUS
 62
     7
  5
D41
 10
-0.448777
 20
1.065255
 30
0.0
 11
-0.444988
 21
1.068727
 31
0.0
  0
LINE
  8
0
  6
CONTINUOUS
 62
     7
  5
D42
 10
-0.444988
 20
1.068727
 30
0.0
 11
-0.441049
 21
1.07217
 31
0.0
  0
LINE
  8
0
  6
CONTINUOUS
 62
     7
  5
D43
 10
-0.441049
 20
1.07217
 30
0.0
 11
-0.43696
 21
1.075581
 31
0.0
  0
LINE
  8
0
  6
CONTINUOUS
 62
     7
  5
D44
 10
-0.43696
 20
1.075581
 30
0.0
 11
-0.432724
 21
1.07896
 31
0.0
  0
LINE
  8
0
  6
CONTINUOUS
 62
     7
  5
D45
 10
-0.432724
 20
1.07896
 30
0.0
 11
-0.428342
 21
1.082305
 31
0.0
  0
LINE
  8
0
  6
CONTINUOUS
 62
     7
  5
D46
 10
-0.428342
 20
1.082305
 30
0.0
 11
-0.423815
 21
1.085616
 31
0.0
  0
LINE
  8
0
  6
CONTINUOUS
 62
     7
  5
D47
 10
-0.423815
 20
1.085616
 30
0.0
 11
-0.419144
 21
1.088891
 31
0.0
  0
LINE
  8
0
  6
CONTINUOUS
 62
     7
  5
D48
 10
-0.419144
 20
1.088891
 30
0.0
 11
-0.414332
 21
1.092129
 31
0.0
  0
LINE
  8
0
  6
CONTINUOUS
 62
     7
  5
D49
 10
-0.414332
 20
1.092129
 30
0.0
 11
-0.40938
 21
1.095329
 31
0.0
  0
LINE
  8
0
  6
CONTINUOUS
 62
     7
  5
D4A
 10
-0.40938
 20
1.095329
 30
0.0
 11
-0.40429
 21
1.098491
 31
0.0
  0
LINE
  8
0
  6
CONTINUOUS
 62
     7
  5
D4B
 10
-0.40429
 20
1.098491
 30
0.0
 11
-0.399063
 21
1.101612
 31
0.0
  0
LINE
  8
0
  6
CONTINUOUS
 62
     7
  5
D4C
 10
-0.399063
 20
1.101612
 30
0.0
 11
-0.393701
 21
1.104692
 31
0.0
  0
LINE
  8
0
  6
CONTINUOUS
 62
     7
  5
D4D
 10
0.492126
 20
0.979903
 30
0.0
 11
0.490145
 21
0.96126
 31
0.0
  0
LINE
  8
0
  6
CONTINUOUS
 62
     7
  5
D4E
 10
0.490145
 20
0.96126
 30
0.0
 11
0.484217
 21
0.942767
 31
0.0
  0
LINE
  8
0
  6
CONTINUOUS
 62
     7
  5
D4F
 10
0.484217
 20
0.942767
 30
0.0
 11
0.474391
 21
0.924572
 31
0.0
  0
LINE
  8
0
  6
CONTINUOUS
 62
     7
  5
D50
 10
0.474391
 20
0.924572
 30
0.0
 11
0.460746
 21
0.906824
 31
0.0
  0
LINE
  8
0
  6
CONTINUOUS
 62
     7
  5
D51
 10
0.460746
 20
0.906824
 30
0.0
 11
0.44339
 21
0.889663
 31
0.0
  0
LINE
  8
0
  6
CONTINUOUS
 62
     7
  5
D52
 10
0.44339
 20
0.889663
 30
0.0
 11
0.422465
 21
0.87323
 31
0.0
  0
LINE
  8
0
  6
CONTINUOUS
 62
     7
  5
D53
 10
0.422465
 20
0.87323
 30
0.0
 11
0.398138
 21
0.857655
 31
0.0
  0
LINE
  8
0
  6
CONTINUOUS
 62
     7
  5
D54
 10
0.398138
 20
0.857655
 30
0.0
 11
0.370606
 21
0.843064
 31
0.0
  0
LINE
  8
0
  6
CONTINUOUS
 62
     7
  5
D55
 10
0.370606
 20
0.843064
 30
0.0
 11
0.34009
 21
0.829575
 31
0.0
  0
LINE
  8
0
  6
CONTINUOUS
 62
     7
  5
D56
 10
0.34009
 20
0.829575
 30
0.0
 11
0.306836
 21
0.817297
 31
0.0
  0
LINE
  8
0
  6
CONTINUOUS
 62
     7
  5
D57
 10
0.306836
 20
0.817297
 30
0.0
 11
0.271111
 21
0.806327
 31
0.0
  0
LINE
  8
0
  6
CONTINUOUS
 62
     7
  5
D58
 10
0.271111
 20
0.806327
 30
0.0
 11
0.233203
 21
0.796756
 31
0.0
  0
LINE
  8
0
  6
CONTINUOUS
 62
     7
  5
D59
 10
0.233203
 20
0.796756
 30
0.0
 11
0.193418
 21
0.788658
 31
0.0
  0
LINE
  8
0
  6
CONTINUOUS
 62
     7
  5
D5A
 10
0.193418
 20
0.788658
 30
0.0
 11
0.152075
 21
0.782101
 31
0.0
  0
LINE
  8
0
  6
CONTINUOUS
 62
     7
  5
D5B
 10
0.152075
 20
0.782101
 30
0.0
 11
0.109508
 21
0.777136
 31
0.0
  0
LINE
  8
0
  6
CONTINUOUS
 62
     7
  5
D5C
 10
0.109508
 20
0.777136
 30
0.0
 11
0.06606
 21
0.773804
 31
0.0
  0
LINE
  8
0
  6
CONTINUOUS
 62
     7
  5
D5D
 10
0.06606
 20
0.773804
 30
0.0
 11
0.022079
 21
0.772131
 31
0.0
  0
LINE
  8
0
  6
CONTINUOUS
 62
     7
  5
D5E
 10
0.022079
 20
0.772131
 30
0.0
 11
-0.022079
 21
0.772131
 31
0.0
  0
LINE
  8
0
  6
CONTINUOUS
 62
     7
  5
D5F
 10
-0.022079
 20
0.772131
 30
0.0
 11
-0.06606
 21
0.773804
 31
0.0
  0
LINE
  8
0
  6
CONTINUOUS
 62
     7
  5
D60
 10
-0.06606
 20
0.773804
 30
0.0
 11
-0.109508
 21
0.777136
 31
0.0
  0
LINE
  8
0
  6
CONTINUOUS
 62
     7
  5
D61
 10
-0.109508
 20
0.777136
 30
0.0
 11
-0.152075
 21
0.782101
 31
0.0
  0
LINE
  8
0
  6
CONTINUOUS
 62
     7
  5
D62
 10
-0.152075
 20
0.782101
 30
0.0
 11
-0.193418
 21
0.788658
 31
0.0
  0
LINE
  8
0
  6
CONTINUOUS
 62
     7
  5
D63
 10
-0.193418
 20
0.788658
 30
0.0
 11
-0.233203
 21
0.796756
 31
0.0
  0
LINE
  8
0
  6
CONTINUOUS
 62
     7
  5
D64
 10
-0.233203
 20
0.796756
 30
0.0
 11
-0.271111
 21
0.806327
 31
0.0
  0
LINE
  8
0
  6
CONTINUOUS
 62
     7
  5
D65
 10
-0.271111
 20
0.806327
 30
0.0
 11
-0.306836
 21
0.817297
 31
0.0
  0
LINE
  8
0
  6
CONTINUOUS
 62
     7
  5
D66
 10
-0.306836
 20
0.817297
 30
0.0
 11
-0.34009
 21
0.829575
 31
0.0
  0
LINE
  8
0
  6
CONTINUOUS
 62
     7
  5
D67
 10
-0.34009
 20
0.829575
 30
0.0
 11
-0.370606
 21
0.843064
 31
0.0
  0
LINE
  8
0
  6
CONTINUOUS
 62
     7
  5
D68
 10
-0.370606
 20
0.843064
 30
0.0
 11
-0.398138
 21
0.857655
 31
0.0
  0
LINE
  8
0
  6
CONTINUOUS
 62
     7
  5
D69
 10
-0.398138
 20
0.857655
 30
0.0
 11
-0.422465
 21
0.87323
 31
0.0
  0
LINE
  8
0
  6
CONTINUOUS
 62
     7
  5
D6A
 10
-0.422465
 20
0.87323
 30
0.0
 11
-0.44339
 21
0.889663
 31
0.0
  0
LINE
  8
0
  6
CONTINUOUS
 62
     7
  5
D6B
 10
-0.44339
 20
0.889663
 30
0.0
 11
-0.460746
 21
0.906824
 31
0.0
  0
LINE
  8
0
  6
CONTINUOUS
 62
     7
  5
D6C
 10
-0.460746
 20
0.906824
 30
0.0
 11
-0.474391
 21
0.924572
 31
0.0
  0
LINE
  8
0
  6
CONTINUOUS
 62
     7
  5
D6D
 10
-0.474391
 20
0.924572
 30
0.0
 11
-0.484217
 21
0.942767
 31
0.0
  0
LINE
  8
0
  6
CONTINUOUS
 62
     7
  5
D6E
 10
-0.484217
 20
0.942767
 30
0.0
 11
-0.490145
 21
0.96126
 31
0.0
  0
LINE
  8
0
  6
CONTINUOUS
 62
     7
  5
D6F
 10
-0.490145
 20
0.96126
 30
0.0
 11
-0.492126
 21
0.979903
 31
0.0
  0
LINE
  8
0
  6
CONTINUOUS
 62
     7
  5
D70
 10
0.393701
 20
1.104692
 30
0.0
 11
0.399063
 21
1.101612
 31
0.0
  0
LINE
  8
0
  6
CONTINUOUS
 62
     7
  5
D71
 10
0.399063
 20
1.101612
 30
0.0
 11
0.40429
 21
1.098491
 31
0.0
  0
LINE
  8
0
  6
CONTINUOUS
 62
     7
  5
D72
 10
0.40429
 20
1.098491
 30
0.0
 11
0.40938
 21
1.095329
 31
0.0
  0
LINE
  8
0
  6
CONTINUOUS
 62
     7
  5
D73
 10
0.40938
 20
1.095329
 30
0.0
 11
0.414332
 21
1.092129
 31
0.0
  0
LINE
  8
0
  6
CONTINUOUS
 62
     7
  5
D74
 10
0.414332
 20
1.092129
 30
0.0
 11
0.419144
 21
1.088891
 31
0.0
  0
LINE
  8
0
  6
CONTINUOUS
 62
     7
  5
D75
 10
0.419144
 20
1.088891
 30
0.0
 11
0.423815
 21
1.085616
 31
0.0
  0
LINE
  8
0
  6
CONTINUOUS
 62
     7
  5
D76
 10
0.423815
 20
1.085616
 30
0.0
 11
0.428342
 21
1.082305
 31
0.0
  0
LINE
  8
0
  6
CONTINUOUS
 62
     7
  5
D77
 10
0.428342
 20
1.082305
 30
0.0
 11
0.432724
 21
1.07896
 31
0.0
  0
LINE
  8
0
  6
CONTINUOUS
 62
     7
  5
D78
 10
0.432724
 20
1.07896
 30
0.0
 11
0.43696
 21
1.075581
 31
0.0
  0
LINE
  8
0
  6
CONTINUOUS
 62
     7
  5
D79
 10
0.43696
 20
1.075581
 30
0.0
 11
0.441049
 21
1.07217
 31
0.0
  0
LINE
  8
0
  6
CONTINUOUS
 62
     7
  5
D7A
 10
0.441049
 20
1.07217
 30
0.0
 11
0.444988
 21
1.068727
 31
0.0
  0
LINE
  8
0
  6
CONTINUOUS
 62
     7
  5
D7B
 10
0.444988
 20
1.068727
 30
0.0
 11
0.448777
 21
1.065255
 31
0.0
  0
LINE
  8
0
  6
CONTINUOUS
 62
     7
  5
D7C
 10
0.448777
 20
1.065255
 30
0.0
 11
0.452414
 21
1.061753
 31
0.0
  0
LINE
  8
0
  6
CONTINUOUS
 62
     7
  5
D7D
 10
0.452414
 20
1.061753
 30
0.0
 11
0.455898
 21
1.058224
 31
0.0
  0
LINE
  8
0
  6
CONTINUOUS
 62
     7
  5
D7E
 10
0.455898
 20
1.058224
 30
0.0
 11
0.459228
 21
1.054669
 31
0.0
  0
LINE
  8
0
  6
CONTINUOUS
 62
     7
  5
D7F
 10
0.459228
 20
1.054669
 30
0.0
 11
0.462403
 21
1.051088
 31
0.0
  0
LINE
  8
0
  6
CONTINUOUS
 62
     7
  5
D80
 10
0.462403
 20
1.051088
 30
0.0
 11
0.465421
 21
1.047484
 31
0.0
  0
LINE
  8
0
  6
CONTINUOUS
 62
     7
  5
D81
 10
0.465421
 20
1.047484
 30
0.0
 11
0.468283
 21
1.043856
 31
0.0
  0
LINE
  8
0
  6
CONTINUOUS
 62
     7
  5
D82
 10
0.468283
 20
1.043856
 30
0.0
 11
0.470986
 21
1.040207
 31
0.0
  0
LINE
  8
0
  6
CONTINUOUS
 62
     7
  5
D83
 10
0.470986
 20
1.040207
 30
0.0
 11
0.473529
 21
1.036537
 31
0.0
  0
LINE
  8
0
  6
CONTINUOUS
 62
     7
  5
D84
 10
0.473529
 20
1.036537
 30
0.0
 11
0.475913
 21
1.032848
 31
0.0
  0
LINE
  8
0
  6
CONTINUOUS
 62
     7
  5
D85
 10
0.475913
 20
1.032848
 30
0.0
 11
0.478136
 21
1.029142
 31
0.0
  0
LINE
  8
0
  6
CONTINUOUS
 62
     7
  5
D86
 10
0.478136
 20
1.029142
 30
0.0
 11
0.480197
 21
1.025418
 31
0.0
  0
LINE
  8
0
  6
CONTINUOUS
 62
     7
  5
D87
 10
0.480197
 20
1.025418
 30
0.0
 11
0.482096
 21
1.02168
 31
0.0
  0
LINE
  8
0
  6
CONTINUOUS
 62
     7
  5
D88
 10
0.482096
 20
1.02168
 30
0.0
 11
0.483832
 21
1.017927
 31
0.0
  0
LINE
  8
0
  6
CONTINUOUS
 62
     7
  5
D89
 10
0.483832
 20
1.017927
 30
0.0
 11
0.485404
 21
1.014161
 31
0.0
  0
LINE
  8
0
  6
CONTINUOUS
 62
     7
  5
D8A
 10
0.485404
 20
1.014161
 30
0.0
 11
0.486812
 21
1.010384
 31
0.0
  0
LINE
  8
0
  6
CONTINUOUS
 62
     7
  5
D8B
 10
0.486812
 20
1.010384
 30
0.0
 11
0.488056
 21
1.006596
 31
0.0
  0
LINE
  8
0
  6
CONTINUOUS
 62
     7
  5
D8C
 10
0.488056
 20
1.006596
 30
0.0
 11
0.489135
 21
1.0028
 31
0.0
  0
LINE
  8
0
  6
CONTINUOUS
 62
     7
  5
D8D
 10
0.489135
 20
1.0028
 30
0.0
 11
0.490048
 21
0.998996
 31
0.0
  0
LINE
  8
0
  6
CONTINUOUS
 62
     7
  5
D8E
 10
0.490048
 20
0.998996
 30
0.0
 11
0.490796
 21
0.995185
 31
0.0
  0
LINE
  8
0
  6
CONTINUOUS
 62
     7
  5
D8F
 10
0.490796
 20
0.995185
 30
0.0
 11
0.491378
 21
0.991369
 31
0.0
  0
LINE
  8
0
  6
CONTINUOUS
 62
     7
  5
D90
 10
0.491378
 20
0.991369
 30
0.0
 11
0.491793
 21
0.987549
 31
0.0
  0
LINE
  8
0
  6
CONTINUOUS
 62
     7
  5
D91
 10
0.491793
 20
0.987549
 30
0.0
 11
0.492043
 21
0.983727
 31
0.0
  0
LINE
  8
0
  6
CONTINUOUS
 62
     7
  5
D92
 10
0.492043
 20
0.983727
 30
0.0
 11
0.492126
 21
0.979903
 31
0.0
  0
LINE
  8
0
  6
CONTINUOUS
 62
     7
  5
D93
 10
-0.393701
 20
2.119445
 30
0.0
 11
-0.393701
 21
1.104692
 31
0.0
  0
LINE
  8
0
  6
CONTINUOUS
 62
     7
  5
D94
 10
-0.393701
 20
2.171844
 30
0.0
 11
-0.393701
 21
2.119445
 31
0.0
  0
LINE
  8
0
  6
CONTINUOUS
 62
     7
  5
D95
 10
-0.393701
 20
2.547888
 30
0.0
 11
-0.393701
 21
2.171844
 31
0.0
  0
LINE
  8
0
  6
CONTINUOUS
 62
     7
  5
D96
 10
-0.393701
 20
2.560987
 30
0.0
 11
-0.393701
 21
2.547888
 31
0.0
  0
LINE
  8
0
  6
CONTINUOUS
 62
     7
  5
D97
 10
-0.393701
 20
3.309958
 30
0.0
 11
-0.393701
 21
2.560987
 31
0.0
  0
LINE
  8
0
  6
CONTINUOUS
 62
     7
  5
D98
 10
0.393701
 20
1.104692
 30
0.0
 11
0.393701
 21
2.119445
 31
0.0
  0
LINE
  8
0
  6
CONTINUOUS
 62
     7
  5
D99
 10
0.393701
 20
2.560987
 30
0.0
 11
0.393701
 21
3.309958
 31
0.0
  0
LINE
  8
0
  6
CONTINUOUS
 62
     7
  5
D9A
 10
0.393701
 20
2.547888
 30
0.0
 11
0.393701
 21
2.560987
 31
0.0
  0
LINE
  8
0
  6
CONTINUOUS
 62
     7
  5
D9B
 10
0.393701
 20
2.171844
 30
0.0
 11
0.393701
 21
2.547888
 31
0.0
  0
LINE
  8
0
  6
CONTINUOUS
 62
     7
  5
D9C
 10
0.393701
 20
2.119445
 30
0.0
 11
0.393701
 21
2.171844
 31
0.0
  0
LINE
  8
0
  6
CONTINUOUS
 62
     7
  5
D9D
 10
-0.688976
 20
4.388636
 30
0.0
 11
-0.688976
 21
4.099821
 31
0.0
  0
LINE
  8
0
  6
CONTINUOUS
 62
     7
  5
D9E
 10
-0.688976
 20
4.099821
 30
0.0
 11
-0.688976
 21
3.388205
 31
0.0
  0
LINE
  8
0
  6
CONTINUOUS
 62
     7
  5
D9F
 10
0.688976
 20
3.388205
 30
0.0
 11
0.688976
 21
4.099821
 31
0.0
  0
LINE
  8
0
  6
CONTINUOUS
 62
     7
  5
DA0
 10
0.688976
 20
4.099821
 30
0.0
 11
0.688976
 21
4.388636
 31
0.0
  0
LINE
  8
0
  6
CONTINUOUS
 62
     7
  5
DA1
 10
-2.065575
 20
0.490561
 30
0.0
 11
-2.047295
 21
1.315922
 31
0.0
  0
LINE
  8
0
  6
CONTINUOUS
 62
     7
  5
DA2
 10
-1.988588
 20
1.789332
 30
0.0
 11
-2.047295
 21
1.315922
 31
0.0
  0
LINE
  8
0
  6
CONTINUOUS
 62
     7
  5
DA3
 10
-1.884238
 20
1.836303
 30
0.0
 11
-1.888929
 21
1.836033
 31
0.0
  0
LINE
  8
0
  6
CONTINUOUS
 62
     7
  5
DA4
 10
-1.888929
 20
1.836033
 30
0.0
 11
-1.89359
 21
1.835684
 31
0.0
  0
LINE
  8
0
  6
CONTINUOUS
 62
     7
  5
DA5
 10
-1.89359
 20
1.835684
 30
0.0
 11
-1.898215
 21
1.835256
 31
0.0
  0
LINE
  8
0
  6
CONTINUOUS
 62
     7
  5
DA6
 10
-1.898215
 20
1.835256
 30
0.0
 11
-1.902795
 21
1.83475
 31
0.0
  0
LINE
  8
0
  6
CONTINUOUS
 62
     7
  5
DA7
 10
-1.902795
 20
1.83475
 30
0.0
 11
-1.907324
 21
1.834167
 31
0.0
  0
LINE
  8
0
  6
CONTINUOUS
 62
     7
  5
DA8
 10
-1.907324
 20
1.834167
 30
0.0
 11
-1.911794
 21
1.833507
 31
0.0
  0
LINE
  8
0
  6
CONTINUOUS
 62
     7
  5
DA9
 10
-1.911794
 20
1.833507
 30
0.0
 11
-1.916198
 21
1.832773
 31
0.0
  0
LINE
  8
0
  6
CONTINUOUS
 62
     7
  5
DAA
 10
-1.916198
 20
1.832773
 30
0.0
 11
-1.920528
 21
1.831964
 31
0.0
  0
LINE
  8
0
  6
CONTINUOUS
 62
     7
  5
DAB
 10
-1.920528
 20
1.831964
 30
0.0
 11
-1.924779
 21
1.831083
 31
0.0
  0
LINE
  8
0
  6
CONTINUOUS
 62
     7
  5
DAC
 10
-1.924779
 20
1.831083
 30
0.0
 11
-1.928942
 21
1.83013
 31
0.0
  0
LINE
  8
0
  6
CONTINUOUS
 62
     7
  5
DAD
 10
-1.928942
 20
1.83013
 30
0.0
 11
-1.933012
 21
1.829108
 31
0.0
  0
LINE
  8
0
  6
CONTINUOUS
 62
     7
  5
DAE
 10
-1.933012
 20
1.829108
 30
0.0
 11
-1.936981
 21
1.828017
 31
0.0
  0
LINE
  8
0
  6
CONTINUOUS
 62
     7
  5
DAF
 10
-1.936981
 20
1.828017
 30
0.0
 11
-1.940844
 21
1.82686
 31
0.0
  0
LINE
  8
0
  6
CONTINUOUS
 62
     7
  5
DB0
 10
-1.940844
 20
1.82686
 30
0.0
 11
-1.944594
 21
1.825639
 31
0.0
  0
LINE
  8
0
  6
CONTINUOUS
 62
     7
  5
DB1
 10
-1.944594
 20
1.825639
 30
0.0
 11
-1.948226
 21
1.824355
 31
0.0
  0
LINE
  8
0
  6
CONTINUOUS
 62
     7
  5
DB2
 10
-1.948226
 20
1.824355
 30
0.0
 11
-1.951732
 21
1.823011
 31
0.0
  0
LINE
  8
0
  6
CONTINUOUS
 62
     7
  5
DB3
 10
-1.951732
 20
1.823011
 30
0.0
 11
-1.955109
 21
1.821608
 31
0.0
  0
LINE
  8
0
  6
CONTINUOUS
 62
     7
  5
DB4
 10
-1.955109
 20
1.821608
 30
0.0
 11
-1.958349
 21
1.82015
 31
0.0
  0
LINE
  8
0
  6
CONTINUOUS
 62
     7
  5
DB5
 10
-1.958349
 20
1.82015
 30
0.0
 11
-1.961449
 21
1.818637
 31
0.0
  0
LINE
  8
0
  6
CONTINUOUS
 62
     7
  5
DB6
 10
-1.961449
 20
1.818637
 30
0.0
 11
-1.964403
 21
1.817074
 31
0.0
  0
LINE
  8
0
  6
CONTINUOUS
 62
     7
  5
DB7
 10
-1.964403
 20
1.817074
 30
0.0
 11
-1.967206
 21
1.815461
 31
0.0
  0
LINE
  8
0
  6
CONTINUOUS
 62
     7
  5
DB8
 10
-1.967206
 20
1.815461
 30
0.0
 11
-1.969854
 21
1.813802
 31
0.0
  0
LINE
  8
0
  6
CONTINUOUS
 62
     7
  5
DB9
 10
-1.969854
 20
1.813802
 30
0.0
 11
-1.972342
 21
1.8121
 31
0.0
  0
LINE
  8
0
  6
CONTINUOUS
 62
     7
  5
DBA
 10
-1.972342
 20
1.8121
 30
0.0
 11
-1.974667
 21
1.810357
 31
0.0
  0
LINE
  8
0
  6
CONTINUOUS
 62
     7
  5
DBB
 10
-1.974667
 20
1.810357
 30
0.0
 11
-1.976825
 21
1.808577
 31
0.0
  0
LINE
  8
0
  6
CONTINUOUS
 62
     7
  5
DBC
 10
-1.976825
 20
1.808577
 30
0.0
 11
-1.978813
 21
1.80676
 31
0.0
  0
LINE
  8
0
  6
CONTINUOUS
 62
     7
  5
DBD
 10
-1.978813
 20
1.80676
 30
0.0
 11
-1.980626
 21
1.804912
 31
0.0
  0
LINE
  8
0
  6
CONTINUOUS
 62
     7
  5
DBE
 10
-1.980626
 20
1.804912
 30
0.0
 11
-1.982263
 21
1.803035
 31
0.0
  0
LINE
  8
0
  6
CONTINUOUS
 62
     7
  5
DBF
 10
-1.982263
 20
1.803035
 30
0.0
 11
-1.98372
 21
1.801131
 31
0.0
  0
LINE
  8
0
  6
CONTINUOUS
 62
     7
  5
DC0
 10
-1.98372
 20
1.801131
 30
0.0
 11
-1.984996
 21
1.799204
 31
0.0
  0
LINE
  8
0
  6
CONTINUOUS
 62
     7
  5
DC1
 10
-1.984996
 20
1.799204
 30
0.0
 11
-1.986088
 21
1.797257
 31
0.0
  0
LINE
  8
0
  6
CONTINUOUS
 62
     7
  5
DC2
 10
-1.986088
 20
1.797257
 30
0.0
 11
-1.986995
 21
1.795294
 31
0.0
  0
LINE
  8
0
  6
CONTINUOUS
 62
     7
  5
DC3
 10
-1.986995
 20
1.795294
 30
0.0
 11
-1.987714
 21
1.793316
 31
0.0
  0
LINE
  8
0
  6
CONTINUOUS
 62
     7
  5
DC4
 10
-1.987714
 20
1.793316
 30
0.0
 11
-1.988246
 21
1.791328
 31
0.0
  0
LINE
  8
0
  6
CONTINUOUS
 62
     7
  5
DC5
 10
-1.988246
 20
1.791328
 30
0.0
 11
-1.988588
 21
1.789332
 31
0.0
  0
LINE
  8
0
  6
CONTINUOUS
 62
     7
  5
DC6
 10
-0.48341
 20
1.904916
 30
0.0
 11
-1.884238
 21
1.836303
 31
0.0
  0
LINE
  8
0
  6
CONTINUOUS
 62
     7
  5
DC7
 10
-0.425847
 20
1.906321
 30
0.0
 11
-0.427495
 21
1.90632
 31
0.0
  0
LINE
  8
0
  6
CONTINUOUS
 62
     7
  5
DC8
 10
-0.427495
 20
1.90632
 30
0.0
 11
-0.429143
 21
1.906317
 31
0.0
  0
LINE
  8
0
  6
CONTINUOUS
 62
     7
  5
DC9
 10
-0.429143
 20
1.906317
 30
0.0
 11
-0.430792
 21
1.906311
 31
0.0
  0
LINE
  8
0
  6
CONTINUOUS
 62
     7
  5
DCA
 10
-0.430792
 20
1.906311
 30
0.0
 11
-0.43244
 21
1.906303
 31
0.0
  0
LINE
  8
0
  6
CONTINUOUS
 62
     7
  5
DCB
 10
-0.43244
 20
1.906303
 30
0.0
 11
-0.434088
 21
1.906293
 31
0.0
  0
LINE
  8
0
  6
CONTINUOUS
 62
     7
  5
DCC
 10
-0.434088
 20
1.906293
 30
0.0
 11
-0.435736
 21
1.90628
 31
0.0
  0
LINE
  8
0
  6
CONTINUOUS
 62
     7
  5
DCD
 10
-0.435736
 20
1.90628
 30
0.0
 11
-0.437384
 21
1.906265
 31
0.0
  0
LINE
  8
0
  6
CONTINUOUS
 62
     7
  5
DCE
 10
-0.437384
 20
1.906265
 30
0.0
 11
-0.439032
 21
1.906248
 31
0.0
  0
LINE
  8
0
  6
CONTINUOUS
 62
     7
  5
DCF
 10
-0.439032
 20
1.906248
 30
0.0
 11
-0.440679
 21
1.906228
 31
0.0
  0
LINE
  8
0
  6
CONTINUOUS
 62
     7
  5
DD0
 10
-0.440679
 20
1.906228
 30
0.0
 11
-0.442327
 21
1.906207
 31
0.0
  0
LINE
  8
0
  6
CONTINUOUS
 62
     7
  5
DD1
 10
-0.442327
 20
1.906207
 30
0.0
 11
-0.443974
 21
1.906183
 31
0.0
  0
LINE
  8
0
  6
CONTINUOUS
 62
     7
  5
DD2
 10
-0.443974
 20
1.906183
 30
0.0
 11
-0.445621
 21
1.906156
 31
0.0
  0
LINE
  8
0
  6
CONTINUOUS
 62
     7
  5
DD3
 10
-0.445621
 20
1.906156
 30
0.0
 11
-0.447268
 21
1.906127
 31
0.0
  0
LINE
  8
0
  6
CONTINUOUS
 62
     7
  5
DD4
 10
-0.447268
 20
1.906127
 30
0.0
 11
-0.448915
 21
1.906096
 31
0.0
  0
LINE
  8
0
  6
CONTINUOUS
 62
     7
  5
DD5
 10
-0.448915
 20
1.906096
 30
0.0
 11
-0.450561
 21
1.906063
 31
0.0
  0
LINE
  8
0
  6
CONTINUOUS
 62
     7
  5
DD6
 10
-0.450561
 20
1.906063
 30
0.0
 11
-0.452208
 21
1.906028
 31
0.0
  0
LINE
  8
0
  6
CONTINUOUS
 62
     7
  5
DD7
 10
-0.452208
 20
1.906028
 30
0.0
 11
-0.453854
 21
1.90599
 31
0.0
  0
LINE
  8
0
  6
CONTINUOUS
 62
     7
  5
DD8
 10
-0.453854
 20
1.90599
 30
0.0
 11
-0.455499
 21
1.90595
 31
0.0
  0
LINE
  8
0
  6
CONTINUOUS
 62
     7
  5
DD9
 10
-0.455499
 20
1.90595
 30
0.0
 11
-0.457144
 21
1.905907
 31
0.0
  0
LINE
  8
0
  6
CONTINUOUS
 62
     7
  5
DDA
 10
-0.457144
 20
1.905907
 30
0.0
 11
-0.458789
 21
1.905862
 31
0.0
  0
LINE
  8
0
  6
CONTINUOUS
 62
     7
  5
DDB
 10
-0.458789
 20
1.905862
 30
0.0
 11
-0.460434
 21
1.905815
 31
0.0
  0
LINE
  8
0
  6
CONTINUOUS
 62
     7
  5
DDC
 10
-0.460434
 20
1.905815
 30
0.0
 11
-0.462078
 21
1.905766
 31
0.0
  0
LINE
  8
0
  6
CONTINUOUS
 62
     7
  5
DDD
 10
-0.462078
 20
1.905766
 30
0.0
 11
-0.463722
 21
1.905714
 31
0.0
  0
LINE
  8
0
  6
CONTINUOUS
 62
     7
  5
DDE
 10
-0.463722
 20
1.905714
 30
0.0
 11
-0.465365
 21
1.90566
 31
0.0
  0
LINE
  8
0
  6
CONTINUOUS
 62
     7
  5
DDF
 10
-0.465365
 20
1.90566
 30
0.0
 11
-0.467008
 21
1.905604
 31
0.0
  0
LINE
  8
0
  6
CONTINUOUS
 62
     7
  5
DE0
 10
-0.467008
 20
1.905604
 30
0.0
 11
-0.468651
 21
1.905546
 31
0.0
  0
LINE
  8
0
  6
CONTINUOUS
 62
     7
  5
DE1
 10
-0.468651
 20
1.905546
 30
0.0
 11
-0.470293
 21
1.905485
 31
0.0
  0
LINE
  8
0
  6
CONTINUOUS
 62
     7
  5
DE2
 10
-0.470293
 20
1.905485
 30
0.0
 11
-0.471934
 21
1.905422
 31
0.0
  0
LINE
  8
0
  6
CONTINUOUS
 62
     7
  5
DE3
 10
-0.471934
 20
1.905422
 30
0.0
 11
-0.473575
 21
1.905356
 31
0.0
  0
LINE
  8
0
  6
CONTINUOUS
 62
     7
  5
DE4
 10
-0.473575
 20
1.905356
 30
0.0
 11
-0.475216
 21
1.905289
 31
0.0
  0
LINE
  8
0
  6
CONTINUOUS
 62
     7
  5
DE5
 10
-0.475216
 20
1.905289
 30
0.0
 11
-0.476856
 21
1.905219
 31
0.0
  0
LINE
  8
0
  6
CONTINUOUS
 62
     7
  5
DE6
 10
-0.476856
 20
1.905219
 30
0.0
 11
-0.478495
 21
1.905147
 31
0.0
  0
LINE
  8
0
  6
CONTINUOUS
 62
     7
  5
DE7
 10
-0.478495
 20
1.905147
 30
0.0
 11
-0.480134
 21
1.905072
 31
0.0
  0
LINE
  8
0
  6
CONTINUOUS
 62
     7
  5
DE8
 10
-0.480134
 20
1.905072
 30
0.0
 11
-0.481772
 21
1.904995
 31
0.0
  0
LINE
  8
0
  6
CONTINUOUS
 62
     7
  5
DE9
 10
-0.481772
 20
1.904995
 30
0.0
 11
-0.48341
 21
1.904916
 31
0.0
  0
LINE
  8
0
  6
CONTINUOUS
 62
     7
  5
DEA
 10
0.425847
 20
1.906321
 30
0.0
 11
0.393701
 21
1.906321
 31
0.0
  0
LINE
  8
0
  6
CONTINUOUS
 62
     7
  5
DEB
 10
-0.393701
 20
1.906321
 30
0.0
 11
-0.425847
 21
1.906321
 31
0.0
  0
LINE
  8
0
  6
CONTINUOUS
 62
     7
  5
DEC
 10
0.48341
 20
1.904916
 30
0.0
 11
0.481772
 21
1.904995
 31
0.0
  0
LINE
  8
0
  6
CONTINUOUS
 62
     7
  5
DED
 10
0.481772
 20
1.904995
 30
0.0
 11
0.480134
 21
1.905072
 31
0.0
  0
LINE
  8
0
  6
CONTINUOUS
 62
     7
  5
DEE
 10
0.480134
 20
1.905072
 30
0.0
 11
0.478495
 21
1.905147
 31
0.0
  0
LINE
  8
0
  6
CONTINUOUS
 62
     7
  5
DEF
 10
0.478495
 20
1.905147
 30
0.0
 11
0.476856
 21
1.905219
 31
0.0
  0
LINE
  8
0
  6
CONTINUOUS
 62
     7
  5
DF0
 10
0.476856
 20
1.905219
 30
0.0
 11
0.475216
 21
1.905289
 31
0.0
  0
LINE
  8
0
  6
CONTINUOUS
 62
     7
  5
DF1
 10
0.475216
 20
1.905289
 30
0.0
 11
0.473575
 21
1.905356
 31
0.0
  0
LINE
  8
0
  6
CONTINUOUS
 62
     7
  5
DF2
 10
0.473575
 20
1.905356
 30
0.0
 11
0.471934
 21
1.905422
 31
0.0
  0
LINE
  8
0
  6
CONTINUOUS
 62
     7
  5
DF3
 10
0.471934
 20
1.905422
 30
0.0
 11
0.470293
 21
1.905485
 31
0.0
  0
LINE
  8
0
  6
CONTINUOUS
 62
     7
  5
DF4
 10
0.470293
 20
1.905485
 30
0.0
 11
0.468651
 21
1.905546
 31
0.0
  0
LINE
  8
0
  6
CONTINUOUS
 62
     7
  5
DF5
 10
0.468651
 20
1.905546
 30
0.0
 11
0.467008
 21
1.905604
 31
0.0
  0
LINE
  8
0
  6
CONTINUOUS
 62
     7
  5
DF6
 10
0.467008
 20
1.905604
 30
0.0
 11
0.465365
 21
1.90566
 31
0.0
  0
LINE
  8
0
  6
CONTINUOUS
 62
     7
  5
DF7
 10
0.465365
 20
1.90566
 30
0.0
 11
0.463722
 21
1.905714
 31
0.0
  0
LINE
  8
0
  6
CONTINUOUS
 62
     7
  5
DF8
 10
0.463722
 20
1.905714
 30
0.0
 11
0.462078
 21
1.905766
 31
0.0
  0
LINE
  8
0
  6
CONTINUOUS
 62
     7
  5
DF9
 10
0.462078
 20
1.905766
 30
0.0
 11
0.460434
 21
1.905815
 31
0.0
  0
LINE
  8
0
  6
CONTINUOUS
 62
     7
  5
DFA
 10
0.460434
 20
1.905815
 30
0.0
 11
0.458789
 21
1.905862
 31
0.0
  0
LINE
  8
0
  6
CONTINUOUS
 62
     7
  5
DFB
 10
0.458789
 20
1.905862
 30
0.0
 11
0.457144
 21
1.905907
 31
0.0
  0
LINE
  8
0
  6
CONTINUOUS
 62
     7
  5
DFC
 10
0.457144
 20
1.905907
 30
0.0
 11
0.455499
 21
1.90595
 31
0.0
  0
LINE
  8
0
  6
CONTINUOUS
 62
     7
  5
DFD
 10
0.455499
 20
1.90595
 30
0.0
 11
0.453854
 21
1.90599
 31
0.0
  0
LINE
  8
0
  6
CONTINUOUS
 62
     7
  5
DFE
 10
0.453854
 20
1.90599
 30
0.0
 11
0.452208
 21
1.906028
 31
0.0
  0
LINE
  8
0
  6
CONTINUOUS
 62
     7
  5
DFF
 10
0.452208
 20
1.906028
 30
0.0
 11
0.450561
 21
1.906063
 31
0.0
  0
LINE
  8
0
  6
CONTINUOUS
 62
     7
  5
E00
 10
0.450561
 20
1.906063
 30
0.0
 11
0.448915
 21
1.906096
 31
0.0
  0
LINE
  8
0
  6
CONTINUOUS
 62
     7
  5
E01
 10
0.448915
 20
1.906096
 30
0.0
 11
0.447268
 21
1.906127
 31
0.0
  0
LINE
  8
0
  6
CONTINUOUS
 62
     7
  5
E02
 10
0.447268
 20
1.906127
 30
0.0
 11
0.445621
 21
1.906156
 31
0.0
  0
LINE
  8
0
  6
CONTINUOUS
 62
     7
  5
E03
 10
0.445621
 20
1.906156
 30
0.0
 11
0.443974
 21
1.906183
 31
0.0
  0
LINE
  8
0
  6
CONTINUOUS
 62
     7
  5
E04
 10
0.443974
 20
1.906183
 30
0.0
 11
0.442327
 21
1.906207
 31
0.0
  0
LINE
  8
0
  6
CONTINUOUS
 62
     7
  5
E05
 10
0.442327
 20
1.906207
 30
0.0
 11
0.440679
 21
1.906228
 31
0.0
  0
LINE
  8
0
  6
CONTINUOUS
 62
     7
  5
E06
 10
0.440679
 20
1.906228
 30
0.0
 11
0.439032
 21
1.906248
 31
0.0
  0
LINE
  8
0
  6
CONTINUOUS
 62
     7
  5
E07
 10
0.439032
 20
1.906248
 30
0.0
 11
0.437384
 21
1.906265
 31
0.0
  0
LINE
  8
0
  6
CONTINUOUS
 62
     7
  5
E08
 10
0.437384
 20
1.906265
 30
0.0
 11
0.435736
 21
1.90628
 31
0.0
  0
LINE
  8
0
  6
CONTINUOUS
 62
     7
  5
E09
 10
0.435736
 20
1.90628
 30
0.0
 11
0.434088
 21
1.906293
 31
0.0
  0
LINE
  8
0
  6
CONTINUOUS
 62
     7
  5
E0A
 10
0.434088
 20
1.906293
 30
0.0
 11
0.43244
 21
1.906303
 31
0.0
  0
LINE
  8
0
  6
CONTINUOUS
 62
     7
  5
E0B
 10
0.43244
 20
1.906303
 30
0.0
 11
0.430792
 21
1.906311
 31
0.0
  0
LINE
  8
0
  6
CONTINUOUS
 62
     7
  5
E0C
 10
0.430792
 20
1.906311
 30
0.0
 11
0.429143
 21
1.906317
 31
0.0
  0
LINE
  8
0
  6
CONTINUOUS
 62
     7
  5
E0D
 10
0.429143
 20
1.906317
 30
0.0
 11
0.427495
 21
1.90632
 31
0.0
  0
LINE
  8
0
  6
CONTINUOUS
 62
     7
  5
E0E
 10
0.427495
 20
1.90632
 30
0.0
 11
0.425847
 21
1.906321
 31
0.0
  0
LINE
  8
0
  6
CONTINUOUS
 62
     7
  5
E0F
 10
1.884238
 20
1.836303
 30
0.0
 11
0.48341
 21
1.904916
 31
0.0
  0
LINE
  8
0
  6
CONTINUOUS
 62
     7
  5
E10
 10
1.988588
 20
1.789332
 30
0.0
 11
1.988246
 21
1.791328
 31
0.0
  0
LINE
  8
0
  6
CONTINUOUS
 62
     7
  5
E11
 10
1.988246
 20
1.791328
 30
0.0
 11
1.987714
 21
1.793316
 31
0.0
  0
LINE
  8
0
  6
CONTINUOUS
 62
     7
  5
E12
 10
1.987714
 20
1.793316
 30
0.0
 11
1.986995
 21
1.795294
 31
0.0
  0
LINE
  8
0
  6
CONTINUOUS
 62
     7
  5
E13
 10
1.986995
 20
1.795294
 30
0.0
 11
1.986088
 21
1.797257
 31
0.0
  0
LINE
  8
0
  6
CONTINUOUS
 62
     7
  5
E14
 10
1.986088
 20
1.797257
 30
0.0
 11
1.984996
 21
1.799204
 31
0.0
  0
LINE
  8
0
  6
CONTINUOUS
 62
     7
  5
E15
 10
1.984996
 20
1.799204
 30
0.0
 11
1.98372
 21
1.801131
 31
0.0
  0
LINE
  8
0
  6
CONTINUOUS
 62
     7
  5
E16
 10
1.98372
 20
1.801131
 30
0.0
 11
1.982263
 21
1.803035
 31
0.0
  0
LINE
  8
0
  6
CONTINUOUS
 62
     7
  5
E17
 10
1.982263
 20
1.803035
 30
0.0
 11
1.980626
 21
1.804912
 31
0.0
  0
LINE
  8
0
  6
CONTINUOUS
 62
     7
  5
E18
 10
1.980626
 20
1.804912
 30
0.0
 11
1.978813
 21
1.80676
 31
0.0
  0
LINE
  8
0
  6
CONTINUOUS
 62
     7
  5
E19
 10
1.978813
 20
1.80676
 30
0.0
 11
1.976825
 21
1.808577
 31
0.0
  0
LINE
  8
0
  6
CONTINUOUS
 62
     7
  5
E1A
 10
1.976825
 20
1.808577
 30
0.0
 11
1.974667
 21
1.810357
 31
0.0
  0
LINE
  8
0
  6
CONTINUOUS
 62
     7
  5
E1B
 10
1.974667
 20
1.810357
 30
0.0
 11
1.972342
 21
1.8121
 31
0.0
  0
LINE
  8
0
  6
CONTINUOUS
 62
     7
  5
E1C
 10
1.972342
 20
1.8121
 30
0.0
 11
1.969854
 21
1.813802
 31
0.0
  0
LINE
  8
0
  6
CONTINUOUS
 62
     7
  5
E1D
 10
1.969854
 20
1.813802
 30
0.0
 11
1.967206
 21
1.815461
 31
0.0
  0
LINE
  8
0
  6
CONTINUOUS
 62
     7
  5
E1E
 10
1.967206
 20
1.815461
 30
0.0
 11
1.964403
 21
1.817074
 31
0.0
  0
LINE
  8
0
  6
CONTINUOUS
 62
     7
  5
E1F
 10
1.964403
 20
1.817074
 30
0.0
 11
1.961449
 21
1.818637
 31
0.0
  0
LINE
  8
0
  6
CONTINUOUS
 62
     7
  5
E20
 10
1.961449
 20
1.818637
 30
0.0
 11
1.958349
 21
1.82015
 31
0.0
  0
LINE
  8
0
  6
CONTINUOUS
 62
     7
  5
E21
 10
1.958349
 20
1.82015
 30
0.0
 11
1.955109
 21
1.821608
 31
0.0
  0
LINE
  8
0
  6
CONTINUOUS
 62
     7
  5
E22
 10
1.955109
 20
1.821608
 30
0.0
 11
1.951732
 21
1.823011
 31
0.0
  0
LINE
  8
0
  6
CONTINUOUS
 62
     7
  5
E23
 10
1.951732
 20
1.823011
 30
0.0
 11
1.948226
 21
1.824355
 31
0.0
  0
LINE
  8
0
  6
CONTINUOUS
 62
     7
  5
E24
 10
1.948226
 20
1.824355
 30
0.0
 11
1.944594
 21
1.825639
 31
0.0
  0
LINE
  8
0
  6
CONTINUOUS
 62
     7
  5
E25
 10
1.944594
 20
1.825639
 30
0.0
 11
1.940844
 21
1.82686
 31
0.0
  0
LINE
  8
0
  6
CONTINUOUS
 62
     7
  5
E26
 10
1.940844
 20
1.82686
 30
0.0
 11
1.936981
 21
1.828017
 31
0.0
  0
LINE
  8
0
  6
CONTINUOUS
 62
     7
  5
E27
 10
1.936981
 20
1.828017
 30
0.0
 11
1.933012
 21
1.829108
 31
0.0
  0
LINE
  8
0
  6
CONTINUOUS
 62
     7
  5
E28
 10
1.933012
 20
1.829108
 30
0.0
 11
1.928942
 21
1.83013
 31
0.0
  0
LINE
  8
0
  6
CONTINUOUS
 62
     7
  5
E29
 10
1.928942
 20
1.83013
 30
0.0
 11
1.924779
 21
1.831083
 31
0.0
  0
LINE
  8
0
  6
CONTINUOUS
 62
     7
  5
E2A
 10
1.924779
 20
1.831083
 30
0.0
 11
1.920528
 21
1.831964
 31
0.0
  0
LINE
  8
0
  6
CONTINUOUS
 62
     7
  5
E2B
 10
1.920528
 20
1.831964
 30
0.0
 11
1.916198
 21
1.832773
 31
0.0
  0
LINE
  8
0
  6
CONTINUOUS
 62
     7
  5
E2C
 10
1.916198
 20
1.832773
 30
0.0
 11
1.911794
 21
1.833507
 31
0.0
  0
LINE
  8
0
  6
CONTINUOUS
 62
     7
  5
E2D
 10
1.911794
 20
1.833507
 30
0.0
 11
1.907324
 21
1.834167
 31
0.0
  0
LINE
  8
0
  6
CONTINUOUS
 62
     7
  5
E2E
 10
1.907324
 20
1.834167
 30
0.0
 11
1.902795
 21
1.83475
 31
0.0
  0
LINE
  8
0
  6
CONTINUOUS
 62
     7
  5
E2F
 10
1.902795
 20
1.83475
 30
0.0
 11
1.898215
 21
1.835256
 31
0.0
  0
LINE
  8
0
  6
CONTINUOUS
 62
     7
  5
E30
 10
1.898215
 20
1.835256
 30
0.0
 11
1.89359
 21
1.835684
 31
0.0
  0
LINE
  8
0
  6
CONTINUOUS
 62
     7
  5
E31
 10
1.89359
 20
1.835684
 30
0.0
 11
1.888929
 21
1.836033
 31
0.0
  0
LINE
  8
0
  6
CONTINUOUS
 62
     7
  5
E32
 10
1.888929
 20
1.836033
 30
0.0
 11
1.884238
 21
1.836303
 31
0.0
  0
LINE
  8
0
  6
CONTINUOUS
 62
     7
  5
E33
 10
0.492126
 20
-1.149483
 30
0.0
 11
0.492043
 21
-1.153731
 31
0.0
  0
LINE
  8
0
  6
CONTINUOUS
 62
     7
  5
E34
 10
0.492043
 20
-1.153731
 30
0.0
 11
0.491793
 21
-1.157977
 31
0.0
  0
LINE
  8
0
  6
CONTINUOUS
 62
     7
  5
E35
 10
0.491793
 20
-1.157977
 30
0.0
 11
0.491378
 21
-1.16222
 31
0.0
  0
LINE
  8
0
  6
CONTINUOUS
 62
     7
  5
E36
 10
0.491378
 20
-1.16222
 30
0.0
 11
0.490796
 21
-1.166459
 31
0.0
  0
LINE
  8
0
  6
CONTINUOUS
 62
     7
  5
E37
 10
0.490796
 20
-1.166459
 30
0.0
 11
0.490048
 21
-1.170692
 31
0.0
  0
LINE
  8
0
  6
CONTINUOUS
 62
     7
  5
E38
 10
0.490048
 20
-1.170692
 30
0.0
 11
0.489135
 21
-1.174918
 31
0.0
  0
LINE
  8
0
  6
CONTINUOUS
 62
     7
  5
E39
 10
0.489135
 20
-1.174918
 30
0.0
 11
0.488056
 21
-1.179136
 31
0.0
  0
LINE
  8
0
  6
CONTINUOUS
 62
     7
  5
E3A
 10
0.488056
 20
-1.179136
 30
0.0
 11
0.486812
 21
-1.183343
 31
0.0
  0
LINE
  8
0
  6
CONTINUOUS
 62
     7
  5
E3B
 10
0.486812
 20
-1.183343
 30
0.0
 11
0.485404
 21
-1.187539
 31
0.0
  0
LINE
  8
0
  6
CONTINUOUS
 62
     7
  5
E3C
 10
0.485404
 20
-1.187539
 30
0.0
 11
0.483832
 21
-1.191722
 31
0.0
  0
LINE
  8
0
  6
CONTINUOUS
 62
     7
  5
E3D
 10
0.483832
 20
-1.191722
 30
0.0
 11
0.482096
 21
-1.195891
 31
0.0
  0
LINE
  8
0
  6
CONTINUOUS
 62
     7
  5
E3E
 10
0.482096
 20
-1.195891
 30
0.0
 11
0.480197
 21
-1.200044
 31
0.0
  0
LINE
  8
0
  6
CONTINUOUS
 62
     7
  5
E3F
 10
0.480197
 20
-1.200044
 30
0.0
 11
0.478136
 21
-1.20418
 31
0.0
  0
LINE
  8
0
  6
CONTINUOUS
 62
     7
  5
E40
 10
0.478136
 20
-1.20418
 30
0.0
 11
0.475913
 21
-1.208298
 31
0.0
  0
LINE
  8
0
  6
CONTINUOUS
 62
     7
  5
E41
 10
0.475913
 20
-1.208298
 30
0.0
 11
0.473529
 21
-1.212396
 31
0.0
  0
LINE
  8
0
  6
CONTINUOUS
 62
     7
  5
E42
 10
0.473529
 20
-1.212396
 30
0.0
 11
0.470986
 21
-1.216472
 31
0.0
  0
LINE
  8
0
  6
CONTINUOUS
 62
     7
  5
E43
 10
0.470986
 20
-1.216472
 30
0.0
 11
0.468283
 21
-1.220526
 31
0.0
  0
LINE
  8
0
  6
CONTINUOUS
 62
     7
  5
E44
 10
0.468283
 20
-1.220526
 30
0.0
 11
0.465421
 21
-1.224556
 31
0.0
  0
LINE
  8
0
  6
CONTINUOUS
 62
     7
  5
E45
 10
0.465421
 20
-1.224556
 30
0.0
 11
0.462403
 21
-1.22856
 31
0.0
  0
LINE
  8
0
  6
CONTINUOUS
 62
     7
  5
E46
 10
0.462403
 20
-1.22856
 30
0.0
 11
0.459228
 21
-1.232538
 31
0.0
  0
LINE
  8
0
  6
CONTINUOUS
 62
     7
  5
E47
 10
0.459228
 20
-1.232538
 30
0.0
 11
0.455898
 21
-1.236487
 31
0.0
  0
LINE
  8
0
  6
CONTINUOUS
 62
     7
  5
E48
 10
0.455898
 20
-1.236487
 30
0.0
 11
0.452414
 21
-1.240408
 31
0.0
  0
LINE
  8
0
  6
CONTINUOUS
 62
     7
  5
E49
 10
0.452414
 20
-1.240408
 30
0.0
 11
0.448777
 21
-1.244297
 31
0.0
  0
LINE
  8
0
  6
CONTINUOUS
 62
     7
  5
E4A
 10
0.448777
 20
-1.244297
 30
0.0
 11
0.444988
 21
-1.248155
 31
0.0
  0
LINE
  8
0
  6
CONTINUOUS
 62
     7
  5
E4B
 10
0.444988
 20
-1.248155
 30
0.0
 11
0.441049
 21
-1.251979
 31
0.0
  0
LINE
  8
0
  6
CONTINUOUS
 62
     7
  5
E4C
 10
0.441049
 20
-1.251979
 30
0.0
 11
0.43696
 21
-1.255768
 31
0.0
  0
LINE
  8
0
  6
CONTINUOUS
 62
     7
  5
E4D
 10
0.43696
 20
-1.255768
 30
0.0
 11
0.432724
 21
-1.259522
 31
0.0
  0
LINE
  8
0
  6
CONTINUOUS
 62
     7
  5
E4E
 10
0.432724
 20
-1.259522
 30
0.0
 11
0.428342
 21
-1.263238
 31
0.0
  0
LINE
  8
0
  6
CONTINUOUS
 62
     7
  5
E4F
 10
0.428342
 20
-1.263238
 30
0.0
 11
0.423815
 21
-1.266916
 31
0.0
  0
LINE
  8
0
  6
CONTINUOUS
 62
     7
  5
E50
 10
0.423815
 20
-1.266916
 30
0.0
 11
0.419144
 21
-1.270554
 31
0.0
  0
LINE
  8
0
  6
CONTINUOUS
 62
     7
  5
E51
 10
0.419144
 20
-1.270554
 30
0.0
 11
0.414332
 21
-1.274151
 31
0.0
  0
LINE
  8
0
  6
CONTINUOUS
 62
     7
  5
E52
 10
0.414332
 20
-1.274151
 30
0.0
 11
0.40938
 21
-1.277706
 31
0.0
  0
LINE
  8
0
  6
CONTINUOUS
 62
     7
  5
E53
 10
0.40938
 20
-1.277706
 30
0.0
 11
0.40429
 21
-1.281218
 31
0.0
  0
LINE
  8
0
  6
CONTINUOUS
 62
     7
  5
E54
 10
0.40429
 20
-1.281218
 30
0.0
 11
0.399063
 21
-1.284685
 31
0.0
  0
LINE
  8
0
  6
CONTINUOUS
 62
     7
  5
E55
 10
0.399063
 20
-1.284685
 30
0.0
 11
0.393701
 21
-1.288106
 31
0.0
  0
LINE
  8
0
  6
CONTINUOUS
 62
     7
  5
E56
 10
-0.492126
 20
-1.149483
 30
0.0
 11
-0.490145
 21
-1.128773
 31
0.0
  0
LINE
  8
0
  6
CONTINUOUS
 62
     7
  5
E57
 10
-0.490145
 20
-1.128773
 30
0.0
 11
-0.484217
 21
-1.108229
 31
0.0
  0
LINE
  8
0
  6
CONTINUOUS
 62
     7
  5
E58
 10
-0.484217
 20
-1.108229
 30
0.0
 11
-0.474391
 21
-1.088018
 31
0.0
  0
LINE
  8
0
  6
CONTINUOUS
 62
     7
  5
E59
 10
-0.474391
 20
-1.088018
 30
0.0
 11
-0.460746
 21
-1.068302
 31
0.0
  0
LINE
  8
0
  6
CONTINUOUS
 62
     7
  5
E5A
 10
-0.460746
 20
-1.068302
 30
0.0
 11
-0.44339
 21
-1.049239
 31
0.0
  0
LINE
  8
0
  6
CONTINUOUS
 62
     7
  5
E5B
 10
-0.44339
 20
-1.049239
 30
0.0
 11
-0.422465
 21
-1.030983
 31
0.0
  0
LINE
  8
0
  6
CONTINUOUS
 62
     7
  5
E5C
 10
-0.422465
 20
-1.030983
 30
0.0
 11
-0.398138
 21
-1.013682
 31
0.0
  0
LINE
  8
0
  6
CONTINUOUS
 62
     7
  5
E5D
 10
-0.398138
 20
-1.013682
 30
0.0
 11
-0.370606
 21
-0.997473
 31
0.0
  0
LINE
  8
0
  6
CONTINUOUS
 62
     7
  5
E5E
 10
-0.370606
 20
-0.997473
 30
0.0
 11
-0.34009
 21
-0.982489
 31
0.0
  0
LINE
  8
0
  6
CONTINUOUS
 62
     7
  5
E5F
 10
-0.34009
 20
-0.982489
 30
0.0
 11
-0.306836
 21
-0.968849
 31
0.0
  0
LINE
  8
0
  6
CONTINUOUS
 62
     7
  5
E60
 10
-0.306836
 20
-0.968849
 30
0.0
 11
-0.271111
 21
-0.956664
 31
0.0
  0
LINE
  8
0
  6
CONTINUOUS
 62
     7
  5
E61
 10
-0.271111
 20
-0.956664
 30
0.0
 11
-0.233203
 21
-0.946031
 31
0.0
  0
LINE
  8
0
  6
CONTINUOUS
 62
     7
  5
E62
 10
-0.233203
 20
-0.946031
 30
0.0
 11
-0.193418
 21
-0.937036
 31
0.0
  0
LINE
  8
0
  6
CONTINUOUS
 62
     7
  5
E63
 10
-0.193418
 20
-0.937036
 30
0.0
 11
-0.152075
 21
-0.929752
 31
0.0
  0
LINE
  8
0
  6
CONTINUOUS
 62
     7
  5
E64
 10
-0.152075
 20
-0.929752
 30
0.0
 11
-0.109508
 21
-0.924236
 31
0.0
  0
LINE
  8
0
  6
CONTINUOUS
 62
     7
  5
E65
 10
-0.109508
 20
-0.924236
 30
0.0
 11
-0.06606
 21
-0.920535
 31
0.0
  0
LINE
  8
0
  6
CONTINUOUS
 62
     7
  5
E66
 10
-0.06606
 20
-0.920535
 30
0.0
 11
-0.022079
 21
-0.918676
 31
0.0
  0
LINE
  8
0
  6
CONTINUOUS
 62
     7
  5
E67
 10
-0.022079
 20
-0.918676
 30
0.0
 11
0.022079
 21
-0.918676
 31
0.0
  0
LINE
  8
0
  6
CONTINUOUS
 62
     7
  5
E68
 10
0.022079
 20
-0.918676
 30
0.0
 11
0.06606
 21
-0.920535
 31
0.0
  0
LINE
  8
0
  6
CONTINUOUS
 62
     7
  5
E69
 10
0.06606
 20
-0.920535
 30
0.0
 11
0.109508
 21
-0.924236
 31
0.0
  0
LINE
  8
0
  6
CONTINUOUS
 62
     7
  5
E6A
 10
0.109508
 20
-0.924236
 30
0.0
 11
0.152075
 21
-0.929752
 31
0.0
  0
LINE
  8
0
  6
CONTINUOUS
 62
     7
  5
E6B
 10
0.152075
 20
-0.929752
 30
0.0
 11
0.193418
 21
-0.937036
 31
0.0
  0
LINE
  8
0
  6
CONTINUOUS
 62
     7
  5
E6C
 10
0.193418
 20
-0.937036
 30
0.0
 11
0.233203
 21
-0.946031
 31
0.0
  0
LINE
  8
0
  6
CONTINUOUS
 62
     7
  5
E6D
 10
0.233203
 20
-0.946031
 30
0.0
 11
0.271111
 21
-0.956664
 31
0.0
  0
LINE
  8
0
  6
CONTINUOUS
 62
     7
  5
E6E
 10
0.271111
 20
-0.956664
 30
0.0
 11
0.306836
 21
-0.968849
 31
0.0
  0
LINE
  8
0
  6
CONTINUOUS
 62
     7
  5
E6F
 10
0.306836
 20
-0.968849
 30
0.0
 11
0.34009
 21
-0.982489
 31
0.0
  0
LINE
  8
0
  6
CONTINUOUS
 62
     7
  5
E70
 10
0.34009
 20
-0.982489
 30
0.0
 11
0.370606
 21
-0.997473
 31
0.0
  0
LINE
  8
0
  6
CONTINUOUS
 62
     7
  5
E71
 10
0.370606
 20
-0.997473
 30
0.0
 11
0.398138
 21
-1.013682
 31
0.0
  0
LINE
  8
0
  6
CONTINUOUS
 62
     7
  5
E72
 10
0.398138
 20
-1.013682
 30
0.0
 11
0.422465
 21
-1.030983
 31
0.0
  0
LINE
  8
0
  6
CONTINUOUS
 62
     7
  5
E73
 10
0.422465
 20
-1.030983
 30
0.0
 11
0.44339
 21
-1.049239
 31
0.0
  0
LINE
  8
0
  6
CONTINUOUS
 62
     7
  5
E74
 10
0.44339
 20
-1.049239
 30
0.0
 11
0.460746
 21
-1.068302
 31
0.0
  0
LINE
  8
0
  6
CONTINUOUS
 62
     7
  5
E75
 10
0.460746
 20
-1.068302
 30
0.0
 11
0.474391
 21
-1.088018
 31
0.0
  0
LINE
  8
0
  6
CONTINUOUS
 62
     7
  5
E76
 10
0.474391
 20
-1.088018
 30
0.0
 11
0.484217
 21
-1.108229
 31
0.0
  0
LINE
  8
0
  6
CONTINUOUS
 62
     7
  5
E77
 10
0.484217
 20
-1.108229
 30
0.0
 11
0.490145
 21
-1.128773
 31
0.0
  0
LINE
  8
0
  6
CONTINUOUS
 62
     7
  5
E78
 10
0.490145
 20
-1.128773
 30
0.0
 11
0.492126
 21
-1.149483
 31
0.0
  0
LINE
  8
0
  6
CONTINUOUS
 62
     7
  5
E79
 10
-0.393701
 20
-1.288106
 30
0.0
 11
-0.399063
 21
-1.284685
 31
0.0
  0
LINE
  8
0
  6
CONTINUOUS
 62
     7
  5
E7A
 10
-0.399063
 20
-1.284685
 30
0.0
 11
-0.40429
 21
-1.281218
 31
0.0
  0
LINE
  8
0
  6
CONTINUOUS
 62
     7
  5
E7B
 10
-0.40429
 20
-1.281218
 30
0.0
 11
-0.40938
 21
-1.277706
 31
0.0
  0
LINE
  8
0
  6
CONTINUOUS
 62
     7
  5
E7C
 10
-0.40938
 20
-1.277706
 30
0.0
 11
-0.414332
 21
-1.274151
 31
0.0
  0
LINE
  8
0
  6
CONTINUOUS
 62
     7
  5
E7D
 10
-0.414332
 20
-1.274151
 30
0.0
 11
-0.419144
 21
-1.270554
 31
0.0
  0
LINE
  8
0
  6
CONTINUOUS
 62
     7
  5
E7E
 10
-0.419144
 20
-1.270554
 30
0.0
 11
-0.423815
 21
-1.266916
 31
0.0
  0
LINE
  8
0
  6
CONTINUOUS
 62
     7
  5
E7F
 10
-0.423815
 20
-1.266916
 30
0.0
 11
-0.428342
 21
-1.263238
 31
0.0
  0
LINE
  8
0
  6
CONTINUOUS
 62
     7
  5
E80
 10
-0.428342
 20
-1.263238
 30
0.0
 11
-0.432724
 21
-1.259522
 31
0.0
  0
LINE
  8
0
  6
CONTINUOUS
 62
     7
  5
E81
 10
-0.432724
 20
-1.259522
 30
0.0
 11
-0.43696
 21
-1.255768
 31
0.0
  0
LINE
  8
0
  6
CONTINUOUS
 62
     7
  5
E82
 10
-0.43696
 20
-1.255768
 30
0.0
 11
-0.441049
 21
-1.251979
 31
0.0
  0
LINE
  8
0
  6
CONTINUOUS
 62
     7
  5
E83
 10
-0.441049
 20
-1.251979
 30
0.0
 11
-0.444988
 21
-1.248155
 31
0.0
  0
LINE
  8
0
  6
CONTINUOUS
 62
     7
  5
E84
 10
-0.444988
 20
-1.248155
 30
0.0
 11
-0.448777
 21
-1.244297
 31
0.0
  0
LINE
  8
0
  6
CONTINUOUS
 62
     7
  5
E85
 10
-0.448777
 20
-1.244297
 30
0.0
 11
-0.452414
 21
-1.240408
 31
0.0
  0
LINE
  8
0
  6
CONTINUOUS
 62
     7
  5
E86
 10
-0.452414
 20
-1.240408
 30
0.0
 11
-0.455898
 21
-1.236487
 31
0.0
  0
LINE
  8
0
  6
CONTINUOUS
 62
     7
  5
E87
 10
-0.455898
 20
-1.236487
 30
0.0
 11
-0.459228
 21
-1.232538
 31
0.0
  0
LINE
  8
0
  6
CONTINUOUS
 62
     7
  5
E88
 10
-0.459228
 20
-1.232538
 30
0.0
 11
-0.462403
 21
-1.22856
 31
0.0
  0
LINE
  8
0
  6
CONTINUOUS
 62
     7
  5
E89
 10
-0.462403
 20
-1.22856
 30
0.0
 11
-0.465421
 21
-1.224556
 31
0.0
  0
LINE
  8
0
  6
CONTINUOUS
 62
     7
  5
E8A
 10
-0.465421
 20
-1.224556
 30
0.0
 11
-0.468283
 21
-1.220526
 31
0.0
  0
LINE
  8
0
  6
CONTINUOUS
 62
     7
  5
E8B
 10
-0.468283
 20
-1.220526
 30
0.0
 11
-0.470986
 21
-1.216472
 31
0.0
  0
LINE
  8
0
  6
CONTINUOUS
 62
     7
  5
E8C
 10
-0.470986
 20
-1.216472
 30
0.0
 11
-0.473529
 21
-1.212396
 31
0.0
  0
LINE
  8
0
  6
CONTINUOUS
 62
     7
  5
E8D
 10
-0.473529
 20
-1.212396
 30
0.0
 11
-0.475913
 21
-1.208298
 31
0.0
  0
LINE
  8
0
  6
CONTINUOUS
 62
     7
  5
E8E
 10
-0.475913
 20
-1.208298
 30
0.0
 11
-0.478136
 21
-1.20418
 31
0.0
  0
LINE
  8
0
  6
CONTINUOUS
 62
     7
  5
E8F
 10
-0.478136
 20
-1.20418
 30
0.0
 11
-0.480197
 21
-1.200044
 31
0.0
  0
LINE
  8
0
  6
CONTINUOUS
 62
     7
  5
E90
 10
-0.480197
 20
-1.200044
 30
0.0
 11
-0.482096
 21
-1.195891
 31
0.0
  0
LINE
  8
0
  6
CONTINUOUS
 62
     7
  5
E91
 10
-0.482096
 20
-1.195891
 30
0.0
 11
-0.483832
 21
-1.191722
 31
0.0
  0
LINE
  8
0
  6
CONTINUOUS
 62
     7
  5
E92
 10
-0.483832
 20
-1.191722
 30
0.0
 11
-0.485404
 21
-1.187539
 31
0.0
  0
LINE
  8
0
  6
CONTINUOUS
 62
     7
  5
E93
 10
-0.485404
 20
-1.187539
 30
0.0
 11
-0.486812
 21
-1.183343
 31
0.0
  0
LINE
  8
0
  6
CONTINUOUS
 62
     7
  5
E94
 10
-0.486812
 20
-1.183343
 30
0.0
 11
-0.488056
 21
-1.179136
 31
0.0
  0
LINE
  8
0
  6
CONTINUOUS
 62
     7
  5
E95
 10
-0.488056
 20
-1.179136
 30
0.0
 11
-0.489135
 21
-1.174918
 31
0.0
  0
LINE
  8
0
  6
CONTINUOUS
 62
     7
  5
E96
 10
-0.489135
 20
-1.174918
 30
0.0
 11
-0.490048
 21
-1.170692
 31
0.0
  0
LINE
  8
0
  6
CONTINUOUS
 62
     7
  5
E97
 10
-0.490048
 20
-1.170692
 30
0.0
 11
-0.490796
 21
-1.166459
 31
0.0
  0
LINE
  8
0
  6
CONTINUOUS
 62
     7
  5
E98
 10
-0.490796
 20
-1.166459
 30
0.0
 11
-0.491378
 21
-1.16222
 31
0.0
  0
LINE
  8
0
  6
CONTINUOUS
 62
     7
  5
E99
 10
-0.491378
 20
-1.16222
 30
0.0
 11
-0.491793
 21
-1.157977
 31
0.0
  0
LINE
  8
0
  6
CONTINUOUS
 62
     7
  5
E9A
 10
-0.491793
 20
-1.157977
 30
0.0
 11
-0.492043
 21
-1.153731
 31
0.0
  0
LINE
  8
0
  6
CONTINUOUS
 62
     7
  5
E9B
 10
-0.492043
 20
-1.153731
 30
0.0
 11
-0.492126
 21
-1.149483
 31
0.0
  0
LINE
  8
0
  6
CONTINUOUS
 62
     7
  5
E9C
 10
0.393701
 20
-2.41536
 30
0.0
 11
0.393701
 21
-1.288106
 31
0.0
  0
LINE
  8
0
  6
CONTINUOUS
 62
     7
  5
E9D
 10
0.393701
 20
-2.470955
 30
0.0
 11
0.393701
 21
-2.41536
 31
0.0
  0
LINE
  8
0
  6
CONTINUOUS
 62
     7
  5
E9E
 10
0.393701
 20
-2.860264
 30
0.0
 11
0.393701
 21
-2.470955
 31
0.0
  0
LINE
  8
0
  6
CONTINUOUS
 62
     7
  5
E9F
 10
0.393701
 20
-2.874163
 30
0.0
 11
0.393701
 21
-2.860264
 31
0.0
  0
LINE
  8
0
  6
CONTINUOUS
 62
     7
  5
EA0
 10
0.393701
 20
-3.741045
 30
0.0
 11
0.393701
 21
-2.874163
 31
0.0
  0
LINE
  8
0
  6
CONTINUOUS
 62
     7
  5
EA1
 10
-0.393701
 20
-1.288106
 30
0.0
 11
-0.393701
 21
-2.41536
 31
0.0
  0
LINE
  8
0
  6
CONTINUOUS
 62
     7
  5
EA2
 10
-0.479842
 20
-2.069825
 30
0.0
 11
-0.478497
 21
-2.072522
 31
0.0
  0
LINE
  8
0
  6
CONTINUOUS
 62
     7
  5
EA3
 10
-0.478497
 20
-2.072522
 30
0.0
 11
-0.477084
 21
-2.075211
 31
0.0
  0
LINE
  8
0
  6
CONTINUOUS
 62
     7
  5
EA4
 10
-0.477084
 20
-2.075211
 30
0.0
 11
-0.475602
 21
-2.077892
 31
0.0
  0
LINE
  8
0
  6
CONTINUOUS
 62
     7
  5
EA5
 10
-0.475602
 20
-2.077892
 30
0.0
 11
-0.474052
 21
-2.080564
 31
0.0
  0
LINE
  8
0
  6
CONTINUOUS
 62
     7
  5
EA6
 10
-0.474052
 20
-2.080564
 30
0.0
 11
-0.472434
 21
-2.083228
 31
0.0
  0
LINE
  8
0
  6
CONTINUOUS
 62
     7
  5
EA7
 10
-0.472434
 20
-2.083228
 30
0.0
 11
-0.470748
 21
-2.085882
 31
0.0
  0
LINE
  8
0
  6
CONTINUOUS
 62
     7
  5
EA8
 10
-0.470748
 20
-2.085882
 30
0.0
 11
-0.468994
 21
-2.088527
 31
0.0
  0
LINE
  8
0
  6
CONTINUOUS
 62
     7
  5
EA9
 10
-0.468994
 20
-2.088527
 30
0.0
 11
-0.467173
 21
-2.091161
 31
0.0
  0
LINE
  8
0
  6
CONTINUOUS
 62
     7
  5
EAA
 10
-0.467173
 20
-2.091161
 30
0.0
 11
-0.465284
 21
-2.093785
 31
0.0
  0
LINE
  8
0
  6
CONTINUOUS
 62
     7
  5
EAB
 10
-0.465284
 20
-2.093785
 30
0.0
 11
-0.463329
 21
-2.096399
 31
0.0
  0
LINE
  8
0
  6
CONTINUOUS
 62
     7
  5
EAC
 10
-0.463329
 20
-2.096399
 30
0.0
 11
-0.461307
 21
-2.099001
 31
0.0
  0
LINE
  8
0
  6
CONTINUOUS
 62
     7
  5
EAD
 10
-0.461307
 20
-2.099001
 30
0.0
 11
-0.459219
 21
-2.101591
 31
0.0
  0
LINE
  8
0
  6
CONTINUOUS
 62
     7
  5
EAE
 10
-0.459219
 20
-2.101591
 30
0.0
 11
-0.457065
 21
-2.10417
 31
0.0
  0
LINE
  8
0
  6
CONTINUOUS
 62
     7
  5
EAF
 10
-0.457065
 20
-2.10417
 30
0.0
 11
-0.454845
 21
-2.106736
 31
0.0
  0
LINE
  8
0
  6
CONTINUOUS
 62
     7
  5
EB0
 10
-0.454845
 20
-2.106736
 30
0.0
 11
-0.45256
 21
-2.10929
 31
0.0
  0
LINE
  8
0
  6
CONTINUOUS
 62
     7
  5
EB1
 10
-0.45256
 20
-2.10929
 30
0.0
 11
-0.45021
 21
-2.11183
 31
0.0
  0
LINE
  8
0
  6
CONTINUOUS
 62
     7
  5
EB2
 10
-0.45021
 20
-2.11183
 30
0.0
 11
-0.447795
 21
-2.114358
 31
0.0
  0
LINE
  8
0
  6
CONTINUOUS
 62
     7
  5
EB3
 10
-0.447795
 20
-2.114358
 30
0.0
 11
-0.445316
 21
-2.116871
 31
0.0
  0
LINE
  8
0
  6
CONTINUOUS
 62
     7
  5
EB4
 10
-0.445316
 20
-2.116871
 30
0.0
 11
-0.442772
 21
-2.11937
 31
0.0
  0
LINE
  8
0
  6
CONTINUOUS
 62
     7
  5
EB5
 10
-0.442772
 20
-2.11937
 30
0.0
 11
-0.440165
 21
-2.121855
 31
0.0
  0
LINE
  8
0
  6
CONTINUOUS
 62
     7
  5
EB6
 10
-0.440165
 20
-2.121855
 30
0.0
 11
-0.437495
 21
-2.124325
 31
0.0
  0
LINE
  8
0
  6
CONTINUOUS
 62
     7
  5
EB7
 10
-0.437495
 20
-2.124325
 30
0.0
 11
-0.434762
 21
-2.126779
 31
0.0
  0
LINE
  8
0
  6
CONTINUOUS
 62
     7
  5
EB8
 10
-0.434762
 20
-2.126779
 30
0.0
 11
-0.431967
 21
-2.129219
 31
0.0
  0
LINE
  8
0
  6
CONTINUOUS
 62
     7
  5
EB9
 10
-0.431967
 20
-2.129219
 30
0.0
 11
-0.429109
 21
-2.131642
 31
0.0
  0
LINE
  8
0
  6
CONTINUOUS
 62
     7
  5
EBA
 10
-0.429109
 20
-2.131642
 30
0.0
 11
-0.42619
 21
-2.134049
 31
0.0
  0
LINE
  8
0
  6
CONTINUOUS
 62
     7
  5
EBB
 10
-0.42619
 20
-2.134049
 30
0.0
 11
-0.423209
 21
-2.136439
 31
0.0
  0
LINE
  8
0
  6
CONTINUOUS
 62
     7
  5
EBC
 10
-0.423209
 20
-2.136439
 30
0.0
 11
-0.420168
 21
-2.138813
 31
0.0
  0
LINE
  8
0
  6
CONTINUOUS
 62
     7
  5
EBD
 10
-0.420168
 20
-2.138813
 30
0.0
 11
-0.417066
 21
-2.141169
 31
0.0
  0
LINE
  8
0
  6
CONTINUOUS
 62
     7
  5
EBE
 10
-0.417066
 20
-2.141169
 30
0.0
 11
-0.413904
 21
-2.143507
 31
0.0
  0
LINE
  8
0
  6
CONTINUOUS
 62
     7
  5
EBF
 10
-0.413904
 20
-2.143507
 30
0.0
 11
-0.410683
 21
-2.145828
 31
0.0
  0
LINE
  8
0
  6
CONTINUOUS
 62
     7
  5
EC0
 10
-0.410683
 20
-2.145828
 30
0.0
 11
-0.407402
 21
-2.14813
 31
0.0
  0
LINE
  8
0
  6
CONTINUOUS
 62
     7
  5
EC1
 10
-0.407402
 20
-2.14813
 30
0.0
 11
-0.404064
 21
-2.150414
 31
0.0
  0
LINE
  8
0
  6
CONTINUOUS
 62
     7
  5
EC2
 10
-0.404064
 20
-2.150414
 30
0.0
 11
-0.400667
 21
-2.152678
 31
0.0
  0
LINE
  8
0
  6
CONTINUOUS
 62
     7
  5
EC3
 10
-0.400667
 20
-2.152678
 30
0.0
 11
-0.397212
 21
-2.154924
 31
0.0
  0
LINE
  8
0
  6
CONTINUOUS
 62
     7
  5
EC4
 10
-0.397212
 20
-2.154924
 30
0.0
 11
-0.393701
 21
-2.157149
 31
0.0
  0
LINE
  8
0
  6
CONTINUOUS
 62
     7
  5
EC5
 10
0.393701
 20
-2.157149
 30
0.0
 11
0.397212
 21
-2.154924
 31
0.0
  0
LINE
  8
0
  6
CONTINUOUS
 62
     7
  5
EC6
 10
0.397212
 20
-2.154924
 30
0.0
 11
0.400667
 21
-2.152678
 31
0.0
  0
LINE
  8
0
  6
CONTINUOUS
 62
     7
  5
EC7
 10
0.400667
 20
-2.152678
 30
0.0
 11
0.404064
 21
-2.150414
 31
0.0
  0
LINE
  8
0
  6
CONTINUOUS
 62
     7
  5
EC8
 10
0.404064
 20
-2.150414
 30
0.0
 11
0.407402
 21
-2.14813
 31
0.0
  0
LINE
  8
0
  6
CONTINUOUS
 62
     7
  5
EC9
 10
0.407402
 20
-2.14813
 30
0.0
 11
0.410683
 21
-2.145828
 31
0.0
  0
LINE
  8
0
  6
CONTINUOUS
 62
     7
  5
ECA
 10
0.410683
 20
-2.145828
 30
0.0
 11
0.413904
 21
-2.143507
 31
0.0
  0
LINE
  8
0
  6
CONTINUOUS
 62
     7
  5
ECB
 10
0.413904
 20
-2.143507
 30
0.0
 11
0.417066
 21
-2.141169
 31
0.0
  0
LINE
  8
0
  6
CONTINUOUS
 62
     7
  5
ECC
 10
0.417066
 20
-2.141169
 30
0.0
 11
0.420168
 21
-2.138813
 31
0.0
  0
LINE
  8
0
  6
CONTINUOUS
 62
     7
  5
ECD
 10
0.420168
 20
-2.138813
 30
0.0
 11
0.423209
 21
-2.136439
 31
0.0
  0
LINE
  8
0
  6
CONTINUOUS
 62
     7
  5
ECE
 10
0.423209
 20
-2.136439
 30
0.0
 11
0.42619
 21
-2.134049
 31
0.0
  0
LINE
  8
0
  6
CONTINUOUS
 62
     7
  5
ECF
 10
0.42619
 20
-2.134049
 30
0.0
 11
0.429109
 21
-2.131642
 31
0.0
  0
LINE
  8
0
  6
CONTINUOUS
 62
     7
  5
ED0
 10
0.429109
 20
-2.131642
 30
0.0
 11
0.431967
 21
-2.129219
 31
0.0
  0
LINE
  8
0
  6
CONTINUOUS
 62
     7
  5
ED1
 10
0.431967
 20
-2.129219
 30
0.0
 11
0.434762
 21
-2.126779
 31
0.0
  0
LINE
  8
0
  6
CONTINUOUS
 62
     7
  5
ED2
 10
0.434762
 20
-2.126779
 30
0.0
 11
0.437495
 21
-2.124325
 31
0.0
  0
LINE
  8
0
  6
CONTINUOUS
 62
     7
  5
ED3
 10
0.437495
 20
-2.124325
 30
0.0
 11
0.440165
 21
-2.121855
 31
0.0
  0
LINE
  8
0
  6
CONTINUOUS
 62
     7
  5
ED4
 10
0.440165
 20
-2.121855
 30
0.0
 11
0.442772
 21
-2.11937
 31
0.0
  0
LINE
  8
0
  6
CONTINUOUS
 62
     7
  5
ED5
 10
0.442772
 20
-2.11937
 30
0.0
 11
0.445316
 21
-2.116871
 31
0.0
  0
LINE
  8
0
  6
CONTINUOUS
 62
     7
  5
ED6
 10
0.445316
 20
-2.116871
 30
0.0
 11
0.447795
 21
-2.114358
 31
0.0
  0
LINE
  8
0
  6
CONTINUOUS
 62
     7
  5
ED7
 10
0.447795
 20
-2.114358
 30
0.0
 11
0.45021
 21
-2.11183
 31
0.0
  0
LINE
  8
0
  6
CONTINUOUS
 62
     7
  5
ED8
 10
0.45021
 20
-2.11183
 30
0.0
 11
0.45256
 21
-2.10929
 31
0.0
  0
LINE
  8
0
  6
CONTINUOUS
 62
     7
  5
ED9
 10
0.45256
 20
-2.10929
 30
0.0
 11
0.454845
 21
-2.106736
 31
0.0
  0
LINE
  8
0
  6
CONTINUOUS
 62
     7
  5
EDA
 10
0.454845
 20
-2.106736
 30
0.0
 11
0.457065
 21
-2.10417
 31
0.0
  0
LINE
  8
0
  6
CONTINUOUS
 62
     7
  5
EDB
 10
0.457065
 20
-2.10417
 30
0.0
 11
0.459219
 21
-2.101591
 31
0.0
  0
LINE
  8
0
  6
CONTINUOUS
 62
     7
  5
EDC
 10
0.459219
 20
-2.101591
 30
0.0
 11
0.461307
 21
-2.099001
 31
0.0
  0
LINE
  8
0
  6
CONTINUOUS
 62
     7
  5
EDD
 10
0.461307
 20
-2.099001
 30
0.0
 11
0.463329
 21
-2.096399
 31
0.0
  0
LINE
  8
0
  6
CONTINUOUS
 62
     7
  5
EDE
 10
0.463329
 20
-2.096399
 30
0.0
 11
0.465284
 21
-2.093785
 31
0.0
  0
LINE
  8
0
  6
CONTINUOUS
 62
     7
  5
EDF
 10
0.465284
 20
-2.093785
 30
0.0
 11
0.467173
 21
-2.091161
 31
0.0
  0
LINE
  8
0
  6
CONTINUOUS
 62
     7
  5
EE0
 10
0.467173
 20
-2.091161
 30
0.0
 11
0.468994
 21
-2.088527
 31
0.0
  0
LINE
  8
0
  6
CONTINUOUS
 62
     7
  5
EE1
 10
0.468994
 20
-2.088527
 30
0.0
 11
0.470748
 21
-2.085882
 31
0.0
  0
LINE
  8
0
  6
CONTINUOUS
 62
     7
  5
EE2
 10
0.470748
 20
-2.085882
 30
0.0
 11
0.472434
 21
-2.083228
 31
0.0
  0
LINE
  8
0
  6
CONTINUOUS
 62
     7
  5
EE3
 10
0.472434
 20
-2.083228
 30
0.0
 11
0.474052
 21
-2.080564
 31
0.0
  0
LINE
  8
0
  6
CONTINUOUS
 62
     7
  5
EE4
 10
0.474052
 20
-2.080564
 30
0.0
 11
0.475602
 21
-2.077892
 31
0.0
  0
LINE
  8
0
  6
CONTINUOUS
 62
     7
  5
EE5
 10
0.475602
 20
-2.077892
 30
0.0
 11
0.477084
 21
-2.075211
 31
0.0
  0
LINE
  8
0
  6
CONTINUOUS
 62
     7
  5
EE6
 10
0.477084
 20
-2.075211
 30
0.0
 11
0.478497
 21
-2.072522
 31
0.0
  0
LINE
  8
0
  6
CONTINUOUS
 62
     7
  5
EE7
 10
0.478497
 20
-2.072522
 30
0.0
 11
0.479842
 21
-2.069825
 31
0.0
  0
LINE
  8
0
  6
CONTINUOUS
 62
     7
  5
EE8
 10
-0.393701
 20
-2.874163
 30
0.0
 11
-0.393701
 21
-3.741045
 31
0.0
  0
LINE
  8
0
  6
CONTINUOUS
 62
     7
  5
EE9
 10
-0.393701
 20
-2.860264
 30
0.0
 11
-0.393701
 21
-2.874163
 31
0.0
  0
LINE
  8
0
  6
CONTINUOUS
 62
     7
  5
EEA
 10
-0.393701
 20
-2.470955
 30
0.0
 11
-0.393701
 21
-2.860264
 31
0.0
  0
LINE
  8
0
  6
CONTINUOUS
 62
     7
  5
EEB
 10
-0.393701
 20
-2.41536
 30
0.0
 11
-0.393701
 21
-2.470955
 31
0.0
  0
LINE
  8
0
  6
CONTINUOUS
 62
     7
  5
EEC
 10
-0.688976
 20
-3.819292
 30
0.0
 11
-0.688976
 21
-4.554345
 31
0.0
  0
LINE
  8
0
  6
CONTINUOUS
 62
     7
  5
EED
 10
-0.688976
 20
-4.554345
 30
0.0
 11
-0.688976
 21
-4.819724
 31
0.0
  0
LINE
  8
0
  6
CONTINUOUS
 62
     7
  5
EEE
 10
0.688976
 20
-4.819724
 30
0.0
 11
0.688976
 21
-4.554345
 31
0.0
  0
LINE
  8
0
  6
CONTINUOUS
 62
     7
  5
EEF
 10
0.688976
 20
-4.554345
 30
0.0
 11
0.688976
 21
-3.819292
 31
0.0
  0
LINE
  8
0
  6
CONTINUOUS
 62
     7
  5
EF0
 10
-2.043049
 20
-1.453524
 30
0.0
 11
-2.063894
 21
-0.606326
 31
0.0
  0
LINE
  8
0
  6
CONTINUOUS
 62
     7
  5
EF1
 10
-6.688976
 20
5.333465
 30
0.0
 11
-7.074091
 21
4.783465
 31
0.0
  0
LINE
  8
0
  6
CONTINUOUS
 62
     7
  5
EF2
 10
-7.074091
 20
4.783465
 30
0.0
 11
-7.122047
 21
4.783465
 31
0.0
  0
LINE
  8
0
  6
CONTINUOUS
 62
     7
  5
EF3
 10
-7.122047
 20
4.783465
 30
0.0
 11
-7.122047
 21
-1.956693
 31
0.0
  0
LINE
  8
0
  6
CONTINUOUS
 62
     7
  5
EF4
 10
6.688976
 20
5.783465
 30
0.0
 11
-6.688976
 21
5.783465
 31
0.0
  0
LINE
  8
0
  6
CONTINUOUS
 62
     7
  5
EF5
 10
6.688976
 20
-2.506693
 30
0.0
 11
7.074091
 21
-1.956693
 31
0.0
  0
LINE
  8
0
  6
CONTINUOUS
 62
     7
  5
EF6
 10
7.074091
 20
-1.956693
 30
0.0
 11
7.122047
 21
-1.956693
 31
0.0
  0
LINE
  8
0
  6
CONTINUOUS
 62
     7
  5
EF7
 10
7.122047
 20
-1.956693
 30
0.0
 11
7.122047
 21
4.783465
 31
0.0
  0
LINE
  8
0
  6
CONTINUOUS
 62
     7
  5
EF8
 10
0.393701
 20
-2.956693
 30
0.0
 11
6.688976
 21
-2.956693
 31
0.0
  0
LINE
  8
0
  6
CONTINUOUS
 62
     7
  5
EF9
 10
-6.688976
 20
-2.956693
 30
0.0
 11
-0.393701
 21
-2.956693
 31
0.0
  0
LINE
  8
0
  6
CONTINUOUS
 62
     7
  5
EFA
 10
7.122047
 20
4.783465
 30
0.0
 11
7.074091
 21
4.783465
 31
0.0
  0
LINE
  8
0
  6
CONTINUOUS
 62
     7
  5
EFB
 10
7.074091
 20
4.783465
 30
0.0
 11
6.688976
 21
5.333465
 31
0.0
  0
LINE
  8
0
  6
CONTINUOUS
 62
     7
  5
EFC
 10
-7.122047
 20
-1.956693
 30
0.0
 11
-7.074091
 21
-1.956693
 31
0.0
  0
LINE
  8
0
  6
CONTINUOUS
 62
     7
  5
EFD
 10
-7.074091
 20
-1.956693
 30
0.0
 11
-6.688976
 21
-2.506693
 31
0.0
  0
LINE
  8
0
  6
CONTINUOUS
 62
     7
  5
EFE
 10
6.688976
 20
5.547244
 30
0.0
 11
6.688976
 21
5.783465
 31
0.0
  0
LINE
  8
0
  6
CONTINUOUS
 62
     7
  5
EFF
 10
6.688976
 20
-2.720472
 30
0.0
 11
6.688976
 21
5.547244
 31
0.0
  0
LINE
  8
0
  6
CONTINUOUS
 62
     7
  5
F00
 10
6.688976
 20
-2.956693
 30
0.0
 11
6.688976
 21
-2.720472
 31
0.0
  0
LINE
  8
0
  6
CONTINUOUS
 62
     7
  5
F01
 10
-6.688976
 20
-2.720472
 30
0.0
 11
-6.688976
 21
-2.956693
 31
0.0
  0
LINE
  8
0
  6
CONTINUOUS
 62
     7
  5
F02
 10
-6.688976
 20
5.783465
 30
0.0
 11
-6.688976
 21
5.547244
 31
0.0
  0
LINE
  8
0
  6
CONTINUOUS
 62
     7
  5
F03
 10
6.688976
 20
5.547244
 30
0.0
 11
-6.688976
 21
5.547244
 31
0.0
  0
LINE
  8
0
  6
CONTINUOUS
 62
     7
  5
F04
 10
-6.688976
 20
5.547244
 30
0.0
 11
-6.688976
 21
-2.720472
 31
0.0
  0
LINE
  8
0
  6
CONTINUOUS
 62
     7
  5
F05
 10
0.393701
 20
-2.720472
 30
0.0
 11
6.688976
 21
-2.720472
 31
0.0
  0
LINE
  8
0
  6
CONTINUOUS
 62
     7
  5
F06
 10
-6.688976
 20
-2.720472
 30
0.0
 11
-0.393701
 21
-2.720472
 31
0.0
  0
LINE
  8
0
  6
CONTINUOUS
 62
     7
  5
F07
 10
6.417323
 20
-2.425197
 30
0.0
 11
6.417323
 21
5.251969
 31
0.0
  0
LINE
  8
0
  6
CONTINUOUS
 62
     7
  5
F08
 10
6.417323
 20
5.251969
 30
0.0
 11
-6.417323
 21
5.251969
 31
0.0
  0
LINE
  8
0
  6
CONTINUOUS
 62
     7
  5
F09
 10
-6.417323
 20
5.251969
 30
0.0
 11
-6.417323
 21
-2.425197
 31
0.0
  0
LINE
  8
0
  6
CONTINUOUS
 62
     7
  5
F0A
 10
0.393701
 20
-2.425197
 30
0.0
 11
6.417323
 21
-2.425197
 31
0.0
  0
LINE
  8
0
  6
CONTINUOUS
 62
     7
  5
F0B
 10
-6.417323
 20
-2.425197
 30
0.0
 11
-0.393701
 21
-2.425197
 31
0.0
  0
LINE
  8
0
  6
CONTINUOUS
 62
     7
  5
F0C
 10
2.040498
 20
-1.476378
 30
0.0
 11
2.066929
 21
-1.476378
 31
0.0
  0
LINE
  8
0
  6
CONTINUOUS
 62
     7
  5
F0D
 10
-2.066929
 20
-1.476378
 30
0.0
 11
-2.040498
 21
-1.476378
 31
0.0
  0
LINE
  8
0
  6
CONTINUOUS
 62
     7
  5
F0E
 10
-2.027397
 20
1.476378
 30
0.0
 11
-2.066929
 21
1.476378
 31
0.0
  0
LINE
  8
0
  6
CONTINUOUS
 62
     7
  5
F0F
 10
2.066929
 20
1.476378
 30
0.0
 11
2.027397
 21
1.476378
 31
0.0
  0
LINE
  8
0
  6
CONTINUOUS
 62
     7
  5
F10
 10
2.014417
 20
1.581045
 30
0.0
 11
2.066929
 21
1.581045
 31
0.0
  0
LINE
  8
0
  6
CONTINUOUS
 62
     7
  5
F11
 10
-2.066929
 20
1.581045
 30
0.0
 11
-2.014417
 21
1.581045
 31
0.0
  0
LINE
  8
0
  6
CONTINUOUS
 62
     7
  5
F12
 10
2.748031
 20
-2.224409
 30
0.0
 11
2.748031
 21
2.224409
 31
0.0
  0
LINE
  8
0
  6
CONTINUOUS
 62
     7
  5
F13
 10
-0.393701
 20
2.224409
 30
0.0
 11
-2.748031
 21
2.224409
 31
0.0
  0
LINE
  8
0
  6
CONTINUOUS
 62
     7
  5
F14
 10
2.748031
 20
2.224409
 30
0.0
 11
0.393701
 21
2.224409
 31
0.0
  0
LINE
  8
0
  6
CONTINUOUS
 62
     7
  5
F15
 10
-2.748031
 20
2.224409
 30
0.0
 11
-2.748031
 21
-2.224409
 31
0.0
  0
LINE
  8
0
  6
CONTINUOUS
 62
     7
  5
F16
 10
0.393701
 20
-2.224409
 30
0.0
 11
2.748031
 21
-2.224409
 31
0.0
  0
LINE
  8
0
  6
CONTINUOUS
 62
     7
  5
F17
 10
-2.748031
 20
-2.224409
 30
0.0
 11
-0.393701
 21
-2.224409
 31
0.0
  0
LINE
  8
0
  6
CONTINUOUS
 62
     7
  5
F18
 10
-2.066929
 20
-1.581045
 30
0.0
 11
-2.066929
 21
1.581045
 31
0.0
  0
LINE
  8
0
  6
CONTINUOUS
 62
     7
  5
F19
 10
2.066929
 20
1.581045
 30
0.0
 11
2.066929
 21
-1.581045
 31
0.0
  0
LINE
  8
0
  6
CONTINUOUS
 62
     7
  5
F1A
 10
-2.028814
 20
-1.581045
 30
0.0
 11
-2.066929
 21
-1.581045
 31
0.0
  0
LINE
  8
0
  6
CONTINUOUS
 62
     7
  5
F1B
 10
2.066929
 20
-1.581045
 30
0.0
 11
2.028814
 21
-1.581045
 31
0.0
  0
LINE
  8
0
  6
CONTINUOUS
 62
     7
  5
F1C
 10
1.289234
 20
6.094333
 30
0.0
 11
1.466142
 21
6.177165
 31
0.0
  0
LINE
  8
0
  6
CONTINUOUS
 62
     7
  5
F1D
 10
1.238838
 20
5.980315
 30
0.0
 11
1.238886
 21
5.984724
 31
0.0
  0
LINE
  8
0
  6
CONTINUOUS
 62
     7
  5
F1E
 10
1.238886
 20
5.984724
 30
0.0
 11
1.239029
 21
5.989126
 31
0.0
  0
LINE
  8
0
  6
CONTINUOUS
 62
     7
  5
F1F
 10
1.239029
 20
5.989126
 30
0.0
 11
1.239266
 21
5.993517
 31
0.0
  0
LINE
  8
0
  6
CONTINUOUS
 62
     7
  5
F20
 10
1.239266
 20
5.993517
 30
0.0
 11
1.239598
 21
5.997889
 31
0.0
  0
LINE
  8
0
  6
CONTINUOUS
 62
     7
  5
F21
 10
1.239598
 20
5.997889
 30
0.0
 11
1.240023
 21
6.002236
 31
0.0
  0
LINE
  8
0
  6
CONTINUOUS
 62
     7
  5
F22
 10
1.240023
 20
6.002236
 30
0.0
 11
1.240542
 21
6.006553
 31
0.0
  0
LINE
  8
0
  6
CONTINUOUS
 62
     7
  5
F23
 10
1.240542
 20
6.006553
 30
0.0
 11
1.241154
 21
6.010833
 31
0.0
  0
LINE
  8
0
  6
CONTINUOUS
 62
     7
  5
F24
 10
1.241154
 20
6.010833
 30
0.0
 11
1.241858
 21
6.015071
 31
0.0
  0
LINE
  8
0
  6
CONTINUOUS
 62
     7
  5
F25
 10
1.241858
 20
6.015071
 30
0.0
 11
1.242652
 21
6.019261
 31
0.0
  0
LINE
  8
0
  6
CONTINUOUS
 62
     7
  5
F26
 10
1.242652
 20
6.019261
 30
0.0
 11
1.243536
 21
6.023396
 31
0.0
  0
LINE
  8
0
  6
CONTINUOUS
 62
     7
  5
F27
 10
1.243536
 20
6.023396
 30
0.0
 11
1.244509
 21
6.027471
 31
0.0
  0
LINE
  8
0
  6
CONTINUOUS
 62
     7
  5
F28
 10
1.244509
 20
6.027471
 30
0.0
 11
1.245569
 21
6.03148
 31
0.0
  0
LINE
  8
0
  6
CONTINUOUS
 62
     7
  5
F29
 10
1.245569
 20
6.03148
 30
0.0
 11
1.246715
 21
6.035418
 31
0.0
  0
LINE
  8
0
  6
CONTINUOUS
 62
     7
  5
F2A
 10
1.246715
 20
6.035418
 30
0.0
 11
1.247944
 21
6.039279
 31
0.0
  0
LINE
  8
0
  6
CONTINUOUS
 62
     7
  5
F2B
 10
1.247944
 20
6.039279
 30
0.0
 11
1.249256
 21
6.043058
 31
0.0
  0
LINE
  8
0
  6
CONTINUOUS
 62
     7
  5
F2C
 10
1.249256
 20
6.043058
 30
0.0
 11
1.250648
 21
6.04675
 31
0.0
  0
LINE
  8
0
  6
CONTINUOUS
 62
     7
  5
F2D
 10
1.250648
 20
6.04675
 30
0.0
 11
1.25212
 21
6.050349
 31
0.0
  0
LINE
  8
0
  6
CONTINUOUS
 62
     7
  5
F2E
 10
1.25212
 20
6.050349
 30
0.0
 11
1.253667
 21
6.05385
 31
0.0
  0
LINE
  8
0
  6
CONTINUOUS
 62
     7
  5
F2F
 10
1.253667
 20
6.05385
 30
0.0
 11
1.255289
 21
6.057249
 31
0.0
  0
LINE
  8
0
  6
CONTINUOUS
 62
     7
  5
F30
 10
1.255289
 20
6.057249
 30
0.0
 11
1.256983
 21
6.06054
 31
0.0
  0
LINE
  8
0
  6
CONTINUOUS
 62
     7
  5
F31
 10
1.256983
 20
6.06054
 30
0.0
 11
1.258747
 21
6.06372
 31
0.0
  0
LINE
  8
0
  6
CONTINUOUS
 62
     7
  5
F32
 10
1.258747
 20
6.06372
 30
0.0
 11
1.260578
 21
6.066784
 31
0.0
  0
LINE
  8
0
  6
CONTINUOUS
 62
     7
  5
F33
 10
1.260578
 20
6.066784
 30
0.0
 11
1.262474
 21
6.069727
 31
0.0
  0
LINE
  8
0
  6
CONTINUOUS
 62
     7
  5
F34
 10
1.262474
 20
6.069727
 30
0.0
 11
1.264432
 21
6.072545
 31
0.0
  0
LINE
  8
0
  6
CONTINUOUS
 62
     7
  5
F35
 10
1.264432
 20
6.072545
 30
0.0
 11
1.266449
 21
6.075235
 31
0.0
  0
LINE
  8
0
  6
CONTINUOUS
 62
     7
  5
F36
 10
1.266449
 20
6.075235
 30
0.0
 11
1.268523
 21
6.077792
 31
0.0
  0
LINE
  8
0
  6
CONTINUOUS
 62
     7
  5
F37
 10
1.268523
 20
6.077792
 30
0.0
 11
1.270651
 21
6.080214
 31
0.0
  0
LINE
  8
0
  6
CONTINUOUS
 62
     7
  5
F38
 10
1.270651
 20
6.080214
 30
0.0
 11
1.272829
 21
6.082496
 31
0.0
  0
LINE
  8
0
  6
CONTINUOUS
 62
     7
  5
F39
 10
1.272829
 20
6.082496
 30
0.0
 11
1.275055
 21
6.084636
 31
0.0
  0
LINE
  8
0
  6
CONTINUOUS
 62
     7
  5
F3A
 10
1.275055
 20
6.084636
 30
0.0
 11
1.277326
 21
6.086631
 31
0.0
  0
LINE
  8
0
  6
CONTINUOUS
 62
     7
  5
F3B
 10
1.277326
 20
6.086631
 30
0.0
 11
1.279638
 21
6.088477
 31
0.0
  0
LINE
  8
0
  6
CONTINUOUS
 62
     7
  5
F3C
 10
1.279638
 20
6.088477
 30
0.0
 11
1.281988
 21
6.090173
 31
0.0
  0
LINE
  8
0
  6
CONTINUOUS
 62
     7
  5
F3D
 10
1.281988
 20
6.090173
 30
0.0
 11
1.284373
 21
6.091715
 31
0.0
  0
LINE
  8
0
  6
CONTINUOUS
 62
     7
  5
F3E
 10
1.284373
 20
6.091715
 30
0.0
 11
1.286789
 21
6.093103
 31
0.0
  0
LINE
  8
0
  6
CONTINUOUS
 62
     7
  5
F3F
 10
1.286789
 20
6.093103
 30
0.0
 11
1.289234
 21
6.094333
 31
0.0
  0
LINE
  8
0
  6
CONTINUOUS
 62
     7
  5
F40
 10
1.289234
 20
5.866297
 30
0.0
 11
1.286789
 21
5.867527
 31
0.0
  0
LINE
  8
0
  6
CONTINUOUS
 62
     7
  5
F41
 10
1.286789
 20
5.867527
 30
0.0
 11
1.284373
 21
5.868915
 31
0.0
  0
LINE
  8
0
  6
CONTINUOUS
 62
     7
  5
F42
 10
1.284373
 20
5.868915
 30
0.0
 11
1.281988
 21
5.870457
 31
0.0
  0
LINE
  8
0
  6
CONTINUOUS
 62
     7
  5
F43
 10
1.281988
 20
5.870457
 30
0.0
 11
1.279638
 21
5.872153
 31
0.0
  0
LINE
  8
0
  6
CONTINUOUS
 62
     7
  5
F44
 10
1.279638
 20
5.872153
 30
0.0
 11
1.277326
 21
5.873999
 31
0.0
  0
LINE
  8
0
  6
CONTINUOUS
 62
     7
  5
F45
 10
1.277326
 20
5.873999
 30
0.0
 11
1.275055
 21
5.875994
 31
0.0
  0
LINE
  8
0
  6
CONTINUOUS
 62
     7
  5
F46
 10
1.275055
 20
5.875994
 30
0.0
 11
1.272829
 21
5.878134
 31
0.0
  0
LINE
  8
0
  6
CONTINUOUS
 62
     7
  5
F47
 10
1.272829
 20
5.878134
 30
0.0
 11
1.270651
 21
5.880416
 31
0.0
  0
LINE
  8
0
  6
CONTINUOUS
 62
     7
  5
F48
 10
1.270651
 20
5.880416
 30
0.0
 11
1.268523
 21
5.882838
 31
0.0
  0
LINE
  8
0
  6
CONTINUOUS
 62
     7
  5
F49
 10
1.268523
 20
5.882838
 30
0.0
 11
1.266449
 21
5.885395
 31
0.0
  0
LINE
  8
0
  6
CONTINUOUS
 62
     7
  5
F4A
 10
1.266449
 20
5.885395
 30
0.0
 11
1.264432
 21
5.888085
 31
0.0
  0
LINE
  8
0
  6
CONTINUOUS
 62
     7
  5
F4B
 10
1.264432
 20
5.888085
 30
0.0
 11
1.262474
 21
5.890903
 31
0.0
  0
LINE
  8
0
  6
CONTINUOUS
 62
     7
  5
F4C
 10
1.262474
 20
5.890903
 30
0.0
 11
1.260578
 21
5.893846
 31
0.0
  0
LINE
  8
0
  6
CONTINUOUS
 62
     7
  5
F4D
 10
1.260578
 20
5.893846
 30
0.0
 11
1.258747
 21
5.89691
 31
0.0
  0
LINE
  8
0
  6
CONTINUOUS
 62
     7
  5
F4E
 10
1.258747
 20
5.89691
 30
0.0
 11
1.256983
 21
5.90009
 31
0.0
  0
LINE
  8
0
  6
CONTINUOUS
 62
     7
  5
F4F
 10
1.256983
 20
5.90009
 30
0.0
 11
1.255289
 21
5.903381
 31
0.0
  0
LINE
  8
0
  6
CONTINUOUS
 62
     7
  5
F50
 10
1.255289
 20
5.903381
 30
0.0
 11
1.253667
 21
5.90678
 31
0.0
  0
LINE
  8
0
  6
CONTINUOUS
 62
     7
  5
F51
 10
1.253667
 20
5.90678
 30
0.0
 11
1.25212
 21
5.910281
 31
0.0
  0
LINE
  8
0
  6
CONTINUOUS
 62
     7
  5
F52
 10
1.25212
 20
5.910281
 30
0.0
 11
1.250648
 21
5.91388
 31
0.0
  0
LINE
  8
0
  6
CONTINUOUS
 62
     7
  5
F53
 10
1.250648
 20
5.91388
 30
0.0
 11
1.249256
 21
5.917572
 31
0.0
  0
LINE
  8
0
  6
CONTINUOUS
 62
     7
  5
F54
 10
1.249256
 20
5.917572
 30
0.0
 11
1.247944
 21
5.921351
 31
0.0
  0
LINE
  8
0
  6
CONTINUOUS
 62
     7
  5
F55
 10
1.247944
 20
5.921351
 30
0.0
 11
1.246715
 21
5.925212
 31
0.0
  0
LINE
  8
0
  6
CONTINUOUS
 62
     7
  5
F56
 10
1.246715
 20
5.925212
 30
0.0
 11
1.245569
 21
5.92915
 31
0.0
  0
LINE
  8
0
  6
CONTINUOUS
 62
     7
  5
F57
 10
1.245569
 20
5.92915
 30
0.0
 11
1.244509
 21
5.933159
 31
0.0
  0
LINE
  8
0
  6
CONTINUOUS
 62
     7
  5
F58
 10
1.244509
 20
5.933159
 30
0.0
 11
1.243536
 21
5.937234
 31
0.0
  0
LINE
  8
0
  6
CONTINUOUS
 62
     7
  5
F59
 10
1.243536
 20
5.937234
 30
0.0
 11
1.242652
 21
5.941369
 31
0.0
  0
LINE
  8
0
  6
CONTINUOUS
 62
     7
  5
F5A
 10
1.242652
 20
5.941369
 30
0.0
 11
1.241858
 21
5.945559
 31
0.0
  0
LINE
  8
0
  6
CONTINUOUS
 62
     7
  5
F5B
 10
1.241858
 20
5.945559
 30
0.0
 11
1.241154
 21
5.949796
 31
0.0
  0
LINE
  8
0
  6
CONTINUOUS
 62
     7
  5
F5C
 10
1.241154
 20
5.949796
 30
0.0
 11
1.240542
 21
5.954077
 31
0.0
  0
LINE
  8
0
  6
CONTINUOUS
 62
     7
  5
F5D
 10
1.240542
 20
5.954077
 30
0.0
 11
1.240023
 21
5.958394
 31
0.0
  0
LINE
  8
0
  6
CONTINUOUS
 62
     7
  5
F5E
 10
1.240023
 20
5.958394
 30
0.0
 11
1.239598
 21
5.962741
 31
0.0
  0
LINE
  8
0
  6
CONTINUOUS
 62
     7
  5
F5F
 10
1.239598
 20
5.962741
 30
0.0
 11
1.239266
 21
5.967113
 31
0.0
  0
LINE
  8
0
  6
CONTINUOUS
 62
     7
  5
F60
 10
1.239266
 20
5.967113
 30
0.0
 11
1.239029
 21
5.971504
 31
0.0
  0
LINE
  8
0
  6
CONTINUOUS
 62
     7
  5
F61
 10
1.239029
 20
5.971504
 30
0.0
 11
1.238886
 21
5.975906
 31
0.0
  0
LINE
  8
0
  6
CONTINUOUS
 62
     7
  5
F62
 10
1.238886
 20
5.975906
 30
0.0
 11
1.238838
 21
5.980315
 31
0.0
  0
LINE
  8
0
  6
CONTINUOUS
 62
     7
  5
F63
 10
1.466142
 20
5.783465
 30
0.0
 11
1.289234
 21
5.866297
 31
0.0
  0
LINE
  8
0
  6
CONTINUOUS
 62
     7
  5
F64
 10
1.466142
 20
6.177165
 30
0.0
 11
1.466142
 21
5.783465
 31
0.0
  0
LINE
  8
0
  6
CONTINUOUS
 62
     7
  5
F65
 10
-1.289234
 20
5.866297
 30
0.0
 11
-1.466142
 21
5.783465
 31
0.0
  0
LINE
  8
0
  6
CONTINUOUS
 62
     7
  5
F66
 10
-1.466142
 20
6.177165
 30
0.0
 11
-1.289234
 21
6.094333
 31
0.0
  0
LINE
  8
0
  6
CONTINUOUS
 62
     7
  5
F67
 10
-1.466142
 20
5.783465
 30
0.0
 11
-1.466142
 21
6.177165
 31
0.0
  0
LINE
  8
0
  6
CONTINUOUS
 62
     7
  5
F68
 10
-1.238838
 20
5.980315
 30
0.0
 11
-1.238886
 21
5.975906
 31
0.0
  0
LINE
  8
0
  6
CONTINUOUS
 62
     7
  5
F69
 10
-1.238886
 20
5.975906
 30
0.0
 11
-1.239029
 21
5.971504
 31
0.0
  0
LINE
  8
0
  6
CONTINUOUS
 62
     7
  5
F6A
 10
-1.239029
 20
5.971504
 30
0.0
 11
-1.239266
 21
5.967113
 31
0.0
  0
LINE
  8
0
  6
CONTINUOUS
 62
     7
  5
F6B
 10
-1.239266
 20
5.967113
 30
0.0
 11
-1.239598
 21
5.962741
 31
0.0
  0
LINE
  8
0
  6
CONTINUOUS
 62
     7
  5
F6C
 10
-1.239598
 20
5.962741
 30
0.0
 11
-1.240023
 21
5.958394
 31
0.0
  0
LINE
  8
0
  6
CONTINUOUS
 62
     7
  5
F6D
 10
-1.240023
 20
5.958394
 30
0.0
 11
-1.240542
 21
5.954077
 31
0.0
  0
LINE
  8
0
  6
CONTINUOUS
 62
     7
  5
F6E
 10
-1.240542
 20
5.954077
 30
0.0
 11
-1.241154
 21
5.949796
 31
0.0
  0
LINE
  8
0
  6
CONTINUOUS
 62
     7
  5
F6F
 10
-1.241154
 20
5.949796
 30
0.0
 11
-1.241858
 21
5.945559
 31
0.0
  0
LINE
  8
0
  6
CONTINUOUS
 62
     7
  5
F70
 10
-1.241858
 20
5.945559
 30
0.0
 11
-1.242652
 21
5.941369
 31
0.0
  0
LINE
  8
0
  6
CONTINUOUS
 62
     7
  5
F71
 10
-1.242652
 20
5.941369
 30
0.0
 11
-1.243536
 21
5.937234
 31
0.0
  0
LINE
  8
0
  6
CONTINUOUS
 62
     7
  5
F72
 10
-1.243536
 20
5.937234
 30
0.0
 11
-1.244509
 21
5.933159
 31
0.0
  0
LINE
  8
0
  6
CONTINUOUS
 62
     7
  5
F73
 10
-1.244509
 20
5.933159
 30
0.0
 11
-1.245569
 21
5.92915
 31
0.0
  0
LINE
  8
0
  6
CONTINUOUS
 62
     7
  5
F74
 10
-1.245569
 20
5.92915
 30
0.0
 11
-1.246715
 21
5.925212
 31
0.0
  0
LINE
  8
0
  6
CONTINUOUS
 62
     7
  5
F75
 10
-1.246715
 20
5.925212
 30
0.0
 11
-1.247944
 21
5.921351
 31
0.0
  0
LINE
  8
0
  6
CONTINUOUS
 62
     7
  5
F76
 10
-1.247944
 20
5.921351
 30
0.0
 11
-1.249256
 21
5.917572
 31
0.0
  0
LINE
  8
0
  6
CONTINUOUS
 62
     7
  5
F77
 10
-1.249256
 20
5.917572
 30
0.0
 11
-1.250648
 21
5.91388
 31
0.0
  0
LINE
  8
0
  6
CONTINUOUS
 62
     7
  5
F78
 10
-1.250648
 20
5.91388
 30
0.0
 11
-1.25212
 21
5.910281
 31
0.0
  0
LINE
  8
0
  6
CONTINUOUS
 62
     7
  5
F79
 10
-1.25212
 20
5.910281
 30
0.0
 11
-1.253667
 21
5.90678
 31
0.0
  0
LINE
  8
0
  6
CONTINUOUS
 62
     7
  5
F7A
 10
-1.253667
 20
5.90678
 30
0.0
 11
-1.255289
 21
5.903381
 31
0.0
  0
LINE
  8
0
  6
CONTINUOUS
 62
     7
  5
F7B
 10
-1.255289
 20
5.903381
 30
0.0
 11
-1.256983
 21
5.90009
 31
0.0
  0
LINE
  8
0
  6
CONTINUOUS
 62
     7
  5
F7C
 10
-1.256983
 20
5.90009
 30
0.0
 11
-1.258747
 21
5.89691
 31
0.0
  0
LINE
  8
0
  6
CONTINUOUS
 62
     7
  5
F7D
 10
-1.258747
 20
5.89691
 30
0.0
 11
-1.260578
 21
5.893846
 31
0.0
  0
LINE
  8
0
  6
CONTINUOUS
 62
     7
  5
F7E
 10
-1.260578
 20
5.893846
 30
0.0
 11
-1.262474
 21
5.890903
 31
0.0
  0
LINE
  8
0
  6
CONTINUOUS
 62
     7
  5
F7F
 10
-1.262474
 20
5.890903
 30
0.0
 11
-1.264432
 21
5.888085
 31
0.0
  0
LINE
  8
0
  6
CONTINUOUS
 62
     7
  5
F80
 10
-1.264432
 20
5.888085
 30
0.0
 11
-1.266449
 21
5.885395
 31
0.0
  0
LINE
  8
0
  6
CONTINUOUS
 62
     7
  5
F81
 10
-1.266449
 20
5.885395
 30
0.0
 11
-1.268523
 21
5.882838
 31
0.0
  0
LINE
  8
0
  6
CONTINUOUS
 62
     7
  5
F82
 10
-1.268523
 20
5.882838
 30
0.0
 11
-1.270651
 21
5.880416
 31
0.0
  0
LINE
  8
0
  6
CONTINUOUS
 62
     7
  5
F83
 10
-1.270651
 20
5.880416
 30
0.0
 11
-1.272829
 21
5.878134
 31
0.0
  0
LINE
  8
0
  6
CONTINUOUS
 62
     7
  5
F84
 10
-1.272829
 20
5.878134
 30
0.0
 11
-1.275055
 21
5.875994
 31
0.0
  0
LINE
  8
0
  6
CONTINUOUS
 62
     7
  5
F85
 10
-1.275055
 20
5.875994
 30
0.0
 11
-1.277326
 21
5.873999
 31
0.0
  0
LINE
  8
0
  6
CONTINUOUS
 62
     7
  5
F86
 10
-1.277326
 20
5.873999
 30
0.0
 11
-1.279638
 21
5.872153
 31
0.0
  0
LINE
  8
0
  6
CONTINUOUS
 62
     7
  5
F87
 10
-1.279638
 20
5.872153
 30
0.0
 11
-1.281988
 21
5.870457
 31
0.0
  0
LINE
  8
0
  6
CONTINUOUS
 62
     7
  5
F88
 10
-1.281988
 20
5.870457
 30
0.0
 11
-1.284373
 21
5.868915
 31
0.0
  0
LINE
  8
0
  6
CONTINUOUS
 62
     7
  5
F89
 10
-1.284373
 20
5.868915
 30
0.0
 11
-1.286789
 21
5.867527
 31
0.0
  0
LINE
  8
0
  6
CONTINUOUS
 62
     7
  5
F8A
 10
-1.286789
 20
5.867527
 30
0.0
 11
-1.289234
 21
5.866297
 31
0.0
  0
LINE
  8
0
  6
CONTINUOUS
 62
     7
  5
F8B
 10
-1.289234
 20
6.094333
 30
0.0
 11
-1.286789
 21
6.093103
 31
0.0
  0
LINE
  8
0
  6
CONTINUOUS
 62
     7
  5
F8C
 10
-1.286789
 20
6.093103
 30
0.0
 11
-1.284373
 21
6.091715
 31
0.0
  0
LINE
  8
0
  6
CONTINUOUS
 62
     7
  5
F8D
 10
-1.284373
 20
6.091715
 30
0.0
 11
-1.281988
 21
6.090173
 31
0.0
  0
LINE
  8
0
  6
CONTINUOUS
 62
     7
  5
F8E
 10
-1.281988
 20
6.090173
 30
0.0
 11
-1.279638
 21
6.088477
 31
0.0
  0
LINE
  8
0
  6
CONTINUOUS
 62
     7
  5
F8F
 10
-1.279638
 20
6.088477
 30
0.0
 11
-1.277326
 21
6.086631
 31
0.0
  0
LINE
  8
0
  6
CONTINUOUS
 62
     7
  5
F90
 10
-1.277326
 20
6.086631
 30
0.0
 11
-1.275055
 21
6.084636
 31
0.0
  0
LINE
  8
0
  6
CONTINUOUS
 62
     7
  5
F91
 10
-1.275055
 20
6.084636
 30
0.0
 11
-1.272829
 21
6.082496
 31
0.0
  0
LINE
  8
0
  6
CONTINUOUS
 62
     7
  5
F92
 10
-1.272829
 20
6.082496
 30
0.0
 11
-1.270651
 21
6.080214
 31
0.0
  0
LINE
  8
0
  6
CONTINUOUS
 62
     7
  5
F93
 10
-1.270651
 20
6.080214
 30
0.0
 11
-1.268523
 21
6.077792
 31
0.0
  0
LINE
  8
0
  6
CONTINUOUS
 62
     7
  5
F94
 10
-1.268523
 20
6.077792
 30
0.0
 11
-1.266449
 21
6.075235
 31
0.0
  0
LINE
  8
0
  6
CONTINUOUS
 62
     7
  5
F95
 10
-1.266449
 20
6.075235
 30
0.0
 11
-1.264432
 21
6.072545
 31
0.0
  0
LINE
  8
0
  6
CONTINUOUS
 62
     7
  5
F96
 10
-1.264432
 20
6.072545
 30
0.0
 11
-1.262474
 21
6.069727
 31
0.0
  0
LINE
  8
0
  6
CONTINUOUS
 62
     7
  5
F97
 10
-1.262474
 20
6.069727
 30
0.0
 11
-1.260578
 21
6.066784
 31
0.0
  0
LINE
  8
0
  6
CONTINUOUS
 62
     7
  5
F98
 10
-1.260578
 20
6.066784
 30
0.0
 11
-1.258747
 21
6.06372
 31
0.0
  0
LINE
  8
0
  6
CONTINUOUS
 62
     7
  5
F99
 10
-1.258747
 20
6.06372
 30
0.0
 11
-1.256983
 21
6.06054
 31
0.0
  0
LINE
  8
0
  6
CONTINUOUS
 62
     7
  5
F9A
 10
-1.256983
 20
6.06054
 30
0.0
 11
-1.255289
 21
6.057249
 31
0.0
  0
LINE
  8
0
  6
CONTINUOUS
 62
     7
  5
F9B
 10
-1.255289
 20
6.057249
 30
0.0
 11
-1.253667
 21
6.05385
 31
0.0
  0
LINE
  8
0
  6
CONTINUOUS
 62
     7
  5
F9C
 10
-1.253667
 20
6.05385
 30
0.0
 11
-1.25212
 21
6.050349
 31
0.0
  0
LINE
  8
0
  6
CONTINUOUS
 62
     7
  5
F9D
 10
-1.25212
 20
6.050349
 30
0.0
 11
-1.250648
 21
6.04675
 31
0.0
  0
LINE
  8
0
  6
CONTINUOUS
 62
     7
  5
F9E
 10
-1.250648
 20
6.04675
 30
0.0
 11
-1.249256
 21
6.043058
 31
0.0
  0
LINE
  8
0
  6
CONTINUOUS
 62
     7
  5
F9F
 10
-1.249256
 20
6.043058
 30
0.0
 11
-1.247944
 21
6.039279
 31
0.0
  0
LINE
  8
0
  6
CONTINUOUS
 62
     7
  5
FA0
 10
-1.247944
 20
6.039279
 30
0.0
 11
-1.246715
 21
6.035418
 31
0.0
  0
LINE
  8
0
  6
CONTINUOUS
 62
     7
  5
FA1
 10
-1.246715
 20
6.035418
 30
0.0
 11
-1.245569
 21
6.03148
 31
0.0
  0
LINE
  8
0
  6
CONTINUOUS
 62
     7
  5
FA2
 10
-1.245569
 20
6.03148
 30
0.0
 11
-1.244509
 21
6.027471
 31
0.0
  0
LINE
  8
0
  6
CONTINUOUS
 62
     7
  5
FA3
 10
-1.244509
 20
6.027471
 30
0.0
 11
-1.243536
 21
6.023396
 31
0.0
  0
LINE
  8
0
  6
CONTINUOUS
 62
     7
  5
FA4
 10
-1.243536
 20
6.023396
 30
0.0
 11
-1.242652
 21
6.019261
 31
0.0
  0
LINE
  8
0
  6
CONTINUOUS
 62
     7
  5
FA5
 10
-1.242652
 20
6.019261
 30
0.0
 11
-1.241858
 21
6.015071
 31
0.0
  0
LINE
  8
0
  6
CONTINUOUS
 62
     7
  5
FA6
 10
-1.241858
 20
6.015071
 30
0.0
 11
-1.241154
 21
6.010833
 31
0.0
  0
LINE
  8
0
  6
CONTINUOUS
 62
     7
  5
FA7
 10
-1.241154
 20
6.010833
 30
0.0
 11
-1.240542
 21
6.006553
 31
0.0
  0
LINE
  8
0
  6
CONTINUOUS
 62
     7
  5
FA8
 10
-1.240542
 20
6.006553
 30
0.0
 11
-1.240023
 21
6.002236
 31
0.0
  0
LINE
  8
0
  6
CONTINUOUS
 62
     7
  5
FA9
 10
-1.240023
 20
6.002236
 30
0.0
 11
-1.239598
 21
5.997889
 31
0.0
  0
LINE
  8
0
  6
CONTINUOUS
 62
     7
  5
FAA
 10
-1.239598
 20
5.997889
 30
0.0
 11
-1.239266
 21
5.993517
 31
0.0
  0
LINE
  8
0
  6
CONTINUOUS
 62
     7
  5
FAB
 10
-1.239266
 20
5.993517
 30
0.0
 11
-1.239029
 21
5.989126
 31
0.0
  0
LINE
  8
0
  6
CONTINUOUS
 62
     7
  5
FAC
 10
-1.239029
 20
5.989126
 30
0.0
 11
-1.238886
 21
5.984724
 31
0.0
  0
LINE
  8
0
  6
CONTINUOUS
 62
     7
  5
FAD
 10
-1.238886
 20
5.984724
 30
0.0
 11
-1.238838
 21
5.980315
 31
0.0
  0
LINE
  8
0
  6
CONTINUOUS
 62
     7
  5
FAE
 10
-1.466142
 20
6.177165
 30
0.0
 11
1.466142
 21
6.177165
 31
0.0
  0
CIRCLE
  8
0
  6
CONTINUOUS
 62
     7
  5
FAF
 10
-0.875984
 20
7.163386
 30
0.0
 40
0.285433
  0
CIRCLE
  8
0
  6
CONTINUOUS
 62
     7
  5
FB0
 10
0.875984
 20
7.163386
 30
0.0
 40
0.285433
  0
CIRCLE
  8
0
  6
CONTINUOUS
 62
     7
  5
FB1
 10
-0.875984
 20
8.915354
 30
0.0
 40
0.285433
  0
CIRCLE
  8
0
  6
CONTINUOUS
 62
     7
  5
FB2
 10
0.875984
 20
8.915354
 30
0.0
 40
0.285433
  0
LINE
  8
0
  6
CONTINUOUS
 62
     7
  5
FB3
 10
1.496063
 20
5.783465
 30
0.0
 11
1.496063
 21
9.537402
 31
0.0
  0
LINE
  8
0
  6
CONTINUOUS
 62
     7
  5
FB4
 10
1.496063
 20
9.537402
 30
0.0
 11
-1.496063
 21
9.537402
 31
0.0
  0
LINE
  8
0
  6
CONTINUOUS
 62
     7
  5
FB5
 10
-1.496063
 20
9.537402
 30
0.0
 11
-1.496063
 21
5.783465
 31
0.0
  0
LINE
  8
0
  6
CONTINUOUS
 62
     7
  5
FB6
 10
1.495063
 20
11.392701
 30
0.0
 11
1.495063
 21
9.537402
 31
0.0
  0
LINE
  8
0
  6
CONTINUOUS
 62
     7
  5
FB7
 10
0.19685
 20
11.392701
 30
0.0
 11
1.495063
 21
11.392701
 31
0.0
  0
LINE
  8
0
  6
CONTINUOUS
 62
     7
  5
FB8
 10
0.679134
 20
10.820866
 30
0.0
 11
1.072835
 21
10.820866
 31
0.0
  0
LINE
  8
0
  6
CONTINUOUS
 62
     7
  5
FB9
 10
1.072835
 20
10.820866
 30
0.0
 11
1.072835
 21
10.427165
 31
0.0
  0
LINE
  8
0
  6
CONTINUOUS
 62
     7
  5
FBA
 10
1.072835
 20
10.427165
 30
0.0
 11
0.679134
 21
10.427165
 31
0.0
  0
LINE
  8
0
  6
CONTINUOUS
 62
     7
  5
FBB
 10
0.679134
 20
10.427165
 30
0.0
 11
0.679134
 21
10.820866
 31
0.0
  0
LINE
  8
0
  6
CONTINUOUS
 62
     7
  5
FBC
 10
-1.929134
 20
9.681102
 30
0.0
 11
-1.495063
 21
9.681102
 31
0.0
  0
LINE
  8
0
  6
CONTINUOUS
 62
     7
  5
FBD
 10
-1.929134
 20
11.255906
 30
0.0
 11
-1.929134
 21
9.681102
 31
0.0
  0
LINE
  8
0
  6
CONTINUOUS
 62
     7
  5
FBE
 10
-1.495063
 20
11.255906
 30
0.0
 11
-1.929134
 21
11.255906
 31
0.0
  0
LINE
  8
0
  6
CONTINUOUS
 62
     7
  5
FBF
 10
1.495063
 20
9.681102
 30
0.0
 11
1.929134
 21
9.681102
 31
0.0
  0
LINE
  8
0
  6
CONTINUOUS
 62
     7
  5
FC0
 10
1.929134
 20
9.681102
 30
0.0
 11
1.929134
 21
11.255906
 31
0.0
  0
LINE
  8
0
  6
CONTINUOUS
 62
     7
  5
FC1
 10
1.929134
 20
11.255906
 30
0.0
 11
1.495063
 21
11.255906
 31
0.0
  0
LINE
  8
0
  6
CONTINUOUS
 62
     7
  5
FC2
 10
2.470472
 20
7.122047
 30
0.0
 11
2.470472
 21
10.665354
 31
0.0
  0
LINE
  8
0
  6
CONTINUOUS
 62
     7
  5
FC3
 10
2.470472
 20
10.665354
 30
0.0
 11
1.929134
 21
10.665354
 31
0.0
  0
LINE
  8
0
  6
CONTINUOUS
 62
     7
  5
FC4
 10
2.470472
 20
7.122047
 30
0.0
 11
1.496063
 21
7.122047
 31
0.0
  0
LINE
  8
0
  6
CONTINUOUS
 62
     7
  5
FC5
 10
-2.470472
 20
10.665354
 30
0.0
 11
-2.470472
 21
7.122047
 31
0.0
  0
LINE
  8
0
  6
CONTINUOUS
 62
     7
  5
FC6
 10
-2.470472
 20
7.122047
 30
0.0
 11
-1.496063
 21
7.122047
 31
0.0
  0
LINE
  8
0
  6
CONTINUOUS
 62
     7
  5
FC7
 10
-2.470472
 20
10.665354
 30
0.0
 11
-1.929134
 21
10.665354
 31
0.0
  0
LINE
  8
0
  6
CONTINUOUS
 62
     7
  5
FC8
 10
-1.072835
 20
10.820866
 30
0.0
 11
-0.679134
 21
10.820866
 31
0.0
  0
LINE
  8
0
  6
CONTINUOUS
 62
     7
  5
FC9
 10
-1.072835
 20
10.427165
 30
0.0
 11
-1.072835
 21
10.820866
 31
0.0
  0
LINE
  8
0
  6
CONTINUOUS
 62
     7
  5
FCA
 10
-0.679134
 20
10.427165
 30
0.0
 11
-1.072835
 21
10.427165
 31
0.0
  0
LINE
  8
0
  6
CONTINUOUS
 62
     7
  5
FCB
 10
-0.679134
 20
10.820866
 30
0.0
 11
-0.679134
 21
10.427165
 31
0.0
  0
LINE
  8
0
  6
CONTINUOUS
 62
     7
  5
FCC
 10
0.0
 20
11.392701
 30
0.0
 11
0.19685
 21
11.392701
 31
0.0
  0
LINE
  8
0
  6
CONTINUOUS
 62
     7
  5
FCD
 10
0.0
 20
9.537402
 30
0.0
 11
0.0
 21
11.392701
 31
0.0
  0
LINE
  8
0
  6
CONTINUOUS
 62
     7
  5
FCE
 10
0.0
 20
11.393701
 30
0.0
 11
-0.19685
 21
11.393701
 31
0.0
  0
LINE
  8
0
  6
CONTINUOUS
 62
     7
  5
FCF
 10
-0.19685
 20
11.393701
 30
0.0
 11
-1.495063
 21
11.393701
 31
0.0
  0
LINE
  8
0
  6
CONTINUOUS
 62
     7
  5
FD0
 10
-1.495063
 20
9.537402
 30
0.0
 11
-1.495063
 21
11.393701
 31
0.0
  0
LINE
  8
0
  6
CONTINUOUS
 62
     7
  5
FD1
 10
-3.238325
 20
6.094333
 30
0.0
 11
-3.061417
 21
6.177165
 31
0.0
  0
LINE
  8
0
  6
CONTINUOUS
 62
     7
  5
FD2
 10
-3.288721
 20
5.980315
 30
0.0
 11
-3.288673
 21
5.984724
 31
0.0
  0
LINE
  8
0
  6
CONTINUOUS
 62
     7
  5
FD3
 10
-3.288673
 20
5.984724
 30
0.0
 11
-3.288531
 21
5.989126
 31
0.0
  0
LINE
  8
0
  6
CONTINUOUS
 62
     7
  5
FD4
 10
-3.288531
 20
5.989126
 30
0.0
 11
-3.288293
 21
5.993517
 31
0.0
  0
LINE
  8
0
  6
CONTINUOUS
 62
     7
  5
FD5
 10
-3.288293
 20
5.993517
 30
0.0
 11
-3.287962
 21
5.997889
 31
0.0
  0
LINE
  8
0
  6
CONTINUOUS
 62
     7
  5
FD6
 10
-3.287962
 20
5.997889
 30
0.0
 11
-3.287536
 21
6.002236
 31
0.0
  0
LINE
  8
0
  6
CONTINUOUS
 62
     7
  5
FD7
 10
-3.287536
 20
6.002236
 30
0.0
 11
-3.287017
 21
6.006553
 31
0.0
  0
LINE
  8
0
  6
CONTINUOUS
 62
     7
  5
FD8
 10
-3.287017
 20
6.006553
 30
0.0
 11
-3.286405
 21
6.010833
 31
0.0
  0
LINE
  8
0
  6
CONTINUOUS
 62
     7
  5
FD9
 10
-3.286405
 20
6.010833
 30
0.0
 11
-3.285701
 21
6.015071
 31
0.0
  0
LINE
  8
0
  6
CONTINUOUS
 62
     7
  5
FDA
 10
-3.285701
 20
6.015071
 30
0.0
 11
-3.284907
 21
6.019261
 31
0.0
  0
LINE
  8
0
  6
CONTINUOUS
 62
     7
  5
FDB
 10
-3.284907
 20
6.019261
 30
0.0
 11
-3.284023
 21
6.023396
 31
0.0
  0
LINE
  8
0
  6
CONTINUOUS
 62
     7
  5
FDC
 10
-3.284023
 20
6.023396
 30
0.0
 11
-3.28305
 21
6.027471
 31
0.0
  0
LINE
  8
0
  6
CONTINUOUS
 62
     7
  5
FDD
 10
-3.28305
 20
6.027471
 30
0.0
 11
-3.28199
 21
6.03148
 31
0.0
  0
LINE
  8
0
  6
CONTINUOUS
 62
     7
  5
FDE
 10
-3.28199
 20
6.03148
 30
0.0
 11
-3.280845
 21
6.035418
 31
0.0
  0
LINE
  8
0
  6
CONTINUOUS
 62
     7
  5
FDF
 10
-3.280845
 20
6.035418
 30
0.0
 11
-3.279615
 21
6.039279
 31
0.0
  0
LINE
  8
0
  6
CONTINUOUS
 62
     7
  5
FE0
 10
-3.279615
 20
6.039279
 30
0.0
 11
-3.278303
 21
6.043058
 31
0.0
  0
LINE
  8
0
  6
CONTINUOUS
 62
     7
  5
FE1
 10
-3.278303
 20
6.043058
 30
0.0
 11
-3.276911
 21
6.04675
 31
0.0
  0
LINE
  8
0
  6
CONTINUOUS
 62
     7
  5
FE2
 10
-3.276911
 20
6.04675
 30
0.0
 11
-3.27544
 21
6.050349
 31
0.0
  0
LINE
  8
0
  6
CONTINUOUS
 62
     7
  5
FE3
 10
-3.27544
 20
6.050349
 30
0.0
 11
-3.273892
 21
6.05385
 31
0.0
  0
LINE
  8
0
  6
CONTINUOUS
 62
     7
  5
FE4
 10
-3.273892
 20
6.05385
 30
0.0
 11
-3.27227
 21
6.057249
 31
0.0
  0
LINE
  8
0
  6
CONTINUOUS
 62
     7
  5
FE5
 10
-3.27227
 20
6.057249
 30
0.0
 11
-3.270576
 21
6.06054
 31
0.0
  0
LINE
  8
0
  6
CONTINUOUS
 62
     7
  5
FE6
 10
-3.270576
 20
6.06054
 30
0.0
 11
-3.268812
 21
6.06372
 31
0.0
  0
LINE
  8
0
  6
CONTINUOUS
 62
     7
  5
FE7
 10
-3.268812
 20
6.06372
 30
0.0
 11
-3.266981
 21
6.066784
 31
0.0
  0
LINE
  8
0
  6
CONTINUOUS
 62
     7
  5
FE8
 10
-3.266981
 20
6.066784
 30
0.0
 11
-3.265085
 21
6.069727
 31
0.0
  0
LINE
  8
0
  6
CONTINUOUS
 62
     7
  5
FE9
 10
-3.265085
 20
6.069727
 30
0.0
 11
-3.263127
 21
6.072545
 31
0.0
  0
LINE
  8
0
  6
CONTINUOUS
 62
     7
  5
FEA
 10
-3.263127
 20
6.072545
 30
0.0
 11
-3.26111
 21
6.075235
 31
0.0
  0
LINE
  8
0
  6
CONTINUOUS
 62
     7
  5
FEB
 10
-3.26111
 20
6.075235
 30
0.0
 11
-3.259036
 21
6.077792
 31
0.0
  0
LINE
  8
0
  6
CONTINUOUS
 62
     7
  5
FEC
 10
-3.259036
 20
6.077792
 30
0.0
 11
-3.256908
 21
6.080214
 31
0.0
  0
LINE
  8
0
  6
CONTINUOUS
 62
     7
  5
FED
 10
-3.256908
 20
6.080214
 30
0.0
 11
-3.25473
 21
6.082496
 31
0.0
  0
LINE
  8
0
  6
CONTINUOUS
 62
     7
  5
FEE
 10
-3.25473
 20
6.082496
 30
0.0
 11
-3.252504
 21
6.084636
 31
0.0
  0
LINE
  8
0
  6
CONTINUOUS
 62
     7
  5
FEF
 10
-3.252504
 20
6.084636
 30
0.0
 11
-3.250233
 21
6.086631
 31
0.0
  0
LINE
  8
0
  6
CONTINUOUS
 62
     7
  5
FF0
 10
-3.250233
 20
6.086631
 30
0.0
 11
-3.247922
 21
6.088477
 31
0.0
  0
LINE
  8
0
  6
CONTINUOUS
 62
     7
  5
FF1
 10
-3.247922
 20
6.088477
 30
0.0
 11
-3.245571
 21
6.090173
 31
0.0
  0
LINE
  8
0
  6
CONTINUOUS
 62
     7
  5
FF2
 10
-3.245571
 20
6.090173
 30
0.0
 11
-3.243186
 21
6.091715
 31
0.0
  0
LINE
  8
0
  6
CONTINUOUS
 62
     7
  5
FF3
 10
-3.243186
 20
6.091715
 30
0.0
 11
-3.24077
 21
6.093103
 31
0.0
  0
LINE
  8
0
  6
CONTINUOUS
 62
     7
  5
FF4
 10
-3.24077
 20
6.093103
 30
0.0
 11
-3.238325
 21
6.094333
 31
0.0
  0
LINE
  8
0
  6
CONTINUOUS
 62
     7
  5
FF5
 10
-3.238325
 20
5.866297
 30
0.0
 11
-3.24077
 21
5.867527
 31
0.0
  0
LINE
  8
0
  6
CONTINUOUS
 62
     7
  5
FF6
 10
-3.24077
 20
5.867527
 30
0.0
 11
-3.243186
 21
5.868915
 31
0.0
  0
LINE
  8
0
  6
CONTINUOUS
 62
     7
  5
FF7
 10
-3.243186
 20
5.868915
 30
0.0
 11
-3.245571
 21
5.870457
 31
0.0
  0
LINE
  8
0
  6
CONTINUOUS
 62
     7
  5
FF8
 10
-3.245571
 20
5.870457
 30
0.0
 11
-3.247922
 21
5.872153
 31
0.0
  0
LINE
  8
0
  6
CONTINUOUS
 62
     7
  5
FF9
 10
-3.247922
 20
5.872153
 30
0.0
 11
-3.250233
 21
5.873999
 31
0.0
  0
LINE
  8
0
  6
CONTINUOUS
 62
     7
  5
FFA
 10
-3.250233
 20
5.873999
 30
0.0
 11
-3.252504
 21
5.875994
 31
0.0
  0
LINE
  8
0
  6
CONTINUOUS
 62
     7
  5
FFB
 10
-3.252504
 20
5.875994
 30
0.0
 11
-3.25473
 21
5.878134
 31
0.0
  0
LINE
  8
0
  6
CONTINUOUS
 62
     7
  5
FFC
 10
-3.25473
 20
5.878134
 30
0.0
 11
-3.256908
 21
5.880416
 31
0.0
  0
LINE
  8
0
  6
CONTINUOUS
 62
     7
  5
FFD
 10
-3.256908
 20
5.880416
 30
0.0
 11
-3.259036
 21
5.882838
 31
0.0
  0
LINE
  8
0
  6
CONTINUOUS
 62
     7
  5
FFE
 10
-3.259036
 20
5.882838
 30
0.0
 11
-3.26111
 21
5.885395
 31
0.0
  0
LINE
  8
0
  6
CONTINUOUS
 62
     7
  5
FFF
 10
-3.26111
 20
5.885395
 30
0.0
 11
-3.263127
 21
5.888085
 31
0.0
  0
LINE
  8
0
  6
CONTINUOUS
 62
     7
  5
1000
 10
-3.263127
 20
5.888085
 30
0.0
 11
-3.265085
 21
5.890903
 31
0.0
  0
LINE
  8
0
  6
CONTINUOUS
 62
     7
  5
1001
 10
-3.265085
 20
5.890903
 30
0.0
 11
-3.266981
 21
5.893846
 31
0.0
  0
LINE
  8
0
  6
CONTINUOUS
 62
     7
  5
1002
 10
-3.266981
 20
5.893846
 30
0.0
 11
-3.268812
 21
5.89691
 31
0.0
  0
LINE
  8
0
  6
CONTINUOUS
 62
     7
  5
1003
 10
-3.268812
 20
5.89691
 30
0.0
 11
-3.270576
 21
5.90009
 31
0.0
  0
LINE
  8
0
  6
CONTINUOUS
 62
     7
  5
1004
 10
-3.270576
 20
5.90009
 30
0.0
 11
-3.27227
 21
5.903381
 31
0.0
  0
LINE
  8
0
  6
CONTINUOUS
 62
     7
  5
1005
 10
-3.27227
 20
5.903381
 30
0.0
 11
-3.273892
 21
5.90678
 31
0.0
  0
LINE
  8
0
  6
CONTINUOUS
 62
     7
  5
1006
 10
-3.273892
 20
5.90678
 30
0.0
 11
-3.27544
 21
5.910281
 31
0.0
  0
LINE
  8
0
  6
CONTINUOUS
 62
     7
  5
1007
 10
-3.27544
 20
5.910281
 30
0.0
 11
-3.276911
 21
5.91388
 31
0.0
  0
LINE
  8
0
  6
CONTINUOUS
 62
     7
  5
1008
 10
-3.276911
 20
5.91388
 30
0.0
 11
-3.278303
 21
5.917572
 31
0.0
  0
LINE
  8
0
  6
CONTINUOUS
 62
     7
  5
1009
 10
-3.278303
 20
5.917572
 30
0.0
 11
-3.279615
 21
5.921351
 31
0.0
  0
LINE
  8
0
  6
CONTINUOUS
 62
     7
  5
100A
 10
-3.279615
 20
5.921351
 30
0.0
 11
-3.280845
 21
5.925212
 31
0.0
  0
LINE
  8
0
  6
CONTINUOUS
 62
     7
  5
100B
 10
-3.280845
 20
5.925212
 30
0.0
 11
-3.28199
 21
5.92915
 31
0.0
  0
LINE
  8
0
  6
CONTINUOUS
 62
     7
  5
100C
 10
-3.28199
 20
5.92915
 30
0.0
 11
-3.28305
 21
5.933159
 31
0.0
  0
LINE
  8
0
  6
CONTINUOUS
 62
     7
  5
100D
 10
-3.28305
 20
5.933159
 30
0.0
 11
-3.284023
 21
5.937234
 31
0.0
  0
LINE
  8
0
  6
CONTINUOUS
 62
     7
  5
100E
 10
-3.284023
 20
5.937234
 30
0.0
 11
-3.284907
 21
5.941369
 31
0.0
  0
LINE
  8
0
  6
CONTINUOUS
 62
     7
  5
100F
 10
-3.284907
 20
5.941369
 30
0.0
 11
-3.285701
 21
5.945559
 31
0.0
  0
LINE
  8
0
  6
CONTINUOUS
 62
     7
  5
1010
 10
-3.285701
 20
5.945559
 30
0.0
 11
-3.286405
 21
5.949796
 31
0.0
  0
LINE
  8
0
  6
CONTINUOUS
 62
     7
  5
1011
 10
-3.286405
 20
5.949796
 30
0.0
 11
-3.287017
 21
5.954077
 31
0.0
  0
LINE
  8
0
  6
CONTINUOUS
 62
     7
  5
1012
 10
-3.287017
 20
5.954077
 30
0.0
 11
-3.287536
 21
5.958394
 31
0.0
  0
LINE
  8
0
  6
CONTINUOUS
 62
     7
  5
1013
 10
-3.287536
 20
5.958394
 30
0.0
 11
-3.287962
 21
5.962741
 31
0.0
  0
LINE
  8
0
  6
CONTINUOUS
 62
     7
  5
1014
 10
-3.287962
 20
5.962741
 30
0.0
 11
-3.288293
 21
5.967113
 31
0.0
  0
LINE
  8
0
  6
CONTINUOUS
 62
     7
  5
1015
 10
-3.288293
 20
5.967113
 30
0.0
 11
-3.288531
 21
5.971504
 31
0.0
  0
LINE
  8
0
  6
CONTINUOUS
 62
     7
  5
1016
 10
-3.288531
 20
5.971504
 30
0.0
 11
-3.288673
 21
5.975906
 31
0.0
  0
LINE
  8
0
  6
CONTINUOUS
 62
     7
  5
1017
 10
-3.288673
 20
5.975906
 30
0.0
 11
-3.288721
 21
5.980315
 31
0.0
  0
LINE
  8
0
  6
CONTINUOUS
 62
     7
  5
1018
 10
-3.061417
 20
5.783465
 30
0.0
 11
-3.238325
 21
5.866297
 31
0.0
  0
LINE
  8
0
  6
CONTINUOUS
 62
     7
  5
1019
 10
-3.061417
 20
6.177165
 30
0.0
 11
-3.061417
 21
5.783465
 31
0.0
  0
LINE
  8
0
  6
CONTINUOUS
 62
     7
  5
101A
 10
-5.816793
 20
5.866297
 30
0.0
 11
-5.993701
 21
5.783465
 31
0.0
  0
LINE
  8
0
  6
CONTINUOUS
 62
     7
  5
101B
 10
-5.993701
 20
6.177165
 30
0.0
 11
-5.816793
 21
6.094333
 31
0.0
  0
LINE
  8
0
  6
CONTINUOUS
 62
     7
  5
101C
 10
-5.993701
 20
5.783465
 30
0.0
 11
-5.993701
 21
6.177165
 31
0.0
  0
LINE
  8
0
  6
CONTINUOUS
 62
     7
  5
101D
 10
-5.766398
 20
5.980315
 30
0.0
 11
-5.766445
 21
5.975906
 31
0.0
  0
LINE
  8
0
  6
CONTINUOUS
 62
     7
  5
101E
 10
-5.766445
 20
5.975906
 30
0.0
 11
-5.766588
 21
5.971504
 31
0.0
  0
LINE
  8
0
  6
CONTINUOUS
 62
     7
  5
101F
 10
-5.766588
 20
5.971504
 30
0.0
 11
-5.766825
 21
5.967113
 31
0.0
  0
LINE
  8
0
  6
CONTINUOUS
 62
     7
  5
1020
 10
-5.766825
 20
5.967113
 30
0.0
 11
-5.767157
 21
5.962741
 31
0.0
  0
LINE
  8
0
  6
CONTINUOUS
 62
     7
  5
1021
 10
-5.767157
 20
5.962741
 30
0.0
 11
-5.767582
 21
5.958394
 31
0.0
  0
LINE
  8
0
  6
CONTINUOUS
 62
     7
  5
1022
 10
-5.767582
 20
5.958394
 30
0.0
 11
-5.768101
 21
5.954077
 31
0.0
  0
LINE
  8
0
  6
CONTINUOUS
 62
     7
  5
1023
 10
-5.768101
 20
5.954077
 30
0.0
 11
-5.768713
 21
5.949796
 31
0.0
  0
LINE
  8
0
  6
CONTINUOUS
 62
     7
  5
1024
 10
-5.768713
 20
5.949796
 30
0.0
 11
-5.769417
 21
5.945559
 31
0.0
  0
LINE
  8
0
  6
CONTINUOUS
 62
     7
  5
1025
 10
-5.769417
 20
5.945559
 30
0.0
 11
-5.770211
 21
5.941369
 31
0.0
  0
LINE
  8
0
  6
CONTINUOUS
 62
     7
  5
1026
 10
-5.770211
 20
5.941369
 30
0.0
 11
-5.771096
 21
5.937234
 31
0.0
  0
LINE
  8
0
  6
CONTINUOUS
 62
     7
  5
1027
 10
-5.771096
 20
5.937234
 30
0.0
 11
-5.772068
 21
5.933159
 31
0.0
  0
LINE
  8
0
  6
CONTINUOUS
 62
     7
  5
1028
 10
-5.772068
 20
5.933159
 30
0.0
 11
-5.773128
 21
5.92915
 31
0.0
  0
LINE
  8
0
  6
CONTINUOUS
 62
     7
  5
1029
 10
-5.773128
 20
5.92915
 30
0.0
 11
-5.774274
 21
5.925212
 31
0.0
  0
LINE
  8
0
  6
CONTINUOUS
 62
     7
  5
102A
 10
-5.774274
 20
5.925212
 30
0.0
 11
-5.775503
 21
5.921351
 31
0.0
  0
LINE
  8
0
  6
CONTINUOUS
 62
     7
  5
102B
 10
-5.775503
 20
5.921351
 30
0.0
 11
-5.776815
 21
5.917572
 31
0.0
  0
LINE
  8
0
  6
CONTINUOUS
 62
     7
  5
102C
 10
-5.776815
 20
5.917572
 30
0.0
 11
-5.778208
 21
5.91388
 31
0.0
  0
LINE
  8
0
  6
CONTINUOUS
 62
     7
  5
102D
 10
-5.778208
 20
5.91388
 30
0.0
 11
-5.779679
 21
5.910281
 31
0.0
  0
LINE
  8
0
  6
CONTINUOUS
 62
     7
  5
102E
 10
-5.779679
 20
5.910281
 30
0.0
 11
-5.781226
 21
5.90678
 31
0.0
  0
LINE
  8
0
  6
CONTINUOUS
 62
     7
  5
102F
 10
-5.781226
 20
5.90678
 30
0.0
 11
-5.782848
 21
5.903381
 31
0.0
  0
LINE
  8
0
  6
CONTINUOUS
 62
     7
  5
1030
 10
-5.782848
 20
5.903381
 30
0.0
 11
-5.784542
 21
5.90009
 31
0.0
  0
LINE
  8
0
  6
CONTINUOUS
 62
     7
  5
1031
 10
-5.784542
 20
5.90009
 30
0.0
 11
-5.786306
 21
5.89691
 31
0.0
  0
LINE
  8
0
  6
CONTINUOUS
 62
     7
  5
1032
 10
-5.786306
 20
5.89691
 30
0.0
 11
-5.788137
 21
5.893846
 31
0.0
  0
LINE
  8
0
  6
CONTINUOUS
 62
     7
  5
1033
 10
-5.788137
 20
5.893846
 30
0.0
 11
-5.790033
 21
5.890903
 31
0.0
  0
LINE
  8
0
  6
CONTINUOUS
 62
     7
  5
1034
 10
-5.790033
 20
5.890903
 30
0.0
 11
-5.791991
 21
5.888085
 31
0.0
  0
LINE
  8
0
  6
CONTINUOUS
 62
     7
  5
1035
 10
-5.791991
 20
5.888085
 30
0.0
 11
-5.794008
 21
5.885395
 31
0.0
  0
LINE
  8
0
  6
CONTINUOUS
 62
     7
  5
1036
 10
-5.794008
 20
5.885395
 30
0.0
 11
-5.796082
 21
5.882838
 31
0.0
  0
LINE
  8
0
  6
CONTINUOUS
 62
     7
  5
1037
 10
-5.796082
 20
5.882838
 30
0.0
 11
-5.79821
 21
5.880416
 31
0.0
  0
LINE
  8
0
  6
CONTINUOUS
 62
     7
  5
1038
 10
-5.79821
 20
5.880416
 30
0.0
 11
-5.800388
 21
5.878134
 31
0.0
  0
LINE
  8
0
  6
CONTINUOUS
 62
     7
  5
1039
 10
-5.800388
 20
5.878134
 30
0.0
 11
-5.802614
 21
5.875994
 31
0.0
  0
LINE
  8
0
  6
CONTINUOUS
 62
     7
  5
103A
 10
-5.802614
 20
5.875994
 30
0.0
 11
-5.804885
 21
5.873999
 31
0.0
  0
LINE
  8
0
  6
CONTINUOUS
 62
     7
  5
103B
 10
-5.804885
 20
5.873999
 30
0.0
 11
-5.807197
 21
5.872153
 31
0.0
  0
LINE
  8
0
  6
CONTINUOUS
 62
     7
  5
103C
 10
-5.807197
 20
5.872153
 30
0.0
 11
-5.809547
 21
5.870457
 31
0.0
  0
LINE
  8
0
  6
CONTINUOUS
 62
     7
  5
103D
 10
-5.809547
 20
5.870457
 30
0.0
 11
-5.811932
 21
5.868915
 31
0.0
  0
LINE
  8
0
  6
CONTINUOUS
 62
     7
  5
103E
 10
-5.811932
 20
5.868915
 30
0.0
 11
-5.814348
 21
5.867527
 31
0.0
  0
LINE
  8
0
  6
CONTINUOUS
 62
     7
  5
103F
 10
-5.814348
 20
5.867527
 30
0.0
 11
-5.816793
 21
5.866297
 31
0.0
  0
LINE
  8
0
  6
CONTINUOUS
 62
     7
  5
1040
 10
-5.816793
 20
6.094333
 30
0.0
 11
-5.814348
 21
6.093103
 31
0.0
  0
LINE
  8
0
  6
CONTINUOUS
 62
     7
  5
1041
 10
-5.814348
 20
6.093103
 30
0.0
 11
-5.811932
 21
6.091715
 31
0.0
  0
LINE
  8
0
  6
CONTINUOUS
 62
     7
  5
1042
 10
-5.811932
 20
6.091715
 30
0.0
 11
-5.809547
 21
6.090173
 31
0.0
  0
LINE
  8
0
  6
CONTINUOUS
 62
     7
  5
1043
 10
-5.809547
 20
6.090173
 30
0.0
 11
-5.807197
 21
6.088477
 31
0.0
  0
LINE
  8
0
  6
CONTINUOUS
 62
     7
  5
1044
 10
-5.807197
 20
6.088477
 30
0.0
 11
-5.804885
 21
6.086631
 31
0.0
  0
LINE
  8
0
  6
CONTINUOUS
 62
     7
  5
1045
 10
-5.804885
 20
6.086631
 30
0.0
 11
-5.802614
 21
6.084636
 31
0.0
  0
LINE
  8
0
  6
CONTINUOUS
 62
     7
  5
1046
 10
-5.802614
 20
6.084636
 30
0.0
 11
-5.800388
 21
6.082496
 31
0.0
  0
LINE
  8
0
  6
CONTINUOUS
 62
     7
  5
1047
 10
-5.800388
 20
6.082496
 30
0.0
 11
-5.79821
 21
6.080214
 31
0.0
  0
LINE
  8
0
  6
CONTINUOUS
 62
     7
  5
1048
 10
-5.79821
 20
6.080214
 30
0.0
 11
-5.796082
 21
6.077792
 31
0.0
  0
LINE
  8
0
  6
CONTINUOUS
 62
     7
  5
1049
 10
-5.796082
 20
6.077792
 30
0.0
 11
-5.794008
 21
6.075235
 31
0.0
  0
LINE
  8
0
  6
CONTINUOUS
 62
     7
  5
104A
 10
-5.794008
 20
6.075235
 30
0.0
 11
-5.791991
 21
6.072545
 31
0.0
  0
LINE
  8
0
  6
CONTINUOUS
 62
     7
  5
104B
 10
-5.791991
 20
6.072545
 30
0.0
 11
-5.790033
 21
6.069727
 31
0.0
  0
LINE
  8
0
  6
CONTINUOUS
 62
     7
  5
104C
 10
-5.790033
 20
6.069727
 30
0.0
 11
-5.788137
 21
6.066784
 31
0.0
  0
LINE
  8
0
  6
CONTINUOUS
 62
     7
  5
104D
 10
-5.788137
 20
6.066784
 30
0.0
 11
-5.786306
 21
6.06372
 31
0.0
  0
LINE
  8
0
  6
CONTINUOUS
 62
     7
  5
104E
 10
-5.786306
 20
6.06372
 30
0.0
 11
-5.784542
 21
6.06054
 31
0.0
  0
LINE
  8
0
  6
CONTINUOUS
 62
     7
  5
104F
 10
-5.784542
 20
6.06054
 30
0.0
 11
-5.782848
 21
6.057249
 31
0.0
  0
LINE
  8
0
  6
CONTINUOUS
 62
     7
  5
1050
 10
-5.782848
 20
6.057249
 30
0.0
 11
-5.781226
 21
6.05385
 31
0.0
  0
LINE
  8
0
  6
CONTINUOUS
 62
     7
  5
1051
 10
-5.781226
 20
6.05385
 30
0.0
 11
-5.779679
 21
6.050349
 31
0.0
  0
LINE
  8
0
  6
CONTINUOUS
 62
     7
  5
1052
 10
-5.779679
 20
6.050349
 30
0.0
 11
-5.778208
 21
6.04675
 31
0.0
  0
LINE
  8
0
  6
CONTINUOUS
 62
     7
  5
1053
 10
-5.778208
 20
6.04675
 30
0.0
 11
-5.776815
 21
6.043058
 31
0.0
  0
LINE
  8
0
  6
CONTINUOUS
 62
     7
  5
1054
 10
-5.776815
 20
6.043058
 30
0.0
 11
-5.775503
 21
6.039279
 31
0.0
  0
LINE
  8
0
  6
CONTINUOUS
 62
     7
  5
1055
 10
-5.775503
 20
6.039279
 30
0.0
 11
-5.774274
 21
6.035418
 31
0.0
  0
LINE
  8
0
  6
CONTINUOUS
 62
     7
  5
1056
 10
-5.774274
 20
6.035418
 30
0.0
 11
-5.773128
 21
6.03148
 31
0.0
  0
LINE
  8
0
  6
CONTINUOUS
 62
     7
  5
1057
 10
-5.773128
 20
6.03148
 30
0.0
 11
-5.772068
 21
6.027471
 31
0.0
  0
LINE
  8
0
  6
CONTINUOUS
 62
     7
  5
1058
 10
-5.772068
 20
6.027471
 30
0.0
 11
-5.771096
 21
6.023396
 31
0.0
  0
LINE
  8
0
  6
CONTINUOUS
 62
     7
  5
1059
 10
-5.771096
 20
6.023396
 30
0.0
 11
-5.770211
 21
6.019261
 31
0.0
  0
LINE
  8
0
  6
CONTINUOUS
 62
     7
  5
105A
 10
-5.770211
 20
6.019261
 30
0.0
 11
-5.769417
 21
6.015071
 31
0.0
  0
LINE
  8
0
  6
CONTINUOUS
 62
     7
  5
105B
 10
-5.769417
 20
6.015071
 30
0.0
 11
-5.768713
 21
6.010833
 31
0.0
  0
LINE
  8
0
  6
CONTINUOUS
 62
     7
  5
105C
 10
-5.768713
 20
6.010833
 30
0.0
 11
-5.768101
 21
6.006553
 31
0.0
  0
LINE
  8
0
  6
CONTINUOUS
 62
     7
  5
105D
 10
-5.768101
 20
6.006553
 30
0.0
 11
-5.767582
 21
6.002236
 31
0.0
  0
LINE
  8
0
  6
CONTINUOUS
 62
     7
  5
105E
 10
-5.767582
 20
6.002236
 30
0.0
 11
-5.767157
 21
5.997889
 31
0.0
  0
LINE
  8
0
  6
CONTINUOUS
 62
     7
  5
105F
 10
-5.767157
 20
5.997889
 30
0.0
 11
-5.766825
 21
5.993517
 31
0.0
  0
LINE
  8
0
  6
CONTINUOUS
 62
     7
  5
1060
 10
-5.766825
 20
5.993517
 30
0.0
 11
-5.766588
 21
5.989126
 31
0.0
  0
LINE
  8
0
  6
CONTINUOUS
 62
     7
  5
1061
 10
-5.766588
 20
5.989126
 30
0.0
 11
-5.766445
 21
5.984724
 31
0.0
  0
LINE
  8
0
  6
CONTINUOUS
 62
     7
  5
1062
 10
-5.766445
 20
5.984724
 30
0.0
 11
-5.766398
 21
5.980315
 31
0.0
  0
LINE
  8
0
  6
CONTINUOUS
 62
     7
  5
1063
 10
-5.993701
 20
6.177165
 30
0.0
 11
-3.061417
 21
6.177165
 31
0.0
  0
CIRCLE
  8
0
  6
CONTINUOUS
 62
     7
  5
1064
 10
-5.403543
 20
7.163386
 30
0.0
 40
0.285433
  0
CIRCLE
  8
0
  6
CONTINUOUS
 62
     7
  5
1065
 10
-3.651575
 20
7.163386
 30
0.0
 40
0.285433
  0
CIRCLE
  8
0
  6
CONTINUOUS
 62
     7
  5
1066
 10
-5.403543
 20
8.915354
 30
0.0
 40
0.285433
  0
CIRCLE
  8
0
  6
CONTINUOUS
 62
     7
  5
1067
 10
-3.651575
 20
8.915354
 30
0.0
 40
0.285433
  0
LINE
  8
0
  6
CONTINUOUS
 62
     7
  5
1068
 10
-3.031496
 20
5.783465
 30
0.0
 11
-3.031496
 21
9.537402
 31
0.0
  0
LINE
  8
0
  6
CONTINUOUS
 62
     7
  5
1069
 10
-3.031496
 20
9.537402
 30
0.0
 11
-6.023622
 21
9.537402
 31
0.0
  0
LINE
  8
0
  6
CONTINUOUS
 62
     7
  5
106A
 10
-6.023622
 20
9.537402
 30
0.0
 11
-6.023622
 21
5.783465
 31
0.0
  0
LINE
  8
0
  6
CONTINUOUS
 62
     7
  5
106B
 10
-3.032496
 20
11.392701
 30
0.0
 11
-3.032496
 21
9.537402
 31
0.0
  0
LINE
  8
0
  6
CONTINUOUS
 62
     7
  5
106C
 10
-7.988189
 20
11.392701
 30
0.0
 11
-3.032496
 21
11.392701
 31
0.0
  0
LINE
  8
0
  6
CONTINUOUS
 62
     7
  5
106D
 10
-7.988189
 20
6.394701
 30
0.0
 11
-6.023622
 21
6.394701
 31
0.0
  0
LINE
  8
0
  6
CONTINUOUS
 62
     7
  5
106E
 10
-5.600394
 20
10.820866
 30
0.0
 11
-5.206693
 21
10.820866
 31
0.0
  0
LINE
  8
0
  6
CONTINUOUS
 62
     7
  5
106F
 10
-5.206693
 20
10.820866
 30
0.0
 11
-5.206693
 21
10.427165
 31
0.0
  0
LINE
  8
0
  6
CONTINUOUS
 62
     7
  5
1070
 10
-5.206693
 20
10.427165
 30
0.0
 11
-5.600394
 21
10.427165
 31
0.0
  0
LINE
  8
0
  6
CONTINUOUS
 62
     7
  5
1071
 10
-5.600394
 20
10.427165
 30
0.0
 11
-5.600394
 21
10.820866
 31
0.0
  0
LINE
  8
0
  6
CONTINUOUS
 62
     7
  5
1072
 10
-3.848425
 20
10.820866
 30
0.0
 11
-3.454724
 21
10.820866
 31
0.0
  0
LINE
  8
0
  6
CONTINUOUS
 62
     7
  5
1073
 10
-3.454724
 20
10.820866
 30
0.0
 11
-3.454724
 21
10.427165
 31
0.0
  0
LINE
  8
0
  6
CONTINUOUS
 62
     7
  5
1074
 10
-3.454724
 20
10.427165
 30
0.0
 11
-3.848425
 21
10.427165
 31
0.0
  0
LINE
  8
0
  6
CONTINUOUS
 62
     7
  5
1075
 10
-3.848425
 20
10.427165
 30
0.0
 11
-3.848425
 21
10.820866
 31
0.0
  0
LINE
  8
0
  6
CONTINUOUS
 62
     7
  5
1076
 10
-9.956693
 20
9.681102
 30
0.0
 11
-8.46063
 21
9.681102
 31
0.0
  0
LINE
  8
0
  6
CONTINUOUS
 62
     7
  5
1077
 10
-8.46063
 20
9.681102
 30
0.0
 11
-8.46063
 21
8.106299
 31
0.0
  0
LINE
  8
0
  6
CONTINUOUS
 62
     7
  5
1078
 10
-9.956693
 20
11.255906
 30
0.0
 11
-9.956693
 21
9.681102
 31
0.0
  0
LINE
  8
0
  6
CONTINUOUS
 62
     7
  5
1079
 10
-8.46063
 20
8.106299
 30
0.0
 11
-8.185039
 21
8.106299
 31
0.0
  0
LINE
  8
0
  6
CONTINUOUS
 62
     7
  5
107A
 10
-8.185039
 20
11.255906
 30
0.0
 11
-9.956693
 21
11.255906
 31
0.0
  0
LINE
  8
0
  6
CONTINUOUS
 62
     7
  5
107B
 10
-8.5
 20
7.122047
 30
0.0
 11
-8.34252
 21
7.122047
 31
0.0
  0
LINE
  8
0
  6
CONTINUOUS
 62
     7
  5
107C
 10
-8.34252
 20
8.106299
 30
0.0
 11
-8.34252
 21
7.122047
 31
0.0
  0
LINE
  8
0
  6
CONTINUOUS
 62
     7
  5
107D
 10
-8.34252
 20
7.122047
 30
0.0
 11
-8.185039
 21
7.122047
 31
0.0
  0
LINE
  8
0
  6
CONTINUOUS
 62
     7
  5
107E
 10
-10.498031
 20
10.665354
 30
0.0
 11
-10.498031
 21
7.122047
 31
0.0
  0
LINE
  8
0
  6
CONTINUOUS
 62
     7
  5
107F
 10
-10.498031
 20
7.122047
 30
0.0
 11
-8.5
 21
7.122047
 31
0.0
  0
LINE
  8
0
  6
CONTINUOUS
 62
     7
  5
1080
 10
-10.498031
 20
10.665354
 30
0.0
 11
-9.956693
 21
10.665354
 31
0.0
  0
LINE
  8
0
  6
CONTINUOUS
 62
     7
  5
1081
 10
-8.185039
 20
11.392701
 30
0.0
 11
-8.185039
 21
6.394701
 31
0.0
  0
LINE
  8
0
  6
CONTINUOUS
 62
     7
  5
1082
 10
-8.185039
 20
6.394701
 30
0.0
 11
-7.988189
 21
6.394701
 31
0.0
  0
LINE
  8
0
  6
CONTINUOUS
 62
     7
  5
1083
 10
-8.185039
 20
11.392701
 30
0.0
 11
-7.988189
 21
11.392701
 31
0.0
  0
LINE
  8
0
  6
CONTINUOUS
 62
     7
  5
1084
 10
-8.027559
 20
6.394701
 30
0.0
 11
-8.027559
 21
6.393701
 31
0.0
  0
LINE
  8
0
  6
CONTINUOUS
 62
     7
  5
1085
 10
-8.027559
 20
6.393701
 30
0.0
 11
-7.830709
 21
6.393701
 31
0.0
  0
LINE
  8
0
  6
CONTINUOUS
 62
     7
  5
1086
 10
-8.027559
 20
11.393701
 30
0.0
 11
-7.830709
 21
11.393701
 31
0.0
  0
LINE
  8
0
  6
CONTINUOUS
 62
     7
  5
1087
 10
-7.830709
 20
6.393701
 30
0.0
 11
-6.023622
 21
6.393701
 31
0.0
  0
LINE
  8
0
  6
CONTINUOUS
 62
     7
  5
1088
 10
-3.031496
 20
11.393701
 30
0.0
 11
-3.031496
 21
9.537402
 31
0.0
  0
LINE
  8
0
  6
CONTINUOUS
 62
     7
  5
1089
 10
-7.830709
 20
11.393701
 30
0.0
 11
-3.031496
 21
11.393701
 31
0.0
  0
LINE
  8
0
  6
CONTINUOUS
 62
     7
  5
108A
 10
5.816793
 20
6.094333
 30
0.0
 11
5.993701
 21
6.177165
 31
0.0
  0
LINE
  8
0
  6
CONTINUOUS
 62
     7
  5
108B
 10
5.766398
 20
5.980315
 30
0.0
 11
5.766445
 21
5.984724
 31
0.0
  0
LINE
  8
0
  6
CONTINUOUS
 62
     7
  5
108C
 10
5.766445
 20
5.984724
 30
0.0
 11
5.766588
 21
5.989126
 31
0.0
  0
LINE
  8
0
  6
CONTINUOUS
 62
     7
  5
108D
 10
5.766588
 20
5.989126
 30
0.0
 11
5.766825
 21
5.993517
 31
0.0
  0
LINE
  8
0
  6
CONTINUOUS
 62
     7
  5
108E
 10
5.766825
 20
5.993517
 30
0.0
 11
5.767157
 21
5.997889
 31
0.0
  0
LINE
  8
0
  6
CONTINUOUS
 62
     7
  5
108F
 10
5.767157
 20
5.997889
 30
0.0
 11
5.767582
 21
6.002236
 31
0.0
  0
LINE
  8
0
  6
CONTINUOUS
 62
     7
  5
1090
 10
5.767582
 20
6.002236
 30
0.0
 11
5.768101
 21
6.006553
 31
0.0
  0
LINE
  8
0
  6
CONTINUOUS
 62
     7
  5
1091
 10
5.768101
 20
6.006553
 30
0.0
 11
5.768713
 21
6.010833
 31
0.0
  0
LINE
  8
0
  6
CONTINUOUS
 62
     7
  5
1092
 10
5.768713
 20
6.010833
 30
0.0
 11
5.769417
 21
6.015071
 31
0.0
  0
LINE
  8
0
  6
CONTINUOUS
 62
     7
  5
1093
 10
5.769417
 20
6.015071
 30
0.0
 11
5.770211
 21
6.019261
 31
0.0
  0
LINE
  8
0
  6
CONTINUOUS
 62
     7
  5
1094
 10
5.770211
 20
6.019261
 30
0.0
 11
5.771096
 21
6.023396
 31
0.0
  0
LINE
  8
0
  6
CONTINUOUS
 62
     7
  5
1095
 10
5.771096
 20
6.023396
 30
0.0
 11
5.772068
 21
6.027471
 31
0.0
  0
LINE
  8
0
  6
CONTINUOUS
 62
     7
  5
1096
 10
5.772068
 20
6.027471
 30
0.0
 11
5.773128
 21
6.03148
 31
0.0
  0
LINE
  8
0
  6
CONTINUOUS
 62
     7
  5
1097
 10
5.773128
 20
6.03148
 30
0.0
 11
5.774274
 21
6.035418
 31
0.0
  0
LINE
  8
0
  6
CONTINUOUS
 62
     7
  5
1098
 10
5.774274
 20
6.035418
 30
0.0
 11
5.775503
 21
6.039279
 31
0.0
  0
LINE
  8
0
  6
CONTINUOUS
 62
     7
  5
1099
 10
5.775503
 20
6.039279
 30
0.0
 11
5.776815
 21
6.043058
 31
0.0
  0
LINE
  8
0
  6
CONTINUOUS
 62
     7
  5
109A
 10
5.776815
 20
6.043058
 30
0.0
 11
5.778208
 21
6.04675
 31
0.0
  0
LINE
  8
0
  6
CONTINUOUS
 62
     7
  5
109B
 10
5.778208
 20
6.04675
 30
0.0
 11
5.779679
 21
6.050349
 31
0.0
  0
LINE
  8
0
  6
CONTINUOUS
 62
     7
  5
109C
 10
5.779679
 20
6.050349
 30
0.0
 11
5.781226
 21
6.05385
 31
0.0
  0
LINE
  8
0
  6
CONTINUOUS
 62
     7
  5
109D
 10
5.781226
 20
6.05385
 30
0.0
 11
5.782848
 21
6.057249
 31
0.0
  0
LINE
  8
0
  6
CONTINUOUS
 62
     7
  5
109E
 10
5.782848
 20
6.057249
 30
0.0
 11
5.784542
 21
6.06054
 31
0.0
  0
LINE
  8
0
  6
CONTINUOUS
 62
     7
  5
109F
 10
5.784542
 20
6.06054
 30
0.0
 11
5.786306
 21
6.06372
 31
0.0
  0
LINE
  8
0
  6
CONTINUOUS
 62
     7
  5
10A0
 10
5.786306
 20
6.06372
 30
0.0
 11
5.788137
 21
6.066784
 31
0.0
  0
LINE
  8
0
  6
CONTINUOUS
 62
     7
  5
10A1
 10
5.788137
 20
6.066784
 30
0.0
 11
5.790033
 21
6.069727
 31
0.0
  0
LINE
  8
0
  6
CONTINUOUS
 62
     7
  5
10A2
 10
5.790033
 20
6.069727
 30
0.0
 11
5.791991
 21
6.072545
 31
0.0
  0
LINE
  8
0
  6
CONTINUOUS
 62
     7
  5
10A3
 10
5.791991
 20
6.072545
 30
0.0
 11
5.794008
 21
6.075235
 31
0.0
  0
LINE
  8
0
  6
CONTINUOUS
 62
     7
  5
10A4
 10
5.794008
 20
6.075235
 30
0.0
 11
5.796082
 21
6.077792
 31
0.0
  0
LINE
  8
0
  6
CONTINUOUS
 62
     7
  5
10A5
 10
5.796082
 20
6.077792
 30
0.0
 11
5.79821
 21
6.080214
 31
0.0
  0
LINE
  8
0
  6
CONTINUOUS
 62
     7
  5
10A6
 10
5.79821
 20
6.080214
 30
0.0
 11
5.800388
 21
6.082496
 31
0.0
  0
LINE
  8
0
  6
CONTINUOUS
 62
     7
  5
10A7
 10
5.800388
 20
6.082496
 30
0.0
 11
5.802614
 21
6.084636
 31
0.0
  0
LINE
  8
0
  6
CONTINUOUS
 62
     7
  5
10A8
 10
5.802614
 20
6.084636
 30
0.0
 11
5.804885
 21
6.086631
 31
0.0
  0
LINE
  8
0
  6
CONTINUOUS
 62
     7
  5
10A9
 10
5.804885
 20
6.086631
 30
0.0
 11
5.807197
 21
6.088477
 31
0.0
  0
LINE
  8
0
  6
CONTINUOUS
 62
     7
  5
10AA
 10
5.807197
 20
6.088477
 30
0.0
 11
5.809547
 21
6.090173
 31
0.0
  0
LINE
  8
0
  6
CONTINUOUS
 62
     7
  5
10AB
 10
5.809547
 20
6.090173
 30
0.0
 11
5.811932
 21
6.091715
 31
0.0
  0
LINE
  8
0
  6
CONTINUOUS
 62
     7
  5
10AC
 10
5.811932
 20
6.091715
 30
0.0
 11
5.814348
 21
6.093103
 31
0.0
  0
LINE
  8
0
  6
CONTINUOUS
 62
     7
  5
10AD
 10
5.814348
 20
6.093103
 30
0.0
 11
5.816793
 21
6.094333
 31
0.0
  0
LINE
  8
0
  6
CONTINUOUS
 62
     7
  5
10AE
 10
5.816793
 20
5.866297
 30
0.0
 11
5.814348
 21
5.867527
 31
0.0
  0
LINE
  8
0
  6
CONTINUOUS
 62
     7
  5
10AF
 10
5.814348
 20
5.867527
 30
0.0
 11
5.811932
 21
5.868915
 31
0.0
  0
LINE
  8
0
  6
CONTINUOUS
 62
     7
  5
10B0
 10
5.811932
 20
5.868915
 30
0.0
 11
5.809547
 21
5.870457
 31
0.0
  0
LINE
  8
0
  6
CONTINUOUS
 62
     7
  5
10B1
 10
5.809547
 20
5.870457
 30
0.0
 11
5.807197
 21
5.872153
 31
0.0
  0
LINE
  8
0
  6
CONTINUOUS
 62
     7
  5
10B2
 10
5.807197
 20
5.872153
 30
0.0
 11
5.804885
 21
5.873999
 31
0.0
  0
LINE
  8
0
  6
CONTINUOUS
 62
     7
  5
10B3
 10
5.804885
 20
5.873999
 30
0.0
 11
5.802614
 21
5.875994
 31
0.0
  0
LINE
  8
0
  6
CONTINUOUS
 62
     7
  5
10B4
 10
5.802614
 20
5.875994
 30
0.0
 11
5.800388
 21
5.878134
 31
0.0
  0
LINE
  8
0
  6
CONTINUOUS
 62
     7
  5
10B5
 10
5.800388
 20
5.878134
 30
0.0
 11
5.79821
 21
5.880416
 31
0.0
  0
LINE
  8
0
  6
CONTINUOUS
 62
     7
  5
10B6
 10
5.79821
 20
5.880416
 30
0.0
 11
5.796082
 21
5.882838
 31
0.0
  0
LINE
  8
0
  6
CONTINUOUS
 62
     7
  5
10B7
 10
5.796082
 20
5.882838
 30
0.0
 11
5.794008
 21
5.885395
 31
0.0
  0
LINE
  8
0
  6
CONTINUOUS
 62
     7
  5
10B8
 10
5.794008
 20
5.885395
 30
0.0
 11
5.791991
 21
5.888085
 31
0.0
  0
LINE
  8
0
  6
CONTINUOUS
 62
     7
  5
10B9
 10
5.791991
 20
5.888085
 30
0.0
 11
5.790033
 21
5.890903
 31
0.0
  0
LINE
  8
0
  6
CONTINUOUS
 62
     7
  5
10BA
 10
5.790033
 20
5.890903
 30
0.0
 11
5.788137
 21
5.893846
 31
0.0
  0
LINE
  8
0
  6
CONTINUOUS
 62
     7
  5
10BB
 10
5.788137
 20
5.893846
 30
0.0
 11
5.786306
 21
5.89691
 31
0.0
  0
LINE
  8
0
  6
CONTINUOUS
 62
     7
  5
10BC
 10
5.786306
 20
5.89691
 30
0.0
 11
5.784542
 21
5.90009
 31
0.0
  0
LINE
  8
0
  6
CONTINUOUS
 62
     7
  5
10BD
 10
5.784542
 20
5.90009
 30
0.0
 11
5.782848
 21
5.903381
 31
0.0
  0
LINE
  8
0
  6
CONTINUOUS
 62
     7
  5
10BE
 10
5.782848
 20
5.903381
 30
0.0
 11
5.781226
 21
5.90678
 31
0.0
  0
LINE
  8
0
  6
CONTINUOUS
 62
     7
  5
10BF
 10
5.781226
 20
5.90678
 30
0.0
 11
5.779679
 21
5.910281
 31
0.0
  0
LINE
  8
0
  6
CONTINUOUS
 62
     7
  5
10C0
 10
5.779679
 20
5.910281
 30
0.0
 11
5.778208
 21
5.91388
 31
0.0
  0
LINE
  8
0
  6
CONTINUOUS
 62
     7
  5
10C1
 10
5.778208
 20
5.91388
 30
0.0
 11
5.776815
 21
5.917572
 31
0.0
  0
LINE
  8
0
  6
CONTINUOUS
 62
     7
  5
10C2
 10
5.776815
 20
5.917572
 30
0.0
 11
5.775503
 21
5.921351
 31
0.0
  0
LINE
  8
0
  6
CONTINUOUS
 62
     7
  5
10C3
 10
5.775503
 20
5.921351
 30
0.0
 11
5.774274
 21
5.925212
 31
0.0
  0
LINE
  8
0
  6
CONTINUOUS
 62
     7
  5
10C4
 10
5.774274
 20
5.925212
 30
0.0
 11
5.773128
 21
5.92915
 31
0.0
  0
LINE
  8
0
  6
CONTINUOUS
 62
     7
  5
10C5
 10
5.773128
 20
5.92915
 30
0.0
 11
5.772068
 21
5.933159
 31
0.0
  0
LINE
  8
0
  6
CONTINUOUS
 62
     7
  5
10C6
 10
5.772068
 20
5.933159
 30
0.0
 11
5.771096
 21
5.937234
 31
0.0
  0
LINE
  8
0
  6
CONTINUOUS
 62
     7
  5
10C7
 10
5.771096
 20
5.937234
 30
0.0
 11
5.770211
 21
5.941369
 31
0.0
  0
LINE
  8
0
  6
CONTINUOUS
 62
     7
  5
10C8
 10
5.770211
 20
5.941369
 30
0.0
 11
5.769417
 21
5.945559
 31
0.0
  0
LINE
  8
0
  6
CONTINUOUS
 62
     7
  5
10C9
 10
5.769417
 20
5.945559
 30
0.0
 11
5.768713
 21
5.949796
 31
0.0
  0
LINE
  8
0
  6
CONTINUOUS
 62
     7
  5
10CA
 10
5.768713
 20
5.949796
 30
0.0
 11
5.768101
 21
5.954077
 31
0.0
  0
LINE
  8
0
  6
CONTINUOUS
 62
     7
  5
10CB
 10
5.768101
 20
5.954077
 30
0.0
 11
5.767582
 21
5.958394
 31
0.0
  0
LINE
  8
0
  6
CONTINUOUS
 62
     7
  5
10CC
 10
5.767582
 20
5.958394
 30
0.0
 11
5.767157
 21
5.962741
 31
0.0
  0
LINE
  8
0
  6
CONTINUOUS
 62
     7
  5
10CD
 10
5.767157
 20
5.962741
 30
0.0
 11
5.766825
 21
5.967113
 31
0.0
  0
LINE
  8
0
  6
CONTINUOUS
 62
     7
  5
10CE
 10
5.766825
 20
5.967113
 30
0.0
 11
5.766588
 21
5.971504
 31
0.0
  0
LINE
  8
0
  6
CONTINUOUS
 62
     7
  5
10CF
 10
5.766588
 20
5.971504
 30
0.0
 11
5.766445
 21
5.975906
 31
0.0
  0
LINE
  8
0
  6
CONTINUOUS
 62
     7
  5
10D0
 10
5.766445
 20
5.975906
 30
0.0
 11
5.766398
 21
5.980315
 31
0.0
  0
LINE
  8
0
  6
CONTINUOUS
 62
     7
  5
10D1
 10
5.993701
 20
5.783465
 30
0.0
 11
5.816793
 21
5.866297
 31
0.0
  0
LINE
  8
0
  6
CONTINUOUS
 62
     7
  5
10D2
 10
5.993701
 20
6.177165
 30
0.0
 11
5.993701
 21
5.783465
 31
0.0
  0
LINE
  8
0
  6
CONTINUOUS
 62
     7
  5
10D3
 10
3.238325
 20
5.866297
 30
0.0
 11
3.061417
 21
5.783465
 31
0.0
  0
LINE
  8
0
  6
CONTINUOUS
 62
     7
  5
10D4
 10
3.061417
 20
6.177165
 30
0.0
 11
3.238325
 21
6.094333
 31
0.0
  0
LINE
  8
0
  6
CONTINUOUS
 62
     7
  5
10D5
 10
3.061417
 20
5.783465
 30
0.0
 11
3.061417
 21
6.177165
 31
0.0
  0
LINE
  8
0
  6
CONTINUOUS
 62
     7
  5
10D6
 10
3.288721
 20
5.980315
 30
0.0
 11
3.288673
 21
5.975906
 31
0.0
  0
LINE
  8
0
  6
CONTINUOUS
 62
     7
  5
10D7
 10
3.288673
 20
5.975906
 30
0.0
 11
3.288531
 21
5.971504
 31
0.0
  0
LINE
  8
0
  6
CONTINUOUS
 62
     7
  5
10D8
 10
3.288531
 20
5.971504
 30
0.0
 11
3.288293
 21
5.967113
 31
0.0
  0
LINE
  8
0
  6
CONTINUOUS
 62
     7
  5
10D9
 10
3.288293
 20
5.967113
 30
0.0
 11
3.287962
 21
5.962741
 31
0.0
  0
LINE
  8
0
  6
CONTINUOUS
 62
     7
  5
10DA
 10
3.287962
 20
5.962741
 30
0.0
 11
3.287536
 21
5.958394
 31
0.0
  0
LINE
  8
0
  6
CONTINUOUS
 62
     7
  5
10DB
 10
3.287536
 20
5.958394
 30
0.0
 11
3.287017
 21
5.954077
 31
0.0
  0
LINE
  8
0
  6
CONTINUOUS
 62
     7
  5
10DC
 10
3.287017
 20
5.954077
 30
0.0
 11
3.286405
 21
5.949796
 31
0.0
  0
LINE
  8
0
  6
CONTINUOUS
 62
     7
  5
10DD
 10
3.286405
 20
5.949796
 30
0.0
 11
3.285701
 21
5.945559
 31
0.0
  0
LINE
  8
0
  6
CONTINUOUS
 62
     7
  5
10DE
 10
3.285701
 20
5.945559
 30
0.0
 11
3.284907
 21
5.941369
 31
0.0
  0
LINE
  8
0
  6
CONTINUOUS
 62
     7
  5
10DF
 10
3.284907
 20
5.941369
 30
0.0
 11
3.284023
 21
5.937234
 31
0.0
  0
LINE
  8
0
  6
CONTINUOUS
 62
     7
  5
10E0
 10
3.284023
 20
5.937234
 30
0.0
 11
3.28305
 21
5.933159
 31
0.0
  0
LINE
  8
0
  6
CONTINUOUS
 62
     7
  5
10E1
 10
3.28305
 20
5.933159
 30
0.0
 11
3.28199
 21
5.92915
 31
0.0
  0
LINE
  8
0
  6
CONTINUOUS
 62
     7
  5
10E2
 10
3.28199
 20
5.92915
 30
0.0
 11
3.280845
 21
5.925212
 31
0.0
  0
LINE
  8
0
  6
CONTINUOUS
 62
     7
  5
10E3
 10
3.280845
 20
5.925212
 30
0.0
 11
3.279615
 21
5.921351
 31
0.0
  0
LINE
  8
0
  6
CONTINUOUS
 62
     7
  5
10E4
 10
3.279615
 20
5.921351
 30
0.0
 11
3.278303
 21
5.917572
 31
0.0
  0
LINE
  8
0
  6
CONTINUOUS
 62
     7
  5
10E5
 10
3.278303
 20
5.917572
 30
0.0
 11
3.276911
 21
5.91388
 31
0.0
  0
LINE
  8
0
  6
CONTINUOUS
 62
     7
  5
10E6
 10
3.276911
 20
5.91388
 30
0.0
 11
3.27544
 21
5.910281
 31
0.0
  0
LINE
  8
0
  6
CONTINUOUS
 62
     7
  5
10E7
 10
3.27544
 20
5.910281
 30
0.0
 11
3.273892
 21
5.90678
 31
0.0
  0
LINE
  8
0
  6
CONTINUOUS
 62
     7
  5
10E8
 10
3.273892
 20
5.90678
 30
0.0
 11
3.27227
 21
5.903381
 31
0.0
  0
LINE
  8
0
  6
CONTINUOUS
 62
     7
  5
10E9
 10
3.27227
 20
5.903381
 30
0.0
 11
3.270576
 21
5.90009
 31
0.0
  0
LINE
  8
0
  6
CONTINUOUS
 62
     7
  5
10EA
 10
3.270576
 20
5.90009
 30
0.0
 11
3.268812
 21
5.89691
 31
0.0
  0
LINE
  8
0
  6
CONTINUOUS
 62
     7
  5
10EB
 10
3.268812
 20
5.89691
 30
0.0
 11
3.266981
 21
5.893846
 31
0.0
  0
LINE
  8
0
  6
CONTINUOUS
 62
     7
  5
10EC
 10
3.266981
 20
5.893846
 30
0.0
 11
3.265085
 21
5.890903
 31
0.0
  0
LINE
  8
0
  6
CONTINUOUS
 62
     7
  5
10ED
 10
3.265085
 20
5.890903
 30
0.0
 11
3.263127
 21
5.888085
 31
0.0
  0
LINE
  8
0
  6
CONTINUOUS
 62
     7
  5
10EE
 10
3.263127
 20
5.888085
 30
0.0
 11
3.26111
 21
5.885395
 31
0.0
  0
LINE
  8
0
  6
CONTINUOUS
 62
     7
  5
10EF
 10
3.26111
 20
5.885395
 30
0.0
 11
3.259036
 21
5.882838
 31
0.0
  0
LINE
  8
0
  6
CONTINUOUS
 62
     7
  5
10F0
 10
3.259036
 20
5.882838
 30
0.0
 11
3.256908
 21
5.880416
 31
0.0
  0
LINE
  8
0
  6
CONTINUOUS
 62
     7
  5
10F1
 10
3.256908
 20
5.880416
 30
0.0
 11
3.25473
 21
5.878134
 31
0.0
  0
LINE
  8
0
  6
CONTINUOUS
 62
     7
  5
10F2
 10
3.25473
 20
5.878134
 30
0.0
 11
3.252504
 21
5.875994
 31
0.0
  0
LINE
  8
0
  6
CONTINUOUS
 62
     7
  5
10F3
 10
3.252504
 20
5.875994
 30
0.0
 11
3.250233
 21
5.873999
 31
0.0
  0
LINE
  8
0
  6
CONTINUOUS
 62
     7
  5
10F4
 10
3.250233
 20
5.873999
 30
0.0
 11
3.247922
 21
5.872153
 31
0.0
  0
LINE
  8
0
  6
CONTINUOUS
 62
     7
  5
10F5
 10
3.247922
 20
5.872153
 30
0.0
 11
3.245571
 21
5.870457
 31
0.0
  0
LINE
  8
0
  6
CONTINUOUS
 62
     7
  5
10F6
 10
3.245571
 20
5.870457
 30
0.0
 11
3.243186
 21
5.868915
 31
0.0
  0
LINE
  8
0
  6
CONTINUOUS
 62
     7
  5
10F7
 10
3.243186
 20
5.868915
 30
0.0
 11
3.24077
 21
5.867527
 31
0.0
  0
LINE
  8
0
  6
CONTINUOUS
 62
     7
  5
10F8
 10
3.24077
 20
5.867527
 30
0.0
 11
3.238325
 21
5.866297
 31
0.0
  0
LINE
  8
0
  6
CONTINUOUS
 62
     7
  5
10F9
 10
3.238325
 20
6.094333
 30
0.0
 11
3.24077
 21
6.093103
 31
0.0
  0
LINE
  8
0
  6
CONTINUOUS
 62
     7
  5
10FA
 10
3.24077
 20
6.093103
 30
0.0
 11
3.243186
 21
6.091715
 31
0.0
  0
LINE
  8
0
  6
CONTINUOUS
 62
     7
  5
10FB
 10
3.243186
 20
6.091715
 30
0.0
 11
3.245571
 21
6.090173
 31
0.0
  0
LINE
  8
0
  6
CONTINUOUS
 62
     7
  5
10FC
 10
3.245571
 20
6.090173
 30
0.0
 11
3.247922
 21
6.088477
 31
0.0
  0
LINE
  8
0
  6
CONTINUOUS
 62
     7
  5
10FD
 10
3.247922
 20
6.088477
 30
0.0
 11
3.250233
 21
6.086631
 31
0.0
  0
LINE
  8
0
  6
CONTINUOUS
 62
     7
  5
10FE
 10
3.250233
 20
6.086631
 30
0.0
 11
3.252504
 21
6.084636
 31
0.0
  0
LINE
  8
0
  6
CONTINUOUS
 62
     7
  5
10FF
 10
3.252504
 20
6.084636
 30
0.0
 11
3.25473
 21
6.082496
 31
0.0
  0
LINE
  8
0
  6
CONTINUOUS
 62
     7
  5
1100
 10
3.25473
 20
6.082496
 30
0.0
 11
3.256908
 21
6.080214
 31
0.0
  0
LINE
  8
0
  6
CONTINUOUS
 62
     7
  5
1101
 10
3.256908
 20
6.080214
 30
0.0
 11
3.259036
 21
6.077792
 31
0.0
  0
LINE
  8
0
  6
CONTINUOUS
 62
     7
  5
1102
 10
3.259036
 20
6.077792
 30
0.0
 11
3.26111
 21
6.075235
 31
0.0
  0
LINE
  8
0
  6
CONTINUOUS
 62
     7
  5
1103
 10
3.26111
 20
6.075235
 30
0.0
 11
3.263127
 21
6.072545
 31
0.0
  0
LINE
  8
0
  6
CONTINUOUS
 62
     7
  5
1104
 10
3.263127
 20
6.072545
 30
0.0
 11
3.265085
 21
6.069727
 31
0.0
  0
LINE
  8
0
  6
CONTINUOUS
 62
     7
  5
1105
 10
3.265085
 20
6.069727
 30
0.0
 11
3.266981
 21
6.066784
 31
0.0
  0
LINE
  8
0
  6
CONTINUOUS
 62
     7
  5
1106
 10
3.266981
 20
6.066784
 30
0.0
 11
3.268812
 21
6.06372
 31
0.0
  0
LINE
  8
0
  6
CONTINUOUS
 62
     7
  5
1107
 10
3.268812
 20
6.06372
 30
0.0
 11
3.270576
 21
6.06054
 31
0.0
  0
LINE
  8
0
  6
CONTINUOUS
 62
     7
  5
1108
 10
3.270576
 20
6.06054
 30
0.0
 11
3.27227
 21
6.057249
 31
0.0
  0
LINE
  8
0
  6
CONTINUOUS
 62
     7
  5
1109
 10
3.27227
 20
6.057249
 30
0.0
 11
3.273892
 21
6.05385
 31
0.0
  0
LINE
  8
0
  6
CONTINUOUS
 62
     7
  5
110A
 10
3.273892
 20
6.05385
 30
0.0
 11
3.27544
 21
6.050349
 31
0.0
  0
LINE
  8
0
  6
CONTINUOUS
 62
     7
  5
110B
 10
3.27544
 20
6.050349
 30
0.0
 11
3.276911
 21
6.04675
 31
0.0
  0
LINE
  8
0
  6
CONTINUOUS
 62
     7
  5
110C
 10
3.276911
 20
6.04675
 30
0.0
 11
3.278303
 21
6.043058
 31
0.0
  0
LINE
  8
0
  6
CONTINUOUS
 62
     7
  5
110D
 10
3.278303
 20
6.043058
 30
0.0
 11
3.279615
 21
6.039279
 31
0.0
  0
LINE
  8
0
  6
CONTINUOUS
 62
     7
  5
110E
 10
3.279615
 20
6.039279
 30
0.0
 11
3.280845
 21
6.035418
 31
0.0
  0
LINE
  8
0
  6
CONTINUOUS
 62
     7
  5
110F
 10
3.280845
 20
6.035418
 30
0.0
 11
3.28199
 21
6.03148
 31
0.0
  0
LINE
  8
0
  6
CONTINUOUS
 62
     7
  5
1110
 10
3.28199
 20
6.03148
 30
0.0
 11
3.28305
 21
6.027471
 31
0.0
  0
LINE
  8
0
  6
CONTINUOUS
 62
     7
  5
1111
 10
3.28305
 20
6.027471
 30
0.0
 11
3.284023
 21
6.023396
 31
0.0
  0
LINE
  8
0
  6
CONTINUOUS
 62
     7
  5
1112
 10
3.284023
 20
6.023396
 30
0.0
 11
3.284907
 21
6.019261
 31
0.0
  0
LINE
  8
0
  6
CONTINUOUS
 62
     7
  5
1113
 10
3.284907
 20
6.019261
 30
0.0
 11
3.285701
 21
6.015071
 31
0.0
  0
LINE
  8
0
  6
CONTINUOUS
 62
     7
  5
1114
 10
3.285701
 20
6.015071
 30
0.0
 11
3.286405
 21
6.010833
 31
0.0
  0
LINE
  8
0
  6
CONTINUOUS
 62
     7
  5
1115
 10
3.286405
 20
6.010833
 30
0.0
 11
3.287017
 21
6.006553
 31
0.0
  0
LINE
  8
0
  6
CONTINUOUS
 62
     7
  5
1116
 10
3.287017
 20
6.006553
 30
0.0
 11
3.287536
 21
6.002236
 31
0.0
  0
LINE
  8
0
  6
CONTINUOUS
 62
     7
  5
1117
 10
3.287536
 20
6.002236
 30
0.0
 11
3.287962
 21
5.997889
 31
0.0
  0
LINE
  8
0
  6
CONTINUOUS
 62
     7
  5
1118
 10
3.287962
 20
5.997889
 30
0.0
 11
3.288293
 21
5.993517
 31
0.0
  0
LINE
  8
0
  6
CONTINUOUS
 62
     7
  5
1119
 10
3.288293
 20
5.993517
 30
0.0
 11
3.288531
 21
5.989126
 31
0.0
  0
LINE
  8
0
  6
CONTINUOUS
 62
     7
  5
111A
 10
3.288531
 20
5.989126
 30
0.0
 11
3.288673
 21
5.984724
 31
0.0
  0
LINE
  8
0
  6
CONTINUOUS
 62
     7
  5
111B
 10
3.288673
 20
5.984724
 30
0.0
 11
3.288721
 21
5.980315
 31
0.0
  0
LINE
  8
0
  6
CONTINUOUS
 62
     7
  5
111C
 10
3.061417
 20
6.177165
 30
0.0
 11
5.993701
 21
6.177165
 31
0.0
  0
CIRCLE
  8
0
  6
CONTINUOUS
 62
     7
  5
111D
 10
3.651575
 20
7.163386
 30
0.0
 40
0.285433
  0
CIRCLE
  8
0
  6
CONTINUOUS
 62
     7
  5
111E
 10
5.403543
 20
7.163386
 30
0.0
 40
0.285433
  0
CIRCLE
  8
0
  6
CONTINUOUS
 62
     7
  5
111F
 10
3.651575
 20
8.915354
 30
0.0
 40
0.285433
  0
CIRCLE
  8
0
  6
CONTINUOUS
 62
     7
  5
1120
 10
5.403543
 20
8.915354
 30
0.0
 40
0.285433
  0
LINE
  8
0
  6
CONTINUOUS
 62
     7
  5
1121
 10
6.023622
 20
5.783465
 30
0.0
 11
6.023622
 21
9.537402
 31
0.0
  0
LINE
  8
0
  6
CONTINUOUS
 62
     7
  5
1122
 10
6.023622
 20
9.537402
 30
0.0
 11
3.031496
 21
9.537402
 31
0.0
  0
LINE
  8
0
  6
CONTINUOUS
 62
     7
  5
1123
 10
3.031496
 20
9.537402
 30
0.0
 11
3.031496
 21
5.783465
 31
0.0
  0
LINE
  8
0
  6
CONTINUOUS
 62
     7
  5
1124
 10
8.46063
 20
9.681102
 30
0.0
 11
9.956693
 21
9.681102
 31
0.0
  0
LINE
  8
0
  6
CONTINUOUS
 62
     7
  5
1125
 10
8.46063
 20
8.106299
 30
0.0
 11
8.46063
 21
9.681102
 31
0.0
  0
LINE
  8
0
  6
CONTINUOUS
 62
     7
  5
1126
 10
9.956693
 20
9.681102
 30
0.0
 11
9.956693
 21
11.255906
 31
0.0
  0
LINE
  8
0
  6
CONTINUOUS
 62
     7
  5
1127
 10
9.956693
 20
11.255906
 30
0.0
 11
8.185039
 21
11.255906
 31
0.0
  0
LINE
  8
0
  6
CONTINUOUS
 62
     7
  5
1128
 10
8.185039
 20
8.106299
 30
0.0
 11
8.46063
 21
8.106299
 31
0.0
  0
LINE
  8
0
  6
CONTINUOUS
 62
     7
  5
1129
 10
8.5
 20
7.122047
 30
0.0
 11
8.34252
 21
7.122047
 31
0.0
  0
LINE
  8
0
  6
CONTINUOUS
 62
     7
  5
112A
 10
8.34252
 20
7.122047
 30
0.0
 11
8.34252
 21
8.106299
 31
0.0
  0
LINE
  8
0
  6
CONTINUOUS
 62
     7
  5
112B
 10
8.34252
 20
7.122047
 30
0.0
 11
8.185039
 21
7.122047
 31
0.0
  0
LINE
  8
0
  6
CONTINUOUS
 62
     7
  5
112C
 10
10.498031
 20
7.122047
 30
0.0
 11
10.498031
 21
10.665354
 31
0.0
  0
LINE
  8
0
  6
CONTINUOUS
 62
     7
  5
112D
 10
10.498031
 20
10.665354
 30
0.0
 11
9.956693
 21
10.665354
 31
0.0
  0
LINE
  8
0
  6
CONTINUOUS
 62
     7
  5
112E
 10
10.498031
 20
7.122047
 30
0.0
 11
8.5
 21
7.122047
 31
0.0
  0
LINE
  8
0
  6
CONTINUOUS
 62
     7
  5
112F
 10
8.185039
 20
6.394701
 30
0.0
 11
8.185039
 21
11.392701
 31
0.0
  0
LINE
  8
0
  6
CONTINUOUS
 62
     7
  5
1130
 10
5.206693
 20
10.820866
 30
0.0
 11
5.600394
 21
10.820866
 31
0.0
  0
LINE
  8
0
  6
CONTINUOUS
 62
     7
  5
1131
 10
5.206693
 20
10.427165
 30
0.0
 11
5.206693
 21
10.820866
 31
0.0
  0
LINE
  8
0
  6
CONTINUOUS
 62
     7
  5
1132
 10
5.600394
 20
10.427165
 30
0.0
 11
5.206693
 21
10.427165
 31
0.0
  0
LINE
  8
0
  6
CONTINUOUS
 62
     7
  5
1133
 10
5.600394
 20
10.820866
 30
0.0
 11
5.600394
 21
10.427165
 31
0.0
  0
LINE
  8
0
  6
CONTINUOUS
 62
     7
  5
1134
 10
3.454724
 20
10.820866
 30
0.0
 11
3.848425
 21
10.820866
 31
0.0
  0
LINE
  8
0
  6
CONTINUOUS
 62
     7
  5
1135
 10
3.454724
 20
10.427165
 30
0.0
 11
3.454724
 21
10.820866
 31
0.0
  0
LINE
  8
0
  6
CONTINUOUS
 62
     7
  5
1136
 10
3.848425
 20
10.427165
 30
0.0
 11
3.454724
 21
10.427165
 31
0.0
  0
LINE
  8
0
  6
CONTINUOUS
 62
     7
  5
1137
 10
3.848425
 20
10.820866
 30
0.0
 11
3.848425
 21
10.427165
 31
0.0
  0
LINE
  8
0
  6
CONTINUOUS
 62
     7
  5
1138
 10
8.185039
 20
11.392701
 30
0.0
 11
7.988189
 21
11.392701
 31
0.0
  0
LINE
  8
0
  6
CONTINUOUS
 62
     7
  5
1139
 10
8.185039
 20
6.394701
 30
0.0
 11
7.988189
 21
6.394701
 31
0.0
  0
LINE
  8
0
  6
CONTINUOUS
 62
     7
  5
113A
 10
7.988189
 20
6.394701
 30
0.0
 11
6.023622
 21
6.394701
 31
0.0
  0
LINE
  8
0
  6
CONTINUOUS
 62
     7
  5
113B
 10
7.988189
 20
11.392701
 30
0.0
 11
3.032496
 21
11.392701
 31
0.0
  0
LINE
  8
0
  6
CONTINUOUS
 62
     7
  5
113C
 10
3.032496
 20
9.537402
 30
0.0
 11
3.032496
 21
11.392701
 31
0.0
  0
LINE
  8
0
  6
CONTINUOUS
 62
     7
  5
113D
 10
8.027559
 20
11.392701
 30
0.0
 11
8.027559
 21
11.393701
 31
0.0
  0
LINE
  8
0
  6
CONTINUOUS
 62
     7
  5
113E
 10
8.027559
 20
11.393701
 30
0.0
 11
7.830709
 21
11.393701
 31
0.0
  0
LINE
  8
0
  6
CONTINUOUS
 62
     7
  5
113F
 10
8.027559
 20
6.393701
 30
0.0
 11
7.830709
 21
6.393701
 31
0.0
  0
LINE
  8
0
  6
CONTINUOUS
 62
     7
  5
1140
 10
7.830709
 20
11.393701
 30
0.0
 11
3.031496
 21
11.393701
 31
0.0
  0
LINE
  8
0
  6
CONTINUOUS
 62
     7
  5
1141
 10
3.031496
 20
9.537402
 30
0.0
 11
3.031496
 21
11.393701
 31
0.0
  0
LINE
  8
0
  6
CONTINUOUS
 62
     7
  5
1142
 10
7.830709
 20
6.393701
 30
0.0
 11
6.023622
 21
6.393701
 31
0.0
  0
LINE
  8
0
  6
CONTINUOUS
 62
     7
  5
1143
 10
3.238325
 20
-3.267561
 30
0.0
 11
3.061417
 21
-3.350394
 31
0.0
  0
LINE
  8
0
  6
CONTINUOUS
 62
     7
  5
1144
 10
3.288721
 20
-3.153543
 30
0.0
 11
3.288673
 21
-3.157952
 31
0.0
  0
LINE
  8
0
  6
CONTINUOUS
 62
     7
  5
1145
 10
3.288673
 20
-3.157952
 30
0.0
 11
3.288531
 21
-3.162355
 31
0.0
  0
LINE
  8
0
  6
CONTINUOUS
 62
     7
  5
1146
 10
3.288531
 20
-3.162355
 30
0.0
 11
3.288293
 21
-3.166745
 31
0.0
  0
LINE
  8
0
  6
CONTINUOUS
 62
     7
  5
1147
 10
3.288293
 20
-3.166745
 30
0.0
 11
3.287962
 21
-3.171117
 31
0.0
  0
LINE
  8
0
  6
CONTINUOUS
 62
     7
  5
1148
 10
3.287962
 20
-3.171117
 30
0.0
 11
3.287536
 21
-3.175465
 31
0.0
  0
LINE
  8
0
  6
CONTINUOUS
 62
     7
  5
1149
 10
3.287536
 20
-3.175465
 30
0.0
 11
3.287017
 21
-3.179781
 31
0.0
  0
LINE
  8
0
  6
CONTINUOUS
 62
     7
  5
114A
 10
3.287017
 20
-3.179781
 30
0.0
 11
3.286405
 21
-3.184062
 31
0.0
  0
LINE
  8
0
  6
CONTINUOUS
 62
     7
  5
114B
 10
3.286405
 20
-3.184062
 30
0.0
 11
3.285701
 21
-3.1883
 31
0.0
  0
LINE
  8
0
  6
CONTINUOUS
 62
     7
  5
114C
 10
3.285701
 20
-3.1883
 30
0.0
 11
3.284907
 21
-3.192489
 31
0.0
  0
LINE
  8
0
  6
CONTINUOUS
 62
     7
  5
114D
 10
3.284907
 20
-3.192489
 30
0.0
 11
3.284023
 21
-3.196624
 31
0.0
  0
LINE
  8
0
  6
CONTINUOUS
 62
     7
  5
114E
 10
3.284023
 20
-3.196624
 30
0.0
 11
3.28305
 21
-3.200699
 31
0.0
  0
LINE
  8
0
  6
CONTINUOUS
 62
     7
  5
114F
 10
3.28305
 20
-3.200699
 30
0.0
 11
3.28199
 21
-3.204708
 31
0.0
  0
LINE
  8
0
  6
CONTINUOUS
 62
     7
  5
1150
 10
3.28199
 20
-3.204708
 30
0.0
 11
3.280845
 21
-3.208646
 31
0.0
  0
LINE
  8
0
  6
CONTINUOUS
 62
     7
  5
1151
 10
3.280845
 20
-3.208646
 30
0.0
 11
3.279615
 21
-3.212508
 31
0.0
  0
LINE
  8
0
  6
CONTINUOUS
 62
     7
  5
1152
 10
3.279615
 20
-3.212508
 30
0.0
 11
3.278303
 21
-3.216287
 31
0.0
  0
LINE
  8
0
  6
CONTINUOUS
 62
     7
  5
1153
 10
3.278303
 20
-3.216287
 30
0.0
 11
3.276911
 21
-3.219978
 31
0.0
  0
LINE
  8
0
  6
CONTINUOUS
 62
     7
  5
1154
 10
3.276911
 20
-3.219978
 30
0.0
 11
3.27544
 21
-3.223577
 31
0.0
  0
LINE
  8
0
  6
CONTINUOUS
 62
     7
  5
1155
 10
3.27544
 20
-3.223577
 30
0.0
 11
3.273892
 21
-3.227078
 31
0.0
  0
LINE
  8
0
  6
CONTINUOUS
 62
     7
  5
1156
 10
3.273892
 20
-3.227078
 30
0.0
 11
3.27227
 21
-3.230477
 31
0.0
  0
LINE
  8
0
  6
CONTINUOUS
 62
     7
  5
1157
 10
3.27227
 20
-3.230477
 30
0.0
 11
3.270576
 21
-3.233769
 31
0.0
  0
LINE
  8
0
  6
CONTINUOUS
 62
     7
  5
1158
 10
3.270576
 20
-3.233769
 30
0.0
 11
3.268812
 21
-3.236949
 31
0.0
  0
LINE
  8
0
  6
CONTINUOUS
 62
     7
  5
1159
 10
3.268812
 20
-3.236949
 30
0.0
 11
3.266981
 21
-3.240012
 31
0.0
  0
LINE
  8
0
  6
CONTINUOUS
 62
     7
  5
115A
 10
3.266981
 20
-3.240012
 30
0.0
 11
3.265085
 21
-3.242955
 31
0.0
  0
LINE
  8
0
  6
CONTINUOUS
 62
     7
  5
115B
 10
3.265085
 20
-3.242955
 30
0.0
 11
3.263127
 21
-3.245773
 31
0.0
  0
LINE
  8
0
  6
CONTINUOUS
 62
     7
  5
115C
 10
3.263127
 20
-3.245773
 30
0.0
 11
3.26111
 21
-3.248463
 31
0.0
  0
LINE
  8
0
  6
CONTINUOUS
 62
     7
  5
115D
 10
3.26111
 20
-3.248463
 30
0.0
 11
3.259036
 21
-3.251021
 31
0.0
  0
LINE
  8
0
  6
CONTINUOUS
 62
     7
  5
115E
 10
3.259036
 20
-3.251021
 30
0.0
 11
3.256908
 21
-3.253442
 31
0.0
  0
LINE
  8
0
  6
CONTINUOUS
 62
     7
  5
115F
 10
3.256908
 20
-3.253442
 30
0.0
 11
3.25473
 21
-3.255725
 31
0.0
  0
LINE
  8
0
  6
CONTINUOUS
 62
     7
  5
1160
 10
3.25473
 20
-3.255725
 30
0.0
 11
3.252504
 21
-3.257865
 31
0.0
  0
LINE
  8
0
  6
CONTINUOUS
 62
     7
  5
1161
 10
3.252504
 20
-3.257865
 30
0.0
 11
3.250233
 21
-3.259859
 31
0.0
  0
LINE
  8
0
  6
CONTINUOUS
 62
     7
  5
1162
 10
3.250233
 20
-3.259859
 30
0.0
 11
3.247922
 21
-3.261706
 31
0.0
  0
LINE
  8
0
  6
CONTINUOUS
 62
     7
  5
1163
 10
3.247922
 20
-3.261706
 30
0.0
 11
3.245571
 21
-3.263401
 31
0.0
  0
LINE
  8
0
  6
CONTINUOUS
 62
     7
  5
1164
 10
3.245571
 20
-3.263401
 30
0.0
 11
3.243186
 21
-3.264944
 31
0.0
  0
LINE
  8
0
  6
CONTINUOUS
 62
     7
  5
1165
 10
3.243186
 20
-3.264944
 30
0.0
 11
3.24077
 21
-3.266331
 31
0.0
  0
LINE
  8
0
  6
CONTINUOUS
 62
     7
  5
1166
 10
3.24077
 20
-3.266331
 30
0.0
 11
3.238325
 21
-3.267561
 31
0.0
  0
LINE
  8
0
  6
CONTINUOUS
 62
     7
  5
1167
 10
3.238325
 20
-3.039526
 30
0.0
 11
3.24077
 21
-3.040756
 31
0.0
  0
LINE
  8
0
  6
CONTINUOUS
 62
     7
  5
1168
 10
3.24077
 20
-3.040756
 30
0.0
 11
3.243186
 21
-3.042143
 31
0.0
  0
LINE
  8
0
  6
CONTINUOUS
 62
     7
  5
1169
 10
3.243186
 20
-3.042143
 30
0.0
 11
3.245571
 21
-3.043685
 31
0.0
  0
LINE
  8
0
  6
CONTINUOUS
 62
     7
  5
116A
 10
3.245571
 20
-3.043685
 30
0.0
 11
3.247922
 21
-3.045381
 31
0.0
  0
LINE
  8
0
  6
CONTINUOUS
 62
     7
  5
116B
 10
3.247922
 20
-3.045381
 30
0.0
 11
3.250233
 21
-3.047227
 31
0.0
  0
LINE
  8
0
  6
CONTINUOUS
 62
     7
  5
116C
 10
3.250233
 20
-3.047227
 30
0.0
 11
3.252504
 21
-3.049222
 31
0.0
  0
LINE
  8
0
  6
CONTINUOUS
 62
     7
  5
116D
 10
3.252504
 20
-3.049222
 30
0.0
 11
3.25473
 21
-3.051362
 31
0.0
  0
LINE
  8
0
  6
CONTINUOUS
 62
     7
  5
116E
 10
3.25473
 20
-3.051362
 30
0.0
 11
3.256908
 21
-3.053644
 31
0.0
  0
LINE
  8
0
  6
CONTINUOUS
 62
     7
  5
116F
 10
3.256908
 20
-3.053644
 30
0.0
 11
3.259036
 21
-3.056066
 31
0.0
  0
LINE
  8
0
  6
CONTINUOUS
 62
     7
  5
1170
 10
3.259036
 20
-3.056066
 30
0.0
 11
3.26111
 21
-3.058623
 31
0.0
  0
LINE
  8
0
  6
CONTINUOUS
 62
     7
  5
1171
 10
3.26111
 20
-3.058623
 30
0.0
 11
3.263127
 21
-3.061313
 31
0.0
  0
LINE
  8
0
  6
CONTINUOUS
 62
     7
  5
1172
 10
3.263127
 20
-3.061313
 30
0.0
 11
3.265085
 21
-3.064132
 31
0.0
  0
LINE
  8
0
  6
CONTINUOUS
 62
     7
  5
1173
 10
3.265085
 20
-3.064132
 30
0.0
 11
3.266981
 21
-3.067075
 31
0.0
  0
LINE
  8
0
  6
CONTINUOUS
 62
     7
  5
1174
 10
3.266981
 20
-3.067075
 30
0.0
 11
3.268812
 21
-3.070138
 31
0.0
  0
LINE
  8
0
  6
CONTINUOUS
 62
     7
  5
1175
 10
3.268812
 20
-3.070138
 30
0.0
 11
3.270576
 21
-3.073318
 31
0.0
  0
LINE
  8
0
  6
CONTINUOUS
 62
     7
  5
1176
 10
3.270576
 20
-3.073318
 30
0.0
 11
3.27227
 21
-3.076609
 31
0.0
  0
LINE
  8
0
  6
CONTINUOUS
 62
     7
  5
1177
 10
3.27227
 20
-3.076609
 30
0.0
 11
3.273892
 21
-3.080008
 31
0.0
  0
LINE
  8
0
  6
CONTINUOUS
 62
     7
  5
1178
 10
3.273892
 20
-3.080008
 30
0.0
 11
3.27544
 21
-3.08351
 31
0.0
  0
LINE
  8
0
  6
CONTINUOUS
 62
     7
  5
1179
 10
3.27544
 20
-3.08351
 30
0.0
 11
3.276911
 21
-3.087109
 31
0.0
  0
LINE
  8
0
  6
CONTINUOUS
 62
     7
  5
117A
 10
3.276911
 20
-3.087109
 30
0.0
 11
3.278303
 21
-3.0908
 31
0.0
  0
LINE
  8
0
  6
CONTINUOUS
 62
     7
  5
117B
 10
3.278303
 20
-3.0908
 30
0.0
 11
3.279615
 21
-3.094579
 31
0.0
  0
LINE
  8
0
  6
CONTINUOUS
 62
     7
  5
117C
 10
3.279615
 20
-3.094579
 30
0.0
 11
3.280845
 21
-3.09844
 31
0.0
  0
LINE
  8
0
  6
CONTINUOUS
 62
     7
  5
117D
 10
3.280845
 20
-3.09844
 30
0.0
 11
3.28199
 21
-3.102378
 31
0.0
  0
LINE
  8
0
  6
CONTINUOUS
 62
     7
  5
117E
 10
3.28199
 20
-3.102378
 30
0.0
 11
3.28305
 21
-3.106388
 31
0.0
  0
LINE
  8
0
  6
CONTINUOUS
 62
     7
  5
117F
 10
3.28305
 20
-3.106388
 30
0.0
 11
3.284023
 21
-3.110463
 31
0.0
  0
LINE
  8
0
  6
CONTINUOUS
 62
     7
  5
1180
 10
3.284023
 20
-3.110463
 30
0.0
 11
3.284907
 21
-3.114598
 31
0.0
  0
LINE
  8
0
  6
CONTINUOUS
 62
     7
  5
1181
 10
3.284907
 20
-3.114598
 30
0.0
 11
3.285701
 21
-3.118787
 31
0.0
  0
LINE
  8
0
  6
CONTINUOUS
 62
     7
  5
1182
 10
3.285701
 20
-3.118787
 30
0.0
 11
3.286405
 21
-3.123025
 31
0.0
  0
LINE
  8
0
  6
CONTINUOUS
 62
     7
  5
1183
 10
3.286405
 20
-3.123025
 30
0.0
 11
3.287017
 21
-3.127305
 31
0.0
  0
LINE
  8
0
  6
CONTINUOUS
 62
     7
  5
1184
 10
3.287017
 20
-3.127305
 30
0.0
 11
3.287536
 21
-3.131622
 31
0.0
  0
LINE
  8
0
  6
CONTINUOUS
 62
     7
  5
1185
 10
3.287536
 20
-3.131622
 30
0.0
 11
3.287962
 21
-3.13597
 31
0.0
  0
LINE
  8
0
  6
CONTINUOUS
 62
     7
  5
1186
 10
3.287962
 20
-3.13597
 30
0.0
 11
3.288293
 21
-3.140341
 31
0.0
  0
LINE
  8
0
  6
CONTINUOUS
 62
     7
  5
1187
 10
3.288293
 20
-3.140341
 30
0.0
 11
3.288531
 21
-3.144732
 31
0.0
  0
LINE
  8
0
  6
CONTINUOUS
 62
     7
  5
1188
 10
3.288531
 20
-3.144732
 30
0.0
 11
3.288673
 21
-3.149135
 31
0.0
  0
LINE
  8
0
  6
CONTINUOUS
 62
     7
  5
1189
 10
3.288673
 20
-3.149135
 30
0.0
 11
3.288721
 21
-3.153543
 31
0.0
  0
LINE
  8
0
  6
CONTINUOUS
 62
     7
  5
118A
 10
3.061417
 20
-2.956693
 30
0.0
 11
3.238325
 21
-3.039526
 31
0.0
  0
LINE
  8
0
  6
CONTINUOUS
 62
     7
  5
118B
 10
3.061417
 20
-3.350394
 30
0.0
 11
3.061417
 21
-2.956693
 31
0.0
  0
LINE
  8
0
  6
CONTINUOUS
 62
     7
  5
118C
 10
5.816793
 20
-3.039526
 30
0.0
 11
5.993701
 21
-2.956693
 31
0.0
  0
LINE
  8
0
  6
CONTINUOUS
 62
     7
  5
118D
 10
5.993701
 20
-3.350394
 30
0.0
 11
5.816793
 21
-3.267561
 31
0.0
  0
LINE
  8
0
  6
CONTINUOUS
 62
     7
  5
118E
 10
5.993701
 20
-2.956693
 30
0.0
 11
5.993701
 21
-3.350394
 31
0.0
  0
LINE
  8
0
  6
CONTINUOUS
 62
     7
  5
118F
 10
5.766398
 20
-3.153543
 30
0.0
 11
5.766445
 21
-3.149135
 31
0.0
  0
LINE
  8
0
  6
CONTINUOUS
 62
     7
  5
1190
 10
5.766445
 20
-3.149135
 30
0.0
 11
5.766588
 21
-3.144732
 31
0.0
  0
LINE
  8
0
  6
CONTINUOUS
 62
     7
  5
1191
 10
5.766588
 20
-3.144732
 30
0.0
 11
5.766825
 21
-3.140341
 31
0.0
  0
LINE
  8
0
  6
CONTINUOUS
 62
     7
  5
1192
 10
5.766825
 20
-3.140341
 30
0.0
 11
5.767157
 21
-3.13597
 31
0.0
  0
LINE
  8
0
  6
CONTINUOUS
 62
     7
  5
1193
 10
5.767157
 20
-3.13597
 30
0.0
 11
5.767582
 21
-3.131622
 31
0.0
  0
LINE
  8
0
  6
CONTINUOUS
 62
     7
  5
1194
 10
5.767582
 20
-3.131622
 30
0.0
 11
5.768101
 21
-3.127305
 31
0.0
  0
LINE
  8
0
  6
CONTINUOUS
 62
     7
  5
1195
 10
5.768101
 20
-3.127305
 30
0.0
 11
5.768713
 21
-3.123025
 31
0.0
  0
LINE
  8
0
  6
CONTINUOUS
 62
     7
  5
1196
 10
5.768713
 20
-3.123025
 30
0.0
 11
5.769417
 21
-3.118787
 31
0.0
  0
LINE
  8
0
  6
CONTINUOUS
 62
     7
  5
1197
 10
5.769417
 20
-3.118787
 30
0.0
 11
5.770211
 21
-3.114598
 31
0.0
  0
LINE
  8
0
  6
CONTINUOUS
 62
     7
  5
1198
 10
5.770211
 20
-3.114598
 30
0.0
 11
5.771096
 21
-3.110463
 31
0.0
  0
LINE
  8
0
  6
CONTINUOUS
 62
     7
  5
1199
 10
5.771096
 20
-3.110463
 30
0.0
 11
5.772068
 21
-3.106388
 31
0.0
  0
LINE
  8
0
  6
CONTINUOUS
 62
     7
  5
119A
 10
5.772068
 20
-3.106388
 30
0.0
 11
5.773128
 21
-3.102378
 31
0.0
  0
LINE
  8
0
  6
CONTINUOUS
 62
     7
  5
119B
 10
5.773128
 20
-3.102378
 30
0.0
 11
5.774274
 21
-3.09844
 31
0.0
  0
LINE
  8
0
  6
CONTINUOUS
 62
     7
  5
119C
 10
5.774274
 20
-3.09844
 30
0.0
 11
5.775503
 21
-3.094579
 31
0.0
  0
LINE
  8
0
  6
CONTINUOUS
 62
     7
  5
119D
 10
5.775503
 20
-3.094579
 30
0.0
 11
5.776815
 21
-3.0908
 31
0.0
  0
LINE
  8
0
  6
CONTINUOUS
 62
     7
  5
119E
 10
5.776815
 20
-3.0908
 30
0.0
 11
5.778208
 21
-3.087109
 31
0.0
  0
LINE
  8
0
  6
CONTINUOUS
 62
     7
  5
119F
 10
5.778208
 20
-3.087109
 30
0.0
 11
5.779679
 21
-3.08351
 31
0.0
  0
LINE
  8
0
  6
CONTINUOUS
 62
     7
  5
11A0
 10
5.779679
 20
-3.08351
 30
0.0
 11
5.781226
 21
-3.080008
 31
0.0
  0
LINE
  8
0
  6
CONTINUOUS
 62
     7
  5
11A1
 10
5.781226
 20
-3.080008
 30
0.0
 11
5.782848
 21
-3.076609
 31
0.0
  0
LINE
  8
0
  6
CONTINUOUS
 62
     7
  5
11A2
 10
5.782848
 20
-3.076609
 30
0.0
 11
5.784542
 21
-3.073318
 31
0.0
  0
LINE
  8
0
  6
CONTINUOUS
 62
     7
  5
11A3
 10
5.784542
 20
-3.073318
 30
0.0
 11
5.786306
 21
-3.070138
 31
0.0
  0
LINE
  8
0
  6
CONTINUOUS
 62
     7
  5
11A4
 10
5.786306
 20
-3.070138
 30
0.0
 11
5.788137
 21
-3.067075
 31
0.0
  0
LINE
  8
0
  6
CONTINUOUS
 62
     7
  5
11A5
 10
5.788137
 20
-3.067075
 30
0.0
 11
5.790033
 21
-3.064132
 31
0.0
  0
LINE
  8
0
  6
CONTINUOUS
 62
     7
  5
11A6
 10
5.790033
 20
-3.064132
 30
0.0
 11
5.791991
 21
-3.061313
 31
0.0
  0
LINE
  8
0
  6
CONTINUOUS
 62
     7
  5
11A7
 10
5.791991
 20
-3.061313
 30
0.0
 11
5.794008
 21
-3.058623
 31
0.0
  0
LINE
  8
0
  6
CONTINUOUS
 62
     7
  5
11A8
 10
5.794008
 20
-3.058623
 30
0.0
 11
5.796082
 21
-3.056066
 31
0.0
  0
LINE
  8
0
  6
CONTINUOUS
 62
     7
  5
11A9
 10
5.796082
 20
-3.056066
 30
0.0
 11
5.79821
 21
-3.053644
 31
0.0
  0
LINE
  8
0
  6
CONTINUOUS
 62
     7
  5
11AA
 10
5.79821
 20
-3.053644
 30
0.0
 11
5.800388
 21
-3.051362
 31
0.0
  0
LINE
  8
0
  6
CONTINUOUS
 62
     7
  5
11AB
 10
5.800388
 20
-3.051362
 30
0.0
 11
5.802614
 21
-3.049222
 31
0.0
  0
LINE
  8
0
  6
CONTINUOUS
 62
     7
  5
11AC
 10
5.802614
 20
-3.049222
 30
0.0
 11
5.804885
 21
-3.047227
 31
0.0
  0
LINE
  8
0
  6
CONTINUOUS
 62
     7
  5
11AD
 10
5.804885
 20
-3.047227
 30
0.0
 11
5.807197
 21
-3.045381
 31
0.0
  0
LINE
  8
0
  6
CONTINUOUS
 62
     7
  5
11AE
 10
5.807197
 20
-3.045381
 30
0.0
 11
5.809547
 21
-3.043685
 31
0.0
  0
LINE
  8
0
  6
CONTINUOUS
 62
     7
  5
11AF
 10
5.809547
 20
-3.043685
 30
0.0
 11
5.811932
 21
-3.042143
 31
0.0
  0
LINE
  8
0
  6
CONTINUOUS
 62
     7
  5
11B0
 10
5.811932
 20
-3.042143
 30
0.0
 11
5.814348
 21
-3.040756
 31
0.0
  0
LINE
  8
0
  6
CONTINUOUS
 62
     7
  5
11B1
 10
5.814348
 20
-3.040756
 30
0.0
 11
5.816793
 21
-3.039526
 31
0.0
  0
LINE
  8
0
  6
CONTINUOUS
 62
     7
  5
11B2
 10
5.816793
 20
-3.267561
 30
0.0
 11
5.814348
 21
-3.266331
 31
0.0
  0
LINE
  8
0
  6
CONTINUOUS
 62
     7
  5
11B3
 10
5.814348
 20
-3.266331
 30
0.0
 11
5.811932
 21
-3.264944
 31
0.0
  0
LINE
  8
0
  6
CONTINUOUS
 62
     7
  5
11B4
 10
5.811932
 20
-3.264944
 30
0.0
 11
5.809547
 21
-3.263401
 31
0.0
  0
LINE
  8
0
  6
CONTINUOUS
 62
     7
  5
11B5
 10
5.809547
 20
-3.263401
 30
0.0
 11
5.807197
 21
-3.261706
 31
0.0
  0
LINE
  8
0
  6
CONTINUOUS
 62
     7
  5
11B6
 10
5.807197
 20
-3.261706
 30
0.0
 11
5.804885
 21
-3.259859
 31
0.0
  0
LINE
  8
0
  6
CONTINUOUS
 62
     7
  5
11B7
 10
5.804885
 20
-3.259859
 30
0.0
 11
5.802614
 21
-3.257865
 31
0.0
  0
LINE
  8
0
  6
CONTINUOUS
 62
     7
  5
11B8
 10
5.802614
 20
-3.257865
 30
0.0
 11
5.800388
 21
-3.255725
 31
0.0
  0
LINE
  8
0
  6
CONTINUOUS
 62
     7
  5
11B9
 10
5.800388
 20
-3.255725
 30
0.0
 11
5.79821
 21
-3.253442
 31
0.0
  0
LINE
  8
0
  6
CONTINUOUS
 62
     7
  5
11BA
 10
5.79821
 20
-3.253442
 30
0.0
 11
5.796082
 21
-3.251021
 31
0.0
  0
LINE
  8
0
  6
CONTINUOUS
 62
     7
  5
11BB
 10
5.796082
 20
-3.251021
 30
0.0
 11
5.794008
 21
-3.248463
 31
0.0
  0
LINE
  8
0
  6
CONTINUOUS
 62
     7
  5
11BC
 10
5.794008
 20
-3.248463
 30
0.0
 11
5.791991
 21
-3.245773
 31
0.0
  0
LINE
  8
0
  6
CONTINUOUS
 62
     7
  5
11BD
 10
5.791991
 20
-3.245773
 30
0.0
 11
5.790033
 21
-3.242955
 31
0.0
  0
LINE
  8
0
  6
CONTINUOUS
 62
     7
  5
11BE
 10
5.790033
 20
-3.242955
 30
0.0
 11
5.788137
 21
-3.240012
 31
0.0
  0
LINE
  8
0
  6
CONTINUOUS
 62
     7
  5
11BF
 10
5.788137
 20
-3.240012
 30
0.0
 11
5.786306
 21
-3.236949
 31
0.0
  0
LINE
  8
0
  6
CONTINUOUS
 62
     7
  5
11C0
 10
5.786306
 20
-3.236949
 30
0.0
 11
5.784542
 21
-3.233769
 31
0.0
  0
LINE
  8
0
  6
CONTINUOUS
 62
     7
  5
11C1
 10
5.784542
 20
-3.233769
 30
0.0
 11
5.782848
 21
-3.230477
 31
0.0
  0
LINE
  8
0
  6
CONTINUOUS
 62
     7
  5
11C2
 10
5.782848
 20
-3.230477
 30
0.0
 11
5.781226
 21
-3.227078
 31
0.0
  0
LINE
  8
0
  6
CONTINUOUS
 62
     7
  5
11C3
 10
5.781226
 20
-3.227078
 30
0.0
 11
5.779679
 21
-3.223577
 31
0.0
  0
LINE
  8
0
  6
CONTINUOUS
 62
     7
  5
11C4
 10
5.779679
 20
-3.223577
 30
0.0
 11
5.778208
 21
-3.219978
 31
0.0
  0
LINE
  8
0
  6
CONTINUOUS
 62
     7
  5
11C5
 10
5.778208
 20
-3.219978
 30
0.0
 11
5.776815
 21
-3.216287
 31
0.0
  0
LINE
  8
0
  6
CONTINUOUS
 62
     7
  5
11C6
 10
5.776815
 20
-3.216287
 30
0.0
 11
5.775503
 21
-3.212508
 31
0.0
  0
LINE
  8
0
  6
CONTINUOUS
 62
     7
  5
11C7
 10
5.775503
 20
-3.212508
 30
0.0
 11
5.774274
 21
-3.208646
 31
0.0
  0
LINE
  8
0
  6
CONTINUOUS
 62
     7
  5
11C8
 10
5.774274
 20
-3.208646
 30
0.0
 11
5.773128
 21
-3.204708
 31
0.0
  0
LINE
  8
0
  6
CONTINUOUS
 62
     7
  5
11C9
 10
5.773128
 20
-3.204708
 30
0.0
 11
5.772068
 21
-3.200699
 31
0.0
  0
LINE
  8
0
  6
CONTINUOUS
 62
     7
  5
11CA
 10
5.772068
 20
-3.200699
 30
0.0
 11
5.771096
 21
-3.196624
 31
0.0
  0
LINE
  8
0
  6
CONTINUOUS
 62
     7
  5
11CB
 10
5.771096
 20
-3.196624
 30
0.0
 11
5.770211
 21
-3.192489
 31
0.0
  0
LINE
  8
0
  6
CONTINUOUS
 62
     7
  5
11CC
 10
5.770211
 20
-3.192489
 30
0.0
 11
5.769417
 21
-3.1883
 31
0.0
  0
LINE
  8
0
  6
CONTINUOUS
 62
     7
  5
11CD
 10
5.769417
 20
-3.1883
 30
0.0
 11
5.768713
 21
-3.184062
 31
0.0
  0
LINE
  8
0
  6
CONTINUOUS
 62
     7
  5
11CE
 10
5.768713
 20
-3.184062
 30
0.0
 11
5.768101
 21
-3.179781
 31
0.0
  0
LINE
  8
0
  6
CONTINUOUS
 62
     7
  5
11CF
 10
5.768101
 20
-3.179781
 30
0.0
 11
5.767582
 21
-3.175465
 31
0.0
  0
LINE
  8
0
  6
CONTINUOUS
 62
     7
  5
11D0
 10
5.767582
 20
-3.175465
 30
0.0
 11
5.767157
 21
-3.171117
 31
0.0
  0
LINE
  8
0
  6
CONTINUOUS
 62
     7
  5
11D1
 10
5.767157
 20
-3.171117
 30
0.0
 11
5.766825
 21
-3.166745
 31
0.0
  0
LINE
  8
0
  6
CONTINUOUS
 62
     7
  5
11D2
 10
5.766825
 20
-3.166745
 30
0.0
 11
5.766588
 21
-3.162355
 31
0.0
  0
LINE
  8
0
  6
CONTINUOUS
 62
     7
  5
11D3
 10
5.766588
 20
-3.162355
 30
0.0
 11
5.766445
 21
-3.157952
 31
0.0
  0
LINE
  8
0
  6
CONTINUOUS
 62
     7
  5
11D4
 10
5.766445
 20
-3.157952
 30
0.0
 11
5.766398
 21
-3.153543
 31
0.0
  0
LINE
  8
0
  6
CONTINUOUS
 62
     7
  5
11D5
 10
5.993701
 20
-3.350394
 30
0.0
 11
3.061417
 21
-3.350394
 31
0.0
  0
CIRCLE
  8
0
  6
CONTINUOUS
 62
     7
  5
11D6
 10
5.403543
 20
-4.336614
 30
0.0
 40
0.285433
  0
CIRCLE
  8
0
  6
CONTINUOUS
 62
     7
  5
11D7
 10
3.651575
 20
-4.336614
 30
0.0
 40
0.285433
  0
CIRCLE
  8
0
  6
CONTINUOUS
 62
     7
  5
11D8
 10
5.403543
 20
-6.088583
 30
0.0
 40
0.285433
  0
CIRCLE
  8
0
  6
CONTINUOUS
 62
     7
  5
11D9
 10
3.651575
 20
-6.088583
 30
0.0
 40
0.285433
  0
LINE
  8
0
  6
CONTINUOUS
 62
     7
  5
11DA
 10
3.031496
 20
-2.956693
 30
0.0
 11
3.031496
 21
-6.71063
 31
0.0
  0
LINE
  8
0
  6
CONTINUOUS
 62
     7
  5
11DB
 10
3.031496
 20
-6.71063
 30
0.0
 11
6.023622
 21
-6.71063
 31
0.0
  0
LINE
  8
0
  6
CONTINUOUS
 62
     7
  5
11DC
 10
6.023622
 20
-6.71063
 30
0.0
 11
6.023622
 21
-2.956693
 31
0.0
  0
LINE
  8
0
  6
CONTINUOUS
 62
     7
  5
11DD
 10
3.032496
 20
-8.565929
 30
0.0
 11
3.032496
 21
-6.71063
 31
0.0
  0
LINE
  8
0
  6
CONTINUOUS
 62
     7
  5
11DE
 10
7.988189
 20
-8.565929
 30
0.0
 11
3.032496
 21
-8.565929
 31
0.0
  0
LINE
  8
0
  6
CONTINUOUS
 62
     7
  5
11DF
 10
7.988189
 20
-3.567929
 30
0.0
 11
6.023622
 21
-3.567929
 31
0.0
  0
LINE
  8
0
  6
CONTINUOUS
 62
     7
  5
11E0
 10
3.454724
 20
-7.600394
 30
0.0
 11
3.848425
 21
-7.600394
 31
0.0
  0
LINE
  8
0
  6
CONTINUOUS
 62
     7
  5
11E1
 10
3.848425
 20
-7.600394
 30
0.0
 11
3.848425
 21
-7.994094
 31
0.0
  0
LINE
  8
0
  6
CONTINUOUS
 62
     7
  5
11E2
 10
3.848425
 20
-7.994094
 30
0.0
 11
3.454724
 21
-7.994094
 31
0.0
  0
LINE
  8
0
  6
CONTINUOUS
 62
     7
  5
11E3
 10
3.454724
 20
-7.994094
 30
0.0
 11
3.454724
 21
-7.600394
 31
0.0
  0
LINE
  8
0
  6
CONTINUOUS
 62
     7
  5
11E4
 10
5.206693
 20
-7.600394
 30
0.0
 11
5.600394
 21
-7.600394
 31
0.0
  0
LINE
  8
0
  6
CONTINUOUS
 62
     7
  5
11E5
 10
5.600394
 20
-7.600394
 30
0.0
 11
5.600394
 21
-7.994094
 31
0.0
  0
LINE
  8
0
  6
CONTINUOUS
 62
     7
  5
11E6
 10
5.600394
 20
-7.994094
 30
0.0
 11
5.206693
 21
-7.994094
 31
0.0
  0
LINE
  8
0
  6
CONTINUOUS
 62
     7
  5
11E7
 10
5.206693
 20
-7.994094
 30
0.0
 11
5.206693
 21
-7.600394
 31
0.0
  0
LINE
  8
0
  6
CONTINUOUS
 62
     7
  5
11E8
 10
9.956693
 20
-6.854331
 30
0.0
 11
8.46063
 21
-6.854331
 31
0.0
  0
LINE
  8
0
  6
CONTINUOUS
 62
     7
  5
11E9
 10
8.46063
 20
-6.854331
 30
0.0
 11
8.46063
 21
-5.279528
 31
0.0
  0
LINE
  8
0
  6
CONTINUOUS
 62
     7
  5
11EA
 10
9.956693
 20
-8.429134
 30
0.0
 11
9.956693
 21
-6.854331
 31
0.0
  0
LINE
  8
0
  6
CONTINUOUS
 62
     7
  5
11EB
 10
8.46063
 20
-5.279528
 30
0.0
 11
8.185039
 21
-5.279528
 31
0.0
  0
LINE
  8
0
  6
CONTINUOUS
 62
     7
  5
11EC
 10
8.185039
 20
-8.429134
 30
0.0
 11
9.956693
 21
-8.429134
 31
0.0
  0
LINE
  8
0
  6
CONTINUOUS
 62
     7
  5
11ED
 10
8.5
 20
-4.295276
 30
0.0
 11
8.34252
 21
-4.295276
 31
0.0
  0
LINE
  8
0
  6
CONTINUOUS
 62
     7
  5
11EE
 10
8.34252
 20
-5.279528
 30
0.0
 11
8.34252
 21
-4.295276
 31
0.0
  0
LINE
  8
0
  6
CONTINUOUS
 62
     7
  5
11EF
 10
8.34252
 20
-4.295276
 30
0.0
 11
8.185039
 21
-4.295276
 31
0.0
  0
LINE
  8
0
  6
CONTINUOUS
 62
     7
  5
11F0
 10
10.498031
 20
-7.838583
 30
0.0
 11
10.498031
 21
-4.295276
 31
0.0
  0
LINE
  8
0
  6
CONTINUOUS
 62
     7
  5
11F1
 10
10.498031
 20
-4.295276
 30
0.0
 11
8.5
 21
-4.295276
 31
0.0
  0
LINE
  8
0
  6
CONTINUOUS
 62
     7
  5
11F2
 10
10.498031
 20
-7.838583
 30
0.0
 11
9.956693
 21
-7.838583
 31
0.0
  0
LINE
  8
0
  6
CONTINUOUS
 62
     7
  5
11F3
 10
8.185039
 20
-8.565929
 30
0.0
 11
8.185039
 21
-3.567929
 31
0.0
  0
LINE
  8
0
  6
CONTINUOUS
 62
     7
  5
11F4
 10
8.185039
 20
-3.567929
 30
0.0
 11
7.988189
 21
-3.567929
 31
0.0
  0
LINE
  8
0
  6
CONTINUOUS
 62
     7
  5
11F5
 10
8.185039
 20
-8.565929
 30
0.0
 11
7.988189
 21
-8.565929
 31
0.0
  0
LINE
  8
0
  6
CONTINUOUS
 62
     7
  5
11F6
 10
8.027559
 20
-3.567929
 30
0.0
 11
8.027559
 21
-3.566929
 31
0.0
  0
LINE
  8
0
  6
CONTINUOUS
 62
     7
  5
11F7
 10
8.027559
 20
-3.566929
 30
0.0
 11
7.830709
 21
-3.566929
 31
0.0
  0
LINE
  8
0
  6
CONTINUOUS
 62
     7
  5
11F8
 10
8.027559
 20
-8.566929
 30
0.0
 11
7.830709
 21
-8.566929
 31
0.0
  0
LINE
  8
0
  6
CONTINUOUS
 62
     7
  5
11F9
 10
7.830709
 20
-3.566929
 30
0.0
 11
6.023622
 21
-3.566929
 31
0.0
  0
LINE
  8
0
  6
CONTINUOUS
 62
     7
  5
11FA
 10
3.031496
 20
-8.566929
 30
0.0
 11
3.031496
 21
-6.71063
 31
0.0
  0
LINE
  8
0
  6
CONTINUOUS
 62
     7
  5
11FB
 10
7.830709
 20
-8.566929
 30
0.0
 11
3.031496
 21
-8.566929
 31
0.0
  0
LINE
  8
0
  6
CONTINUOUS
 62
     7
  5
11FC
 10
-5.816793
 20
-3.267561
 30
0.0
 11
-5.993701
 21
-3.350394
 31
0.0
  0
LINE
  8
0
  6
CONTINUOUS
 62
     7
  5
11FD
 10
-5.766398
 20
-3.153543
 30
0.0
 11
-5.766445
 21
-3.157952
 31
0.0
  0
LINE
  8
0
  6
CONTINUOUS
 62
     7
  5
11FE
 10
-5.766445
 20
-3.157952
 30
0.0
 11
-5.766588
 21
-3.162355
 31
0.0
  0
LINE
  8
0
  6
CONTINUOUS
 62
     7
  5
11FF
 10
-5.766588
 20
-3.162355
 30
0.0
 11
-5.766825
 21
-3.166745
 31
0.0
  0
LINE
  8
0
  6
CONTINUOUS
 62
     7
  5
1200
 10
-5.766825
 20
-3.166745
 30
0.0
 11
-5.767157
 21
-3.171117
 31
0.0
  0
LINE
  8
0
  6
CONTINUOUS
 62
     7
  5
1201
 10
-5.767157
 20
-3.171117
 30
0.0
 11
-5.767582
 21
-3.175465
 31
0.0
  0
LINE
  8
0
  6
CONTINUOUS
 62
     7
  5
1202
 10
-5.767582
 20
-3.175465
 30
0.0
 11
-5.768101
 21
-3.179781
 31
0.0
  0
LINE
  8
0
  6
CONTINUOUS
 62
     7
  5
1203
 10
-5.768101
 20
-3.179781
 30
0.0
 11
-5.768713
 21
-3.184062
 31
0.0
  0
LINE
  8
0
  6
CONTINUOUS
 62
     7
  5
1204
 10
-5.768713
 20
-3.184062
 30
0.0
 11
-5.769417
 21
-3.1883
 31
0.0
  0
LINE
  8
0
  6
CONTINUOUS
 62
     7
  5
1205
 10
-5.769417
 20
-3.1883
 30
0.0
 11
-5.770211
 21
-3.192489
 31
0.0
  0
LINE
  8
0
  6
CONTINUOUS
 62
     7
  5
1206
 10
-5.770211
 20
-3.192489
 30
0.0
 11
-5.771096
 21
-3.196624
 31
0.0
  0
LINE
  8
0
  6
CONTINUOUS
 62
     7
  5
1207
 10
-5.771096
 20
-3.196624
 30
0.0
 11
-5.772068
 21
-3.200699
 31
0.0
  0
LINE
  8
0
  6
CONTINUOUS
 62
     7
  5
1208
 10
-5.772068
 20
-3.200699
 30
0.0
 11
-5.773128
 21
-3.204708
 31
0.0
  0
LINE
  8
0
  6
CONTINUOUS
 62
     7
  5
1209
 10
-5.773128
 20
-3.204708
 30
0.0
 11
-5.774274
 21
-3.208646
 31
0.0
  0
LINE
  8
0
  6
CONTINUOUS
 62
     7
  5
120A
 10
-5.774274
 20
-3.208646
 30
0.0
 11
-5.775503
 21
-3.212508
 31
0.0
  0
LINE
  8
0
  6
CONTINUOUS
 62
     7
  5
120B
 10
-5.775503
 20
-3.212508
 30
0.0
 11
-5.776815
 21
-3.216287
 31
0.0
  0
LINE
  8
0
  6
CONTINUOUS
 62
     7
  5
120C
 10
-5.776815
 20
-3.216287
 30
0.0
 11
-5.778208
 21
-3.219978
 31
0.0
  0
LINE
  8
0
  6
CONTINUOUS
 62
     7
  5
120D
 10
-5.778208
 20
-3.219978
 30
0.0
 11
-5.779679
 21
-3.223577
 31
0.0
  0
LINE
  8
0
  6
CONTINUOUS
 62
     7
  5
120E
 10
-5.779679
 20
-3.223577
 30
0.0
 11
-5.781226
 21
-3.227078
 31
0.0
  0
LINE
  8
0
  6
CONTINUOUS
 62
     7
  5
120F
 10
-5.781226
 20
-3.227078
 30
0.0
 11
-5.782848
 21
-3.230477
 31
0.0
  0
LINE
  8
0
  6
CONTINUOUS
 62
     7
  5
1210
 10
-5.782848
 20
-3.230477
 30
0.0
 11
-5.784542
 21
-3.233769
 31
0.0
  0
LINE
  8
0
  6
CONTINUOUS
 62
     7
  5
1211
 10
-5.784542
 20
-3.233769
 30
0.0
 11
-5.786306
 21
-3.236949
 31
0.0
  0
LINE
  8
0
  6
CONTINUOUS
 62
     7
  5
1212
 10
-5.786306
 20
-3.236949
 30
0.0
 11
-5.788137
 21
-3.240012
 31
0.0
  0
LINE
  8
0
  6
CONTINUOUS
 62
     7
  5
1213
 10
-5.788137
 20
-3.240012
 30
0.0
 11
-5.790033
 21
-3.242955
 31
0.0
  0
LINE
  8
0
  6
CONTINUOUS
 62
     7
  5
1214
 10
-5.790033
 20
-3.242955
 30
0.0
 11
-5.791991
 21
-3.245773
 31
0.0
  0
LINE
  8
0
  6
CONTINUOUS
 62
     7
  5
1215
 10
-5.791991
 20
-3.245773
 30
0.0
 11
-5.794008
 21
-3.248463
 31
0.0
  0
LINE
  8
0
  6
CONTINUOUS
 62
     7
  5
1216
 10
-5.794008
 20
-3.248463
 30
0.0
 11
-5.796082
 21
-3.251021
 31
0.0
  0
LINE
  8
0
  6
CONTINUOUS
 62
     7
  5
1217
 10
-5.796082
 20
-3.251021
 30
0.0
 11
-5.79821
 21
-3.253442
 31
0.0
  0
LINE
  8
0
  6
CONTINUOUS
 62
     7
  5
1218
 10
-5.79821
 20
-3.253442
 30
0.0
 11
-5.800388
 21
-3.255725
 31
0.0
  0
LINE
  8
0
  6
CONTINUOUS
 62
     7
  5
1219
 10
-5.800388
 20
-3.255725
 30
0.0
 11
-5.802614
 21
-3.257865
 31
0.0
  0
LINE
  8
0
  6
CONTINUOUS
 62
     7
  5
121A
 10
-5.802614
 20
-3.257865
 30
0.0
 11
-5.804885
 21
-3.259859
 31
0.0
  0
LINE
  8
0
  6
CONTINUOUS
 62
     7
  5
121B
 10
-5.804885
 20
-3.259859
 30
0.0
 11
-5.807197
 21
-3.261706
 31
0.0
  0
LINE
  8
0
  6
CONTINUOUS
 62
     7
  5
121C
 10
-5.807197
 20
-3.261706
 30
0.0
 11
-5.809547
 21
-3.263401
 31
0.0
  0
LINE
  8
0
  6
CONTINUOUS
 62
     7
  5
121D
 10
-5.809547
 20
-3.263401
 30
0.0
 11
-5.811932
 21
-3.264944
 31
0.0
  0
LINE
  8
0
  6
CONTINUOUS
 62
     7
  5
121E
 10
-5.811932
 20
-3.264944
 30
0.0
 11
-5.814348
 21
-3.266331
 31
0.0
  0
LINE
  8
0
  6
CONTINUOUS
 62
     7
  5
121F
 10
-5.814348
 20
-3.266331
 30
0.0
 11
-5.816793
 21
-3.267561
 31
0.0
  0
LINE
  8
0
  6
CONTINUOUS
 62
     7
  5
1220
 10
-5.816793
 20
-3.039526
 30
0.0
 11
-5.814348
 21
-3.040756
 31
0.0
  0
LINE
  8
0
  6
CONTINUOUS
 62
     7
  5
1221
 10
-5.814348
 20
-3.040756
 30
0.0
 11
-5.811932
 21
-3.042143
 31
0.0
  0
LINE
  8
0
  6
CONTINUOUS
 62
     7
  5
1222
 10
-5.811932
 20
-3.042143
 30
0.0
 11
-5.809547
 21
-3.043685
 31
0.0
  0
LINE
  8
0
  6
CONTINUOUS
 62
     7
  5
1223
 10
-5.809547
 20
-3.043685
 30
0.0
 11
-5.807197
 21
-3.045381
 31
0.0
  0
LINE
  8
0
  6
CONTINUOUS
 62
     7
  5
1224
 10
-5.807197
 20
-3.045381
 30
0.0
 11
-5.804885
 21
-3.047227
 31
0.0
  0
LINE
  8
0
  6
CONTINUOUS
 62
     7
  5
1225
 10
-5.804885
 20
-3.047227
 30
0.0
 11
-5.802614
 21
-3.049222
 31
0.0
  0
LINE
  8
0
  6
CONTINUOUS
 62
     7
  5
1226
 10
-5.802614
 20
-3.049222
 30
0.0
 11
-5.800388
 21
-3.051362
 31
0.0
  0
LINE
  8
0
  6
CONTINUOUS
 62
     7
  5
1227
 10
-5.800388
 20
-3.051362
 30
0.0
 11
-5.79821
 21
-3.053644
 31
0.0
  0
LINE
  8
0
  6
CONTINUOUS
 62
     7
  5
1228
 10
-5.79821
 20
-3.053644
 30
0.0
 11
-5.796082
 21
-3.056066
 31
0.0
  0
LINE
  8
0
  6
CONTINUOUS
 62
     7
  5
1229
 10
-5.796082
 20
-3.056066
 30
0.0
 11
-5.794008
 21
-3.058623
 31
0.0
  0
LINE
  8
0
  6
CONTINUOUS
 62
     7
  5
122A
 10
-5.794008
 20
-3.058623
 30
0.0
 11
-5.791991
 21
-3.061313
 31
0.0
  0
LINE
  8
0
  6
CONTINUOUS
 62
     7
  5
122B
 10
-5.791991
 20
-3.061313
 30
0.0
 11
-5.790033
 21
-3.064132
 31
0.0
  0
LINE
  8
0
  6
CONTINUOUS
 62
     7
  5
122C
 10
-5.790033
 20
-3.064132
 30
0.0
 11
-5.788137
 21
-3.067075
 31
0.0
  0
LINE
  8
0
  6
CONTINUOUS
 62
     7
  5
122D
 10
-5.788137
 20
-3.067075
 30
0.0
 11
-5.786306
 21
-3.070138
 31
0.0
  0
LINE
  8
0
  6
CONTINUOUS
 62
     7
  5
122E
 10
-5.786306
 20
-3.070138
 30
0.0
 11
-5.784542
 21
-3.073318
 31
0.0
  0
LINE
  8
0
  6
CONTINUOUS
 62
     7
  5
122F
 10
-5.784542
 20
-3.073318
 30
0.0
 11
-5.782848
 21
-3.076609
 31
0.0
  0
LINE
  8
0
  6
CONTINUOUS
 62
     7
  5
1230
 10
-5.782848
 20
-3.076609
 30
0.0
 11
-5.781226
 21
-3.080008
 31
0.0
  0
LINE
  8
0
  6
CONTINUOUS
 62
     7
  5
1231
 10
-5.781226
 20
-3.080008
 30
0.0
 11
-5.779679
 21
-3.08351
 31
0.0
  0
LINE
  8
0
  6
CONTINUOUS
 62
     7
  5
1232
 10
-5.779679
 20
-3.08351
 30
0.0
 11
-5.778208
 21
-3.087109
 31
0.0
  0
LINE
  8
0
  6
CONTINUOUS
 62
     7
  5
1233
 10
-5.778208
 20
-3.087109
 30
0.0
 11
-5.776815
 21
-3.0908
 31
0.0
  0
LINE
  8
0
  6
CONTINUOUS
 62
     7
  5
1234
 10
-5.776815
 20
-3.0908
 30
0.0
 11
-5.775503
 21
-3.094579
 31
0.0
  0
LINE
  8
0
  6
CONTINUOUS
 62
     7
  5
1235
 10
-5.775503
 20
-3.094579
 30
0.0
 11
-5.774274
 21
-3.09844
 31
0.0
  0
LINE
  8
0
  6
CONTINUOUS
 62
     7
  5
1236
 10
-5.774274
 20
-3.09844
 30
0.0
 11
-5.773128
 21
-3.102378
 31
0.0
  0
LINE
  8
0
  6
CONTINUOUS
 62
     7
  5
1237
 10
-5.773128
 20
-3.102378
 30
0.0
 11
-5.772068
 21
-3.106388
 31
0.0
  0
LINE
  8
0
  6
CONTINUOUS
 62
     7
  5
1238
 10
-5.772068
 20
-3.106388
 30
0.0
 11
-5.771096
 21
-3.110463
 31
0.0
  0
LINE
  8
0
  6
CONTINUOUS
 62
     7
  5
1239
 10
-5.771096
 20
-3.110463
 30
0.0
 11
-5.770211
 21
-3.114598
 31
0.0
  0
LINE
  8
0
  6
CONTINUOUS
 62
     7
  5
123A
 10
-5.770211
 20
-3.114598
 30
0.0
 11
-5.769417
 21
-3.118787
 31
0.0
  0
LINE
  8
0
  6
CONTINUOUS
 62
     7
  5
123B
 10
-5.769417
 20
-3.118787
 30
0.0
 11
-5.768713
 21
-3.123025
 31
0.0
  0
LINE
  8
0
  6
CONTINUOUS
 62
     7
  5
123C
 10
-5.768713
 20
-3.123025
 30
0.0
 11
-5.768101
 21
-3.127305
 31
0.0
  0
LINE
  8
0
  6
CONTINUOUS
 62
     7
  5
123D
 10
-5.768101
 20
-3.127305
 30
0.0
 11
-5.767582
 21
-3.131622
 31
0.0
  0
LINE
  8
0
  6
CONTINUOUS
 62
     7
  5
123E
 10
-5.767582
 20
-3.131622
 30
0.0
 11
-5.767157
 21
-3.13597
 31
0.0
  0
LINE
  8
0
  6
CONTINUOUS
 62
     7
  5
123F
 10
-5.767157
 20
-3.13597
 30
0.0
 11
-5.766825
 21
-3.140341
 31
0.0
  0
LINE
  8
0
  6
CONTINUOUS
 62
     7
  5
1240
 10
-5.766825
 20
-3.140341
 30
0.0
 11
-5.766588
 21
-3.144732
 31
0.0
  0
LINE
  8
0
  6
CONTINUOUS
 62
     7
  5
1241
 10
-5.766588
 20
-3.144732
 30
0.0
 11
-5.766445
 21
-3.149135
 31
0.0
  0
LINE
  8
0
  6
CONTINUOUS
 62
     7
  5
1242
 10
-5.766445
 20
-3.149135
 30
0.0
 11
-5.766398
 21
-3.153543
 31
0.0
  0
LINE
  8
0
  6
CONTINUOUS
 62
     7
  5
1243
 10
-5.993701
 20
-2.956693
 30
0.0
 11
-5.816793
 21
-3.039526
 31
0.0
  0
LINE
  8
0
  6
CONTINUOUS
 62
     7
  5
1244
 10
-5.993701
 20
-3.350394
 30
0.0
 11
-5.993701
 21
-2.956693
 31
0.0
  0
LINE
  8
0
  6
CONTINUOUS
 62
     7
  5
1245
 10
-3.238325
 20
-3.039526
 30
0.0
 11
-3.061417
 21
-2.956693
 31
0.0
  0
LINE
  8
0
  6
CONTINUOUS
 62
     7
  5
1246
 10
-3.061417
 20
-3.350394
 30
0.0
 11
-3.238325
 21
-3.267561
 31
0.0
  0
LINE
  8
0
  6
CONTINUOUS
 62
     7
  5
1247
 10
-3.061417
 20
-2.956693
 30
0.0
 11
-3.061417
 21
-3.350394
 31
0.0
  0
LINE
  8
0
  6
CONTINUOUS
 62
     7
  5
1248
 10
-3.288721
 20
-3.153543
 30
0.0
 11
-3.288673
 21
-3.149135
 31
0.0
  0
LINE
  8
0
  6
CONTINUOUS
 62
     7
  5
1249
 10
-3.288673
 20
-3.149135
 30
0.0
 11
-3.288531
 21
-3.144732
 31
0.0
  0
LINE
  8
0
  6
CONTINUOUS
 62
     7
  5
124A
 10
-3.288531
 20
-3.144732
 30
0.0
 11
-3.288293
 21
-3.140341
 31
0.0
  0
LINE
  8
0
  6
CONTINUOUS
 62
     7
  5
124B
 10
-3.288293
 20
-3.140341
 30
0.0
 11
-3.287962
 21
-3.13597
 31
0.0
  0
LINE
  8
0
  6
CONTINUOUS
 62
     7
  5
124C
 10
-3.287962
 20
-3.13597
 30
0.0
 11
-3.287536
 21
-3.131622
 31
0.0
  0
LINE
  8
0
  6
CONTINUOUS
 62
     7
  5
124D
 10
-3.287536
 20
-3.131622
 30
0.0
 11
-3.287017
 21
-3.127305
 31
0.0
  0
LINE
  8
0
  6
CONTINUOUS
 62
     7
  5
124E
 10
-3.287017
 20
-3.127305
 30
0.0
 11
-3.286405
 21
-3.123025
 31
0.0
  0
LINE
  8
0
  6
CONTINUOUS
 62
     7
  5
124F
 10
-3.286405
 20
-3.123025
 30
0.0
 11
-3.285701
 21
-3.118787
 31
0.0
  0
LINE
  8
0
  6
CONTINUOUS
 62
     7
  5
1250
 10
-3.285701
 20
-3.118787
 30
0.0
 11
-3.284907
 21
-3.114598
 31
0.0
  0
LINE
  8
0
  6
CONTINUOUS
 62
     7
  5
1251
 10
-3.284907
 20
-3.114598
 30
0.0
 11
-3.284023
 21
-3.110463
 31
0.0
  0
LINE
  8
0
  6
CONTINUOUS
 62
     7
  5
1252
 10
-3.284023
 20
-3.110463
 30
0.0
 11
-3.28305
 21
-3.106388
 31
0.0
  0
LINE
  8
0
  6
CONTINUOUS
 62
     7
  5
1253
 10
-3.28305
 20
-3.106388
 30
0.0
 11
-3.28199
 21
-3.102378
 31
0.0
  0
LINE
  8
0
  6
CONTINUOUS
 62
     7
  5
1254
 10
-3.28199
 20
-3.102378
 30
0.0
 11
-3.280845
 21
-3.09844
 31
0.0
  0
LINE
  8
0
  6
CONTINUOUS
 62
     7
  5
1255
 10
-3.280845
 20
-3.09844
 30
0.0
 11
-3.279615
 21
-3.094579
 31
0.0
  0
LINE
  8
0
  6
CONTINUOUS
 62
     7
  5
1256
 10
-3.279615
 20
-3.094579
 30
0.0
 11
-3.278303
 21
-3.0908
 31
0.0
  0
LINE
  8
0
  6
CONTINUOUS
 62
     7
  5
1257
 10
-3.278303
 20
-3.0908
 30
0.0
 11
-3.276911
 21
-3.087109
 31
0.0
  0
LINE
  8
0
  6
CONTINUOUS
 62
     7
  5
1258
 10
-3.276911
 20
-3.087109
 30
0.0
 11
-3.27544
 21
-3.08351
 31
0.0
  0
LINE
  8
0
  6
CONTINUOUS
 62
     7
  5
1259
 10
-3.27544
 20
-3.08351
 30
0.0
 11
-3.273892
 21
-3.080008
 31
0.0
  0
LINE
  8
0
  6
CONTINUOUS
 62
     7
  5
125A
 10
-3.273892
 20
-3.080008
 30
0.0
 11
-3.27227
 21
-3.076609
 31
0.0
  0
LINE
  8
0
  6
CONTINUOUS
 62
     7
  5
125B
 10
-3.27227
 20
-3.076609
 30
0.0
 11
-3.270576
 21
-3.073318
 31
0.0
  0
LINE
  8
0
  6
CONTINUOUS
 62
     7
  5
125C
 10
-3.270576
 20
-3.073318
 30
0.0
 11
-3.268812
 21
-3.070138
 31
0.0
  0
LINE
  8
0
  6
CONTINUOUS
 62
     7
  5
125D
 10
-3.268812
 20
-3.070138
 30
0.0
 11
-3.266981
 21
-3.067075
 31
0.0
  0
LINE
  8
0
  6
CONTINUOUS
 62
     7
  5
125E
 10
-3.266981
 20
-3.067075
 30
0.0
 11
-3.265085
 21
-3.064132
 31
0.0
  0
LINE
  8
0
  6
CONTINUOUS
 62
     7
  5
125F
 10
-3.265085
 20
-3.064132
 30
0.0
 11
-3.263127
 21
-3.061313
 31
0.0
  0
LINE
  8
0
  6
CONTINUOUS
 62
     7
  5
1260
 10
-3.263127
 20
-3.061313
 30
0.0
 11
-3.26111
 21
-3.058623
 31
0.0
  0
LINE
  8
0
  6
CONTINUOUS
 62
     7
  5
1261
 10
-3.26111
 20
-3.058623
 30
0.0
 11
-3.259036
 21
-3.056066
 31
0.0
  0
LINE
  8
0
  6
CONTINUOUS
 62
     7
  5
1262
 10
-3.259036
 20
-3.056066
 30
0.0
 11
-3.256908
 21
-3.053644
 31
0.0
  0
LINE
  8
0
  6
CONTINUOUS
 62
     7
  5
1263
 10
-3.256908
 20
-3.053644
 30
0.0
 11
-3.25473
 21
-3.051362
 31
0.0
  0
LINE
  8
0
  6
CONTINUOUS
 62
     7
  5
1264
 10
-3.25473
 20
-3.051362
 30
0.0
 11
-3.252504
 21
-3.049222
 31
0.0
  0
LINE
  8
0
  6
CONTINUOUS
 62
     7
  5
1265
 10
-3.252504
 20
-3.049222
 30
0.0
 11
-3.250233
 21
-3.047227
 31
0.0
  0
LINE
  8
0
  6
CONTINUOUS
 62
     7
  5
1266
 10
-3.250233
 20
-3.047227
 30
0.0
 11
-3.247922
 21
-3.045381
 31
0.0
  0
LINE
  8
0
  6
CONTINUOUS
 62
     7
  5
1267
 10
-3.247922
 20
-3.045381
 30
0.0
 11
-3.245571
 21
-3.043685
 31
0.0
  0
LINE
  8
0
  6
CONTINUOUS
 62
     7
  5
1268
 10
-3.245571
 20
-3.043685
 30
0.0
 11
-3.243186
 21
-3.042143
 31
0.0
  0
LINE
  8
0
  6
CONTINUOUS
 62
     7
  5
1269
 10
-3.243186
 20
-3.042143
 30
0.0
 11
-3.24077
 21
-3.040756
 31
0.0
  0
LINE
  8
0
  6
CONTINUOUS
 62
     7
  5
126A
 10
-3.24077
 20
-3.040756
 30
0.0
 11
-3.238325
 21
-3.039526
 31
0.0
  0
LINE
  8
0
  6
CONTINUOUS
 62
     7
  5
126B
 10
-3.238325
 20
-3.267561
 30
0.0
 11
-3.24077
 21
-3.266331
 31
0.0
  0
LINE
  8
0
  6
CONTINUOUS
 62
     7
  5
126C
 10
-3.24077
 20
-3.266331
 30
0.0
 11
-3.243186
 21
-3.264944
 31
0.0
  0
LINE
  8
0
  6
CONTINUOUS
 62
     7
  5
126D
 10
-3.243186
 20
-3.264944
 30
0.0
 11
-3.245571
 21
-3.263401
 31
0.0
  0
LINE
  8
0
  6
CONTINUOUS
 62
     7
  5
126E
 10
-3.245571
 20
-3.263401
 30
0.0
 11
-3.247922
 21
-3.261706
 31
0.0
  0
LINE
  8
0
  6
CONTINUOUS
 62
     7
  5
126F
 10
-3.247922
 20
-3.261706
 30
0.0
 11
-3.250233
 21
-3.259859
 31
0.0
  0
LINE
  8
0
  6
CONTINUOUS
 62
     7
  5
1270
 10
-3.250233
 20
-3.259859
 30
0.0
 11
-3.252504
 21
-3.257865
 31
0.0
  0
LINE
  8
0
  6
CONTINUOUS
 62
     7
  5
1271
 10
-3.252504
 20
-3.257865
 30
0.0
 11
-3.25473
 21
-3.255725
 31
0.0
  0
LINE
  8
0
  6
CONTINUOUS
 62
     7
  5
1272
 10
-3.25473
 20
-3.255725
 30
0.0
 11
-3.256908
 21
-3.253442
 31
0.0
  0
LINE
  8
0
  6
CONTINUOUS
 62
     7
  5
1273
 10
-3.256908
 20
-3.253442
 30
0.0
 11
-3.259036
 21
-3.251021
 31
0.0
  0
LINE
  8
0
  6
CONTINUOUS
 62
     7
  5
1274
 10
-3.259036
 20
-3.251021
 30
0.0
 11
-3.26111
 21
-3.248463
 31
0.0
  0
LINE
  8
0
  6
CONTINUOUS
 62
     7
  5
1275
 10
-3.26111
 20
-3.248463
 30
0.0
 11
-3.263127
 21
-3.245773
 31
0.0
  0
LINE
  8
0
  6
CONTINUOUS
 62
     7
  5
1276
 10
-3.263127
 20
-3.245773
 30
0.0
 11
-3.265085
 21
-3.242955
 31
0.0
  0
LINE
  8
0
  6
CONTINUOUS
 62
     7
  5
1277
 10
-3.265085
 20
-3.242955
 30
0.0
 11
-3.266981
 21
-3.240012
 31
0.0
  0
LINE
  8
0
  6
CONTINUOUS
 62
     7
  5
1278
 10
-3.266981
 20
-3.240012
 30
0.0
 11
-3.268812
 21
-3.236949
 31
0.0
  0
LINE
  8
0
  6
CONTINUOUS
 62
     7
  5
1279
 10
-3.268812
 20
-3.236949
 30
0.0
 11
-3.270576
 21
-3.233769
 31
0.0
  0
LINE
  8
0
  6
CONTINUOUS
 62
     7
  5
127A
 10
-3.270576
 20
-3.233769
 30
0.0
 11
-3.27227
 21
-3.230477
 31
0.0
  0
LINE
  8
0
  6
CONTINUOUS
 62
     7
  5
127B
 10
-3.27227
 20
-3.230477
 30
0.0
 11
-3.273892
 21
-3.227078
 31
0.0
  0
LINE
  8
0
  6
CONTINUOUS
 62
     7
  5
127C
 10
-3.273892
 20
-3.227078
 30
0.0
 11
-3.27544
 21
-3.223577
 31
0.0
  0
LINE
  8
0
  6
CONTINUOUS
 62
     7
  5
127D
 10
-3.27544
 20
-3.223577
 30
0.0
 11
-3.276911
 21
-3.219978
 31
0.0
  0
LINE
  8
0
  6
CONTINUOUS
 62
     7
  5
127E
 10
-3.276911
 20
-3.219978
 30
0.0
 11
-3.278303
 21
-3.216287
 31
0.0
  0
LINE
  8
0
  6
CONTINUOUS
 62
     7
  5
127F
 10
-3.278303
 20
-3.216287
 30
0.0
 11
-3.279615
 21
-3.212508
 31
0.0
  0
LINE
  8
0
  6
CONTINUOUS
 62
     7
  5
1280
 10
-3.279615
 20
-3.212508
 30
0.0
 11
-3.280845
 21
-3.208646
 31
0.0
  0
LINE
  8
0
  6
CONTINUOUS
 62
     7
  5
1281
 10
-3.280845
 20
-3.208646
 30
0.0
 11
-3.28199
 21
-3.204708
 31
0.0
  0
LINE
  8
0
  6
CONTINUOUS
 62
     7
  5
1282
 10
-3.28199
 20
-3.204708
 30
0.0
 11
-3.28305
 21
-3.200699
 31
0.0
  0
LINE
  8
0
  6
CONTINUOUS
 62
     7
  5
1283
 10
-3.28305
 20
-3.200699
 30
0.0
 11
-3.284023
 21
-3.196624
 31
0.0
  0
LINE
  8
0
  6
CONTINUOUS
 62
     7
  5
1284
 10
-3.284023
 20
-3.196624
 30
0.0
 11
-3.284907
 21
-3.192489
 31
0.0
  0
LINE
  8
0
  6
CONTINUOUS
 62
     7
  5
1285
 10
-3.284907
 20
-3.192489
 30
0.0
 11
-3.285701
 21
-3.1883
 31
0.0
  0
LINE
  8
0
  6
CONTINUOUS
 62
     7
  5
1286
 10
-3.285701
 20
-3.1883
 30
0.0
 11
-3.286405
 21
-3.184062
 31
0.0
  0
LINE
  8
0
  6
CONTINUOUS
 62
     7
  5
1287
 10
-3.286405
 20
-3.184062
 30
0.0
 11
-3.287017
 21
-3.179781
 31
0.0
  0
LINE
  8
0
  6
CONTINUOUS
 62
     7
  5
1288
 10
-3.287017
 20
-3.179781
 30
0.0
 11
-3.287536
 21
-3.175465
 31
0.0
  0
LINE
  8
0
  6
CONTINUOUS
 62
     7
  5
1289
 10
-3.287536
 20
-3.175465
 30
0.0
 11
-3.287962
 21
-3.171117
 31
0.0
  0
LINE
  8
0
  6
CONTINUOUS
 62
     7
  5
128A
 10
-3.287962
 20
-3.171117
 30
0.0
 11
-3.288293
 21
-3.166745
 31
0.0
  0
LINE
  8
0
  6
CONTINUOUS
 62
     7
  5
128B
 10
-3.288293
 20
-3.166745
 30
0.0
 11
-3.288531
 21
-3.162355
 31
0.0
  0
LINE
  8
0
  6
CONTINUOUS
 62
     7
  5
128C
 10
-3.288531
 20
-3.162355
 30
0.0
 11
-3.288673
 21
-3.157952
 31
0.0
  0
LINE
  8
0
  6
CONTINUOUS
 62
     7
  5
128D
 10
-3.288673
 20
-3.157952
 30
0.0
 11
-3.288721
 21
-3.153543
 31
0.0
  0
LINE
  8
0
  6
CONTINUOUS
 62
     7
  5
128E
 10
-3.061417
 20
-3.350394
 30
0.0
 11
-5.993701
 21
-3.350394
 31
0.0
  0
CIRCLE
  8
0
  6
CONTINUOUS
 62
     7
  5
128F
 10
-3.651575
 20
-4.336614
 30
0.0
 40
0.285433
  0
CIRCLE
  8
0
  6
CONTINUOUS
 62
     7
  5
1290
 10
-5.403543
 20
-4.336614
 30
0.0
 40
0.285433
  0
CIRCLE
  8
0
  6
CONTINUOUS
 62
     7
  5
1291
 10
-3.651575
 20
-6.088583
 30
0.0
 40
0.285433
  0
CIRCLE
  8
0
  6
CONTINUOUS
 62
     7
  5
1292
 10
-5.403543
 20
-6.088583
 30
0.0
 40
0.285433
  0
LINE
  8
0
  6
CONTINUOUS
 62
     7
  5
1293
 10
-6.023622
 20
-2.956693
 30
0.0
 11
-6.023622
 21
-6.71063
 31
0.0
  0
LINE
  8
0
  6
CONTINUOUS
 62
     7
  5
1294
 10
-6.023622
 20
-6.71063
 30
0.0
 11
-3.031496
 21
-6.71063
 31
0.0
  0
LINE
  8
0
  6
CONTINUOUS
 62
     7
  5
1295
 10
-3.031496
 20
-6.71063
 30
0.0
 11
-3.031496
 21
-2.956693
 31
0.0
  0
LINE
  8
0
  6
CONTINUOUS
 62
     7
  5
1296
 10
-8.46063
 20
-6.854331
 30
0.0
 11
-9.956693
 21
-6.854331
 31
0.0
  0
LINE
  8
0
  6
CONTINUOUS
 62
     7
  5
1297
 10
-8.46063
 20
-5.279528
 30
0.0
 11
-8.46063
 21
-6.854331
 31
0.0
  0
LINE
  8
0
  6
CONTINUOUS
 62
     7
  5
1298
 10
-9.956693
 20
-6.854331
 30
0.0
 11
-9.956693
 21
-8.429134
 31
0.0
  0
LINE
  8
0
  6
CONTINUOUS
 62
     7
  5
1299
 10
-9.956693
 20
-8.429134
 30
0.0
 11
-8.185039
 21
-8.429134
 31
0.0
  0
LINE
  8
0
  6
CONTINUOUS
 62
     7
  5
129A
 10
-8.185039
 20
-5.279528
 30
0.0
 11
-8.46063
 21
-5.279528
 31
0.0
  0
LINE
  8
0
  6
CONTINUOUS
 62
     7
  5
129B
 10
-8.5
 20
-4.295276
 30
0.0
 11
-8.34252
 21
-4.295276
 31
0.0
  0
LINE
  8
0
  6
CONTINUOUS
 62
     7
  5
129C
 10
-8.34252
 20
-4.295276
 30
0.0
 11
-8.34252
 21
-5.279528
 31
0.0
  0
LINE
  8
0
  6
CONTINUOUS
 62
     7
  5
129D
 10
-8.34252
 20
-4.295276
 30
0.0
 11
-8.185039
 21
-4.295276
 31
0.0
  0
LINE
  8
0
  6
CONTINUOUS
 62
     7
  5
129E
 10
-10.498031
 20
-4.295276
 30
0.0
 11
-10.498031
 21
-7.838583
 31
0.0
  0
LINE
  8
0
  6
CONTINUOUS
 62
     7
  5
129F
 10
-10.498031
 20
-7.838583
 30
0.0
 11
-9.956693
 21
-7.838583
 31
0.0
  0
LINE
  8
0
  6
CONTINUOUS
 62
     7
  5
12A0
 10
-10.498031
 20
-4.295276
 30
0.0
 11
-8.5
 21
-4.295276
 31
0.0
  0
LINE
  8
0
  6
CONTINUOUS
 62
     7
  5
12A1
 10
-8.185039
 20
-3.567929
 30
0.0
 11
-8.185039
 21
-8.565929
 31
0.0
  0
LINE
  8
0
  6
CONTINUOUS
 62
     7
  5
12A2
 10
-3.848425
 20
-7.600394
 30
0.0
 11
-3.454724
 21
-7.600394
 31
0.0
  0
LINE
  8
0
  6
CONTINUOUS
 62
     7
  5
12A3
 10
-3.848425
 20
-7.994094
 30
0.0
 11
-3.848425
 21
-7.600394
 31
0.0
  0
LINE
  8
0
  6
CONTINUOUS
 62
     7
  5
12A4
 10
-3.454724
 20
-7.994094
 30
0.0
 11
-3.848425
 21
-7.994094
 31
0.0
  0
LINE
  8
0
  6
CONTINUOUS
 62
     7
  5
12A5
 10
-3.454724
 20
-7.600394
 30
0.0
 11
-3.454724
 21
-7.994094
 31
0.0
  0
LINE
  8
0
  6
CONTINUOUS
 62
     7
  5
12A6
 10
-5.600394
 20
-7.600394
 30
0.0
 11
-5.206693
 21
-7.600394
 31
0.0
  0
LINE
  8
0
  6
CONTINUOUS
 62
     7
  5
12A7
 10
-5.600394
 20
-7.994094
 30
0.0
 11
-5.600394
 21
-7.600394
 31
0.0
  0
LINE
  8
0
  6
CONTINUOUS
 62
     7
  5
12A8
 10
-5.206693
 20
-7.994094
 30
0.0
 11
-5.600394
 21
-7.994094
 31
0.0
  0
LINE
  8
0
  6
CONTINUOUS
 62
     7
  5
12A9
 10
-5.206693
 20
-7.600394
 30
0.0
 11
-5.206693
 21
-7.994094
 31
0.0
  0
LINE
  8
0
  6
CONTINUOUS
 62
     7
  5
12AA
 10
-8.185039
 20
-8.565929
 30
0.0
 11
-7.988189
 21
-8.565929
 31
0.0
  0
LINE
  8
0
  6
CONTINUOUS
 62
     7
  5
12AB
 10
-8.185039
 20
-3.567929
 30
0.0
 11
-7.988189
 21
-3.567929
 31
0.0
  0
LINE
  8
0
  6
CONTINUOUS
 62
     7
  5
12AC
 10
-7.988189
 20
-3.567929
 30
0.0
 11
-6.023622
 21
-3.567929
 31
0.0
  0
LINE
  8
0
  6
CONTINUOUS
 62
     7
  5
12AD
 10
-7.988189
 20
-8.565929
 30
0.0
 11
-3.032496
 21
-8.565929
 31
0.0
  0
LINE
  8
0
  6
CONTINUOUS
 62
     7
  5
12AE
 10
-3.032496
 20
-6.71063
 30
0.0
 11
-3.032496
 21
-8.565929
 31
0.0
  0
LINE
  8
0
  6
CONTINUOUS
 62
     7
  5
12AF
 10
-8.027559
 20
-8.566929
 30
0.0
 11
-7.830709
 21
-8.566929
 31
0.0
  0
LINE
  8
0
  6
CONTINUOUS
 62
     7
  5
12B0
 10
-8.027559
 20
-3.566929
 30
0.0
 11
-7.830709
 21
-3.566929
 31
0.0
  0
LINE
  8
0
  6
CONTINUOUS
 62
     7
  5
12B1
 10
-7.830709
 20
-8.566929
 30
0.0
 11
-3.031496
 21
-8.566929
 31
0.0
  0
LINE
  8
0
  6
CONTINUOUS
 62
     7
  5
12B2
 10
-3.031496
 20
-6.71063
 30
0.0
 11
-3.031496
 21
-8.566929
 31
0.0
  0
LINE
  8
0
  6
CONTINUOUS
 62
     7
  5
12B3
 10
-7.830709
 20
-3.566929
 30
0.0
 11
-6.023622
 21
-3.566929
 31
0.0
  0
LINE
  8
0
  6
CONTINUOUS
 62
     7
  5
12B4
 10
-1.289234
 20
-3.267561
 30
0.0
 11
-1.466142
 21
-3.350394
 31
0.0
  0
LINE
  8
0
  6
CONTINUOUS
 62
     7
  5
12B5
 10
-1.238838
 20
-3.153543
 30
0.0
 11
-1.238886
 21
-3.157952
 31
0.0
  0
LINE
  8
0
  6
CONTINUOUS
 62
     7
  5
12B6
 10
-1.238886
 20
-3.157952
 30
0.0
 11
-1.239029
 21
-3.162355
 31
0.0
  0
LINE
  8
0
  6
CONTINUOUS
 62
     7
  5
12B7
 10
-1.239029
 20
-3.162355
 30
0.0
 11
-1.239266
 21
-3.166745
 31
0.0
  0
LINE
  8
0
  6
CONTINUOUS
 62
     7
  5
12B8
 10
-1.239266
 20
-3.166745
 30
0.0
 11
-1.239598
 21
-3.171117
 31
0.0
  0
LINE
  8
0
  6
CONTINUOUS
 62
     7
  5
12B9
 10
-1.239598
 20
-3.171117
 30
0.0
 11
-1.240023
 21
-3.175465
 31
0.0
  0
LINE
  8
0
  6
CONTINUOUS
 62
     7
  5
12BA
 10
-1.240023
 20
-3.175465
 30
0.0
 11
-1.240542
 21
-3.179781
 31
0.0
  0
LINE
  8
0
  6
CONTINUOUS
 62
     7
  5
12BB
 10
-1.240542
 20
-3.179781
 30
0.0
 11
-1.241154
 21
-3.184062
 31
0.0
  0
LINE
  8
0
  6
CONTINUOUS
 62
     7
  5
12BC
 10
-1.241154
 20
-3.184062
 30
0.0
 11
-1.241858
 21
-3.1883
 31
0.0
  0
LINE
  8
0
  6
CONTINUOUS
 62
     7
  5
12BD
 10
-1.241858
 20
-3.1883
 30
0.0
 11
-1.242652
 21
-3.192489
 31
0.0
  0
LINE
  8
0
  6
CONTINUOUS
 62
     7
  5
12BE
 10
-1.242652
 20
-3.192489
 30
0.0
 11
-1.243536
 21
-3.196624
 31
0.0
  0
LINE
  8
0
  6
CONTINUOUS
 62
     7
  5
12BF
 10
-1.243536
 20
-3.196624
 30
0.0
 11
-1.244509
 21
-3.200699
 31
0.0
  0
LINE
  8
0
  6
CONTINUOUS
 62
     7
  5
12C0
 10
-1.244509
 20
-3.200699
 30
0.0
 11
-1.245569
 21
-3.204708
 31
0.0
  0
LINE
  8
0
  6
CONTINUOUS
 62
     7
  5
12C1
 10
-1.245569
 20
-3.204708
 30
0.0
 11
-1.246715
 21
-3.208646
 31
0.0
  0
LINE
  8
0
  6
CONTINUOUS
 62
     7
  5
12C2
 10
-1.246715
 20
-3.208646
 30
0.0
 11
-1.247944
 21
-3.212508
 31
0.0
  0
LINE
  8
0
  6
CONTINUOUS
 62
     7
  5
12C3
 10
-1.247944
 20
-3.212508
 30
0.0
 11
-1.249256
 21
-3.216287
 31
0.0
  0
LINE
  8
0
  6
CONTINUOUS
 62
     7
  5
12C4
 10
-1.249256
 20
-3.216287
 30
0.0
 11
-1.250648
 21
-3.219978
 31
0.0
  0
LINE
  8
0
  6
CONTINUOUS
 62
     7
  5
12C5
 10
-1.250648
 20
-3.219978
 30
0.0
 11
-1.25212
 21
-3.223577
 31
0.0
  0
LINE
  8
0
  6
CONTINUOUS
 62
     7
  5
12C6
 10
-1.25212
 20
-3.223577
 30
0.0
 11
-1.253667
 21
-3.227078
 31
0.0
  0
LINE
  8
0
  6
CONTINUOUS
 62
     7
  5
12C7
 10
-1.253667
 20
-3.227078
 30
0.0
 11
-1.255289
 21
-3.230477
 31
0.0
  0
LINE
  8
0
  6
CONTINUOUS
 62
     7
  5
12C8
 10
-1.255289
 20
-3.230477
 30
0.0
 11
-1.256983
 21
-3.233769
 31
0.0
  0
LINE
  8
0
  6
CONTINUOUS
 62
     7
  5
12C9
 10
-1.256983
 20
-3.233769
 30
0.0
 11
-1.258747
 21
-3.236949
 31
0.0
  0
LINE
  8
0
  6
CONTINUOUS
 62
     7
  5
12CA
 10
-1.258747
 20
-3.236949
 30
0.0
 11
-1.260578
 21
-3.240012
 31
0.0
  0
LINE
  8
0
  6
CONTINUOUS
 62
     7
  5
12CB
 10
-1.260578
 20
-3.240012
 30
0.0
 11
-1.262474
 21
-3.242955
 31
0.0
  0
LINE
  8
0
  6
CONTINUOUS
 62
     7
  5
12CC
 10
-1.262474
 20
-3.242955
 30
0.0
 11
-1.264432
 21
-3.245773
 31
0.0
  0
LINE
  8
0
  6
CONTINUOUS
 62
     7
  5
12CD
 10
-1.264432
 20
-3.245773
 30
0.0
 11
-1.266449
 21
-3.248463
 31
0.0
  0
LINE
  8
0
  6
CONTINUOUS
 62
     7
  5
12CE
 10
-1.266449
 20
-3.248463
 30
0.0
 11
-1.268523
 21
-3.251021
 31
0.0
  0
LINE
  8
0
  6
CONTINUOUS
 62
     7
  5
12CF
 10
-1.268523
 20
-3.251021
 30
0.0
 11
-1.270651
 21
-3.253442
 31
0.0
  0
LINE
  8
0
  6
CONTINUOUS
 62
     7
  5
12D0
 10
-1.270651
 20
-3.253442
 30
0.0
 11
-1.272829
 21
-3.255725
 31
0.0
  0
LINE
  8
0
  6
CONTINUOUS
 62
     7
  5
12D1
 10
-1.272829
 20
-3.255725
 30
0.0
 11
-1.275055
 21
-3.257865
 31
0.0
  0
LINE
  8
0
  6
CONTINUOUS
 62
     7
  5
12D2
 10
-1.275055
 20
-3.257865
 30
0.0
 11
-1.277326
 21
-3.259859
 31
0.0
  0
LINE
  8
0
  6
CONTINUOUS
 62
     7
  5
12D3
 10
-1.277326
 20
-3.259859
 30
0.0
 11
-1.279638
 21
-3.261706
 31
0.0
  0
LINE
  8
0
  6
CONTINUOUS
 62
     7
  5
12D4
 10
-1.279638
 20
-3.261706
 30
0.0
 11
-1.281988
 21
-3.263401
 31
0.0
  0
LINE
  8
0
  6
CONTINUOUS
 62
     7
  5
12D5
 10
-1.281988
 20
-3.263401
 30
0.0
 11
-1.284373
 21
-3.264944
 31
0.0
  0
LINE
  8
0
  6
CONTINUOUS
 62
     7
  5
12D6
 10
-1.284373
 20
-3.264944
 30
0.0
 11
-1.286789
 21
-3.266331
 31
0.0
  0
LINE
  8
0
  6
CONTINUOUS
 62
     7
  5
12D7
 10
-1.286789
 20
-3.266331
 30
0.0
 11
-1.289234
 21
-3.267561
 31
0.0
  0
LINE
  8
0
  6
CONTINUOUS
 62
     7
  5
12D8
 10
-1.289234
 20
-3.039526
 30
0.0
 11
-1.286789
 21
-3.040756
 31
0.0
  0
LINE
  8
0
  6
CONTINUOUS
 62
     7
  5
12D9
 10
-1.286789
 20
-3.040756
 30
0.0
 11
-1.284373
 21
-3.042143
 31
0.0
  0
LINE
  8
0
  6
CONTINUOUS
 62
     7
  5
12DA
 10
-1.284373
 20
-3.042143
 30
0.0
 11
-1.281988
 21
-3.043685
 31
0.0
  0
LINE
  8
0
  6
CONTINUOUS
 62
     7
  5
12DB
 10
-1.281988
 20
-3.043685
 30
0.0
 11
-1.279638
 21
-3.045381
 31
0.0
  0
LINE
  8
0
  6
CONTINUOUS
 62
     7
  5
12DC
 10
-1.279638
 20
-3.045381
 30
0.0
 11
-1.277326
 21
-3.047227
 31
0.0
  0
LINE
  8
0
  6
CONTINUOUS
 62
     7
  5
12DD
 10
-1.277326
 20
-3.047227
 30
0.0
 11
-1.275055
 21
-3.049222
 31
0.0
  0
LINE
  8
0
  6
CONTINUOUS
 62
     7
  5
12DE
 10
-1.275055
 20
-3.049222
 30
0.0
 11
-1.272829
 21
-3.051362
 31
0.0
  0
LINE
  8
0
  6
CONTINUOUS
 62
     7
  5
12DF
 10
-1.272829
 20
-3.051362
 30
0.0
 11
-1.270651
 21
-3.053644
 31
0.0
  0
LINE
  8
0
  6
CONTINUOUS
 62
     7
  5
12E0
 10
-1.270651
 20
-3.053644
 30
0.0
 11
-1.268523
 21
-3.056066
 31
0.0
  0
LINE
  8
0
  6
CONTINUOUS
 62
     7
  5
12E1
 10
-1.268523
 20
-3.056066
 30
0.0
 11
-1.266449
 21
-3.058623
 31
0.0
  0
LINE
  8
0
  6
CONTINUOUS
 62
     7
  5
12E2
 10
-1.266449
 20
-3.058623
 30
0.0
 11
-1.264432
 21
-3.061313
 31
0.0
  0
LINE
  8
0
  6
CONTINUOUS
 62
     7
  5
12E3
 10
-1.264432
 20
-3.061313
 30
0.0
 11
-1.262474
 21
-3.064132
 31
0.0
  0
LINE
  8
0
  6
CONTINUOUS
 62
     7
  5
12E4
 10
-1.262474
 20
-3.064132
 30
0.0
 11
-1.260578
 21
-3.067075
 31
0.0
  0
LINE
  8
0
  6
CONTINUOUS
 62
     7
  5
12E5
 10
-1.260578
 20
-3.067075
 30
0.0
 11
-1.258747
 21
-3.070138
 31
0.0
  0
LINE
  8
0
  6
CONTINUOUS
 62
     7
  5
12E6
 10
-1.258747
 20
-3.070138
 30
0.0
 11
-1.256983
 21
-3.073318
 31
0.0
  0
LINE
  8
0
  6
CONTINUOUS
 62
     7
  5
12E7
 10
-1.256983
 20
-3.073318
 30
0.0
 11
-1.255289
 21
-3.076609
 31
0.0
  0
LINE
  8
0
  6
CONTINUOUS
 62
     7
  5
12E8
 10
-1.255289
 20
-3.076609
 30
0.0
 11
-1.253667
 21
-3.080008
 31
0.0
  0
LINE
  8
0
  6
CONTINUOUS
 62
     7
  5
12E9
 10
-1.253667
 20
-3.080008
 30
0.0
 11
-1.25212
 21
-3.08351
 31
0.0
  0
LINE
  8
0
  6
CONTINUOUS
 62
     7
  5
12EA
 10
-1.25212
 20
-3.08351
 30
0.0
 11
-1.250648
 21
-3.087109
 31
0.0
  0
LINE
  8
0
  6
CONTINUOUS
 62
     7
  5
12EB
 10
-1.250648
 20
-3.087109
 30
0.0
 11
-1.249256
 21
-3.0908
 31
0.0
  0
LINE
  8
0
  6
CONTINUOUS
 62
     7
  5
12EC
 10
-1.249256
 20
-3.0908
 30
0.0
 11
-1.247944
 21
-3.094579
 31
0.0
  0
LINE
  8
0
  6
CONTINUOUS
 62
     7
  5
12ED
 10
-1.247944
 20
-3.094579
 30
0.0
 11
-1.246715
 21
-3.09844
 31
0.0
  0
LINE
  8
0
  6
CONTINUOUS
 62
     7
  5
12EE
 10
-1.246715
 20
-3.09844
 30
0.0
 11
-1.245569
 21
-3.102378
 31
0.0
  0
LINE
  8
0
  6
CONTINUOUS
 62
     7
  5
12EF
 10
-1.245569
 20
-3.102378
 30
0.0
 11
-1.244509
 21
-3.106388
 31
0.0
  0
LINE
  8
0
  6
CONTINUOUS
 62
     7
  5
12F0
 10
-1.244509
 20
-3.106388
 30
0.0
 11
-1.243536
 21
-3.110463
 31
0.0
  0
LINE
  8
0
  6
CONTINUOUS
 62
     7
  5
12F1
 10
-1.243536
 20
-3.110463
 30
0.0
 11
-1.242652
 21
-3.114598
 31
0.0
  0
LINE
  8
0
  6
CONTINUOUS
 62
     7
  5
12F2
 10
-1.242652
 20
-3.114598
 30
0.0
 11
-1.241858
 21
-3.118787
 31
0.0
  0
LINE
  8
0
  6
CONTINUOUS
 62
     7
  5
12F3
 10
-1.241858
 20
-3.118787
 30
0.0
 11
-1.241154
 21
-3.123025
 31
0.0
  0
LINE
  8
0
  6
CONTINUOUS
 62
     7
  5
12F4
 10
-1.241154
 20
-3.123025
 30
0.0
 11
-1.240542
 21
-3.127305
 31
0.0
  0
LINE
  8
0
  6
CONTINUOUS
 62
     7
  5
12F5
 10
-1.240542
 20
-3.127305
 30
0.0
 11
-1.240023
 21
-3.131622
 31
0.0
  0
LINE
  8
0
  6
CONTINUOUS
 62
     7
  5
12F6
 10
-1.240023
 20
-3.131622
 30
0.0
 11
-1.239598
 21
-3.13597
 31
0.0
  0
LINE
  8
0
  6
CONTINUOUS
 62
     7
  5
12F7
 10
-1.239598
 20
-3.13597
 30
0.0
 11
-1.239266
 21
-3.140341
 31
0.0
  0
LINE
  8
0
  6
CONTINUOUS
 62
     7
  5
12F8
 10
-1.239266
 20
-3.140341
 30
0.0
 11
-1.239029
 21
-3.144732
 31
0.0
  0
LINE
  8
0
  6
CONTINUOUS
 62
     7
  5
12F9
 10
-1.239029
 20
-3.144732
 30
0.0
 11
-1.238886
 21
-3.149135
 31
0.0
  0
LINE
  8
0
  6
CONTINUOUS
 62
     7
  5
12FA
 10
-1.238886
 20
-3.149135
 30
0.0
 11
-1.238838
 21
-3.153543
 31
0.0
  0
LINE
  8
0
  6
CONTINUOUS
 62
     7
  5
12FB
 10
-1.466142
 20
-2.956693
 30
0.0
 11
-1.289234
 21
-3.039526
 31
0.0
  0
LINE
  8
0
  6
CONTINUOUS
 62
     7
  5
12FC
 10
-1.466142
 20
-3.350394
 30
0.0
 11
-1.466142
 21
-2.956693
 31
0.0
  0
LINE
  8
0
  6
CONTINUOUS
 62
     7
  5
12FD
 10
1.289234
 20
-3.039526
 30
0.0
 11
1.466142
 21
-2.956693
 31
0.0
  0
LINE
  8
0
  6
CONTINUOUS
 62
     7
  5
12FE
 10
1.466142
 20
-3.350394
 30
0.0
 11
1.289234
 21
-3.267561
 31
0.0
  0
LINE
  8
0
  6
CONTINUOUS
 62
     7
  5
12FF
 10
1.466142
 20
-2.956693
 30
0.0
 11
1.466142
 21
-3.350394
 31
0.0
  0
LINE
  8
0
  6
CONTINUOUS
 62
     7
  5
1300
 10
1.238838
 20
-3.153543
 30
0.0
 11
1.238886
 21
-3.149135
 31
0.0
  0
LINE
  8
0
  6
CONTINUOUS
 62
     7
  5
1301
 10
1.238886
 20
-3.149135
 30
0.0
 11
1.239029
 21
-3.144732
 31
0.0
  0
LINE
  8
0
  6
CONTINUOUS
 62
     7
  5
1302
 10
1.239029
 20
-3.144732
 30
0.0
 11
1.239266
 21
-3.140341
 31
0.0
  0
LINE
  8
0
  6
CONTINUOUS
 62
     7
  5
1303
 10
1.239266
 20
-3.140341
 30
0.0
 11
1.239598
 21
-3.13597
 31
0.0
  0
LINE
  8
0
  6
CONTINUOUS
 62
     7
  5
1304
 10
1.239598
 20
-3.13597
 30
0.0
 11
1.240023
 21
-3.131622
 31
0.0
  0
LINE
  8
0
  6
CONTINUOUS
 62
     7
  5
1305
 10
1.240023
 20
-3.131622
 30
0.0
 11
1.240542
 21
-3.127305
 31
0.0
  0
LINE
  8
0
  6
CONTINUOUS
 62
     7
  5
1306
 10
1.240542
 20
-3.127305
 30
0.0
 11
1.241154
 21
-3.123025
 31
0.0
  0
LINE
  8
0
  6
CONTINUOUS
 62
     7
  5
1307
 10
1.241154
 20
-3.123025
 30
0.0
 11
1.241858
 21
-3.118787
 31
0.0
  0
LINE
  8
0
  6
CONTINUOUS
 62
     7
  5
1308
 10
1.241858
 20
-3.118787
 30
0.0
 11
1.242652
 21
-3.114598
 31
0.0
  0
LINE
  8
0
  6
CONTINUOUS
 62
     7
  5
1309
 10
1.242652
 20
-3.114598
 30
0.0
 11
1.243536
 21
-3.110463
 31
0.0
  0
LINE
  8
0
  6
CONTINUOUS
 62
     7
  5
130A
 10
1.243536
 20
-3.110463
 30
0.0
 11
1.244509
 21
-3.106388
 31
0.0
  0
LINE
  8
0
  6
CONTINUOUS
 62
     7
  5
130B
 10
1.244509
 20
-3.106388
 30
0.0
 11
1.245569
 21
-3.102378
 31
0.0
  0
LINE
  8
0
  6
CONTINUOUS
 62
     7
  5
130C
 10
1.245569
 20
-3.102378
 30
0.0
 11
1.246715
 21
-3.09844
 31
0.0
  0
LINE
  8
0
  6
CONTINUOUS
 62
     7
  5
130D
 10
1.246715
 20
-3.09844
 30
0.0
 11
1.247944
 21
-3.094579
 31
0.0
  0
LINE
  8
0
  6
CONTINUOUS
 62
     7
  5
130E
 10
1.247944
 20
-3.094579
 30
0.0
 11
1.249256
 21
-3.0908
 31
0.0
  0
LINE
  8
0
  6
CONTINUOUS
 62
     7
  5
130F
 10
1.249256
 20
-3.0908
 30
0.0
 11
1.250648
 21
-3.087109
 31
0.0
  0
LINE
  8
0
  6
CONTINUOUS
 62
     7
  5
1310
 10
1.250648
 20
-3.087109
 30
0.0
 11
1.25212
 21
-3.08351
 31
0.0
  0
LINE
  8
0
  6
CONTINUOUS
 62
     7
  5
1311
 10
1.25212
 20
-3.08351
 30
0.0
 11
1.253667
 21
-3.080008
 31
0.0
  0
LINE
  8
0
  6
CONTINUOUS
 62
     7
  5
1312
 10
1.253667
 20
-3.080008
 30
0.0
 11
1.255289
 21
-3.076609
 31
0.0
  0
LINE
  8
0
  6
CONTINUOUS
 62
     7
  5
1313
 10
1.255289
 20
-3.076609
 30
0.0
 11
1.256983
 21
-3.073318
 31
0.0
  0
LINE
  8
0
  6
CONTINUOUS
 62
     7
  5
1314
 10
1.256983
 20
-3.073318
 30
0.0
 11
1.258747
 21
-3.070138
 31
0.0
  0
LINE
  8
0
  6
CONTINUOUS
 62
     7
  5
1315
 10
1.258747
 20
-3.070138
 30
0.0
 11
1.260578
 21
-3.067075
 31
0.0
  0
LINE
  8
0
  6
CONTINUOUS
 62
     7
  5
1316
 10
1.260578
 20
-3.067075
 30
0.0
 11
1.262474
 21
-3.064132
 31
0.0
  0
LINE
  8
0
  6
CONTINUOUS
 62
     7
  5
1317
 10
1.262474
 20
-3.064132
 30
0.0
 11
1.264432
 21
-3.061313
 31
0.0
  0
LINE
  8
0
  6
CONTINUOUS
 62
     7
  5
1318
 10
1.264432
 20
-3.061313
 30
0.0
 11
1.266449
 21
-3.058623
 31
0.0
  0
LINE
  8
0
  6
CONTINUOUS
 62
     7
  5
1319
 10
1.266449
 20
-3.058623
 30
0.0
 11
1.268523
 21
-3.056066
 31
0.0
  0
LINE
  8
0
  6
CONTINUOUS
 62
     7
  5
131A
 10
1.268523
 20
-3.056066
 30
0.0
 11
1.270651
 21
-3.053644
 31
0.0
  0
LINE
  8
0
  6
CONTINUOUS
 62
     7
  5
131B
 10
1.270651
 20
-3.053644
 30
0.0
 11
1.272829
 21
-3.051362
 31
0.0
  0
LINE
  8
0
  6
CONTINUOUS
 62
     7
  5
131C
 10
1.272829
 20
-3.051362
 30
0.0
 11
1.275055
 21
-3.049222
 31
0.0
  0
LINE
  8
0
  6
CONTINUOUS
 62
     7
  5
131D
 10
1.275055
 20
-3.049222
 30
0.0
 11
1.277326
 21
-3.047227
 31
0.0
  0
LINE
  8
0
  6
CONTINUOUS
 62
     7
  5
131E
 10
1.277326
 20
-3.047227
 30
0.0
 11
1.279638
 21
-3.045381
 31
0.0
  0
LINE
  8
0
  6
CONTINUOUS
 62
     7
  5
131F
 10
1.279638
 20
-3.045381
 30
0.0
 11
1.281988
 21
-3.043685
 31
0.0
  0
LINE
  8
0
  6
CONTINUOUS
 62
     7
  5
1320
 10
1.281988
 20
-3.043685
 30
0.0
 11
1.284373
 21
-3.042143
 31
0.0
  0
LINE
  8
0
  6
CONTINUOUS
 62
     7
  5
1321
 10
1.284373
 20
-3.042143
 30
0.0
 11
1.286789
 21
-3.040756
 31
0.0
  0
LINE
  8
0
  6
CONTINUOUS
 62
     7
  5
1322
 10
1.286789
 20
-3.040756
 30
0.0
 11
1.289234
 21
-3.039526
 31
0.0
  0
LINE
  8
0
  6
CONTINUOUS
 62
     7
  5
1323
 10
1.289234
 20
-3.267561
 30
0.0
 11
1.286789
 21
-3.266331
 31
0.0
  0
LINE
  8
0
  6
CONTINUOUS
 62
     7
  5
1324
 10
1.286789
 20
-3.266331
 30
0.0
 11
1.284373
 21
-3.264944
 31
0.0
  0
LINE
  8
0
  6
CONTINUOUS
 62
     7
  5
1325
 10
1.284373
 20
-3.264944
 30
0.0
 11
1.281988
 21
-3.263401
 31
0.0
  0
LINE
  8
0
  6
CONTINUOUS
 62
     7
  5
1326
 10
1.281988
 20
-3.263401
 30
0.0
 11
1.279638
 21
-3.261706
 31
0.0
  0
LINE
  8
0
  6
CONTINUOUS
 62
     7
  5
1327
 10
1.279638
 20
-3.261706
 30
0.0
 11
1.277326
 21
-3.259859
 31
0.0
  0
LINE
  8
0
  6
CONTINUOUS
 62
     7
  5
1328
 10
1.277326
 20
-3.259859
 30
0.0
 11
1.275055
 21
-3.257865
 31
0.0
  0
LINE
  8
0
  6
CONTINUOUS
 62
     7
  5
1329
 10
1.275055
 20
-3.257865
 30
0.0
 11
1.272829
 21
-3.255725
 31
0.0
  0
LINE
  8
0
  6
CONTINUOUS
 62
     7
  5
132A
 10
1.272829
 20
-3.255725
 30
0.0
 11
1.270651
 21
-3.253442
 31
0.0
  0
LINE
  8
0
  6
CONTINUOUS
 62
     7
  5
132B
 10
1.270651
 20
-3.253442
 30
0.0
 11
1.268523
 21
-3.251021
 31
0.0
  0
LINE
  8
0
  6
CONTINUOUS
 62
     7
  5
132C
 10
1.268523
 20
-3.251021
 30
0.0
 11
1.266449
 21
-3.248463
 31
0.0
  0
LINE
  8
0
  6
CONTINUOUS
 62
     7
  5
132D
 10
1.266449
 20
-3.248463
 30
0.0
 11
1.264432
 21
-3.245773
 31
0.0
  0
LINE
  8
0
  6
CONTINUOUS
 62
     7
  5
132E
 10
1.264432
 20
-3.245773
 30
0.0
 11
1.262474
 21
-3.242955
 31
0.0
  0
LINE
  8
0
  6
CONTINUOUS
 62
     7
  5
132F
 10
1.262474
 20
-3.242955
 30
0.0
 11
1.260578
 21
-3.240012
 31
0.0
  0
LINE
  8
0
  6
CONTINUOUS
 62
     7
  5
1330
 10
1.260578
 20
-3.240012
 30
0.0
 11
1.258747
 21
-3.236949
 31
0.0
  0
LINE
  8
0
  6
CONTINUOUS
 62
     7
  5
1331
 10
1.258747
 20
-3.236949
 30
0.0
 11
1.256983
 21
-3.233769
 31
0.0
  0
LINE
  8
0
  6
CONTINUOUS
 62
     7
  5
1332
 10
1.256983
 20
-3.233769
 30
0.0
 11
1.255289
 21
-3.230477
 31
0.0
  0
LINE
  8
0
  6
CONTINUOUS
 62
     7
  5
1333
 10
1.255289
 20
-3.230477
 30
0.0
 11
1.253667
 21
-3.227078
 31
0.0
  0
LINE
  8
0
  6
CONTINUOUS
 62
     7
  5
1334
 10
1.253667
 20
-3.227078
 30
0.0
 11
1.25212
 21
-3.223577
 31
0.0
  0
LINE
  8
0
  6
CONTINUOUS
 62
     7
  5
1335
 10
1.25212
 20
-3.223577
 30
0.0
 11
1.250648
 21
-3.219978
 31
0.0
  0
LINE
  8
0
  6
CONTINUOUS
 62
     7
  5
1336
 10
1.250648
 20
-3.219978
 30
0.0
 11
1.249256
 21
-3.216287
 31
0.0
  0
LINE
  8
0
  6
CONTINUOUS
 62
     7
  5
1337
 10
1.249256
 20
-3.216287
 30
0.0
 11
1.247944
 21
-3.212508
 31
0.0
  0
LINE
  8
0
  6
CONTINUOUS
 62
     7
  5
1338
 10
1.247944
 20
-3.212508
 30
0.0
 11
1.246715
 21
-3.208646
 31
0.0
  0
LINE
  8
0
  6
CONTINUOUS
 62
     7
  5
1339
 10
1.246715
 20
-3.208646
 30
0.0
 11
1.245569
 21
-3.204708
 31
0.0
  0
LINE
  8
0
  6
CONTINUOUS
 62
     7
  5
133A
 10
1.245569
 20
-3.204708
 30
0.0
 11
1.244509
 21
-3.200699
 31
0.0
  0
LINE
  8
0
  6
CONTINUOUS
 62
     7
  5
133B
 10
1.244509
 20
-3.200699
 30
0.0
 11
1.243536
 21
-3.196624
 31
0.0
  0
LINE
  8
0
  6
CONTINUOUS
 62
     7
  5
133C
 10
1.243536
 20
-3.196624
 30
0.0
 11
1.242652
 21
-3.192489
 31
0.0
  0
LINE
  8
0
  6
CONTINUOUS
 62
     7
  5
133D
 10
1.242652
 20
-3.192489
 30
0.0
 11
1.241858
 21
-3.1883
 31
0.0
  0
LINE
  8
0
  6
CONTINUOUS
 62
     7
  5
133E
 10
1.241858
 20
-3.1883
 30
0.0
 11
1.241154
 21
-3.184062
 31
0.0
  0
LINE
  8
0
  6
CONTINUOUS
 62
     7
  5
133F
 10
1.241154
 20
-3.184062
 30
0.0
 11
1.240542
 21
-3.179781
 31
0.0
  0
LINE
  8
0
  6
CONTINUOUS
 62
     7
  5
1340
 10
1.240542
 20
-3.179781
 30
0.0
 11
1.240023
 21
-3.175465
 31
0.0
  0
LINE
  8
0
  6
CONTINUOUS
 62
     7
  5
1341
 10
1.240023
 20
-3.175465
 30
0.0
 11
1.239598
 21
-3.171117
 31
0.0
  0
LINE
  8
0
  6
CONTINUOUS
 62
     7
  5
1342
 10
1.239598
 20
-3.171117
 30
0.0
 11
1.239266
 21
-3.166745
 31
0.0
  0
LINE
  8
0
  6
CONTINUOUS
 62
     7
  5
1343
 10
1.239266
 20
-3.166745
 30
0.0
 11
1.239029
 21
-3.162355
 31
0.0
  0
LINE
  8
0
  6
CONTINUOUS
 62
     7
  5
1344
 10
1.239029
 20
-3.162355
 30
0.0
 11
1.238886
 21
-3.157952
 31
0.0
  0
LINE
  8
0
  6
CONTINUOUS
 62
     7
  5
1345
 10
1.238886
 20
-3.157952
 30
0.0
 11
1.238838
 21
-3.153543
 31
0.0
  0
LINE
  8
0
  6
CONTINUOUS
 62
     7
  5
1346
 10
-0.393701
 20
-3.350394
 30
0.0
 11
-1.466142
 21
-3.350394
 31
0.0
  0
LINE
  8
0
  6
CONTINUOUS
 62
     7
  5
1347
 10
1.466142
 20
-3.350394
 30
0.0
 11
0.393701
 21
-3.350394
 31
0.0
  0
ARC
  8
0
  6
CONTINUOUS
 62
     7
  5
1348
 10
0.875984
 20
-4.336614
 30
0.0
 40
0.285433
 50
0.0
 51
130.932725
  0
ARC
  8
0
  6
CONTINUOUS
 62
     7
  5
1349
 10
0.875984
 20
-4.336614
 30
0.0
 40
0.285433
 50
229.067275
 51
0.0
  0
ARC
  8
0
  6
CONTINUOUS
 62
     7
  5
134A
 10
-0.875984
 20
-4.336614
 30
0.0
 40
0.285433
 50
49.067275
 51
310.932725
  0
CIRCLE
  8
0
  6
CONTINUOUS
 62
     7
  5
134B
 10
0.875984
 20
-6.088583
 30
0.0
 40
0.285433
  0
CIRCLE
  8
0
  6
CONTINUOUS
 62
     7
  5
134C
 10
-0.875984
 20
-6.088583
 30
0.0
 40
0.285433
  0
LINE
  8
0
  6
CONTINUOUS
 62
     7
  5
134D
 10
-1.496063
 20
-2.956693
 30
0.0
 11
-1.496063
 21
-6.71063
 31
0.0
  0
LINE
  8
0
  6
CONTINUOUS
 62
     7
  5
134E
 10
-1.496063
 20
-6.71063
 30
0.0
 11
1.496063
 21
-6.71063
 31
0.0
  0
LINE
  8
0
  6
CONTINUOUS
 62
     7
  5
134F
 10
1.496063
 20
-6.71063
 30
0.0
 11
1.496063
 21
-2.956693
 31
0.0
  0
LINE
  8
0
  6
CONTINUOUS
 62
     7
  5
1350
 10
-1.495063
 20
-8.566929
 30
0.0
 11
-1.495063
 21
-6.71063
 31
0.0
  0
LINE
  8
0
  6
CONTINUOUS
 62
     7
  5
1351
 10
-0.19685
 20
-8.566929
 30
0.0
 11
-1.495063
 21
-8.566929
 31
0.0
  0
LINE
  8
0
  6
CONTINUOUS
 62
     7
  5
1352
 10
-1.072835
 20
-7.600394
 30
0.0
 11
-0.679134
 21
-7.600394
 31
0.0
  0
LINE
  8
0
  6
CONTINUOUS
 62
     7
  5
1353
 10
-0.679134
 20
-7.600394
 30
0.0
 11
-0.679134
 21
-7.994094
 31
0.0
  0
LINE
  8
0
  6
CONTINUOUS
 62
     7
  5
1354
 10
-0.679134
 20
-7.994094
 30
0.0
 11
-1.072835
 21
-7.994094
 31
0.0
  0
LINE
  8
0
  6
CONTINUOUS
 62
     7
  5
1355
 10
-1.072835
 20
-7.994094
 30
0.0
 11
-1.072835
 21
-7.600394
 31
0.0
  0
LINE
  8
0
  6
CONTINUOUS
 62
     7
  5
1356
 10
-1.495063
 20
-6.854331
 30
0.0
 11
-1.929134
 21
-6.854331
 31
0.0
  0
LINE
  8
0
  6
CONTINUOUS
 62
     7
  5
1357
 10
-1.929134
 20
-6.854331
 30
0.0
 11
-1.929134
 21
-8.429134
 31
0.0
  0
LINE
  8
0
  6
CONTINUOUS
 62
     7
  5
1358
 10
-1.929134
 20
-8.429134
 30
0.0
 11
-1.495063
 21
-8.429134
 31
0.0
  0
LINE
  8
0
  6
CONTINUOUS
 62
     7
  5
1359
 10
1.929134
 20
-6.854331
 30
0.0
 11
1.495063
 21
-6.854331
 31
0.0
  0
LINE
  8
0
  6
CONTINUOUS
 62
     7
  5
135A
 10
1.929134
 20
-8.429134
 30
0.0
 11
1.929134
 21
-6.854331
 31
0.0
  0
LINE
  8
0
  6
CONTINUOUS
 62
     7
  5
135B
 10
1.495063
 20
-8.429134
 30
0.0
 11
1.929134
 21
-8.429134
 31
0.0
  0
LINE
  8
0
  6
CONTINUOUS
 62
     7
  5
135C
 10
2.470472
 20
-7.838583
 30
0.0
 11
2.470472
 21
-4.295276
 31
0.0
  0
LINE
  8
0
  6
CONTINUOUS
 62
     7
  5
135D
 10
2.470472
 20
-4.295276
 30
0.0
 11
1.496063
 21
-4.295276
 31
0.0
  0
LINE
  8
0
  6
CONTINUOUS
 62
     7
  5
135E
 10
2.470472
 20
-7.838583
 30
0.0
 11
1.929134
 21
-7.838583
 31
0.0
  0
LINE
  8
0
  6
CONTINUOUS
 62
     7
  5
135F
 10
-2.470472
 20
-4.295276
 30
0.0
 11
-2.470472
 21
-7.838583
 31
0.0
  0
LINE
  8
0
  6
CONTINUOUS
 62
     7
  5
1360
 10
-2.470472
 20
-7.838583
 30
0.0
 11
-1.929134
 21
-7.838583
 31
0.0
  0
LINE
  8
0
  6
CONTINUOUS
 62
     7
  5
1361
 10
-2.470472
 20
-4.295276
 30
0.0
 11
-1.496063
 21
-4.295276
 31
0.0
  0
LINE
  8
0
  6
CONTINUOUS
 62
     7
  5
1362
 10
0.679134
 20
-7.600394
 30
0.0
 11
1.072835
 21
-7.600394
 31
0.0
  0
LINE
  8
0
  6
CONTINUOUS
 62
     7
  5
1363
 10
0.679134
 20
-7.994094
 30
0.0
 11
0.679134
 21
-7.600394
 31
0.0
  0
LINE
  8
0
  6
CONTINUOUS
 62
     7
  5
1364
 10
1.072835
 20
-7.994094
 30
0.0
 11
0.679134
 21
-7.994094
 31
0.0
  0
LINE
  8
0
  6
CONTINUOUS
 62
     7
  5
1365
 10
1.072835
 20
-7.600394
 30
0.0
 11
1.072835
 21
-7.994094
 31
0.0
  0
LINE
  8
0
  6
CONTINUOUS
 62
     7
  5
1366
 10
0.0
 20
-8.565929
 30
0.0
 11
0.19685
 21
-8.565929
 31
0.0
  0
LINE
  8
0
  6
CONTINUOUS
 62
     7
  5
1367
 10
0.0
 20
-8.565929
 30
0.0
 11
0.0
 21
-6.71063
 31
0.0
  0
LINE
  8
0
  6
CONTINUOUS
 62
     7
  5
1368
 10
0.19685
 20
-8.565929
 30
0.0
 11
1.495063
 21
-8.565929
 31
0.0
  0
LINE
  8
0
  6
CONTINUOUS
 62
     7
  5
1369
 10
1.495063
 20
-6.71063
 30
0.0
 11
1.495063
 21
-8.565929
 31
0.0
  0
LINE
  8
0
  6
CONTINUOUS
 62
     7
  5
136A
 10
0.0
 20
-8.566929
 30
0.0
 11
-0.19685
 21
-8.566929
 31
0.0
  0
LINE
  8
0
  6
CONTINUOUS
 62
     7
  5
136B
 10
-0.492126
 20
1.086947
 30
0.0
 11
-0.492126
 21
0.979903
 31
0.0
  0
LINE
  8
0
  6
CONTINUOUS
 62
     7
  5
136C
 10
0.492126
 20
0.979903
 30
0.0
 11
0.492126
 21
1.086947
 31
0.0
  0
ARC
  8
0
  6
CONTINUOUS
 62
     7
  5
136D
 10
-0.629921
 20
3.388205
 30
0.0
 40
0.059055
 50
180.0
 51
264.314311
  0
ARC
  8
0
  6
CONTINUOUS
 62
     7
  5
136E
 10
-0.629921
 20
4.388636
 30
0.0
 40
0.059055
 50
95.685689
 51
180.0
  0
ARC
  8
0
  6
CONTINUOUS
 62
     7
  5
136F
 10
0.629921
 20
4.388636
 30
0.0
 40
0.059055
 50
0.0
 51
84.314311
  0
ARC
  8
0
  6
CONTINUOUS
 62
     7
  5
1370
 10
0.629921
 20
3.388205
 30
0.0
 40
0.059055
 50
275.685689
 51
0.0
  0
ARC
  8
0
  6
CONTINUOUS
 62
     7
  5
1371
 10
0.0
 20
-1.938351
 30
0.0
 40
6.417323
 50
84.314311
 51
95.685689
  0
ARC
  8
0
  6
CONTINUOUS
 62
     7
  5
1372
 10
0.0
 20
9.715192
 30
0.0
 40
6.417323
 50
264.314311
 51
275.685689
  0
LINE
  8
0
  6
CONTINUOUS
 62
     7
  5
1373
 10
0.492126
 20
-1.253768
 30
0.0
 11
0.492126
 21
-1.149483
 31
0.0
  0
LINE
  8
0
  6
CONTINUOUS
 62
     7
  5
1374
 10
-0.492126
 20
-1.149483
 30
0.0
 11
-0.492126
 21
-1.253768
 31
0.0
  0
ARC
  8
0
  6
CONTINUOUS
 62
     7
  5
1375
 10
-0.629921
 20
-4.819724
 30
0.0
 40
0.059055
 50
180.0
 51
264.314311
  0
ARC
  8
0
  6
CONTINUOUS
 62
     7
  5
1376
 10
-0.629921
 20
-3.819292
 30
0.0
 40
0.059055
 50
95.685689
 51
180.0
  0
ARC
  8
0
  6
CONTINUOUS
 62
     7
  5
1377
 10
0.629921
 20
-3.819292
 30
0.0
 40
0.059055
 50
0.0
 51
84.314311
  0
ARC
  8
0
  6
CONTINUOUS
 62
     7
  5
1378
 10
0.629921
 20
-4.819724
 30
0.0
 40
0.059055
 50
275.685689
 51
0.0
  0
ARC
  8
0
  6
CONTINUOUS
 62
     7
  5
1379
 10
0.0
 20
-10.14628
 30
0.0
 40
6.417323
 50
84.314311
 51
95.685689
  0
ARC
  8
0
  6
CONTINUOUS
 62
     7
  5
137A
 10
0.0
 20
1.507264
 30
0.0
 40
6.417323
 50
264.314311
 51
275.685689
  0
LINE
  8
0
  6
CONTINUOUS
 62
     3
  5
137B
 10
-7.937008
 20
-1.53937
 30
0.0
 11
-7.417323
 21
-1.53937
 31
0.0
  0
LINE
  8
0
  6
CONTINUOUS
 62
     3
  5
137C
 10
-7.677165
 20
-1.799213
 30
0.0
 11
-7.677165
 21
-1.279528
 31
0.0
  0
LINE
  8
0
  6
CONTINUOUS
 62
     3
  5
137D
 10
7.417323
 20
-1.53937
 30
0.0
 11
7.937008
 21
-1.53937
 31
0.0
  0
LINE
  8
0
  6
CONTINUOUS
 62
     3
  5
137E
 10
7.677165
 20
-1.799213
 30
0.0
 11
7.677165
 21
-1.279528
 31
0.0
  0
LINE
  8
0
  6
CONTINUOUS
 62
     3
  5
137F
 10
7.417323
 20
4.366142
 30
0.0
 11
7.937008
 21
4.366142
 31
0.0
  0
LINE
  8
0
  6
CONTINUOUS
 62
     3
  5
1380
 10
7.677165
 20
4.106299
 30
0.0
 11
7.677165
 21
4.625984
 31
0.0
  0
LINE
  8
0
  6
CONTINUOUS
 62
     3
  5
1381
 10
-7.937008
 20
4.366142
 30
0.0
 11
-7.417323
 21
4.366142
 31
0.0
  0
LINE
  8
0
  6
CONTINUOUS
 62
     3
  5
1382
 10
-7.677165
 20
4.106299
 30
0.0
 11
-7.677165
 21
4.625984
 31
0.0
  0
LINE
  8
0
  6
CONTINUOUS
 62
     3
  5
1383
 10
3.309055
 20
-6.088583
 30
0.0
 11
3.994094
 21
-6.088583
 31
0.0
  0
LINE
  8
0
  6
CONTINUOUS
 62
     3
  5
1384
 10
3.651575
 20
-6.431102
 30
0.0
 11
3.651575
 21
-5.746063
 31
0.0
  0
LINE
  8
0
  6
CONTINUOUS
 62
     3
  5
1385
 10
5.061024
 20
-6.088583
 30
0.0
 11
5.746063
 21
-6.088583
 31
0.0
  0
LINE
  8
0
  6
CONTINUOUS
 62
     3
  5
1386
 10
5.403543
 20
-6.431102
 30
0.0
 11
5.403543
 21
-5.746063
 31
0.0
  0
LINE
  8
0
  6
CONTINUOUS
 62
     3
  5
1387
 10
3.309055
 20
-4.336614
 30
0.0
 11
3.994094
 21
-4.336614
 31
0.0
  0
LINE
  8
0
  6
CONTINUOUS
 62
     3
  5
1388
 10
3.651575
 20
-4.679134
 30
0.0
 11
3.651575
 21
-3.994094
 31
0.0
  0
LINE
  8
0
  6
CONTINUOUS
 62
     3
  5
1389
 10
5.061024
 20
-4.336614
 30
0.0
 11
5.746063
 21
-4.336614
 31
0.0
  0
LINE
  8
0
  6
CONTINUOUS
 62
     3
  5
138A
 10
5.403543
 20
-4.679134
 30
0.0
 11
5.403543
 21
-3.994094
 31
0.0
  0
LINE
  8
0
  6
CONTINUOUS
 62
     3
  5
138B
 10
-1.218504
 20
-6.088583
 30
0.0
 11
-0.533465
 21
-6.088583
 31
0.0
  0
LINE
  8
0
  6
CONTINUOUS
 62
     3
  5
138C
 10
-0.875984
 20
-6.431102
 30
0.0
 11
-0.875984
 21
-5.746063
 31
0.0
  0
LINE
  8
0
  6
CONTINUOUS
 62
     3
  5
138D
 10
0.533465
 20
-6.088583
 30
0.0
 11
1.218504
 21
-6.088583
 31
0.0
  0
LINE
  8
0
  6
CONTINUOUS
 62
     3
  5
138E
 10
0.875984
 20
-6.431102
 30
0.0
 11
0.875984
 21
-5.746063
 31
0.0
  0
LINE
  8
0
  6
CONTINUOUS
 62
     3
  5
138F
 10
-1.218504
 20
-4.336614
 30
0.0
 11
-0.533465
 21
-4.336614
 31
0.0
  0
LINE
  8
0
  6
CONTINUOUS
 62
     3
  5
1390
 10
-0.875984
 20
-4.679134
 30
0.0
 11
-0.875984
 21
-3.994094
 31
0.0
  0
LINE
  8
0
  6
CONTINUOUS
 62
     3
  5
1391
 10
0.533465
 20
-4.336614
 30
0.0
 11
1.218504
 21
-4.336614
 31
0.0
  0
LINE
  8
0
  6
CONTINUOUS
 62
     3
  5
1392
 10
0.875984
 20
-4.679134
 30
0.0
 11
0.875984
 21
-3.994094
 31
0.0
  0
LINE
  8
0
  6
CONTINUOUS
 62
     3
  5
1393
 10
-5.746063
 20
-6.088583
 30
0.0
 11
-5.061024
 21
-6.088583
 31
0.0
  0
LINE
  8
0
  6
CONTINUOUS
 62
     3
  5
1394
 10
-5.403543
 20
-6.431102
 30
0.0
 11
-5.403543
 21
-5.746063
 31
0.0
  0
LINE
  8
0
  6
CONTINUOUS
 62
     3
  5
1395
 10
-3.994094
 20
-6.088583
 30
0.0
 11
-3.309055
 21
-6.088583
 31
0.0
  0
LINE
  8
0
  6
CONTINUOUS
 62
     3
  5
1396
 10
-3.651575
 20
-6.431102
 30
0.0
 11
-3.651575
 21
-5.746063
 31
0.0
  0
LINE
  8
0
  6
CONTINUOUS
 62
     3
  5
1397
 10
-5.746063
 20
-4.336614
 30
0.0
 11
-5.061024
 21
-4.336614
 31
0.0
  0
LINE
  8
0
  6
CONTINUOUS
 62
     3
  5
1398
 10
-5.403543
 20
-4.679134
 30
0.0
 11
-5.403543
 21
-3.994094
 31
0.0
  0
LINE
  8
0
  6
CONTINUOUS
 62
     3
  5
1399
 10
-3.994094
 20
-4.336614
 30
0.0
 11
-3.309055
 21
-4.336614
 31
0.0
  0
LINE
  8
0
  6
CONTINUOUS
 62
     3
  5
139A
 10
-3.651575
 20
-4.679134
 30
0.0
 11
-3.651575
 21
-3.994094
 31
0.0
  0
LINE
  8
0
  6
CONTINUOUS
 62
     3
  5
139B
 10
5.061024
 20
8.915354
 30
0.0
 11
5.746063
 21
8.915354
 31
0.0
  0
LINE
  8
0
  6
CONTINUOUS
 62
     3
  5
139C
 10
5.403543
 20
8.572835
 30
0.0
 11
5.403543
 21
9.257874
 31
0.0
  0
LINE
  8
0
  6
CONTINUOUS
 62
     3
  5
139D
 10
3.309055
 20
8.915354
 30
0.0
 11
3.994094
 21
8.915354
 31
0.0
  0
LINE
  8
0
  6
CONTINUOUS
 62
     3
  5
139E
 10
3.651575
 20
8.572835
 30
0.0
 11
3.651575
 21
9.257874
 31
0.0
  0
LINE
  8
0
  6
CONTINUOUS
 62
     3
  5
139F
 10
5.061024
 20
7.163386
 30
0.0
 11
5.746063
 21
7.163386
 31
0.0
  0
LINE
  8
0
  6
CONTINUOUS
 62
     3
  5
13A0
 10
5.403543
 20
6.820866
 30
0.0
 11
5.403543
 21
7.505906
 31
0.0
  0
LINE
  8
0
  6
CONTINUOUS
 62
     3
  5
13A1
 10
3.309055
 20
7.163386
 30
0.0
 11
3.994094
 21
7.163386
 31
0.0
  0
LINE
  8
0
  6
CONTINUOUS
 62
     3
  5
13A2
 10
3.651575
 20
6.820866
 30
0.0
 11
3.651575
 21
7.505906
 31
0.0
  0
LINE
  8
0
  6
CONTINUOUS
 62
     3
  5
13A3
 10
0.533465
 20
8.915354
 30
0.0
 11
1.218504
 21
8.915354
 31
0.0
  0
LINE
  8
0
  6
CONTINUOUS
 62
     3
  5
13A4
 10
0.875984
 20
8.572835
 30
0.0
 11
0.875984
 21
9.257874
 31
0.0
  0
LINE
  8
0
  6
CONTINUOUS
 62
     3
  5
13A5
 10
-1.218504
 20
8.915354
 30
0.0
 11
-0.533465
 21
8.915354
 31
0.0
  0
LINE
  8
0
  6
CONTINUOUS
 62
     3
  5
13A6
 10
-0.875984
 20
8.572835
 30
0.0
 11
-0.875984
 21
9.257874
 31
0.0
  0
LINE
  8
0
  6
CONTINUOUS
 62
     3
  5
13A7
 10
0.533465
 20
7.163386
 30
0.0
 11
1.218504
 21
7.163386
 31
0.0
  0
LINE
  8
0
  6
CONTINUOUS
 62
     3
  5
13A8
 10
0.875984
 20
6.820866
 30
0.0
 11
0.875984
 21
7.505906
 31
0.0
  0
LINE
  8
0
  6
CONTINUOUS
 62
     3
  5
13A9
 10
-1.218504
 20
7.163386
 30
0.0
 11
-0.533465
 21
7.163386
 31
0.0
  0
LINE
  8
0
  6
CONTINUOUS
 62
     3
  5
13AA
 10
-0.875984
 20
6.820866
 30
0.0
 11
-0.875984
 21
7.505906
 31
0.0
  0
LINE
  8
0
  6
CONTINUOUS
 62
     3
  5
13AB
 10
-3.994094
 20
8.915354
 30
0.0
 11
-3.309055
 21
8.915354
 31
0.0
  0
LINE
  8
0
  6
CONTINUOUS
 62
     3
  5
13AC
 10
-3.651575
 20
8.572835
 30
0.0
 11
-3.651575
 21
9.257874
 31
0.0
  0
LINE
  8
0
  6
CONTINUOUS
 62
     3
  5
13AD
 10
-5.746063
 20
8.915354
 30
0.0
 11
-5.061024
 21
8.915354
 31
0.0
  0
LINE
  8
0
  6
CONTINUOUS
 62
     3
  5
13AE
 10
-5.403543
 20
8.572835
 30
0.0
 11
-5.403543
 21
9.257874
 31
0.0
  0
LINE
  8
0
  6
CONTINUOUS
 62
     3
  5
13AF
 10
-3.994094
 20
7.163386
 30
0.0
 11
-3.309055
 21
7.163386
 31
0.0
  0
LINE
  8
0
  6
CONTINUOUS
 62
     3
  5
13B0
 10
-3.651575
 20
6.820866
 30
0.0
 11
-3.651575
 21
7.505906
 31
0.0
  0
LINE
  8
0
  6
CONTINUOUS
 62
     3
  5
13B1
 10
-5.746063
 20
7.163386
 30
0.0
 11
-5.061024
 21
7.163386
 31
0.0
  0
LINE
  8
0
  6
CONTINUOUS
 62
     3
  5
13B2
 10
-5.403543
 20
6.820866
 30
0.0
 11
-5.403543
 21
7.505906
 31
0.0
  0
ENDSEC
  0
EOF
