999
DXF file: C:\Users\sesa63760\Dev\_Creo\CAD\MCADID0004740_3D-CAD\drw0001_1.dxf
999
Pro/ENGINEER 2019471 by Parametric Technology Corporation
  0
SECTION
  2
HEADER
  9
$ACADVER
  1
AC1024
  9
$DWGCODEPAGE
  3
ANSI_1252
  9
$EXTMAX
 10
99.0648332514
 20
140.1059784556
 30
0.0
  9
$EXTMIN
 10
0.0
 20
0.0
 30
0.0
  9
$LIMMIN
 10
0.0
 20
0.0
  9
$LIMMAX
 10
99.0648332514
 20
140.1059784556
  9
$VIEWCTR
 10
49.5324166257
 20
70.0529892278
  9
$VIEWSIZE
 40
140.1059784556
  9
$CLAYER
  8
0
  9
$LTSCALE
 40
9.1328341512
  9
$CELTYPE
  6
BYLAYER
  9
$DIMSCALE
 40
1.0
  9
$DIMASZ
 40
1.179343253
  9
$DIMEXO
 40
1.0
  9
$DIMDLI
 40
6.3099581408
  9
$DIMEXE
 40
1.0
  9
$DIMCEN
 40
1.4944637702
  9
$DIMLFAC
 40
1.0
  9
$DIMBLK
  1
_FILLED
  9
$DIMALT
 70
0
  9
$DIMALTF
 40
0.0393700787
  9
$DIMTXT
 40
1.6510805542
  9
$DIMTOL
 70
1
  9
$DIMLIM
 70
0
  9
$DIMTFAC
 40
1.0
  9
$DIMTP
 40
0.01
  9
$DIMTM
 40
0.01
  9
$DIMGAP
 40
0.625
  9
$DIMDSEP
 70
46
  9
$AUNITS
 70
0
  9
$PDMODE
 70
3
  9
$PDSIZE
 40
0.3125
  9
$HANDSEED
  5
398
  9
$TILEMODE
 70
1
  9
$MEASUREMENT
 70
1
  9
$INSUNITS
 70
4
  0
ENDSEC
  0
SECTION
  2
CLASSES
  0
CLASS
  1
ACDBDICTIONARYWDFLT
  2
AcDbDictionaryWithDefault
  3
AutoCAD 2000
 90
0
 91
1
280
0
281
0
  0
CLASS
  1
ACDBPLACEHOLDER
  2
AcDbPlaceHolder
  3
AutoCAD 2000
 90
0
 91
1
280
0
281
0
  0
CLASS
  1
LAYOUT
  2
AcDbLayout
  3
AutoCAD 2000
 90
0
 91
0
280
0
281
0
  0
ENDSEC
  0
SECTION
  2
TABLES
  0
TABLE
  2
VPORT
  5
8
100
AcDbSymbolTable
 70
2
  0
VPORT
  5
1F4
100
AcDbSymbolTableRecord
100
AcDbViewportTableRecord
  2
*ACTIVE
 70
0
 10
0.0
 20
0.0
 11
1.0
 21
1.0
 12
49.5324166257
 22
70.0529892278
 13
0.0
 23
0.0
 14
1.0
 24
1.0
 15
0.0
 25
0.0
 16
0.0
 26
0.0
 36
1.0
 17
0.0
 27
0.0
 37
0.0
 40
140.1059784556
 41
0.7070707071
 42
50.0
 43
0.0
 44
0.0
 50
0.0
 51
0.0
 71
0
 72
100
 73
1
 74
1
 75
0
 76
0
 77
0
 78
0
  0
ENDTAB
  0
TABLE
  2
LTYPE
  5
5
100
AcDbSymbolTable
 70
6
  0
LTYPE
  5
14
100
AcDbSymbolTableRecord
100
AcDbLinetypeTableRecord
  2
BYBLOCK
 70
0
  3

 72
65
 73
0
 40
0.0
  0
LTYPE
  5
15
100
AcDbSymbolTableRecord
100
AcDbLinetypeTableRecord
  2
BYLAYER
 70
0
  3

 72
65
 73
0
 40
0.0
  0
LTYPE
  5
16
100
AcDbSymbolTableRecord
100
AcDbLinetypeTableRecord
  2
CONTINUOUS
 70
64
  3
Solid line
 72
65
 73
0
 40
0.0
  0
LTYPE
  5
1F5
100
AcDbSymbolTableRecord
100
AcDbLinetypeTableRecord
  2
CENTER
 70
64
  3
____ _ ____ _ ____ _ ____ _ ____ _ ____ _ ____
 72
65
 73
4
 40
0.6
 49
0.375
 74
0
 49
-0.075
 74
0
 49
0.075
 74
0
 49
-0.075
 74
0
  0
LTYPE
  5
1F6
100
AcDbSymbolTableRecord
100
AcDbLinetypeTableRecord
  2
HIDDEN
 70
64
  3
- - - - - - - - - - - - - - - - - - - -
 72
65
 73
2
 40
0.2
 49
0.1
 74
0
 49
-0.1
 74
0
  0
LTYPE
  5
1F7
100
AcDbSymbolTableRecord
100
AcDbLinetypeTableRecord
  2
PHANTOM
 70
64
  3
_____ _ _ _____ _ _ _____ _ _ _____
 72
65
 73
6
 40
0.8
 49
0.45
 74
0
 49
-0.05
 74
0
 49
0.1
 74
0
 49
-0.05
 74
0
 49
0.1
 74
0
 49
-0.05
 74
0
  0
LTYPE
  5
1F8
100
AcDbSymbolTableRecord
100
AcDbLinetypeTableRecord
  2
DOT
 70
64
  3
. . . . . . . . . . . . . . . . . . . .
 72
65
 73
2
 40
0.2
 49
0.1
 74
0
 49
-0.1
 74
0
  0
LTYPE
  5
1F9
100
AcDbSymbolTableRecord
100
AcDbLinetypeTableRecord
  2
DASHED
 70
64
  3
- - - - - - - - - - - - - - - - - - - -
 72
65
 73
2
 40
0.2
 49
0.1
 74
0
 49
-0.1
 74
0
  0
ENDTAB
  0
TABLE
  2
LAYER
  5
2
100
AcDbSymbolTable
 70
36
  0
LAYER
  5
10
100
AcDbSymbolTableRecord
100
AcDbLayerTableRecord
  2
0
 70
0
 62
7
  6
CONTINUOUS
370
-3
390
F
  0
LAYER
  5
1FA
100
AcDbSymbolTableRecord
100
AcDbLayerTableRecord
  2
DEFAULT_1
 70
0
 62
7
  6
CENTER
370
-3
390
F
  0
LAYER
  5
1FB
100
AcDbSymbolTableRecord
100
AcDbLayerTableRecord
  2
DEFAULT_2
 70
0
 62
7
  6
HIDDEN
370
-3
390
F
  0
LAYER
  5
1FC
100
AcDbSymbolTableRecord
100
AcDbLayerTableRecord
  2
DEFAULT_3
 70
0
 62
7
  6
PHANTOM
370
-3
390
F
  0
LAYER
  5
1FD
100
AcDbSymbolTableRecord
100
AcDbLayerTableRecord
  2
00_COMPONENTS
 70
0
 62
7
  6
CONTINUOUS
370
-3
390
F
  0
LAYER
  5
1FE
100
AcDbSymbolTableRecord
100
AcDbLayerTableRecord
  2
01_1_DEFAULT_DATUMS
 70
0
 62
7
  6
CONTINUOUS
370
-3
390
F
  0
LAYER
  5
1FF
100
AcDbSymbolTableRecord
100
AcDbLayerTableRecord
  2
01_PLANES
 70
0
 62
7
  6
CONTINUOUS
370
-3
390
F
  0
LAYER
  5
200
100
AcDbSymbolTableRecord
100
AcDbLayerTableRecord
  2
02_COORD_SYS
 70
0
 62
7
  6
CONTINUOUS
370
-3
390
F
  0
LAYER
  5
201
100
AcDbSymbolTableRecord
100
AcDbLayerTableRecord
  2
03_AXES
 70
0
 62
7
  6
CONTINUOUS
370
-3
390
F
  0
LAYER
  5
202
100
AcDbSymbolTableRecord
100
AcDbLayerTableRecord
  2
04_POINTS
 70
0
 62
7
  6
CONTINUOUS
370
-3
390
F
  0
LAYER
  5
203
100
AcDbSymbolTableRecord
100
AcDbLayerTableRecord
  2
05_CURVES
 70
0
 62
7
  6
CONTINUOUS
370
-3
390
F
  0
LAYER
  5
204
100
AcDbSymbolTableRecord
100
AcDbLayerTableRecord
  2
06_SURFS
 70
0
 62
7
  6
CONTINUOUS
370
-3
390
F
  0
LAYER
  5
205
100
AcDbSymbolTableRecord
100
AcDbLayerTableRecord
  2
07_COSMETICS
 70
0
 62
7
  6
CONTINUOUS
370
-3
390
F
  0
LAYER
  5
206
100
AcDbSymbolTableRecord
100
AcDbLayerTableRecord
  2
10_NOTES
 70
0
 62
7
  6
CONTINUOUS
370
-3
390
F
  0
LAYER
  5
207
100
AcDbSymbolTableRecord
100
AcDbLayerTableRecord
  2
11_NOTES_PUB
 70
0
 62
7
  6
CONTINUOUS
370
-3
390
F
  0
LAYER
  5
208
100
AcDbSymbolTableRecord
100
AcDbLayerTableRecord
  2
13_REF_GTOL
 70
0
 62
7
  6
CONTINUOUS
370
-3
390
F
  0
LAYER
  5
209
100
AcDbSymbolTableRecord
100
AcDbLayerTableRecord
  2
16_MISC
 70
0
 62
7
  6
CONTINUOUS
370
-3
390
F
  0
LAYER
  5
20A
100
AcDbSymbolTableRecord
100
AcDbLayerTableRecord
  2
17_NO_PRINT
 70
0
 62
7
  6
CONTINUOUS
370
-3
390
F
  0
LAYER
  5
20B
100
AcDbSymbolTableRecord
100
AcDbLayerTableRecord
  2
18_DATUM_CAMS_JOINTS
 70
0
 62
7
  6
CONTINUOUS
370
-3
390
F
  0
LAYER
  5
20C
100
AcDbSymbolTableRecord
100
AcDbLayerTableRecord
  2
19_DATUM_FUNCTIONAL
 70
0
 62
7
  6
CONTINUOUS
370
-3
390
F
  0
LAYER
  5
20D
100
AcDbSymbolTableRecord
100
AcDbLayerTableRecord
  2
20_DATUM_KINEMATIC_SCHEME
 70
0
 62
7
  6
CONTINUOUS
370
-3
390
F
  0
ENDTAB
  0
TABLE
  2
STYLE
  5
3
100
AcDbSymbolTable
 70
1
  0
STYLE
  5
11
100
AcDbSymbolTableRecord
100
AcDbTextStyleTableRecord
  2
STANDARD
 70
0
 40
0.0
 41
1.0
 50
0.0
 71
0
 42
0.2
  3
ARIAL.TTF
  4

  0
STYLE
  5
20E
100
AcDbSymbolTableRecord
100
AcDbTextStyleTableRecord
  2
TEXTSTYLE_1
 70
0
 40
0.0
 41
0.8
 50
0.0
 71
0
 42
0.2
  3
gdt
  4

  0
ENDTAB
  0
TABLE
  2
VIEW
  5
6
100
AcDbSymbolTable
 70
0
  0
ENDTAB
  0
TABLE
  2
UCS
  5
7
100
AcDbSymbolTable
 70
0
  0
ENDTAB
  0
TABLE
  2
APPID
  5
9
100
AcDbSymbolTable
 70
1
  0
APPID
  5
20F
100
AcDbSymbolTableRecord
100
AcDbRegAppTableRecord
  2
ACAD
 70
0
  0
ENDTAB
  0
TABLE
  2
BLOCK_RECORD
  5
1
100
AcDbSymbolTable
 70
0
  0
BLOCK_RECORD
  5
210
100
AcDbSymbolTableRecord
100
AcDbBlockTableRecord
  2
*Model_Space
  0
BLOCK_RECORD
  5
211
100
AcDbSymbolTableRecord
100
AcDbBlockTableRecord
  2
*Paper_Space
  0
BLOCK_RECORD
  5
212
100
AcDbSymbolTableRecord
100
AcDbBlockTableRecord
  2
_FILLED
  0
ENDTAB
  0
TABLE
  2
DIMSTYLE
  5
A
100
AcDbSymbolTable
 70
1
100
AcDbDimStyleTable
 71
0
  0
DIMSTYLE
105
213
100
AcDbSymbolTableRecord
100
AcDbDimStyleTableRecord
  2
STANDARD
 70
0
  3

  4

 40
1.0
 41
1.179343253
 42
1.0
 43
0.38
 44
1.0
 45
0.0
 46
0.0
 47
0.01
 48
0.01
140
1.6510805542
141
0.09
142
0.0
143
25.4
144
1.0
145
0.0
146
1.0
147
0.625
 71
1
 72
0
 73
0
 74
0
 75
0
 76
0
 77
1
 78
8
 79
2
170
0
171
1
172
0
173
0
174
0
175
0
176
0
177
0
178
0
270
2
179
2
271
2
272
2
273
2
274
2
275
0
280
0
281
0
282
0
283
1
284
8
285
0
286
0
287
3
288
0
340
11
278
46
341
212
342
212
343
212
344
212
  0
ENDTAB
  0
ENDSEC
  0
SECTION
  2
BLOCKS
  0
BLOCK
  5
20
100
AcDbEntity
  8
0
100
AcDbBlockBegin
  2
*Model_Space
 70
0
 10
0.0
 20
0.0
 30
0.0
  3
*Model_Space
  1

  0
ENDBLK
  5
21
100
AcDbEntity
  8
0
100
AcDbBlockEnd
  0
BLOCK
  5
1C
100
AcDbEntity
  8
0
100
AcDbBlockBegin
  2
*Paper_Space
 70
0
 10
0.0
 20
0.0
 30
0.0
  3
*Paper_Space
  1

  0
ENDBLK
  5
1D
100
AcDbEntity
  8
0
100
AcDbBlockEnd
  0
BLOCK
  5
214
100
AcDbEntity
  8
0
100
AcDbBlockBegin
  2
_FILLED
 70
64
 10
0.0
 20
0.0
  3
_FILLED
  1

  0
SOLID
  5
215
100
AcDbEntity
  8
0
  6
BYBLOCK
 62
0
100
AcDbTrace
 10
0.0
 20
0.0
 11
-1.0
 21
0.25
 12
-1.0
 22
-0.25
 13
-1.0
 23
-0.25
  0
ENDBLK
  5
216
100
AcDbEntity
  8
0
  6
BYBLOCK
 62
0
100
AcDbBlockEnd
  0
ENDSEC
  0
SECTION
  2
ENTITIES
  0
LINE
  5
217
100
AcDbEntity
  8
0
100
AcDbLine
 62
7
  6
BYLAYER
 10
45.237832579
 20
16.1666816755
 11
44.6951256962
 21
16.0972172756
  0
LINE
  5
218
100
AcDbEntity
  8
0
100
AcDbLine
 62
7
  6
BYLAYER
 10
44.2358760383
 20
17.012642149
 11
43.6805209604
 21
17.0266398119
  0
LWPOLYLINE
  5
219
100
AcDbEntity
  8
0
100
AcDbPolyline
 62
7
  6
BYLAYER
 90
4
 70
0
 10
48.0052166698
 20
36.6422003719
 10
49.2415930808
 20
36.1832292433
 10
50.7771831437
 20
36.1794541901
 10
51.9886121793
 20
36.5582178149
  0
LWPOLYLINE
  5
21A
100
AcDbEntity
  8
0
100
AcDbPolyline
 62
7
  6
BYLAYER
 90
6
 70
0
 10
48.4770616594
 20
40.641877484
 10
49.6660583427
 20
40.3764647668
 10
51.2454628921
 20
40.5263772736
 10
52.5659491611
 20
41.1705519726
 10
53.2774507795
 20
42.1669542291
 10
53.3496184377
 20
42.6467253573
  0
LWPOLYLINE
  5
21B
100
AcDbEntity
  8
0
100
AcDbPolyline
 62
7
  6
BYLAYER
 90
6
 70
0
 10
48.1597006847
 20
41.8556752611
 10
49.5038601881
 20
41.452921433
 10
51.0708664481
 20
41.5435580758
 10
52.4536122745
 20
42.1457345822
 10
53.2554522469
 20
43.16775907
 10
53.3489082777
 20
43.7177634263
  0
LWPOLYLINE
  5
21C
100
AcDbEntity
  8
0
100
AcDbPolyline
 62
7
  6
BYLAYER
 90
4
 70
0
 10
48.1313250758
 20
39.7476726488
 10
49.479993287
 20
39.3323898433
 10
51.0429208067
 20
39.4154165679
 10
52.4043903691
 20
39.9878898355
  0
LINE
  5
21D
100
AcDbEntity
  8
0
100
AcDbLine
 62
7
  6
BYLAYER
 10
48.4770616594
 20
40.641877484
 11
48.4772007863
 21
40.6418211676
  0
LWPOLYLINE
  5
21E
100
AcDbEntity
  8
0
100
AcDbPolyline
 62
7
  6
BYLAYER
 90
4
 70
0
 10
47.6037861921
 20
34.8659510996
 10
48.6232198087
 20
34.2185068451
 10
50.0608616701
 20
33.9961784568
 10
50.8119165173
 20
34.0637747415
  0
LWPOLYLINE
  5
21F
100
AcDbEntity
  8
0
100
AcDbPolyline
 62
7
  6
BYLAYER
 90
5
 70
0
 10
47.5892943225
 20
35.9426530324
 10
48.4941679689
 20
35.3279288537
 10
49.8212345809
 20
35.0618010571
 10
50.5780592488
 20
35.0913066175
 10
52.0220798559
 20
35.5141810339
  0
LWPOLYLINE
  5
220
100
AcDbEntity
  8
0
100
AcDbPolyline
 62
7
  6
BYLAYER
 90
4
 70
0
 10
48.1446931134
 20
45.0468590274
 10
49.5468335195
 20
44.6338287608
 10
51.1475280092
 20
44.7472927414
 10
52.4861602771
 20
45.3521591318
  0
LWPOLYLINE
  5
221
100
AcDbEntity
  8
0
100
AcDbPolyline
 62
7
  6
BYLAYER
 90
5
 70
0
 10
48.1546957346
 20
46.1027875911
 10
49.481131227
 20
45.7011743702
 10
51.0698708787
 20
45.7903348888
 10
52.464920604
 20
46.3998431833
 10
53.2589646687
 20
47.4178670866
  0
LWPOLYLINE
  5
222
100
AcDbEntity
  8
0
100
AcDbPolyline
 62
7
  6
BYLAYER
 90
4
 70
0
 10
48.1162151871
 20
42.9417325355
 10
49.494686279
 20
42.516552514
 10
51.0706851277
 20
42.6052158045
 10
52.439725124
 20
43.1951862032
  0
LINE
  5
223
100
AcDbEntity
  8
0
100
AcDbLine
 62
7
  6
BYLAYER
 10
47.6466355435
 20
41.1859214488
 11
48.4772625572
 21
40.6418105427
  0
LINE
  5
224
100
AcDbEntity
  8
0
100
AcDbLine
 62
7
  6
BYLAYER
 10
44.3894458992
 20
13.5630835268
 11
44.0962732987
 21
14.3428449109
  0
LWPOLYLINE
  5
225
100
AcDbEntity
  8
0
100
AcDbPolyline
 62
7
  6
BYLAYER
 90
6
 70
0
 10
48.1290687795
 20
49.3527346817
 10
49.3945086529
 20
48.9696290424
 10
50.9374520991
 20
49.0475724227
 10
52.3402250815
 20
49.6326630415
 10
53.2000642302
 20
50.6322390548
 10
53.3509019372
 20
51.3441114398
  0
LWPOLYLINE
  5
226
100
AcDbEntity
  8
0
100
AcDbPolyline
 62
7
  6
BYLAYER
 90
5
 70
0
 10
48.1100269663
 20
47.1915017032
 10
49.4243905465
 20
46.7695168606
 10
51.0201372379
 20
46.8395994409
 10
52.4259723242
 20
47.4330475966
 10
53.2535179273
 20
48.4702133706
  0
LINE
  5
227
100
AcDbEntity
  8
0
100
AcDbLine
 62
7
  6
BYLAYER
 10
43.4259155843
 20
17.2073276481
 11
43.4117605488
 21
17.2500113798
  0
LWPOLYLINE
  5
228
100
AcDbEntity
  8
0
100
AcDbPolyline
 62
7
  6
BYLAYER
 90
6
 70
0
 10
50.8987345806
 20
52.2886342709
 10
49.6886851005
 20
52.3607683133
 10
48.3923659048
 20
52.0641649775
 10
47.8960155654
 20
51.7819000688
 10
47.3141137624
 20
51.0154895244
 10
47.2542874897
 20
50.637233326
  0
LINE
  5
229
100
AcDbEntity
  8
0
100
AcDbLine
 62
7
  6
BYLAYER
 10
50.8984791021
 20
52.2886801558
 11
50.8987345806
 21
52.2886342709
  0
LINE
  5
22A
100
AcDbEntity
  8
0
100
AcDbLine
 62
7
  6
BYLAYER
 10
50.7458561674
 20
51.0990976968
 11
50.7457374938
 21
51.0991228423
  0
LWPOLYLINE
  5
22B
100
AcDbEntity
  8
0
100
AcDbPolyline
 62
7
  6
BYLAYER
 90
3
 70
0
 10
50.7456537656
 20
51.0984011539
 10
51.527602568
 20
50.8225814393
 10
51.6809139008
 20
50.6887362132
  0
LWPOLYLINE
  5
22C
100
AcDbEntity
  8
0
100
AcDbPolyline
 62
7
  6
BYLAYER
 90
3
 70
0
 10
51.7003502043
 20
52.0106868135
 10
51.4405862203
 20
52.1512042226
 10
50.8983683485
 20
52.2877157352
  0
LWPOLYLINE
  5
22D
100
AcDbEntity
  8
0
100
AcDbPolyline
 62
7
  6
BYLAYER
 90
8
 70
0
 10
52.3354751672
 20
53.0550553376
 10
51.8069183059
 20
53.3843429498
 10
51.0900933495
 20
53.8201453747
 10
50.3856199546
 20
54.1653383186
 10
49.7941965539
 20
54.4254461854
 10
49.3778608252
 20
54.6533605767
 10
49.2017527376
 20
54.8317543983
 10
49.168969024
 20
54.9887961656
  0
LINE
  5
22E
100
AcDbEntity
  8
0
100
AcDbLine
 62
7
  6
BYLAYER
 10
50.978140817
 20
52.4901066522
 11
51.7116148524
 21
52.0315757268
  0
LINE
  5
22F
100
AcDbEntity
  8
0
100
AcDbLine
 62
7
  6
BYLAYER
 10
52.3501472257
 20
53.0457784729
 11
52.3355499989
 21
53.0551251944
  0
LINE
  5
230
100
AcDbEntity
  8
0
100
AcDbLine
 62
7
  6
BYLAYER
 10
47.254812396
 20
36.8218777533
 11
47.5892943225
 21
35.9426530324
  0
LINE
  5
231
100
AcDbEntity
  8
0
100
AcDbLine
 62
7
  6
BYLAYER
 10
42.3017600096
 20
21.3259484796
 11
42.3017600096
 21
20.5094460625
  0
LINE
  5
232
100
AcDbEntity
  8
0
100
AcDbLine
 62
7
  6
BYLAYER
 10
42.8017600096
 20
21.7341996882
 11
42.8017600096
 21
22.1424508968
  0
LINE
  5
233
100
AcDbEntity
  8
0
100
AcDbLine
 62
7
  6
BYLAYER
 10
42.8017600096
 20
23.4488547642
 11
42.8017600096
 21
25.2451600819
  0
LWPOLYLINE
  5
234
100
AcDbEntity
  8
0
100
AcDbPolyline
 62
7
  6
BYLAYER
 90
3
 70
0
 10
51.7118751026
 20
52.0319920276
 10
52.0845372865
 20
51.6079158548
 10
52.1512393197
 20
51.3413270024
  0
LINE
  5
235
100
AcDbEntity
  8
0
100
AcDbLine
 62
7
  6
BYLAYER
 10
48.4853824378
 20
50.5745813934
 11
48.4533045746
 21
50.6412774158
  0
LWPOLYLINE
  5
236
100
AcDbEntity
  8
0
100
AcDbPolyline
 62
7
  6
BYLAYER
 90
5
 70
0
 10
47.2539298885
 20
38.9316095481
 10
47.3920442492
 20
38.3618916253
 10
48.2514927062
 20
37.5602393115
 10
49.615106816
 20
37.197613981
 10
51.1686480735
 20
37.3213519204
  0
LWPOLYLINE
  5
237
100
AcDbEntity
  8
0
100
AcDbPolyline
 62
7
  6
BYLAYER
 90
6
 70
0
 10
47.2517909052
 20
39.9980970987
 10
47.3852833953
 20
39.4413415776
 10
48.2472262378
 20
38.6224273477
 10
49.5912718877
 20
38.2606308951
 10
51.0723926544
 20
38.3608988303
 10
52.4102664066
 20
38.9286083806
  0
LWPOLYLINE
  5
238
100
AcDbEntity
  8
0
100
AcDbPolyline
 62
7
  6
BYLAYER
 90
6
 70
0
 10
47.2517618347
 20
45.3070384567
 10
47.3844576306
 20
44.7508314822
 10
48.2389378511
 20
43.9339541451
 10
49.5535767456
 20
43.5713488504
 10
51.0487679856
 20
43.6629080457
 10
52.3958548729
 20
44.2260285509
  0
LWPOLYLINE
  5
239
100
AcDbEntity
  8
0
100
AcDbPolyline
 62
7
  6
BYLAYER
 90
6
 70
0
 10
47.2533524342
 20
49.5454435734
 10
47.3862967849
 20
48.9885250447
 10
48.2650060575
 20
48.1674581495
 10
49.6694937782
 20
47.8079322088
 10
51.2075957731
 20
47.9462608492
 10
52.5181345562
 20
48.5604117096
  0
LWPOLYLINE
  5
23A
100
AcDbEntity
  8
0
100
AcDbPolyline
 62
7
  6
BYLAYER
 90
3
 70
0
 10
47.2519654969
 20
46.364742686
 10
47.377709382
 20
45.8249130668
 10
48.1446931134
 20
45.0468590274
  0
LWPOLYLINE
  5
23B
100
AcDbEntity
  8
0
100
AcDbPolyline
 62
7
  6
BYLAYER
 90
8
 70
0
 10
47.2519023937
 20
34.6888524776
 10
47.3648527633
 20
34.176866041
 10
48.110410383
 20
33.3906398792
 10
49.416885033
 20
32.9727598141
 10
50.9894014593
 20
33.0353622581
 10
52.395722686
 20
33.610986937
 10
53.236082875
 20
34.622041169
 10
53.3515094088
 20
35.217472316
  0
LWPOLYLINE
  5
23C
100
AcDbEntity
  8
0
100
AcDbPolyline
 62
7
  6
BYLAYER
 90
3
 70
0
 10
47.2529185242
 20
47.4352945411
 10
47.3680380527
 20
46.9104345045
 10
48.1546957346
 20
46.1027875911
  0
LWPOLYLINE
  5
23D
100
AcDbEntity
  8
0
100
AcDbPolyline
 62
7
  6
BYLAYER
 90
3
 70
0
 10
47.2547100376
 20
43.1849589581
 10
47.3658464042
 20
42.6665312856
 10
48.1597006847
 20
41.8556752611
  0
LWPOLYLINE
  5
23E
100
AcDbEntity
  8
0
100
AcDbPolyline
 62
7
  6
BYLAYER
 90
3
 70
0
 10
47.2534627914
 20
41.0664897985
 10
47.3583132663
 20
40.5638376414
 10
48.1313250758
 20
39.7476726488
  0
LWPOLYLINE
  5
23F
100
AcDbEntity
  8
0
100
AcDbPolyline
 62
7
  6
BYLAYER
 90
3
 70
0
 10
47.2549380104
 20
42.120389526
 10
47.3583601567
 20
41.6206665254
 10
47.6466355435
 20
41.1859214488
  0
LWPOLYLINE
  5
240
100
AcDbEntity
  8
0
100
AcDbPolyline
 62
7
  6
BYLAYER
 90
3
 70
0
 10
47.2536505195
 20
44.2384096637
 10
47.3540852595
 20
43.751010262
 10
48.1162151871
 20
42.9417325355
  0
LWPOLYLINE
  5
241
100
AcDbEntity
  8
0
100
AcDbPolyline
 62
7
  6
BYLAYER
 90
3
 70
0
 10
47.2531201496
 20
37.8693373749
 10
47.3496991015
 20
37.3931433633
 10
48.0052166698
 20
36.6422003719
  0
LINE
  5
242
100
AcDbEntity
  8
0
100
AcDbLine
 62
7
  6
BYLAYER
 10
47.2533861301
 20
14.9638918099
 11
47.229136496
 21
15.2845215133
  0
LINE
  5
243
100
AcDbEntity
  8
0
100
AcDbLine
 62
7
  6
BYLAYER
 10
43.4117492174
 20
18.2549171737
 11
43.4117492174
 21
17.2500113864
  0
LINE
  5
244
100
AcDbEntity
  8
0
100
AcDbLine
 62
7
  6
BYLAYER
 10
43.4259155843
 20
18.239944142
 11
43.4259155843
 21
17.2073276481
  0
LINE
  5
245
100
AcDbEntity
  8
0
100
AcDbLine
 62
7
  6
BYLAYER
 10
43.5055630058
 20
18.1557614175
 11
43.5055630058
 21
17.0963142348
  0
LINE
  5
246
100
AcDbEntity
  8
0
100
AcDbLine
 62
7
  6
BYLAYER
 10
43.6805209604
 20
17.0266398119
 11
43.6805209604
 21
17.9708409642
  0
LINE
  5
247
100
AcDbEntity
  8
0
100
AcDbLine
 62
7
  6
BYLAYER
 10
43.9517600096
 20
15.1205301094
 11
43.9517600096
 21
15.7737320431
  0
LINE
  5
248
100
AcDbEntity
  8
0
100
AcDbLine
 62
7
  6
BYLAYER
 10
43.9517600096
 20
16.7535349437
 11
43.9517600096
 21
17.0198032619
  0
LINE
  5
249
100
AcDbEntity
  8
0
100
AcDbLine
 62
7
  6
BYLAYER
 10
44.2358760383
 20
17.546134198
 11
44.2358760383
 21
17.012642149
  0
LINE
  5
24A
100
AcDbEntity
  8
0
100
AcDbLine
 62
7
  6
BYLAYER
 10
44.3285611246
 20
17.4926271742
 11
44.3285611246
 21
16.3027012856
  0
LINE
  5
24B
100
AcDbEntity
  8
0
100
AcDbLine
 62
7
  6
BYLAYER
 10
44.3681944889
 20
17.4697468657
 11
44.3681944889
 21
16.2337033779
  0
LINE
  5
24C
100
AcDbEntity
  8
0
100
AcDbLine
 62
7
  6
BYLAYER
 10
44.4948946535
 20
17.3966029652
 11
44.4948946535
 21
16.1383741389
  0
LINE
  5
24D
100
AcDbEntity
  8
0
100
AcDbLine
 62
7
  6
BYLAYER
 10
44.6951256962
 20
16.0972172756
 11
44.6951256962
 21
17.2810097496
  0
LINE
  5
24E
100
AcDbEntity
  8
0
100
AcDbLine
 62
7
  6
BYLAYER
 10
45.237832579
 20
16.9677055141
 11
45.237832579
 21
16.1666816755
  0
LINE
  5
24F
100
AcDbEntity
  8
0
100
AcDbLine
 62
7
  6
BYLAYER
 10
45.4266468392
 20
16.1331585686
 11
45.4266468392
 21
16.8587031974
  0
LINE
  5
250
100
AcDbEntity
  8
0
100
AcDbLine
 62
7
  6
BYLAYER
 10
45.6388069951
 20
16.7705508569
 11
45.6388069951
 21
15.5246665466
  0
LINE
  5
251
100
AcDbEntity
  8
0
100
AcDbLine
 62
7
  6
BYLAYER
 10
45.714836078
 20
16.746588291
 11
45.714836078
 21
15.4340565628
  0
LINE
  5
252
100
AcDbEntity
  8
0
100
AcDbLine
 62
7
  6
BYLAYER
 10
45.8799545789
 20
16.6945468509
 11
45.8799545789
 21
15.3609080282
  0
LINE
  5
253
100
AcDbEntity
  8
0
100
AcDbLine
 62
7
  6
BYLAYER
 10
46.091813295
 20
15.3510734969
 11
46.091813295
 21
16.6277740022
  0
LINE
  5
254
100
AcDbEntity
  8
0
100
AcDbLine
 62
7
  6
BYLAYER
 10
46.5848874055
 20
16.4723687228
 11
46.5848874055
 21
15.4992660753
  0
LINE
  5
255
100
AcDbEntity
  8
0
100
AcDbLine
 62
7
  6
BYLAYER
 10
46.7822961875
 20
15.49509921
 11
46.7822961875
 21
16.410150151
  0
LINE
  5
256
100
AcDbEntity
  8
0
100
AcDbLine
 62
7
  6
BYLAYER
 10
51.6097929871
 20
52.2917225228
 11
51.7131251986
 21
52.0310377644
  0
LINE
  5
257
100
AcDbEntity
  8
0
100
AcDbLine
 62
7
  6
BYLAYER
 10
53.3428023462
 20
41.4446926754
 11
53.1871544997
 21
42.0405013657
  0
LWPOLYLINE
  5
258
100
AcDbEntity
  8
0
100
AcDbPolyline
 62
7
  6
BYLAYER
 90
5
 70
0
 10
47.9697112542
 20
54.9842669999
 10
48.148177948
 20
54.2579754445
 10
48.8986476122
 20
53.538266967
 10
49.9661718326
 20
53.0393995204
 10
50.978140817
 20
52.4901066522
  0
LWPOLYLINE
  5
259
100
AcDbEntity
  8
0
100
AcDbPolyline
 62
7
  6
BYLAYER
 90
3
 70
0
 10
47.2542771425
 20
50.6374931388
 10
47.3765546276
 20
50.1033657569
 10
48.1290687795
 20
49.3527346817
  0
LWPOLYLINE
  5
25A
100
AcDbEntity
  8
0
100
AcDbPolyline
 62
7
  6
BYLAYER
 90
3
 70
0
 10
47.2547758407
 20
48.4910970459
 10
47.3602486936
 20
47.9859745188
 10
48.1100269663
 20
47.1915017032
  0
LINE
  5
25B
100
AcDbEntity
  8
0
100
AcDbLine
 62
7
  6
BYLAYER
 10
49.1693244304
 20
54.9888431308
 11
49.1693411829
 21
54.9862546216
  0
LINE
  5
25C
100
AcDbEntity
  8
0
100
AcDbLine
 62
7
  6
BYLAYER
 10
47.9693411829
 20
54.986389199
 11
47.9693518844
 21
54.9843241773
  0
LWPOLYLINE
  5
25D
100
AcDbEntity
  8
0
100
AcDbPolyline
 62
7
  6
BYLAYER
 90
3
 70
0
 10
47.2531582958
 20
35.7593736285
 10
47.2531992535
 20
35.7494906213
 10
47.6037861921
 20
34.8659510996
  0
LINE
  5
25E
100
AcDbEntity
  8
0
100
AcDbLine
 62
7
  6
BYLAYER
 10
47.2517618346
 20
45.3070361155
 11
47.2517729379
 21
45.3021931163
  0
LINE
  5
25F
100
AcDbEntity
  8
0
100
AcDbLine
 62
7
  6
BYLAYER
 10
47.2536505204
 20
44.2384391855
 11
47.2536520959
 21
44.2368887373
  0
LINE
  5
260
100
AcDbEntity
  8
0
100
AcDbLine
 62
7
  6
BYLAYER
 10
47.2547100379
 20
43.1849465673
 11
47.2547108699
 21
43.1838948688
  0
LINE
  5
261
100
AcDbEntity
  8
0
100
AcDbLine
 62
7
  6
BYLAYER
 10
47.2542873688
 20
50.6375042642
 11
47.2542874897
 21
50.637233326
  0
LINE
  5
262
100
AcDbEntity
  8
0
100
AcDbLine
 62
7
  6
BYLAYER
 10
47.2549380107
 20
42.1204087462
 11
47.2549381089
 21
42.1201121646
  0
LINE
  5
263
100
AcDbEntity
  8
0
100
AcDbLine
 62
7
  6
BYLAYER
 10
47.2547758409
 20
48.4910868335
 11
47.2547759858
 21
48.4907158048
  0
LINE
  5
264
100
AcDbEntity
  8
0
100
AcDbLine
 62
7
  6
BYLAYER
 10
47.2539298891
 20
38.9316330596
 11
47.253929905
 21
38.931542031
  0
LINE
  5
265
100
AcDbEntity
  8
0
100
AcDbLine
 62
7
  6
BYLAYER
 10
47.2534627931
 20
41.0664542093
 11
47.2534628048
 21
41.0663801172
  0
LINE
  5
266
100
AcDbEntity
  8
0
100
AcDbLine
 62
7
  6
BYLAYER
 10
47.1241802918
 20
16.3023963801
 11
47.1241802918
 21
15.3811405661
  0
LINE
  5
267
100
AcDbEntity
  8
0
100
AcDbLine
 62
7
  6
BYLAYER
 10
47.229136496
 20
15.2845215133
 11
47.229136496
 21
16.2693166707
  0
LINE
  5
268
100
AcDbEntity
  8
0
100
AcDbLine
 62
7
  6
BYLAYER
 10
47.2533524359
 20
49.5454813746
 11
47.2533524481
 21
49.5453668284
  0
LINE
  5
269
100
AcDbEntity
  8
0
100
AcDbLine
 62
7
  6
BYLAYER
 10
47.2529185235
 20
47.4352937106
 11
47.2529185249
 21
47.4352719928
  0
LINE
  5
26A
100
AcDbEntity
  8
0
100
AcDbLine
 62
7
  6
BYLAYER
 10
47.2533861301
 20
16.2616737605
 11
47.2533861301
 21
14.9638918099
  0
LINE
  5
26B
100
AcDbEntity
  8
0
100
AcDbLine
 62
7
  6
BYLAYER
 10
47.3740689528
 20
16.2236373936
 11
47.3740689528
 21
14.862881812
  0
LINE
  5
26C
100
AcDbEntity
  8
0
100
AcDbLine
 62
7
  6
BYLAYER
 10
47.566353237
 20
16.1742438073
 11
47.566353237
 21
14.8168989335
  0
LINE
  5
26D
100
AcDbEntity
  8
0
100
AcDbLine
 62
7
  6
BYLAYER
 10
47.7754018052
 20
14.8390569413
 11
47.7754018052
 21
16.1479939414
  0
LINE
  5
26E
100
AcDbEntity
  8
0
100
AcDbLine
 62
7
  6
BYLAYER
 10
47.9693411829
 20
54.986389199
 11
47.9693411829
 21
129.2879549722
  0
LINE
  5
26F
100
AcDbEntity
  8
0
100
AcDbLine
 62
7
  6
BYLAYER
 10
48.1852409576
 20
16.0965311505
 11
48.1852409576
 21
15.0558786189
  0
LINE
  5
270
100
AcDbEntity
  8
0
100
AcDbLine
 62
7
  6
BYLAYER
 10
48.3777539238
 20
15.0813584056
 11
48.3777539238
 21
16.0723576315
  0
LINE
  5
271
100
AcDbEntity
  8
0
100
AcDbLine
 62
7
  6
BYLAYER
 10
49.1693411829
 20
54.9862546216
 11
49.1693411829
 21
129.2879549722
  0
LINE
  5
272
100
AcDbEntity
  8
0
100
AcDbLine
 62
7
  6
BYLAYER
 10
48.4532985918
 20
50.6412884513
 11
48.4532975146
 21
50.635135721
  0
LINE
  5
273
100
AcDbEntity
  8
0
100
AcDbLine
 62
7
  6
BYLAYER
 10
47.2519023943
 20
34.6888679592
 11
47.2519022983
 21
34.6886180871
  0
LINE
  5
274
100
AcDbEntity
  8
0
100
AcDbLine
 62
7
  6
BYLAYER
 10
47.251790906
 20
39.9981099407
 11
47.2517904781
 21
39.9972218403
  0
LINE
  5
275
100
AcDbEntity
  8
0
100
AcDbLine
 62
7
  6
BYLAYER
 10
47.2519654977
 20
46.3647569779
 11
47.2519651625
 21
46.3641887723
  0
LINE
  5
276
100
AcDbEntity
  8
0
100
AcDbLine
 62
7
  6
BYLAYER
 10
47.2547894973
 20
36.8140879816
 11
47.254812396
 21
36.8218777533
  0
LINE
  5
277
100
AcDbEntity
  8
0
100
AcDbLine
 62
7
  6
BYLAYER
 10
53.3478882355
 20
49.9827942677
 11
53.171815254
 21
50.5993991928
  0
LINE
  5
278
100
AcDbEntity
  8
0
100
AcDbLine
 62
7
  6
BYLAYER
 10
53.3511298914
 20
44.7784533721
 11
53.2382939875
 21
45.2431562875
  0
LINE
  5
279
100
AcDbEntity
  8
0
100
AcDbLine
 62
7
  6
BYLAYER
 10
53.3496189204
 20
42.6452144085
 11
53.2322318309
 21
43.1381623492
  0
LINE
  5
27A
100
AcDbEntity
  8
0
100
AcDbLine
 62
7
  6
BYLAYER
 10
53.3489083491
 20
43.7174404426
 11
53.2353167015
 21
44.2046173913
  0
LWPOLYLINE
  5
27B
100
AcDbEntity
  8
0
100
AcDbPolyline
 62
7
  6
BYLAYER
 90
3
 70
0
 10
53.3515093149
 20
35.2179661196
 10
53.2654316116
 20
35.7378103075
 10
53.1955924146
 20
35.8308248071
  0
LWPOLYLINE
  5
27C
100
AcDbEntity
  8
0
100
AcDbPolyline
 62
7
  6
BYLAYER
 90
3
 70
0
 10
53.351294673
 20
40.5236728319
 10
53.264841881
 20
41.0462414139
 10
53.2524704709
 20
41.0622705827
  0
LWPOLYLINE
  5
27D
100
AcDbEntity
  8
0
100
AcDbPolyline
 62
7
  6
BYLAYER
 90
3
 70
0
 10
53.3516381231
 20
46.8954068147
 10
53.2678727765
 20
47.4069874937
 10
53.2591340312
 20
47.4188720819
  0
LWPOLYLINE
  5
27E
100
AcDbEntity
  8
0
100
AcDbPolyline
 62
7
  6
BYLAYER
 90
3
 70
0
 10
53.3508567009
 20
39.4743916668
 10
53.2680720649
 20
39.9820791785
 10
53.253042118
 20
40.0019119675
  0
LWPOLYLINE
  5
27F
100
AcDbEntity
  8
0
100
AcDbPolyline
 62
7
  6
BYLAYER
 90
3
 70
0
 10
53.3486306776
 20
38.4076659918
 10
53.2786592068
 20
38.8842705662
 10
53.2483025169
 20
38.9258530412
  0
LWPOLYLINE
  5
280
100
AcDbEntity
  8
0
100
AcDbPolyline
 62
7
  6
BYLAYER
 90
3
 70
0
 10
53.351035356
 20
45.8286446566
 10
53.3326443304
 20
46.0717898159
 10
53.215478887
 20
46.2925803009
  0
LINE
  5
281
100
AcDbEntity
  8
0
100
AcDbLine
 62
7
  6
BYLAYER
 10
52.1512393197
 20
51.3413270024
 11
52.151238141
 21
51.3436315125
  0
LINE
  5
282
100
AcDbEntity
  8
0
100
AcDbLine
 62
7
  6
BYLAYER
 10
53.3496189204
 20
42.6452144085
 11
53.3496184359
 21
42.6467040114
  0
LINE
  5
283
100
AcDbEntity
  8
0
100
AcDbLine
 62
7
  6
BYLAYER
 10
53.3489083491
 20
43.7174404426
 11
53.3489082778
 21
43.7177724779
  0
LINE
  5
284
100
AcDbEntity
  8
0
100
AcDbLine
 62
7
  6
BYLAYER
 10
53.3515094087
 20
35.2174651764
 11
53.3515093149
 21
35.2179661196
  0
LINE
  5
285
100
AcDbEntity
  8
0
100
AcDbLine
 62
7
  6
BYLAYER
 10
53.3516383012
 20
46.8946054909
 11
53.3516381231
 21
46.8954068147
  0
LINE
  5
286
100
AcDbEntity
  8
0
100
AcDbLine
 62
7
  6
BYLAYER
 10
53.3512946895
 20
40.5235063241
 11
53.351294673
 21
40.5236728319
  0
LINE
  5
287
100
AcDbEntity
  8
0
100
AcDbLine
 62
7
  6
BYLAYER
 10
53.3492254117
 20
37.34950882
 11
53.3492256207
 21
37.3515772043
  0
LINE
  5
288
100
AcDbEntity
  8
0
100
AcDbLine
 62
7
  6
BYLAYER
 10
53.3493704631
 20
47.9524901028
 11
53.3493707594
 21
47.9543105367
  0
LINE
  5
289
100
AcDbEntity
  8
0
100
AcDbLine
 62
7
  6
BYLAYER
 10
53.3490680762
 20
49.0245889039
 11
53.3490685873
 21
49.0262651273
  0
LINE
  5
28A
100
AcDbEntity
  8
0
100
AcDbLine
 62
7
  6
BYLAYER
 10
53.3491932264
 20
36.2772401559
 11
53.3491936522
 21
36.2788368887
  0
LINE
  5
28B
100
AcDbEntity
  8
0
100
AcDbLine
 62
7
  6
BYLAYER
 10
53.3514055441
 20
50.0871608959
 11
53.3514058816
 21
50.0880197806
  0
LINE
  5
28C
100
AcDbEntity
  8
0
100
AcDbLine
 62
7
  6
BYLAYER
 10
53.3508567009
 20
39.4743916668
 11
53.350857142
 21
39.4756234859
  0
LINE
  5
28D
100
AcDbEntity
  8
0
100
AcDbLine
 62
7
  6
BYLAYER
 10
53.3490046955
 20
41.5854873843
 11
53.3490053151
 21
41.5869915007
  0
LINE
  5
28E
100
AcDbEntity
  8
0
100
AcDbLine
 62
7
  6
BYLAYER
 10
53.351035356
 20
45.8286446566
 11
53.3510359113
 21
45.8299568512
  0
LINE
  5
28F
100
AcDbEntity
  8
0
100
AcDbLine
 62
7
  6
BYLAYER
 10
53.3486306776
 20
38.4076659918
 11
53.3486313376
 21
38.409171091
  0
LINE
  5
290
100
AcDbEntity
  8
0
100
AcDbLine
 62
7
  6
BYLAYER
 10
53.3508589148
 20
51.3426625501
 11
53.350860248
 21
51.3441526817
  0
LINE
  5
291
100
AcDbEntity
  8
0
100
AcDbLine
 62
7
  6
BYLAYER
 10
53.3511298914
 20
44.7784533721
 11
53.3511352089
 21
44.7820654988
  0
LINE
  5
292
100
AcDbEntity
  8
0
100
AcDbLine
 62
7
  6
BYLAYER
 10
53.3514055441
 20
50.0871608959
 11
53.3478882355
 21
49.9827942677
  0
LWPOLYLINE
  5
293
100
AcDbEntity
  8
0
100
AcDbPolyline
 62
7
  6
BYLAYER
 90
3
 70
0
 10
53.3493704631
 20
47.9524901028
 10
53.3457847324
 20
47.8458441403
 10
53.3367004348
 20
47.8791501822
  0
LWPOLYLINE
  5
294
100
AcDbEntity
  8
0
100
AcDbPolyline
 62
7
  6
BYLAYER
 90
3
 70
0
 10
53.3491932264
 20
36.2772401559
 10
53.3453151719
 20
36.1661734621
 10
53.3201059432
 20
36.2612589801
  0
LWPOLYLINE
  5
295
100
AcDbEntity
  8
0
100
AcDbPolyline
 62
7
  6
BYLAYER
 90
3
 70
0
 10
53.3492254117
 20
37.34950882
 10
53.3451760735
 20
37.2358090284
 10
53.319484037
 20
37.3338140496
  0
LWPOLYLINE
  5
296
100
AcDbEntity
  8
0
100
AcDbPolyline
 62
7
  6
BYLAYER
 90
3
 70
0
 10
53.3490680762
 20
49.0245889039
 10
53.3445678149
 20
48.9046301125
 10
53.3346685077
 20
48.9424476652
  0
LINE
  5
297
100
AcDbEntity
  8
0
100
AcDbLine
 62
7
  6
BYLAYER
 10
53.3490046955
 20
41.5854873843
 11
53.3428023462
 21
41.4446926754
  0
LINE
  5
298
100
AcDbEntity
  8
0
100
AcDbLine
 62
7
  6
BYLAYER
 10
47.3963119666
 20
43.7061712755
 11
47.2547108699
 21
43.1838948688
  0
LINE
  5
299
100
AcDbEntity
  8
0
100
AcDbLine
 62
7
  6
BYLAYER
 10
47.3941182556
 20
45.8082673547
 11
47.2517717361
 21
45.3024237981
  0
LINE
  5
29A
100
AcDbEntity
  8
0
100
AcDbLine
 62
7
  6
BYLAYER
 10
47.396705673
 20
44.7391224362
 11
47.2536520959
 21
44.2368887373
  0
LWPOLYLINE
  5
29B
100
AcDbEntity
  8
0
100
AcDbPolyline
 62
7
  6
BYLAYER
 90
3
 70
0
 10
47.4471729964
 20
50.0329241022
 10
47.2536829097
 20
49.517170384
 10
47.2533524481
 20
49.5453668284
  0
LWPOLYLINE
  5
29C
100
AcDbEntity
  8
0
100
AcDbPolyline
 62
7
  6
BYLAYER
 90
4
 70
0
 10
53.3508589148
 20
51.3426625501
 10
53.2990933651
 20
51.7597451051
 10
53.0727274133
 20
52.2913851331
 10
52.3501472257
 20
53.0457784729
  0
LINE
  5
29D
100
AcDbEntity
  8
0
100
AcDbLine
 62
7
  6
BYLAYER
 10
56.6517600096
 20
15.1205301094
 11
56.6517600096
 21
15.7737320431
  0
LINE
  5
29E
100
AcDbEntity
  8
0
100
AcDbLine
 62
7
  6
BYLAYER
 10
56.6517600096
 20
16.7535349437
 11
56.6517600096
 21
17.6297757244
  0
LINE
  5
29F
100
AcDbEntity
  8
0
100
AcDbLine
 62
7
  6
BYLAYER
 10
57.8017600096
 20
21.7341996882
 11
57.8017600096
 21
22.1424508968
  0
LINE
  5
2A0
100
AcDbEntity
  8
0
100
AcDbLine
 62
7
  6
BYLAYER
 10
57.8017600096
 20
23.4488547642
 11
57.8017600096
 21
25.2451600819
  0
LINE
  5
2A1
100
AcDbEntity
  8
0
100
AcDbLine
 62
7
  6
BYLAYER
 10
58.3017600096
 20
21.3259484796
 11
58.3017600096
 21
20.5094460625
  0
LINE
  5
2A2
100
AcDbEntity
  8
0
100
AcDbLine
 62
7
  6
BYLAYER
 10
53.2589646687
 20
47.4178670866
 11
53.3493707611
 21
47.9543357451
  0
LINE
  5
2A3
100
AcDbEntity
  8
0
100
AcDbLine
 62
7
  6
BYLAYER
 10
53.2535179273
 20
48.4702133706
 11
53.3490685875
 21
49.026245113
  0
LINE
  5
2A4
100
AcDbEntity
  8
0
100
AcDbLine
 62
7
  6
BYLAYER
 10
53.256609007
 20
49.5414172913
 11
53.3514058822
 21
50.088000717
  0
LINE
  5
2A5
100
AcDbEntity
  8
0
100
AcDbLine
 62
7
  6
BYLAYER
 10
53.2411027457
 20
41.0004787413
 11
53.3490053156
 21
41.5870075668
  0
LWPOLYLINE
  5
2A6
100
AcDbEntity
  8
0
100
AcDbPolyline
 62
7
  6
BYLAYER
 90
7
 70
0
 10
52.1512129485
 20
51.3436123604
 10
52.0285652719
 20
50.9722922442
 10
51.4135008428
 20
50.4706252214
 10
50.4043142068
 20
50.1664479507
 10
49.8670103349
 20
50.1347976465
 10
48.9433701015
 20
50.2913075444
 10
48.4853824378
 20
50.5745813934
  0
LWPOLYLINE
  5
2A7
100
AcDbEntity
  8
0
100
AcDbPolyline
 62
7
  6
BYLAYER
 90
3
 70
0
 10
47.4404123052
 20
42.5903684285
 10
47.2557971529
 20
42.0744708838
 10
47.2549381089
 20
42.1201121646
  0
LWPOLYLINE
  5
2A8
100
AcDbEntity
  8
0
100
AcDbPolyline
 62
7
  6
BYLAYER
 90
3
 70
0
 10
47.4385670854
 20
48.9396836193
 10
47.2556464422
 20
48.4448900809
 10
47.2547759858
 20
48.4907158048
  0
LWPOLYLINE
  5
2A9
100
AcDbEntity
  8
0
100
AcDbPolyline
 62
7
  6
BYLAYER
 90
5
 70
0
 10
48.4547800779
 20
50.6382095618
 10
48.4892590034
 20
50.7096957048
 10
48.9485586955
 20
50.9993955343
 10
49.8501610781
 20
51.1717462378
 10
50.7458561674
 20
51.0990976968
  0
LINE
  5
2AA
100
AcDbEntity
  8
0
100
AcDbLine
 62
7
  6
BYLAYER
 10
49.1693411829
 20
54.9862546216
 11
49.0668308131
 21
54.7925851219
  0
LWPOLYLINE
  5
2AB
100
AcDbEntity
  8
0
100
AcDbPolyline
 62
7
  6
BYLAYER
 90
3
 70
0
 10
53.0482538921
 20
35.3214862972
 10
53.3473675481
 20
36.3555003569
 10
53.3491932939
 20
36.2794529476
  0
LWPOLYLINE
  5
2AC
100
AcDbEntity
  8
0
100
AcDbPolyline
 62
7
  6
BYLAYER
 90
3
 70
0
 10
53.0317021003
 20
36.3576149814
 10
53.3473643707
 20
37.4283882821
 10
53.3492256208
 20
37.3515491887
  0
LWPOLYLINE
  5
2AD
100
AcDbEntity
  8
0
100
AcDbPolyline
 62
7
  6
BYLAYER
 90
3
 70
0
 10
47.4497889271
 20
37.2784831976
 10
47.2551214533
 20
36.7857336684
 10
47.2547894973
 20
36.8140879816
  0
LWPOLYLINE
  5
2AE
100
AcDbEntity
  8
0
100
AcDbPolyline
 62
7
  6
BYLAYER
 90
3
 70
0
 10
47.4380672599
 20
38.3189635675
 10
47.2531463405
 20
37.8614743648
 10
47.2531201455
 20
37.8694752121
  0
LWPOLYLINE
  5
2AF
100
AcDbEntity
  8
0
100
AcDbPolyline
 62
7
  6
BYLAYER
 90
3
 70
0
 10
47.4041774012
 20
46.8733309029
 10
47.2951125361
 20
46.6846136139
 10
47.2519651625
 20
46.3641887723
  0
LINE
  5
2B0
100
AcDbEntity
  8
0
100
AcDbLine
 62
7
  6
BYLAYER
 10
56.6517600096
 20
15.1205301094
 11
56.5072467204
 21
14.3428449109
  0
LINE
  5
2B1
100
AcDbEntity
  8
0
100
AcDbLine
 62
7
  6
BYLAYER
 10
52.101419348
 20
36.8277467348
 11
51.9885634233
 21
36.5581791834
  0
LINE
  5
2B2
100
AcDbEntity
  8
0
100
AcDbLine
 62
7
  6
BYLAYER
 10
52.5181345562
 20
48.5604117096
 11
53.256609007
 21
49.5414172913
  0
LWPOLYLINE
  5
2B3
100
AcDbEntity
  8
0
100
AcDbPolyline
 62
7
  6
BYLAYER
 90
3
 70
0
 10
47.3813599948
 20
47.9636047657
 10
47.3655042009
 20
47.9477767129
 10
47.2529185235
 20
47.4352937106
  0
LWPOLYLINE
  5
2B4
100
AcDbEntity
  8
0
100
AcDbPolyline
 62
7
  6
BYLAYER
 90
3
 70
0
 10
52.9401846371
 20
37.2952125267
 10
53.2479572602
 20
37.8388506492
 10
53.3486313376
 20
38.4091657585
  0
LWPOLYLINE
  5
2B5
100
AcDbEntity
  8
0
100
AcDbPolyline
 62
7
  6
BYLAYER
 90
3
 70
0
 10
52.4861602771
 20
45.3521591318
 10
53.2512044073
 20
46.3386466361
 10
53.3516383012
 20
46.8946132918
  0
LWPOLYLINE
  5
2B6
100
AcDbEntity
  8
0
100
AcDbPolyline
 62
7
  6
BYLAYER
 90
3
 70
0
 10
52.439725124
 20
43.1951862032
 10
53.2546406973
 20
44.229135303
 10
53.35113521
 20
44.7820374995
  0
LWPOLYLINE
  5
2B7
100
AcDbEntity
  8
0
100
AcDbPolyline
 62
7
  6
BYLAYER
 90
3
 70
0
 10
52.3958548729
 20
44.2260285509
 10
53.2401143566
 20
45.2453541292
 10
53.3510359128
 20
45.8299864247
  0
LWPOLYLINE
  5
2B8
100
AcDbEntity
  8
0
100
AcDbPolyline
 62
7
  6
BYLAYER
 90
3
 70
0
 10
47.3834105155
 20
39.4491527752
 10
47.3499038888
 20
39.4139463122
 10
47.253929905
 20
38.931542031
  0
LWPOLYLINE
  5
2B9
100
AcDbEntity
  8
0
100
AcDbPolyline
 62
7
  6
BYLAYER
 90
3
 70
0
 10
47.3812883699
 20
41.5860887285
 10
47.3574333913
 20
41.5615587866
 10
47.2534628048
 20
41.0663801172
  0
LWPOLYLINE
  5
2BA
100
AcDbEntity
  8
0
100
AcDbPolyline
 62
7
  6
BYLAYER
 90
3
 70
0
 10
47.3821029061
 20
40.5387199511
 10
47.3731566476
 20
40.5299968869
 10
47.2517904781
 20
39.9972218403
  0
LWPOLYLINE
  5
2BB
100
AcDbEntity
  8
0
100
AcDbPolyline
 62
7
  6
BYLAYER
 90
3
 70
0
 10
52.506783659
 20
37.9374816
 10
53.2623413657
 20
38.9445654409
 10
53.3508571426
 20
39.4756002613
  0
LWPOLYLINE
  5
2BC
100
AcDbEntity
  8
0
100
AcDbPolyline
 62
7
  6
BYLAYER
 90
3
 70
0
 10
52.4102664066
 20
38.9286083806
 10
53.242183818
 20
39.9442661306
 10
53.3512946902
 20
40.5235269343
  0
LINE
  5
2BD
100
AcDbEntity
  8
0
100
AcDbLine
 62
7
  6
BYLAYER
 10
52.4043903691
 20
39.9878898355
 11
53.2411027457
 21
41.0004787413
  0
LWPOLYLINE
  5
2BE
100
AcDbEntity
  8
0
100
AcDbPolyline
 62
7
  6
BYLAYER
 90
3
 70
0
 10
47.4457053129
 20
35.264342166
 10
47.339099861
 20
35.1422924003
 10
47.2519022983
 20
34.6886180871
  0
LWPOLYLINE
  5
2BF
100
AcDbEntity
  8
0
100
AcDbPolyline
 62
7
  6
BYLAYER
 90
3
 70
0
 10
47.4383349184
 20
36.3394674175
 10
47.360333339
 20
36.2605917274
 10
47.2531583092
 20
35.7592540593
  0
LINE
  5
2C0
100
AcDbEntity
  8
0
100
AcDbLine
 62
7
  6
BYLAYER
 10
56.2140741199
 20
13.5630835268
 11
56.5072467204
 21
14.3428449109
  0
LINE
  5
2C1
100
AcDbEntity
  8
0
100
AcDbLine
 62
7
  6
BYLAYER
 10
52.0220798559
 20
35.5141810339
 11
53.0317021003
 21
36.3576149814
  0
LINE
  5
2C2
100
AcDbEntity
  8
0
100
AcDbLine
 62
7
  6
BYLAYER
 10
51.9884554186
 20
36.5581258486
 11
52.9401846371
 21
37.2952125267
  0
LINE
  5
2C3
100
AcDbEntity
  8
0
100
AcDbLine
 62
7
  6
BYLAYER
 10
51.9885634233
 20
36.5581791834
 11
51.9884554186
 21
36.5581258486
  0
LINE
  5
2C4
100
AcDbEntity
  8
0
100
AcDbLine
 62
7
  6
BYLAYER
 10
51.1686480735
 20
37.3213519204
 11
52.506783659
 21
37.9374816
  0
LWPOLYLINE
  5
2C5
100
AcDbEntity
  8
0
100
AcDbPolyline
 62
7
  6
BYLAYER
 90
3
 70
0
 10
50.8119165173
 20
34.0637747415
 10
52.1471883435
 20
34.5185179576
 10
53.0482538921
 20
35.3214862972
  0
LINE
  5
2C6
100
AcDbEntity
  8
0
100
AcDbLine
 62
7
  6
BYLAYER
 10
47.9693600939
 20
129.2879549986
 11
48.1450788806
 21
129.0430084799
  0
LINE
  5
2C7
100
AcDbEntity
  8
0
100
AcDbLine
 62
7
  6
BYLAYER
 10
49.169322272
 20
129.2879549457
 11
48.9936034853
 21
129.5329014645
  0
LINE
  5
2C8
100
AcDbEntity
  8
0
100
AcDbLine
 62
7
  6
BYLAYER
 10
48.1852409576
 20
15.0558786189
 11
47.7754018052
 21
14.8390569413
  0
LINE
  5
2C9
100
AcDbEntity
  8
0
100
AcDbLine
 62
7
  6
BYLAYER
 10
46.5848874055
 20
15.4992660753
 11
46.091813295
 21
15.3510734969
  0
ARC
  5
2CA
100
AcDbEntity
  8
0
100
AcDbCircle
 62
7
  6
BYLAYER
 10
50.0391601744
 20
25.5835010081
 40
11.0469223941
100
AcDbArc
 50
256.5513270182
 51
257.0649849557
  0
ARC
  5
2CB
100
AcDbEntity
  8
0
100
AcDbCircle
 62
7
  6
BYLAYER
 10
50.0109993369
 20
25.4657525153
 40
10.9258532391
100
AcDbArc
 50
256.0338991345
 51
256.5513446823
  0
ARC
  5
2CC
100
AcDbEntity
  8
0
100
AcDbCircle
 62
7
  6
BYLAYER
 10
49.7581051904
 20
23.852923182
 40
8.8717901757
100
AcDbArc
 50
250.401682312
 51
252.7292379782
  0
ARC
  5
2CD
100
AcDbEntity
  8
0
100
AcDbCircle
 62
7
  6
BYLAYER
 10
49.2242622112
 20
23.1341350492
 40
8.4621186389
100
AcDbArc
 50
246.1077303168
 51
246.7209743873
  0
ARC
  5
2CE
100
AcDbEntity
  8
0
100
AcDbCircle
 62
7
  6
BYLAYER
 10
49.1632032285
 20
22.9959732203
 40
8.3110660892
100
AcDbArc
 50
245.4861789739
 51
246.1068251023
  0
ARC
  5
2CF
100
AcDbEntity
  8
0
100
AcDbCircle
 62
7
  6
BYLAYER
 10
49.9590979201
 20
22.1861179651
 40
7.6331893316
100
AcDbArc
 50
253.3832622821
 51
253.7823933352
  0
ARC
  5
2D0
100
AcDbEntity
  8
0
100
AcDbCircle
 62
7
  6
BYLAYER
 10
48.7078796319
 20
21.4951682519
 40
6.2863054815
100
AcDbArc
 50
238.535819955
 51
240.7746823265
  0
ARC
  5
2D1
100
AcDbEntity
  8
0
100
AcDbCircle
 62
7
  6
BYLAYER
 10
47.8848432548
 20
20.7766496595
 40
5.7450284007
100
AcDbArc
 50
233.044507963
 51
233.8382750805
  0
ARC
  5
2D2
100
AcDbEntity
  8
0
100
AcDbCircle
 62
7
  6
BYLAYER
 10
47.8051200408
 20
20.6704323863
 40
5.6122207319
100
AcDbArc
 50
232.2367380205
 51
233.0429746085
  0
ARC
  5
2D3
100
AcDbEntity
  8
0
100
AcDbCircle
 62
7
  6
BYLAYER
 10
46.164690322
 20
20.7584927724
 40
4.0050334308
100
AcDbArc
 50
142.2040626601
 51
144.9746751185
  0
ARC
  5
2D4
100
AcDbEntity
  8
0
100
AcDbCircle
 62
7
  6
BYLAYER
 10
46.4513689482
 20
19.2944525931
 40
3.6755387213
100
AcDbArc
 50
215.6609466769
 51
216.7300246546
  0
ARC
  5
2D5
100
AcDbEntity
  8
0
100
AcDbCircle
 62
7
  6
BYLAYER
 10
46.3832606968
 20
19.2454224382
 40
3.5916180877
100
AcDbArc
 50
214.5731998906
 51
215.6588758546
  0
ARC
  5
2D6
100
AcDbEntity
  8
0
100
AcDbCircle
 62
7
  6
BYLAYER
 10
45.3149177305
 20
22.1426518915
 40
2.5131497941
100
AcDbArc
 50
180.0045823572
 51
188.9378546549
  0
ARC
  5
2D7
100
AcDbEntity
  8
0
100
AcDbCircle
 62
7
  6
BYLAYER
 10
45.3110154611
 20
21.7343244326
 40
2.509245426
100
AcDbArc
 50
180.1639291084
 51
187.0469219658
  0
ARC
  5
2D8
100
AcDbEntity
  8
0
100
AcDbCircle
 62
7
  6
BYLAYER
 10
46.1005862056
 20
15.7721578633
 40
2.1488198516
100
AcDbArc
 50
166.8948421934
 51
179.9580261113
  0
ARC
  5
2D9
100
AcDbEntity
  8
0
100
AcDbCircle
 62
7
  6
BYLAYER
 10
49.8376395534
 20
38.3169568516
 40
4.0516479494
100
AcDbArc
 50
253.918965748
 51
255.0560872253
  0
ARC
  5
2DA
100
AcDbEntity
  8
0
100
AcDbCircle
 62
7
  6
BYLAYER
 10
49.6651237873
 20
44.1626943923
 40
3.5010405107
100
AcDbArc
 50
248.936473343
 51
250.5570803464
  0
ARC
  5
2DB
100
AcDbEntity
  8
0
100
AcDbCircle
 62
7
  6
BYLAYER
 10
49.6442399274
 20
45.1283196339
 40
3.4039394542
100
AcDbArc
 50
247.6193405473
 51
250.6234675744
  0
ARC
  5
2DC
100
AcDbEntity
  8
0
100
AcDbCircle
 62
7
  6
BYLAYER
 10
49.6060411031
 20
44.0087169768
 40
3.3361170013
100
AcDbArc
 50
247.7719747049
 51
248.9329527282
  0
ARC
  5
2DD
100
AcDbEntity
  8
0
100
AcDbCircle
 62
7
  6
BYLAYER
 10
50.0237051082
 20
48.3166403871
 40
3.1113452003
100
AcDbArc
 50
75.1860161814
 51
77.5451428917
  0
ARC
  5
2DE
100
AcDbEntity
  8
0
100
AcDbCircle
 62
7
  6
BYLAYER
 10
48.1091921038
 20
36.8143561981
 40
0.8544026499
100
AcDbArc
 50
180.0182775247
 51
181.2056265234
  0
ARC
  5
2DF
100
AcDbEntity
  8
0
100
AcDbCircle
 62
7
  6
BYLAYER
 10
48.536846803
 20
40.7891652345
 40
0.1589455726
100
AcDbArc
 50
236.3886549002
 51
247.9294969016
  0
ARC
  5
2E0
100
AcDbEntity
  8
0
100
AcDbCircle
 62
7
  6
BYLAYER
 10
50.8610334581
 20
31.0726623808
 40
10.0949708342
100
AcDbArc
 50
287.4970547123
 51
287.6211151471
  0
ARC
  5
2E1
100
AcDbEntity
  8
0
100
AcDbCircle
 62
7
  6
BYLAYER
 10
50.8725450149
 20
31.0364428034
 40
10.0569659177
100
AcDbArc
 50
287.6210753076
 51
287.8079348233
  0
ARC
  5
2E2
100
AcDbEntity
  8
0
100
AcDbCircle
 62
7
  6
BYLAYER
 10
50.8820762202
 20
27.4952759288
 40
10.0252912562
100
AcDbArc
 50
287.4755420402
 51
288.3586518591
  0
ARC
  5
2E3
100
AcDbEntity
  8
0
100
AcDbCircle
 62
7
  6
BYLAYER
 10
51.8613984418
 20
25.1639775352
 40
7.4937193768
100
AcDbArc
 50
295.4188580538
 51
299.9719713689
  0
ARC
  5
2E4
100
AcDbEntity
  8
0
100
AcDbCircle
 62
7
  6
BYLAYER
 10
52.049309668
 20
25.2395516089
 40
7.1116560172
100
AcDbArc
 50
299.6211872656
 51
299.9994908647
  0
ARC
  5
2E5
100
AcDbEntity
  8
0
100
AcDbCircle
 62
7
  6
BYLAYER
 10
52.0634113689
 20
26.52150692
 40
7.0834320959
100
AcDbArc
 50
299.6870674335
 51
299.9995846625
  0
ARC
  5
2E6
100
AcDbEntity
  8
0
100
AcDbCircle
 62
7
  6
BYLAYER
 10
52.0363514761
 20
26.4050501893
 40
7.0546872096
100
AcDbArc
 50
299.9996762176
 51
300.2677238452
  0
ARC
  5
2E7
100
AcDbEntity
  8
0
100
AcDbCircle
 62
7
  6
BYLAYER
 10
52.0838746715
 20
26.4860416011
 40
7.0424865773
100
AcDbArc
 50
299.9996710862
 51
300.2677187138
  0
ARC
  5
2E8
100
AcDbEntity
  8
0
100
AcDbCircle
 62
7
  6
BYLAYER
 10
52.0027083397
 20
25.3202627288
 40
6.9220118333
100
AcDbArc
 50
299.6211872655
 51
299.9994908648
  0
ARC
  5
2E9
100
AcDbEntity
  8
0
100
AcDbCircle
 62
7
  6
BYLAYER
 10
52.1625512153
 20
24.6361796035
 40
6.8860557002
100
AcDbArc
 50
299.9952335465
 51
301.9892750075
  0
ARC
  5
2EA
100
AcDbEntity
  8
0
100
AcDbCircle
 62
7
  6
BYLAYER
 10
55.12455165
 20
22.1400493337
 40
2.6772094367
100
AcDbArc
 50
0.051396593
 51
13.9838278722
  0
ARC
  5
2EB
100
AcDbEntity
  8
0
100
AcDbCircle
 62
7
  6
BYLAYER
 10
54.5008677182
 20
15.7719914107
 40
2.1508860746
100
AcDbArc
 50
0.0463671443
 51
13.3643215942
  0
ARC
  5
2EC
100
AcDbEntity
  8
0
100
AcDbCircle
 62
7
  6
BYLAYER
 10
50.4082037734
 20
40.3003418613
 40
3.8633985111
100
AcDbArc
 50
293.5224350071
 51
295.9937597122
  0
ARC
  5
2ED
100
AcDbEntity
  8
0
100
AcDbCircle
 62
7
  6
BYLAYER
 10
51.0115646355
 20
34.8100948841
 40
2.7383436177
100
AcDbArc
 50
299.9982159116
 51
300.8053577365
  0
ARC
  5
2EE
100
AcDbEntity
  8
0
100
AcDbCircle
 62
7
  6
BYLAYER
 10
51.7673475254
 20
39.6008635008
 40
1.6074764448
100
AcDbArc
 50
330.1969688334
 51
331.1327452634
  0
ARC
  5
2EF
100
AcDbEntity
  8
0
100
AcDbCircle
 62
7
  6
BYLAYER
 10
52.0826405608
 20
43.7179131433
 40
1.26626788
100
AcDbArc
 50
350.9615821673
 51
359.9782036999
  0
ARC
  5
2F0
100
AcDbEntity
  8
0
100
AcDbCircle
 62
7
  6
BYLAYER
 10
52.1029781026
 20
36.278529476
 40
1.246215764
100
AcDbArc
 50
352.1803432522
 51
359.9419129941
  0
ARC
  5
2F1
100
AcDbEntity
  8
0
100
AcDbCircle
 62
7
  6
BYLAYER
 10
52.1126697312
 20
42.6458323983
 40
1.2369493334
100
AcDbArc
 50
347.2742850166
 51
359.9723679763
  0
SPLINE
  5
2F2
100
AcDbEntity
  8
0
100
AcDbSpline
 62
7
  6
BYLAYER
 70
0
 71
3
 72
9
 73
5
 74
0
 42
0.0000001
 43
0.0000001
 44
0.0000000001
 40
0.0
 40
0.0
 40
0.0
 40
0.0
 40
0.2437760439
 40
1.0
 40
1.0
 40
1.0
 40
1.0
 10
55.9586378107
 20
17.2435200263
 30
0.0
 10
55.8917785534
 20
17.2049190465
 30
0.0
 10
55.6150815952
 20
17.0508049791
 30
0.0
 10
55.3292610957
 20
16.9132214287
 30
0.0
 10
55.1095794144
 20
16.8178483508
 30
0.0
  0
SPLINE
  5
2F3
100
AcDbEntity
  8
0
100
AcDbSpline
 62
7
  6
BYLAYER
 70
0
 71
3
 72
20
 73
16
 74
0
 42
0.0000001
 43
0.0000001
 44
0.0000000001
 40
0.0
 40
0.0
 40
0.0
 40
0.0
 40
0.0596840208
 40
0.1215141441
 40
0.18518068
 40
0.2503201596
 40
0.3833819601
 40
0.5174236803
 40
0.6490307719
 40
0.7129305282
 40
0.7750468053
 40
0.8350544826
 40
0.8926781534
 40
0.9477056861
 40
1.0
 40
1.0
 40
1.0
 40
1.0
 10
55.1095794144
 20
16.8178483508
 30
0.0
 10
54.8963405718
 20
16.7252723808
 30
0.0
 10
54.4549014267
 20
16.5532313858
 30
0.0
 10
53.7659646034
 20
16.3380282443
 30
0.0
 10
53.0439200224
 20
16.1626512222
 30
0.0
 10
52.0393698221
 20
15.9830389811
 30
0.0
 10
50.7471965615
 20
15.868604976
 30
0.0
 10
49.1916322359
 20
15.9059011087
 30
0.0
 10
47.9169072395
 20
16.0822168131
 30
0.0
 10
46.9391864751
 20
16.3103877046
 30
0.0
 10
46.245052062
 20
16.5200260068
 30
0.0
 10
45.5896406947
 20
16.7678072978
 30
0.0
 10
44.9791389706
 20
17.0514460129
 30
0.0
 10
44.4193996872
 20
17.368218812
 30
0.0
 10
44.0745771049
 20
17.6057950767
 30
0.0
 10
43.9128858365
 20
17.7296636233
 30
0.0
  0
SPLINE
  5
2F4
100
AcDbEntity
  8
0
100
AcDbSpline
 62
7
  6
BYLAYER
 70
0
 71
3
 72
15
 73
11
 74
0
 42
0.0000001
 43
0.0000001
 44
0.0000000001
 40
0.0
 40
0.0
 40
0.0
 40
0.0
 40
0.1437667685
 40
0.2810242152
 40
0.4120659572
 40
0.5374079288
 40
0.6577951249
 40
0.7742035827
 40
0.8878221499
 40
1.0
 40
1.0
 40
1.0
 40
1.0
 10
43.9128858365
 20
17.7296636233
 30
0.0
 10
43.7862703902
 20
17.8266612626
 30
0.0
 10
43.54613128
 20
18.0261851244
 30
0.0
 10
43.221288988
 20
18.3487530765
 30
0.0
 10
42.9423204646
 20
18.685747972
 30
0.0
 10
42.7111276855
 20
19.035032701
 30
0.0
 10
42.529368808
 20
19.3944330343
 30
0.0
 10
42.3984511493
 20
19.7616613475
 30
0.0
 10
42.3194074979
 20
20.1341405652
 30
0.0
 10
42.301770355
 20
20.3849925202
 30
0.0
 10
42.3017704485
 20
20.5094460641
 30
0.0
  0
SPLINE
  5
2F5
100
AcDbEntity
  8
0
100
AcDbSpline
 62
7
  6
BYLAYER
 70
0
 71
3
 72
11
 73
7
 74
0
 42
0.0000001
 43
0.0000001
 44
0.0000000001
 40
0.0
 40
0.0
 40
0.0
 40
0.0
 40
0.2222004111
 40
0.461353673
 40
0.7203136908
 40
1.0
 40
1.0
 40
1.0
 40
1.0
 10
56.8234695612
 20
17.9002115904
 30
0.0
 10
56.7504101619
 20
17.7210290718
 30
0.0
 10
56.556425768
 20
17.3653630857
 30
0.0
 10
56.1552199114
 20
16.8792485138
 30
0.0
 10
55.6436883648
 20
16.4314529411
 30
0.0
 10
55.2503303599
 20
16.1731956699
 30
0.0
 10
55.039395168
 20
16.0514129071
 30
0.0
  0
SPLINE
  5
2F6
100
AcDbEntity
  8
0
100
AcDbSpline
 62
7
  6
BYLAYER
 70
0
 71
3
 72
15
 73
11
 74
0
 42
0.0000001
 43
0.0000001
 44
0.0000000001
 40
0.0
 40
0.0
 40
0.0
 40
0.0
 40
0.1080120284
 40
0.2180597762
 40
0.3319965903
 40
0.4513567781
 40
0.5772737899
 40
0.7104896507
 40
0.8514198419
 40
1.0
 40
1.0
 40
1.0
 40
1.0
 10
56.65175313
 20
16.7535349393
 30
0.0
 10
56.6517586931
 20
16.6333221977
 30
0.0
 10
56.6308639023
 20
16.3901444643
 30
0.0
 10
56.5377058495
 20
16.0309567336
 30
0.0
 10
56.3838911351
 20
15.679508731
 30
0.0
 10
56.1713945973
 20
15.339366928
 30
0.0
 10
55.9026384335
 20
15.0135884114
 30
0.0
 10
55.5803229199
 20
14.7050729797
 30
0.0
 10
55.2076822548
 20
14.416657065
 30
0.0
 10
54.9351158184
 20
14.2438874449
 30
0.0
 10
54.7919067642
 20
14.1612061525
 30
0.0
  0
SPLINE
  5
2F7
100
AcDbEntity
  8
0
100
AcDbSpline
 62
7
  6
BYLAYER
 70
0
 71
3
 72
9
 73
5
 74
0
 42
0.0000001
 43
0.0000001
 44
0.0000000001
 40
0.0
 40
0.0
 40
0.0
 40
0.0
 40
0.505502835
 40
1.0
 40
1.0
 40
1.0
 40
1.0
 10
44.0962795177
 20
14.3428456902
 30
0.0
 10
44.0491857836
 20
14.4681158201
 30
0.0
 10
43.9765748024
 20
14.7243073098
 30
0.0
 10
43.9517704651
 20
14.9896139795
 30
0.0
 10
43.9517645597
 20
15.1205301095
 30
0.0
  0
SPLINE
  5
2F8
100
AcDbEntity
  8
0
100
AcDbSpline
 62
7
  6
BYLAYER
 70
0
 71
3
 72
12
 73
8
 74
0
 42
0.0000001
 43
0.0000001
 44
0.0000000001
 40
0.0
 40
0.0
 40
0.0
 40
0.0
 40
0.1090622633
 40
0.2218112125
 40
0.4604611
 40
0.7195082817
 40
1.0
 40
1.0
 40
1.0
 40
1.0
 10
56.2140702572
 20
13.5630840109
 30
0.0
 10
56.1830619186
 20
13.4806188577
 30
0.0
 10
56.1102647591
 20
13.3164067174
 30
0.0
 10
55.9237812473
 20
12.993905577
 30
0.0
 10
55.6131853558
 20
12.6068151597
 30
0.0
 10
55.1411778652
 20
12.1881486879
 30
0.0
 10
54.7760032826
 20
11.9474635688
 30
0.0
 10
54.5797738467
 20
11.8341711275
 30
0.0
  0
SPLINE
  5
2F9
100
AcDbEntity
  8
0
100
AcDbSpline
 62
7
  6
BYLAYER
 70
0
 71
3
 72
15
 73
11
 74
0
 42
0.0000001
 43
0.0000001
 44
0.0000000001
 40
0.0
 40
0.0
 40
0.0
 40
0.0
 40
0.1080119636
 40
0.2180605678
 40
0.331997427
 40
0.4513563008
 40
0.5772756609
 40
0.7104909201
 40
0.8514144066
 40
1.0
 40
1.0
 40
1.0
 40
1.0
 10
58.3017495706
 20
20.5094460609
 30
0.0
 10
58.3017494568
 20
20.3579970197
 30
0.0
 10
58.2754511764
 20
20.0516284758
 30
0.0
 10
58.1580622636
 20
19.5991111312
 30
0.0
 10
57.964282161
 20
19.1563441435
 30
0.0
 10
57.6965802322
 20
18.7278096736
 30
0.0
 10
57.3579772943
 20
18.3173890147
 30
0.0
 10
56.951918833
 20
17.9287108159
 30
0.0
 10
56.4824578207
 20
17.5653459661
 30
0.0
 10
56.1390652767
 20
17.3476892505
 30
0.0
 10
55.9586378107
 20
17.2435200263
 30
0.0
  0
SPLINE
  5
2FA
100
AcDbEntity
  8
0
100
AcDbSpline
 62
7
  6
BYLAYER
 70
0
 71
3
 72
11
 73
7
 74
0
 42
0.0000001
 43
0.0000001
 44
0.0000000001
 40
0.0
 40
0.0
 40
0.0
 40
0.0
 40
0.2402976944
 40
0.4846672618
 40
0.7368504613
 40
1.0
 40
1.0
 40
1.0
 40
1.0
 10
58.3017559822
 20
21.3259484797
 30
0.0
 10
58.3017608849
 20
21.4693435447
 30
0.0
 10
58.2782150228
 20
21.7590834004
 30
0.0
 10
58.1730848021
 20
22.1877965436
 30
0.0
 10
57.9993504749
 20
22.6082369528
 30
0.0
 10
57.8428009892
 20
22.8741639819
 30
0.0
 10
57.7548941191
 20
23.0042844017
 30
0.0
  0
SPLINE
  5
2FB
100
AcDbEntity
  8
0
100
AcDbSpline
 62
7
  6
BYLAYER
 70
0
 71
3
 72
11
 73
7
 74
0
 42
0.0000001
 43
0.0000001
 44
0.0000000001
 40
0.0
 40
0.0
 40
0.0
 40
0.0
 40
0.2639111299
 40
0.5162395861
 40
0.7602851975
 40
1.0
 40
1.0
 40
1.0
 40
1.0
 10
42.8849746853
 20
23.0571354424
 30
0.0
 10
42.7914073465
 20
22.9235250731
 30
0.0
 10
42.6246660836
 20
22.6501341946
 30
0.0
 10
42.4392325713
 20
22.2164880804
 30
0.0
 10
42.3269047569
 20
21.7736801595
 30
0.0
 10
42.3017691025
 20
21.4741087133
 30
0.0
 10
42.3017640369
 20
21.3259484796
 30
0.0
  0
SPLINE
  5
2FC
100
AcDbEntity
  8
0
100
AcDbSpline
 62
7
  6
BYLAYER
 70
0
 71
3
 72
23
 73
19
 74
0
 42
0.0000001
 43
0.0000001
 44
0.0000000001
 40
0.0
 40
0.0
 40
0.0
 40
0.0
 40
0.0603382234
 40
0.1242191406
 40
0.1910922932
 40
0.2602920129
 40
0.3310506906
 40
0.4025457227
 40
0.4739257182
 40
0.5443442013
 40
0.6129899037
 40
0.6791192696
 40
0.7420915482
 40
0.8014087975
 40
0.8567626435
 40
0.9080895125
 40
0.9556327528
 40
1.0
 40
1.0
 40
1.0
 40
1.0
 10
54.5797738467
 20
11.8341711275
 30
0.0
 10
54.3827122853
 20
11.7203982611
 30
0.0
 10
53.9628239677
 20
11.5102110362
 30
0.0
 10
53.2880278596
 20
11.2543491265
 30
0.0
 10
52.5604508457
 20
11.0524936744
 30
0.0
 10
51.7930284445
 20
10.9081855031
 30
0.0
 10
50.9992284284
 20
10.8239643029
 30
0.0
 10
50.1930964706
 20
10.8013045913
 30
0.0
 10
49.3888845971
 20
10.840614092
 30
0.0
 10
48.6008181674
 20
10.9411953076
 30
0.0
 10
47.8428143203
 20
11.1012770947
 30
0.0
 10
47.1282246958
 20
11.3180565525
 30
0.0
 10
46.4695876998
 20
11.5877742764
 30
0.0
 10
45.8784021919
 20
11.9058433191
 30
0.0
 10
45.364974909
 20
12.2669599014
 30
0.0
 10
44.9383070021
 20
12.6654470613
 30
0.0
 10
44.6063700613
 20
13.0948307383
 30
0.0
 10
44.4483330163
 20
13.4064691139
 30
0.0
 10
44.3894550404
 20
13.5630846672
 30
0.0
  0
SPLINE
  5
2FD
100
AcDbEntity
  8
0
100
AcDbSpline
 62
7
  6
BYLAYER
 70
0
 71
3
 72
25
 73
21
 74
0
 42
0.0000001
 43
0.0000001
 44
0.0000000001
 40
0.0
 40
0.0
 40
0.0
 40
0.0
 40
0.0623832694
 40
0.1287223159
 40
0.1983149147
 40
0.2702914341
 40
0.3436689683
 40
0.4174010622
 40
0.4904257362
 40
0.5617124509
 40
0.6303098941
 40
0.6953977263
 40
0.7563455736
 40
0.8127830622
 40
0.8646836877
 40
0.9124584152
 40
0.9351028564
 40
0.95710803
 40
0.9786681815
 40
1.0
 40
1.0
 40
1.0
 40
1.0
 10
54.7919067642
 20
14.1612061525
 30
0.0
 10
54.5637630145
 20
14.0294880834
 30
0.0
 10
54.0748496952
 20
13.7884263297
 30
0.0
 10
53.2861678096
 20
13.5026606222
 30
0.0
 10
52.4338828369
 20
13.286295362
 30
0.0
 10
51.5362215632
 20
13.1439563953
 30
0.0
 10
50.6122244516
 20
13.0786360871
 30
0.0
 10
49.6816061564
 20
13.0917305095
 30
0.0
 10
48.7642173866
 20
13.1829594851
 30
0.0
 10
47.8796072031
 20
13.3503830223
 30
0.0
 10
47.0465684506
 20
13.5904620911
 30
0.0
 10
46.2827091785
 20
13.8981962469
 30
0.0
 10
45.6040851634
 20
14.2672829576
 30
0.0
 10
45.0248841259
 20
14.6905425399
 30
0.0
 10
44.5575210605
 20
15.1597794888
 30
0.0
 10
44.2649517096
 20
15.5902927004
 30
0.0
 10
44.1019227317
 20
15.9457441615
 30
0.0
 10
44.0154901295
 20
16.2123721148
 30
0.0
 10
43.9633935994
 20
16.4821165381
 30
0.0
 10
43.9517710578
 20
16.6634531507
 30
0.0
 10
43.9517668891
 20
16.7535349481
 30
0.0
  0
SPLINE
  5
2FE
100
AcDbEntity
  8
0
100
AcDbSpline
 62
7
  6
BYLAYER
 70
0
 71
3
 72
11
 73
7
 74
0
 42
0.0000001
 43
0.0000001
 44
0.0000000001
 40
0.0
 40
0.0
 40
0.0
 40
0.0
 40
0.2313287122
 40
0.4833406582
 40
0.7440400672
 40
1.0
 40
1.0
 40
1.0
 40
1.0
 10
47.7754018052
 20
14.8390569413
 30
0.0
 10
47.760812174
 20
14.8313384295
 30
0.0
 10
47.7283417809
 20
14.8188798872
 30
0.0
 10
47.6759318962
 20
14.8090819614
 30
0.0
 10
47.6208787492
 20
14.8077889748
 30
0.0
 10
47.5841527726
 20
14.8128106945
 30
0.0
 10
47.566353237
 20
14.8168989335
 30
0.0
  0
SPLINE
  5
2FF
100
AcDbEntity
  8
0
100
AcDbSpline
 62
7
  6
BYLAYER
 70
0
 71
3
 72
11
 73
7
 74
0
 42
0.0000001
 43
0.0000001
 44
0.0000000001
 40
0.0
 40
0.0
 40
0.0
 40
0.0
 40
0.2587218347
 40
0.5191377778
 40
0.7695814886
 40
1.0
 40
1.0
 40
1.0
 40
1.0
 10
48.3774679141
 20
15.0813975767
 30
0.0
 10
48.3607309095
 20
15.0842923319
 30
0.0
 10
48.3266364096
 20
15.0873932286
 30
0.0
 10
48.2760096735
 20
15.0846308197
 30
0.0
 10
48.2281956082
 20
15.0746133293
 30
0.0
 10
48.198612363
 20
15.0629526394
 30
0.0
 10
48.1852409576
 20
15.0558786189
 30
0.0
  0
SPLINE
  5
300
100
AcDbEntity
  8
0
100
AcDbSpline
 62
7
  6
BYLAYER
 70
0
 71
3
 72
15
 73
11
 74
0
 42
0.0000001
 43
0.0000001
 44
0.0000000001
 40
0.0
 40
0.0
 40
0.0
 40
0.0
 40
0.1108531845
 40
0.2282330537
 40
0.3511342062
 40
0.4783069049
 40
0.6083288366
 40
0.7396693879
 40
0.8707495409
 40
1.0
 40
1.0
 40
1.0
 40
1.0
 10
55.039395168
 20
16.0514129071
 30
0.0
 10
54.8200034117
 20
15.9247477736
 30
0.0
 10
54.3524173735
 20
15.6908584938
 30
0.0
 10
53.6007966059
 20
15.4065380194
 30
0.0
 10
52.7902941004
 20
15.1826572351
 30
0.0
 10
51.9354255036
 20
15.0232256366
 30
0.0
 10
51.0513808645
 20
14.9310471845
 30
0.0
 10
50.1539281741
 20
14.9077734658
 30
0.0
 10
49.2591782316
 20
14.9538080348
 30
0.0
 10
48.6685150176
 20
15.0310224123
 30
0.0
 10
48.3774679141
 20
15.0813975767
 30
0.0
  0
SPLINE
  5
301
100
AcDbEntity
  8
0
100
AcDbSpline
 62
7
  6
BYLAYER
 70
0
 71
3
 72
11
 73
7
 74
0
 42
0.0000001
 43
0.0000001
 44
0.0000000001
 40
0.0
 40
0.0
 40
0.0
 40
0.0
 40
0.303398358
 40
0.5712581164
 40
0.8001813676
 40
1.0
 40
1.0
 40
1.0
 40
1.0
 10
47.3740689528
 20
14.862881812
 30
0.0
 10
47.3577151941
 20
14.8669491333
 30
0.0
 10
47.3274571805
 20
14.877241456
 30
0.0
 10
47.2890375744
 20
14.900412847
 30
0.0
 10
47.2623247364
 20
14.9293887588
 30
0.0
 10
47.2542231505
 20
14.9528246906
 30
0.0
 10
47.2533861301
 20
14.9638918099
 30
0.0
  0
SPLINE
  5
302
100
AcDbEntity
  8
0
100
AcDbSpline
 62
7
  6
BYLAYER
 70
0
 71
3
 72
11
 73
7
 74
0
 42
0.0000001
 43
0.0000001
 44
0.0000000001
 40
0.0
 40
0.0
 40
0.0
 40
0.0
 40
0.2033715115
 40
0.4330525919
 40
0.699136702
 40
1.0
 40
1.0
 40
1.0
 40
1.0
 10
47.229136496
 20
15.2845215133
 30
0.0
 10
47.228367491
 20
15.2946893312
 30
0.0
 10
47.221462707
 20
15.3160882528
 30
0.0
 10
47.1985502792
 20
15.3434051312
 30
0.0
 10
47.1651210875
 20
15.3659425432
 30
0.0
 10
47.1385849017
 20
15.3766604828
 30
0.0
 10
47.1241805031
 20
15.3811405088
 30
0.0
  0
SPLINE
  5
303
100
AcDbEntity
  8
0
100
AcDbSpline
 62
7
  6
BYLAYER
 70
0
 71
3
 72
11
 73
7
 74
0
 42
0.0000001
 43
0.0000001
 44
0.0000000001
 40
0.0
 40
0.0
 40
0.0
 40
0.0
 40
0.2420462839
 40
0.4968939778
 40
0.7533549905
 40
1.0
 40
1.0
 40
1.0
 40
1.0
 10
46.7822946496
 20
15.4950997484
 30
0.0
 10
46.767068159
 20
15.500526545
 30
0.0
 10
46.7347236222
 20
15.5087306548
 30
0.0
 10
46.6844624802
 20
15.5135037877
 30
0.0
 10
46.6337403732
 20
15.5108152179
 30
0.0
 10
46.6006621224
 20
15.5040071394
 30
0.0
 10
46.5848874055
 20
15.4992660753
 30
0.0
  0
SPLINE
  5
304
100
AcDbEntity
  8
0
100
AcDbSpline
 62
7
  6
BYLAYER
 70
0
 71
3
 72
11
 73
7
 74
0
 42
0.0000001
 43
0.0000001
 44
0.0000000001
 40
0.0
 40
0.0
 40
0.0
 40
0.0
 40
0.248961644
 40
0.5073736072
 40
0.7619434809
 40
1.0
 40
1.0
 40
1.0
 40
1.0
 10
46.091813295
 20
15.3510734969
 30
0.0
 10
46.0746613651
 20
15.3459185138
 30
0.0
 10
46.0386456277
 20
15.3387664541
 30
0.0
 10
45.9836442219
 20
15.3369192877
 30
0.0
 10
45.9298171597
 20
15.3436876517
 30
0.0
 10
45.89568572
 20
15.3541398064
 30
0.0
 10
45.8799545789
 20
15.3609080282
 30
0.0
  0
SPLINE
  5
305
100
AcDbEntity
  8
0
100
AcDbSpline
 62
7
  6
BYLAYER
 70
0
 71
3
 72
11
 73
7
 74
0
 42
0.0000001
 43
0.0000001
 44
0.0000000001
 40
0.0
 40
0.0
 40
0.0
 40
0.0
 40
0.2958810308
 40
0.5577981686
 40
0.7884277938
 40
1.0
 40
1.0
 40
1.0
 40
1.0
 10
45.714836078
 20
15.4340565628
 30
0.0
 10
45.7036698553
 20
15.4391488909
 30
0.0
 10
45.6833279431
 20
15.4505066423
 30
0.0
 10
45.658584376
 20
15.4723709545
 30
0.0
 10
45.6426230994
 20
15.4974009835
 30
0.0
 10
45.6388065086
 20
15.5158909105
 30
0.0
 10
45.6388117592
 20
15.5246665233
 30
0.0
  0
SPLINE
  5
306
100
AcDbEntity
  8
0
100
AcDbSpline
 62
7
  6
BYLAYER
 70
0
 71
3
 72
10
 73
6
 74
0
 42
0.0000001
 43
0.0000001
 44
0.0000000001
 40
0.0
 40
0.0
 40
0.0
 40
0.0
 40
0.2264012345
 40
0.4754682406
 40
1.0
 40
1.0
 40
1.0
 40
1.0
 10
45.4266455991
 20
16.133159316
 30
0.0
 10
45.4141179149
 20
16.1408312797
 30
0.0
 10
45.3858230723
 20
16.1537851771
 30
0.0
 10
45.3228051254
 20
16.1699690891
 30
0.0
 10
45.2715917619
 20
16.1710027214
 30
0.0
 10
45.237832579
 20
16.1666816755
 30
0.0
  0
SPLINE
  5
307
100
AcDbEntity
  8
0
100
AcDbSpline
 62
7
  6
BYLAYER
 70
0
 71
3
 72
11
 73
7
 74
0
 42
0.0000001
 43
0.0000001
 44
0.0000000001
 40
0.0
 40
0.0
 40
0.0
 40
0.0
 40
0.267131146
 40
0.5311778449
 40
0.7789216798
 40
1.0
 40
1.0
 40
1.0
 40
1.0
 10
44.6951256962
 20
16.0972172756
 30
0.0
 10
44.6767010688
 20
16.094858994
 30
0.0
 10
44.6396136884
 20
16.0932232565
 30
0.0
 10
44.5855726785
 20
16.0994531057
 30
0.0
 10
44.5364249985
 20
16.1138449301
 30
0.0
 10
44.5073057212
 20
16.1293030807
 30
0.0
 10
44.4948946535
 20
16.1383741389
 30
0.0
  0
SPLINE
  5
308
100
AcDbEntity
  8
0
100
AcDbSpline
 62
7
  6
BYLAYER
 70
0
 71
3
 72
11
 73
7
 74
0
 42
0.0000001
 43
0.0000001
 44
0.0000000001
 40
0.0
 40
0.0
 40
0.0
 40
0.0
 40
0.2806286248
 40
0.5372711136
 40
0.7741449661
 40
1.0
 40
1.0
 40
1.0
 40
1.0
 10
44.3681944889
 20
16.2337033779
 30
0.0
 10
44.36211166
 20
16.2384158634
 30
0.0
 10
44.3511309953
 20
16.2483658993
 30
0.0
 10
44.3383149769
 20
16.2654835443
 30
0.0
 10
44.3303795864
 20
16.2837591407
 30
0.0
 10
44.3285626852
 20
16.2965084489
 30
0.0
 10
44.3285633803
 20
16.3027012795
 30
0.0
  0
SPLINE
  5
309
100
AcDbEntity
  8
0
100
AcDbSpline
 62
7
  6
BYLAYER
 70
0
 71
3
 72
11
 73
7
 74
0
 42
0.0000001
 43
0.0000001
 44
0.0000000001
 40
0.0
 40
0.0
 40
0.0
 40
0.0
 40
0.2849988237
 40
0.5532945496
 40
0.7934464032
 40
1.0
 40
1.0
 40
1.0
 40
1.0
 10
43.6805209604
 20
17.0266398119
 30
0.0
 10
43.6621222322
 20
17.0271035498
 30
0.0
 10
43.6264011459
 20
17.0308283248
 30
0.0
 10
43.5767938145
 20
17.0447512076
 30
0.0
 10
43.5353769059
 20
17.0659034805
 30
0.0
 10
43.5135399933
 20
17.0856235779
 30
0.0
 10
43.5055630058
 20
17.0963142348
 30
0.0
  0
SPLINE
  5
30A
100
AcDbEntity
  8
0
100
AcDbSpline
 62
7
  6
BYLAYER
 70
0
 71
3
 72
9
 73
5
 74
0
 42
0.0000001
 43
0.0000001
 44
0.0000000001
 40
0.0
 40
0.0
 40
0.0
 40
0.0
 40
0.2401093455
 40
1.0
 40
1.0
 40
1.0
 40
1.0
 10
44.3300666976
 20
16.9962946119
 30
0.0
 10
44.3228207527
 20
16.998805025
 30
0.0
 10
44.2921841974
 20
17.0079128738
 30
0.0
 10
44.2601373651
 20
17.012030645
 30
0.0
 10
44.2358760383
 20
17.012642149
 30
0.0
  0
SPLINE
  5
30B
100
AcDbEntity
  8
0
100
AcDbSpline
 62
7
  6
BYLAYER
 70
0
 71
3
 72
11
 73
7
 74
0
 42
0.0000001
 43
0.0000001
 44
0.0000000001
 40
0.0
 40
0.0
 40
0.0
 40
0.0
 40
0.2262005077
 40
0.5940726455
 40
0.792364535
 40
1.0
 40
1.0
 40
1.0
 40
1.0
 10
55.610438609
 20
14.7445208864
 30
0.0
 10
55.5398324531
 20
14.6231245847
 30
0.0
 10
55.3268602035
 20
14.3199427587
 30
0.0
 10
54.9720691701
 20
13.9739090424
 30
0.0
 10
54.587002264
 20
13.686137997
 30
0.0
 10
54.373213981
 20
13.5520385346
 30
0.0
 10
54.2615744704
 20
13.4875838178
 30
0.0
  0
SPLINE
  5
30C
100
AcDbEntity
  8
0
100
AcDbSpline
 62
7
  6
BYLAYER
 70
0
 71
3
 72
9
 73
5
 74
0
 42
0.0000001
 43
0.0000001
 44
0.0000000001
 40
0.0
 40
0.0
 40
0.0
 40
0.0
 40
0.4929577345
 40
1.0
 40
1.0
 40
1.0
 40
1.0
 10
44.0627956011
 20
17.0099593816
 30
0.0
 10
44.0889324412
 20
16.9303261564
 30
0.0
 10
44.1506708818
 20
16.7715367889
 30
0.0
 10
44.2281219741
 20
16.6198438049
 30
0.0
 10
44.270861673
 20
16.5449769697
 30
0.0
  0
SPLINE
  5
30D
100
AcDbEntity
  8
0
100
AcDbSpline
 62
7
  6
BYLAYER
 70
0
 71
3
 72
9
 73
5
 74
0
 42
0.0000001
 43
0.0000001
 44
0.0000000001
 40
0.0
 40
0.0
 40
0.0
 40
0.0
 40
0.2455022974
 40
1.0
 40
1.0
 40
1.0
 40
1.0
 10
44.270861673
 20
16.5449769697
 30
0.0
 10
44.2863511818
 20
16.5178441042
 30
0.0
 10
44.3513101281
 20
16.408395824
 30
0.0
 10
44.4235393155
 20
16.3032962824
 30
0.0
 10
44.4814224096
 20
16.226686664
 30
0.0
  0
SPLINE
  5
30E
100
AcDbEntity
  8
0
100
AcDbSpline
 62
7
  6
BYLAYER
 70
0
 71
3
 72
13
 73
9
 74
0
 42
0.0000001
 43
0.0000001
 44
0.0000000001
 40
0.0
 40
0.0
 40
0.0
 40
0.0
 40
0.2145179007
 40
0.3315579134
 40
0.4548547797
 40
0.5840121289
 40
0.718450049
 40
1.0
 40
1.0
 40
1.0
 40
1.0
 10
44.6245956238
 20
16.0501632542
 30
0.0
 10
44.8316715672
 20
15.8115791539
 30
0.0
 10
45.2019045252
 20
15.484934641
 30
0.0
 10
45.7634242739
 20
15.1190886755
 30
0.0
 10
46.244846943
 20
14.863742725
 30
0.0
 10
46.7687900865
 20
14.6384369021
 30
0.0
 10
47.5284494782
 20
14.3770651682
 30
0.0
 10
48.1277749075
 20
14.2391891279
 30
0.0
 10
48.5367388438
 20
14.1708620111
 30
0.0
  0
SPLINE
  5
30F
100
AcDbEntity
  8
0
100
AcDbSpline
 62
7
  6
BYLAYER
 70
0
 71
3
 72
11
 73
7
 74
0
 42
0.0000001
 43
0.0000001
 44
0.0000000001
 40
0.0
 40
0.0
 40
0.0
 40
0.0
 40
0.2483426416
 40
0.4999905861
 40
0.7516440221
 40
1.0
 40
1.0
 40
1.0
 40
1.0
 10
48.5367388438
 20
14.1708620111
 30
0.0
 10
48.8259638549
 20
14.1225401192
 30
0.0
 10
49.4127265993
 20
14.0503674802
 30
0.0
 10
50.3004447845
 20
14.0143831999
 30
0.0
 10
51.1881880242
 20
14.0501545351
 30
0.0
 10
51.7749886279
 20
14.1221953323
 30
0.0
 10
52.0642426045
 20
14.1704393439
 30
0.0
  0
SPLINE
  5
310
100
AcDbEntity
  8
0
100
AcDbSpline
 62
7
  6
BYLAYER
 70
0
 71
3
 72
11
 73
7
 74
0
 42
0.0000001
 43
0.0000001
 44
0.0000000001
 40
0.0
 40
0.0
 40
0.0
 40
0.0
 40
0.2654947793
 40
0.5220712045
 40
0.7675288736
 40
1.0
 40
1.0
 40
1.0
 40
1.0
 10
52.0642426045
 20
14.1704393439
 30
0.0
 10
52.3170331361
 20
14.2126017006
 30
0.0
 10
52.8112317068
 20
14.3143274866
 30
0.0
 10
53.5233080462
 20
14.5220283952
 30
0.0
 10
54.1848923611
 20
14.779573321
 30
0.0
 10
54.5975662904
 20
14.987982077
 30
0.0
 10
54.7919067642
 20
15.1001839322
 30
0.0
  0
SPLINE
  5
311
100
AcDbEntity
  8
0
100
AcDbSpline
 62
7
  6
BYLAYER
 70
0
 71
3
 72
23
 73
19
 74
0
 42
0.0000001
 43
0.0000001
 44
0.0000000001
 40
0.0
 40
0.0
 40
0.0
 40
0.0
 40
0.0603381019
 40
0.1242187971
 40
0.1910917706
 40
0.2602916788
 40
0.3310504392
 40
0.4025452453
 40
0.4739251319
 40
0.544343675
 40
0.612989531
 40
0.6791190078
 40
0.7420913317
 40
0.8014086028
 40
0.8567624768
 40
0.9080893909
 40
0.9556326915
 40
1.0
 40
1.0
 40
1.0
 40
1.0
 10
54.7919067642
 20
12.5282013182
 30
0.0
 10
54.5850738933
 20
12.4087870173
 30
0.0
 10
54.1443658099
 20
12.1881776358
 30
0.0
 10
53.4361105148
 20
11.9196287599
 30
0.0
 10
52.6724561026
 20
11.7077630671
 30
0.0
 10
51.8669790204
 20
11.5562990446
 30
0.0
 10
51.0338166494
 20
11.4679004727
 30
0.0
 10
50.1877118827
 20
11.4441169044
 30
0.0
 10
49.3436224792
 20
11.4853748562
 30
0.0
 10
48.5164775663
 20
11.5909430284
 30
0.0
 10
47.7208850621
 20
11.7589624799
 30
0.0
 10
46.9708596664
 20
11.9864914104
 30
0.0
 10
46.279561959
 20
12.2695836683
 30
0.0
 10
45.6590607782
 20
12.6034248144
 30
0.0
 10
45.120173676
 20
12.9824482055
 30
0.0
 10
44.6723479933
 20
13.4006954728
 30
0.0
 10
44.3239509746
 20
13.8513716622
 30
0.0
 10
44.1580768743
 20
14.1784636755
 30
0.0
 10
44.0962795177
 20
14.3428456902
 30
0.0
  0
SPLINE
  5
312
100
AcDbEntity
  8
0
100
AcDbSpline
 62
7
  6
BYLAYER
 70
0
 71
3
 72
15
 73
11
 74
0
 42
0.0000001
 43
0.0000001
 44
0.0000000001
 40
0.0
 40
0.0
 40
0.0
 40
0.0
 40
0.148580239
 40
0.2895098402
 40
0.422725311
 40
0.5486422236
 40
0.6680022616
 40
0.7819392263
 40
0.8919874055
 40
1.0
 40
1.0
 40
1.0
 40
1.0
 10
54.7919067642
 20
13.1814032519
 30
0.0
 10
54.9351159031
 20
13.2640845933
 30
0.0
 10
55.2076819938
 20
13.4368537291
 30
0.0
 10
55.5803218031
 20
13.7252691736
 30
0.0
 10
55.9026365033
 20
14.0337836725
 30
0.0
 10
56.171393099
 20
14.3595609746
 30
0.0
 10
56.3838893447
 20
14.6997028433
 30
0.0
 10
56.5377052848
 20
15.051150814
 30
0.0
 10
56.6308640568
 20
15.4103397761
 30
0.0
 10
56.6517586604
 20
15.6535186579
 30
0.0
 10
56.6517530885
 20
15.7737320352
 30
0.0
  0
SPLINE
  5
313
100
AcDbEntity
  8
0
100
AcDbSpline
 62
7
  6
BYLAYER
 70
0
 71
3
 72
23
 73
19
 74
0
 42
0.0000001
 43
0.0000001
 44
0.0000000001
 40
0.0
 40
0.0
 40
0.0
 40
0.0
 40
0.0593906385
 40
0.1221338827
 40
0.1877402423
 40
0.2556288468
 40
0.3251215766
 40
0.3954906633
 40
0.4659765802
 40
0.5358165206
 40
0.6042691707
 40
0.6706406344
 40
0.7343118256
 40
0.7947689087
 40
0.8516383759
 40
0.9047282319
 40
0.954075998
 40
1.0
 40
1.0
 40
1.0
 40
1.0
 10
54.2615744704
 20
13.4875838178
 30
0.0
 10
54.0879299575
 20
13.38733071
 30
0.0
 10
53.7189420417
 20
13.2013209862
 30
0.0
 10
53.1270961073
 20
12.9721591847
 30
0.0
 10
52.4898039776
 20
12.7881512464
 30
0.0
 10
51.8173948695
 20
12.6522188316
 30
0.0
 10
51.1205915814
 20
12.5665472584
 30
0.0
 10
50.4106150814
 20
12.5324982526
 30
0.0
 10
49.6988836401
 20
12.5506283543
 30
0.0
 10
48.9968568467
 20
12.6206447923
 30
0.0
 10
48.3158242136
 20
12.7414208875
 30
0.0
 10
47.6667160876
 20
12.9110242133
 30
0.0
 10
47.0599201953
 20
13.1267595999
 30
0.0
 10
46.5051069035
 20
13.3852483282
 30
0.0
 10
46.0110979482
 20
13.6824907572
 30
0.0
 10
45.5857181076
 20
14.0141000204
 30
0.0
 10
45.235951789
 20
14.3750449828
 30
0.0
 10
45.0511538098
 20
14.6406770983
 30
0.0
 10
44.9751848982
 20
14.7758325083
 30
0.0
  0
SPLINE
  5
314
100
AcDbEntity
  8
0
100
AcDbSpline
 62
7
  6
BYLAYER
 70
0
 71
3
 72
15
 73
11
 74
0
 42
0.0000001
 43
0.0000001
 44
0.0000000001
 40
0.0
 40
0.0
 40
0.0
 40
0.0
 40
0.1480821665
 40
0.2887706104
 40
0.421982036
 40
0.5480846696
 40
0.6677436466
 40
0.7819724849
 40
0.8921595154
 40
1.0
 40
1.0
 40
1.0
 40
1.0
 10
54.7919067642
 20
15.1001839322
 30
0.0
 10
54.931134361
 20
15.1805665428
 30
0.0
 10
55.1965015024
 20
15.3483508706
 30
0.0
 10
55.5604656233
 20
15.6276853466
 30
0.0
 10
55.877087077
 20
15.9261148003
 30
0.0
 10
56.1433709048
 20
16.2410335018
 30
0.0
 10
56.3568333775
 20
16.569777638
 30
0.0
 10
56.5152044822
 20
16.9095820329
 30
0.0
 10
56.6166403828
 20
17.2572151411
 30
0.0
 10
56.6456276943
 20
17.493405828
 30
0.0
 10
56.6501635707
 20
17.6103953424
 30
0.0
  0
SPLINE
  5
315
100
AcDbEntity
  8
0
100
AcDbSpline
 62
7
  6
BYLAYER
 70
0
 71
3
 72
15
 73
11
 74
0
 42
0.0000001
 43
0.0000001
 44
0.0000000001
 40
0.0
 40
0.0
 40
0.0
 40
0.0
 40
0.1113665585
 40
0.2301449696
 40
0.3548933988
 40
0.4838153624
 40
0.6149015329
 40
0.7460265687
 40
0.8750661288
 40
1.0
 40
1.0
 40
1.0
 40
1.0
 10
54.1908634979
 20
15.4471885735
 30
0.0
 10
53.980429156
 20
15.3256949748
 30
0.0
 10
53.527699295
 20
15.1048232501
 30
0.0
 10
52.7957073667
 20
14.8479455434
 30
0.0
 10
52.0038104962
 20
14.6594953082
 30
0.0
 10
51.171076666
 20
14.5440392784
 30
0.0
 10
50.3174416074
 20
14.5042965404
 30
0.0
 10
49.4634013163
 20
14.541244098
 30
0.0
 10
48.6296135077
 20
14.6539605094
 30
0.0
 10
48.0889967292
 20
14.7805369872
 30
0.0
 10
47.8272535877
 20
14.8566692059
 30
0.0
  0
SPLINE
  5
316
100
AcDbEntity
  8
0
100
AcDbSpline
 62
7
  6
BYLAYER
 70
0
 71
3
 72
9
 73
5
 74
0
 42
0.0000001
 43
0.0000001
 44
0.0000000001
 40
0.0
 40
0.0
 40
0.0
 40
0.0
 40
0.2578796604
 40
1.0
 40
1.0
 40
1.0
 40
1.0
 10
47.211203371
 20
15.065867791
 30
0.0
 10
47.1406337305
 20
15.0935463834
 30
0.0
 10
46.8688446011
 20
15.2055167513
 30
0.0
 10
46.6047118162
 20
15.3364871051
 30
0.0
 10
46.4157178136
 20
15.4454313396
 30
0.0
  0
SPLINE
  5
317
100
AcDbEntity
  8
0
100
AcDbSpline
 62
7
  6
BYLAYER
 70
0
 71
3
 72
13
 73
9
 74
0
 42
0.0000001
 43
0.0000001
 44
0.0000000001
 40
0.0
 40
0.0
 40
0.0
 40
0.0
 40
0.1090355929
 40
0.2217564846
 40
0.3387895515
 40
0.460598552
 40
0.7195791567
 40
1.0
 40
1.0
 40
1.0
 40
1.0
 10
56.5072444397
 20
14.3428451968
 30
0.0
 10
56.4746980975
 20
14.2562901901
 30
0.0
 10
56.3982946086
 20
14.0839419408
 30
0.0
 10
56.25422505
 20
13.8347944847
 30
0.0
 10
56.079777179
 20
13.5924193027
 30
0.0
 10
55.8024039832
 20
13.2734474766
 30
0.0
 10
55.3810652597
 20
12.8996300645
 30
0.0
 10
54.9978666237
 20
12.6471115888
 30
0.0
 10
54.7919067642
 20
12.5282013182
 30
0.0
  0
SPLINE
  5
318
100
AcDbEntity
  8
0
100
AcDbSpline
 62
7
  6
BYLAYER
 70
0
 71
3
 72
27
 73
23
 74
0
 42
0.0000001
 43
0.0000001
 44
0.0000000001
 40
0.0
 40
0.0
 40
0.0
 40
0.0
 40
0.021329675
 40
0.0428877789
 40
0.0648907858
 40
0.0875330242
 40
0.1109801849
 40
0.1353643862
 40
0.1872599969
 40
0.2149213757
 40
0.2437292164
 40
0.3046711626
 40
0.3697526879
 40
0.4383435095
 40
0.5096233166
 40
0.5826407552
 40
0.6563653202
 40
0.729735493
 40
0.8017049487
 40
0.871291238
 40
0.9376220067
 40
1.0
 40
1.0
 40
1.0
 40
1.0
 10
42.3017640369
 20
21.3259484796
 30
0.0
 10
42.3017601567
 20
21.2124597846
 30
0.0
 10
42.3164161431
 20
20.9840048592
 30
0.0
 10
42.3820427031
 20
20.6441647964
 30
0.0
 10
42.4909305049
 20
20.3082688688
 30
0.0
 10
42.6422997319
 20
19.9782661015
 30
0.0
 10
42.8352584529
 20
19.6559263945
 30
0.0
 10
43.1528517168
 20
19.2299339872
 30
0.0
 10
43.5453397962
 20
18.8356763918
 30
0.0
 10
43.9966529622
 20
18.4763655086
 30
0.0
 10
44.5126886794
 20
18.1233432405
 30
0.0
 10
45.2384565714
 20
17.7286359287
 30
0.0
 10
46.2007149409
 20
17.3409813649
 30
0.0
 10
47.2502404643
 20
17.0385088234
 30
0.0
 10
48.3647046033
 20
16.8275860826
 30
0.0
 10
49.5204714764
 20
16.7126527356
 30
0.0
 10
50.6929015744
 20
16.6961560198
 30
0.0
 10
51.8569906507
 20
16.7784516216
 30
0.0
 10
52.987906124
 20
16.9577721557
 30
0.0
 10
54.0616432095
 20
17.2303645295
 30
0.0
 10
55.0552600991
 20
17.5903746518
 30
0.0
 10
55.6712085065
 20
17.8940760479
 30
0.0
 10
55.9586378107
 20
18.0600224435
 30
0.0
  0
SPLINE
  5
319
100
AcDbEntity
  8
0
100
AcDbSpline
 62
7
  6
BYLAYER
 70
0
 71
3
 72
9
 73
5
 74
0
 42
0.0000001
 43
0.0000001
 44
0.0000000001
 40
0.0
 40
0.0
 40
0.0
 40
0.0
 40
0.485969129
 40
1.0
 40
1.0
 40
1.0
 40
1.0
 10
54.9085401481
 20
15.9578347161
 30
0.0
 10
54.8015705174
 20
15.8631423526
 30
0.0
 10
54.5700667641
 20
15.6809315632
 30
0.0
 10
54.3217287095
 20
15.5227431877
 30
0.0
 10
54.1908634979
 20
15.4471885735
 30
0.0
  0
SPLINE
  5
31A
100
AcDbEntity
  8
0
100
AcDbSpline
 62
7
  6
BYLAYER
 70
0
 71
3
 72
25
 73
21
 74
0
 42
0.0000001
 43
0.0000001
 44
0.0000000001
 40
0.0
 40
0.0
 40
0.0
 40
0.0
 40
0.0213318664
 40
0.0428920539
 40
0.0648972327
 40
0.0875416659
 40
0.1353163289
 40
0.1872168929
 40
0.2436543307
 40
0.3046021136
 40
0.3696898764
 40
0.4382872788
 40
0.5095739473
 40
0.5825984493
 40
0.656330253
 40
0.7297076176
 40
0.801684271
 40
0.8712771346
 40
0.9376165596
 40
1.0
 40
1.0
 40
1.0
 40
1.0
 10
43.9517669306
 20
15.7737320511
 30
0.0
 10
43.9517711059
 20
15.6836500523
 30
0.0
 10
43.9633931181
 20
15.502313028
 30
0.0
 10
44.0154906061
 20
15.2325684012
 30
0.0
 10
44.1019227068
 20
14.9659401595
 30
0.0
 10
44.2649523798
 20
14.6104892964
 30
0.0
 10
44.5575211532
 20
14.1799764995
 30
0.0
 10
45.0248837853
 20
13.7107401219
 30
0.0
 10
45.6040840972
 20
13.2874808662
 30
0.0
 10
46.2827073355
 20
12.9183943648
 30
0.0
 10
47.0465658151
 20
12.610660249
 30
0.0
 10
47.8796038399
 20
12.3705810692
 30
0.0
 10
48.764212874
 20
12.2031573981
 30
0.0
 10
49.6815994514
 20
12.111928194
 30
0.0
 10
50.6122150478
 20
12.0988332288
 30
0.0
 10
51.5362108463
 20
12.1641524423
 30
0.0
 10
52.4338731967
 20
12.3064907151
 30
0.0
 10
53.2861616517
 20
12.5228556324
 30
0.0
 10
54.0748468774
 20
12.8086222632
 30
0.0
 10
54.5637623907
 20
13.0496848227
 30
0.0
 10
54.7919067642
 20
13.1814032519
 30
0.0
  0
SPLINE
  5
31B
100
AcDbEntity
  8
0
100
AcDbSpline
 62
7
  6
BYLAYER
 70
0
 71
3
 72
9
 73
5
 74
0
 42
0.0000001
 43
0.0000001
 44
0.0000000001
 40
0.0
 40
0.0
 40
0.0
 40
0.0
 40
0.5141792868
 40
1.0
 40
1.0
 40
1.0
 40
1.0
 10
55.9586378107
 20
18.0600224435
 30
0.0
 10
56.1503479902
 20
18.1707057065
 30
0.0
 10
56.5139904182
 20
18.4024809836
 30
0.0
 10
56.8527371196
 20
18.6697335731
 30
0.0
 10
57.0091222693
 20
18.8086253578
 30
0.0
  0
SPLINE
  5
31C
100
AcDbEntity
  8
0
100
AcDbSpline
 62
7
  6
BYLAYER
 70
0
 71
3
 72
13
 73
9
 74
0
 42
0.0000001
 43
0.0000001
 44
0.0000000001
 40
0.0
 40
0.0
 40
0.0
 40
0.0
 40
0.2763769094
 40
0.5313529227
 40
0.6524202127
 40
0.7701955681
 40
0.885684169
 40
1.0
 40
1.0
 40
1.0
 40
1.0
 10
57.0091222693
 20
18.8086253578
 30
0.0
 10
57.2098637503
 20
18.9869117402
 30
0.0
 10
57.5711826164
 20
19.3593382863
 30
0.0
 10
57.9240264509
 20
19.8913753098
 30
0.0
 10
58.1206555812
 20
20.3299406794
 30
0.0
 10
58.2249050401
 20
20.6588424833
 30
0.0
 10
58.2877408114
 20
20.9914097984
 30
0.0
 10
58.3017521854
 20
21.2148977084
 30
0.0
 10
58.3017559822
 20
21.3259484797
 30
0.0
  0
SPLINE
  5
31D
100
AcDbEntity
  8
0
100
AcDbSpline
 62
7
  6
BYLAYER
 70
0
 71
3
 72
9
 73
5
 74
0
 42
0.0000001
 43
0.0000001
 44
0.0000000001
 40
0.0
 40
0.0
 40
0.0
 40
0.0
 40
0.5173906717
 40
1.0
 40
1.0
 40
1.0
 40
1.0
 10
55.8105116077
 20
18.7957902259
 30
0.0
 10
56.0128315846
 20
18.922231245
 30
0.0
 10
56.3912400941
 20
19.1877463114
 30
0.0
 10
56.7334712158
 20
19.4992786117
 30
0.0
 10
56.88628176
 20
19.6610622313
 30
0.0
  0
SPLINE
  5
31E
100
AcDbEntity
  8
0
100
AcDbSpline
 62
7
  6
BYLAYER
 70
0
 71
3
 72
9
 73
5
 74
0
 42
0.0000001
 43
0.0000001
 44
0.0000000001
 40
0.0
 40
0.0
 40
0.0
 40
0.0
 40
0.2556970477
 40
1.0
 40
1.0
 40
1.0
 40
1.0
 10
56.88628176
 20
19.6610622313
 30
0.0
 10
56.9175164023
 20
19.69413098
 30
0.0
 10
57.0376539769
 20
19.8253405121
 30
0.0
 10
57.1495009518
 20
19.9642105371
 30
0.0
 10
57.2268901524
 20
20.0716498941
 30
0.0
  0
LINE
  5
31F
100
AcDbEntity
  8
0
100
AcDbLine
 62
7
  6
BYLAYER
 10
57.8017495551
 20
21.7341996873
 11
57.8017397138
 21
21.7412541428
  0
SPLINE
  5
320
100
AcDbEntity
  8
0
100
AcDbSpline
 62
7
  6
BYLAYER
 70
0
 71
3
 72
15
 73
11
 74
0
 42
0.0000001
 43
0.0000001
 44
0.0000000001
 40
0.0
 40
0.0
 40
0.0
 40
0.0
 40
0.1148825376
 40
0.2360081377
 40
0.3619039896
 40
0.4908614218
 40
0.6210300832
 40
0.7505057144
 40
0.8774140763
 40
1.0
 40
1.0
 40
1.0
 40
1.0
 10
45.5381043167
 20
18.3897280997
 30
0.0
 10
45.8336487793
 20
18.2494082564
 30
0.0
 10
46.4585096959
 20
17.9974936465
 30
0.0
 10
47.4504717034
 20
17.7122136999
 30
0.0
 10
48.5042390503
 20
17.5140921097
 30
0.0
 10
49.5968892554
 20
17.407460042
 30
0.0
 10
50.7048161894
 20
17.3945945777
 30
0.0
 10
51.8040376283
 20
17.4757946644
 30
0.0
 10
52.8706110104
 20
17.6492544568
 30
0.0
 10
53.5596702303
 20
17.8278603558
 30
0.0
 10
53.8926577217
 20
17.9326997176
 30
0.0
  0
SPLINE
  5
321
100
AcDbEntity
  8
0
100
AcDbSpline
 62
7
  6
BYLAYER
 70
0
 71
3
 72
9
 73
5
 74
0
 42
0.0000001
 43
0.0000001
 44
0.0000000001
 40
0.0
 40
0.0
 40
0.0
 40
0.0
 40
0.2543237095
 40
1.0
 40
1.0
 40
1.0
 40
1.0
 10
55.0780439405
 20
18.3957416005
 30
0.0
 10
55.1235968766
 20
18.4174663113
 30
0.0
 10
55.3019072312
 20
18.504557977
 30
0.0
 10
55.4769348825
 20
18.5984081507
 30
0.0
 10
55.6050829482
 20
18.6723940293
 30
0.0
  0
SPLINE
  5
322
100
AcDbEntity
  8
0
100
AcDbSpline
 62
7
  6
BYLAYER
 70
0
 71
3
 72
15
 73
11
 74
0
 42
0.0000001
 43
0.0000001
 44
0.0000000001
 40
0.0
 40
0.0
 40
0.0
 40
0.0
 40
0.1080118158
 40
0.2180602371
 40
0.3319969938
 40
0.4513559062
 40
0.5772753985
 40
0.7104908092
 40
0.8514143906
 40
1.0
 40
1.0
 40
1.0
 40
1.0
 10
57.8017495876
 20
21.7341996873
 30
0.0
 10
57.801749925
 20
21.5922163646
 30
0.0
 10
57.7770962235
 20
21.3049961263
 30
0.0
 10
57.6670453386
 20
20.8807612378
 30
0.0
 10
57.4853771289
 20
20.4656670851
 30
0.0
 10
57.2344064871
 20
20.0639157857
 30
0.0
 10
56.9169657497
 20
19.6791460624
 30
0.0
 10
56.5362850301
 20
19.3147602492
 30
0.0
 10
56.0961645899
 20
18.9741058473
 30
0.0
 10
55.7742337643
 20
18.7700527156
 30
0.0
 10
55.6050829482
 20
18.6723940293
 30
0.0
  0
SPLINE
  5
323
100
AcDbEntity
  8
0
100
AcDbSpline
 62
7
  6
BYLAYER
 70
0
 71
3
 72
9
 73
5
 74
0
 42
0.0000001
 43
0.0000001
 44
0.0000000001
 40
0.0
 40
0.0
 40
0.0
 40
0.0
 40
0.4978652491
 40
1.0
 40
1.0
 40
1.0
 40
1.0
 10
42.8017600096
 20
22.1424508968
 30
0.0
 10
42.8017600096
 20
22.2556807249
 30
0.0
 10
42.8165148726
 20
22.4833454955
 30
0.0
 10
42.8601926661
 20
22.7072289677
 30
0.0
 10
42.8889092582
 20
22.8177603662
 30
0.0
  0
SPLINE
  5
324
100
AcDbEntity
  8
0
100
AcDbSpline
 62
7
  6
BYLAYER
 70
0
 71
3
 72
15
 73
11
 74
0
 42
0.0000001
 43
0.0000001
 44
0.0000000001
 40
0.0
 40
0.0
 40
0.0
 40
0.0
 40
0.1165184022
 40
0.2401120564
 40
0.3687050059
 40
0.4998855165
 40
0.6310818631
 40
0.7597225163
 40
0.8833923201
 40
1.0
 40
1.0
 40
1.0
 40
1.0
 10
55.0779458162
 20
18.3956946595
 30
0.0
 10
54.7338555398
 20
18.2315997374
 30
0.0
 10
54.0005187675
 20
17.9429511242
 30
0.0
 10
52.8316954737
 20
17.6354233029
 30
0.0
 10
51.5893670716
 20
17.4469064035
 30
0.0
 10
50.309730706
 20
17.3829439533
 30
0.0
 10
49.0298617172
 20
17.4453444185
 30
0.0
 10
47.7868443334
 20
17.6323443944
 30
0.0
 10
46.6169288781
 20
17.9384416744
 30
0.0
 10
45.8826457956
 20
18.2261400007
 30
0.0
 10
45.5380117968
 20
18.3897720686
 30
0.0
  0
SPLINE
  5
325
100
AcDbEntity
  8
0
100
AcDbSpline
 62
7
  6
BYLAYER
 70
0
 71
3
 72
16
 73
12
 74
0
 42
0.0000001
 43
0.0000001
 44
0.0000000001
 40
0.0
 40
0.0
 40
0.0
 40
0.0
 40
0.1514049487
 40
0.2945898887
 40
0.4293230753
 40
0.5557781436
 40
0.6746063024
 40
0.7869954441
 40
0.8946834467
 40
0.9475003568
 40
1.0
 40
1.0
 40
1.0
 40
1.0
 10
45.5380117968
 20
18.3897720686
 30
0.0
 10
45.3304653412
 20
18.4883150325
 30
0.0
 10
44.934450901
 20
18.6972631373
 30
0.0
 10
44.3892693595
 20
19.0559102299
 30
0.0
 10
43.9150332385
 20
19.447462367
 30
0.0
 10
43.5175669391
 20
19.8675264794
 30
0.0
 10
43.2019211693
 20
20.3115382069
 30
0.0
 10
42.9725143026
 20
20.7743995771
 30
0.0
 10
42.8555612582
 20
21.1742874841
 30
0.0
 10
42.8094296706
 20
21.4946037426
 30
0.0
 10
42.8017706209
 20
21.6545330172
 30
0.0
 10
42.8017704315
 20
21.7341996891
 30
0.0
  0
SPLINE
  5
326
100
AcDbEntity
  8
0
100
AcDbSpline
 62
7
  6
BYLAYER
 70
0
 71
3
 72
16
 73
12
 74
0
 42
0.0000001
 43
0.0000001
 44
0.0000000001
 40
0.0
 40
0.0
 40
0.0
 40
0.0
 40
0.1105072542
 40
0.2226525506
 40
0.3380114495
 40
0.4579188987
 40
0.51996129
 40
0.5835187897
 40
0.7154459004
 40
0.854249237
 40
1.0
 40
1.0
 40
1.0
 40
1.0
 10
57.8017600096
 20
23.4488547642
 30
0.0
 10
57.8017600096
 20
23.3009608967
 30
0.0
 10
57.7764256357
 20
23.0023924894
 30
0.0
 10
57.6635723101
 20
22.5623699166
 30
0.0
 10
57.4782533277
 20
22.1340126861
 30
0.0
 10
57.2684071986
 20
21.7943733269
 30
0.0
 10
57.0692817604
 20
21.5328051575
 30
0.0
 10
56.8437817641
 20
21.271896874
 30
0.0
 10
56.5215127193
 20
20.9600998806
 30
0.0
 10
56.0818329488
 20
20.616149948
 30
0.0
 10
55.7606741004
 20
20.4103798138
 30
0.0
 10
55.5922042807
 20
20.3120605736
 30
0.0
  0
SPLINE
  5
327
100
AcDbEntity
  8
0
100
AcDbSpline
 62
7
  6
BYLAYER
 70
0
 71
3
 72
25
 73
21
 74
0
 42
0.0000001
 43
0.0000001
 44
0.0000000001
 40
0.0
 40
0.0
 40
0.0
 40
0.0
 40
0.0622694337
 40
0.1282786006
 40
0.1973915263
 40
0.2687855183
 40
0.3415190705
 40
0.4145821454
 40
0.4869487981
 40
0.5576274507
 40
0.6257130323
 40
0.6904428893
 40
0.7512587467
 40
0.8078761478
 40
0.8603586429
 40
0.9091806846
 40
0.9325245558
 40
0.955326618
 40
0.9777546956
 40
1.0
 40
1.0
 40
1.0
 40
1.0
 10
55.5636605554
 20
20.2954919169
 30
0.0
 10
55.2943392247
 20
20.1400001023
 30
0.0
 10
54.7181503551
 20
19.8558241838
 30
0.0
 10
53.7897245501
 20
19.5195151632
 30
0.0
 10
52.7884376753
 20
19.2656416281
 30
0.0
 10
51.7351452377
 20
19.0992326066
 30
0.0
 10
50.651764998
 20
19.0235491886
 30
0.0
 10
49.5610342608
 20
19.0401303576
 30
0.0
 10
48.4858618961
 20
19.148635609
 30
0.0
 10
47.4487656061
 20
19.3468898848
 30
0.0
 10
46.4713034001
 20
19.6309868367
 30
0.0
 10
45.5735594954
 20
19.9955310446
 30
0.0
 10
44.7737730111
 20
20.4339375191
 30
0.0
 10
44.0881588995
 20
20.9390240201
 30
0.0
 10
43.5314527778
 20
21.5028253875
 30
0.0
 10
43.1811357225
 20
22.0231748267
 30
0.0
 10
42.9844883227
 20
22.4557704935
 30
0.0
 10
42.8794480184
 20
22.7826144357
 30
0.0
 10
42.8159707114
 20
23.1143986673
 30
0.0
 10
42.8017600096
 20
23.3377576166
 30
0.0
 10
42.8017600096
 20
23.4488547642
 30
0.0
  0
SPLINE
  5
328
100
AcDbEntity
  8
0
100
AcDbSpline
 62
7
  6
BYLAYER
 70
0
 71
3
 72
12
 73
8
 74
0
 42
0.0000001
 43
0.0000001
 44
0.0000000001
 40
0.0
 40
0.0
 40
0.0
 40
0.0
 40
0.2585420081
 40
0.5093697063
 40
0.7555477731
 40
0.8777669561
 40
1.0
 40
1.0
 40
1.0
 40
1.0
 10
56.6036366809
 20
27.8888814244
 30
0.0
 10
56.7860130347
 20
27.7083787718
 30
0.0
 10
57.1190562288
 20
27.3244030232
 30
0.0
 10
57.5039370883
 20
26.6758766513
 30
0.0
 10
57.7064186223
 20
26.0901964356
 30
0.0
 10
57.7880621296
 20
25.6093303635
 30
0.0
 10
57.8017600096
 20
25.3664738645
 30
0.0
 10
57.8017600096
 20
25.2451600819
 30
0.0
  0
SPLINE
  5
329
100
AcDbEntity
  8
0
100
AcDbSpline
 62
7
  6
BYLAYER
 70
0
 71
3
 72
13
 73
9
 74
0
 42
0.0000001
 43
0.0000001
 44
0.0000000001
 40
0.0
 40
0.0
 40
0.0
 40
0.0
 40
0.1222856157
 40
0.2445734595
 40
0.3674542588
 40
0.4911482572
 40
0.7418625103
 40
1.0
 40
1.0
 40
1.0
 40
1.0
 10
42.8017600096
 20
25.2451600819
 30
0.0
 10
42.8017600096
 20
25.3643529712
 30
0.0
 10
42.8149694865
 20
25.6029512319
 30
0.0
 10
42.8740440393
 20
25.9568882836
 30
0.0
 10
42.9711897903
 20
26.3037707265
 30
0.0
 10
43.1497071603
 20
26.7552182268
 30
0.0
 10
43.4617331319
 20
27.2915550169
 30
0.0
 10
43.7844971854
 20
27.671451897
 30
0.0
 10
43.9613913271
 20
27.8503807028
 30
0.0
  0
SPLINE
  5
32A
100
AcDbEntity
  8
0
100
AcDbSpline
 62
7
  6
BYLAYER
 70
0
 71
3
 72
9
 73
5
 74
0
 42
0.0000001
 43
0.0000001
 44
0.0000000001
 40
0.0
 40
0.0
 40
0.0
 40
0.0
 40
0.2486773675
 40
1.0
 40
1.0
 40
1.0
 40
1.0
 10
46.1804397879
 20
35.0095709504
 30
0.0
 10
46.2715182835
 20
35.0621548304
 30
0.0
 10
46.6426286194
 20
35.2651251145
 30
0.0
 10
47.0318408736
 20
35.4346236033
 30
0.0
 10
47.3303664242
 20
35.5434470652
 30
0.0
  0
SPLINE
  5
32B
100
AcDbEntity
  8
0
100
AcDbSpline
 62
7
  6
BYLAYER
 70
0
 71
3
 72
23
 73
19
 74
0
 42
0.0000001
 43
0.0000001
 44
0.0000000001
 40
0.0
 40
0.0
 40
0.0
 40
0.0
 40
0.0631159119
 40
0.1257131188
 40
0.1880056728
 40
0.2502087162
 40
0.3124832408
 40
0.3748944868
 40
0.4374584445
 40
0.5001398604
 40
0.5628726691
 40
0.6255901914
 40
0.688225914
 40
0.7507361721
 40
0.8130896663
 40
0.875325992
 40
0.9375740123
 40
1.0
 40
1.0
 40
1.0
 40
1.0
 10
53.3368060121
 20
35.5199208184
 30
0.0
 10
53.5875347085
 20
35.4260424014
 30
0.0
 10
54.0776792222
 20
35.2129278619
 30
0.0
 10
54.7702929983
 20
34.8141144621
 30
0.0
 10
55.4067382637
 20
34.3364803181
 30
0.0
 10
55.9747340095
 20
33.7807224794
 30
0.0
 10
56.4604059565
 20
33.1507148882
 30
0.0
 10
56.8493931356
 20
32.4547661739
 30
0.0
 10
57.1283977546
 20
31.7058264922
 30
0.0
 10
57.2870403134
 20
30.9209756799
 30
0.0
 10
57.3190927224
 20
30.1201797096
 30
0.0
 10
57.2232465935
 20
29.3247113188
 30
0.0
 10
57.0033191539
 20
28.5553481076
 30
0.0
 10
56.667659546
 20
27.8308698826
 30
0.0
 10
56.2284181281
 20
27.1664160842
 30
0.0
 10
55.6995184434
 20
26.5726959689
 30
0.0
 10
55.0955307646
 20
26.0557358513
 30
0.0
 10
54.6524049612
 20
25.7643127584
 30
0.0
 10
54.4230802312
 20
25.6319128541
 30
0.0
  0
SPLINE
  5
32C
100
AcDbEntity
  8
0
100
AcDbSpline
 62
7
  6
BYLAYER
 70
0
 71
3
 72
32
 73
28
 74
0
 42
0.0000001
 43
0.0000001
 44
0.0000000001
 40
0.0
 40
0.0
 40
0.0
 40
0.0
 40
0.0623170173
 40
0.1256403721
 40
0.1898586886
 40
0.2543590326
 40
0.3183778938
 40
0.3814165271
 40
0.4435043079
 40
0.4743592178
 40
0.5051564609
 40
0.5359547577
 40
0.5667942245
 40
0.5976879295
 40
0.628642029
 40
0.6596502473
 40
0.6906951942
 40
0.7217554461
 40
0.752810694
 40
0.7838399942
 40
0.8148271012
 40
0.8457611143
 40
0.8766315194
 40
0.9074512227
 40
0.9382528429
 40
0.9690841751
 40
1.0
 40
1.0
 40
1.0
 40
1.0
 10
54.4230802312
 20
25.6319128541
 30
0.0
 10
54.0611657313
 20
25.4229626674
 30
0.0
 10
53.2914575856
 20
25.0681730146
 30
0.0
 10
52.0597130771
 20
24.7278847696
 30
0.0
 10
50.7769964587
 20
24.5705102037
 30
0.0
 10
49.4805053266
 20
24.5947843623
 30
0.0
 10
48.2079109367
 20
24.8008578161
 30
0.0
 10
46.9955981113
 20
25.190820329
 30
0.0
 10
46.0616458093
 20
25.6753158118
 30
0.0
 10
45.3855108204
 20
26.1583621226
 30
0.0
 10
44.918688445
 20
26.5680510462
 30
0.0
 10
44.4976798196
 20
27.0246609342
 30
0.0
 10
44.129294508
 20
27.5256492313
 30
0.0
 10
43.8204022201
 20
28.0666722908
 30
0.0
 10
43.5774700188
 20
28.6416693467
 30
0.0
 10
43.4059082043
 20
29.2429593202
 30
0.0
 10
43.3097963076
 20
29.8615783254
 30
0.0
 10
43.2914911613
 20
30.4876846509
 30
0.0
 10
43.3514433427
 20
31.1110699818
 30
0.0
 10
43.4881556562
 20
31.7216931976
 30
0.0
 10
43.698392497
 20
32.3101419366
 30
0.0
 10
43.9773479797
 20
32.8680218431
 30
0.0
 10
44.3189019781
 20
33.3884736074
 30
0.0
 10
44.7163319481
 20
33.8663211221
 30
0.0
 10
45.1627696313
 20
34.2982076573
 30
0.0
 10
45.6514748395
 20
34.6823806022
 30
0.0
 10
46.0008919569
 20
34.9059095806
 30
0.0
 10
46.1804397879
 20
35.0095709504
 30
0.0
  0
SPLINE
  5
32D
100
AcDbEntity
  8
0
100
AcDbSpline
 62
7
  6
BYLAYER
 70
0
 71
3
 72
22
 73
18
 74
0
 42
0.0000001
 43
0.0000001
 44
0.0000000001
 40
0.0
 40
0.0
 40
0.0
 40
0.0
 40
0.0578641058
 40
0.1125617748
 40
0.164815053
 40
0.2155699451
 40
0.2659260519
 40
0.3170273348
 40
0.3699366758
 40
0.4255358455
 40
0.4844737994
 40
0.54715574
 40
0.6137634963
 40
0.6842826105
 40
0.7585381958
 40
0.8362189
 40
1.0
 40
1.0
 40
1.0
 40
1.0
 10
47.2996713037
 20
34.4449086009
 30
0.0
 10
47.2473878094
 20
34.3848710623
 30
0.0
 10
47.152989938
 20
34.2613525093
 30
0.0
 10
47.0431381534
 20
34.0619439768
 30
0.0
 10
46.9708699308
 20
33.8561956176
 30
0.0
 10
46.9374392334
 20
33.6466477723
 30
0.0
 10
46.9434816921
 20
33.4360886009
 30
0.0
 10
46.9888643933
 20
33.2274145152
 30
0.0
 10
47.0727699113
 20
33.0233502856
 30
0.0
 10
47.1938248347
 20
32.8262944603
 30
0.0
 10
47.3503608961
 20
32.638386477
 30
0.0
 10
47.5404356178
 20
32.4615945149
 30
0.0
 10
47.761817976
 20
32.29775366
 30
0.0
 10
48.0119985254
 20
32.1486281333
 30
0.0
 10
48.2881684046
 20
32.015807466
 30
0.0
 10
48.6939030804
 20
31.8597387897
 30
0.0
 10
49.016873689
 20
31.7758964915
 30
0.0
 10
49.2381425373
 20
31.7332703688
 30
0.0
  0
SPLINE
  5
32E
100
AcDbEntity
  8
0
100
AcDbSpline
 62
7
  6
BYLAYER
 70
0
 71
3
 72
15
 73
11
 74
0
 42
0.0000001
 43
0.0000001
 44
0.0000000001
 40
0.0
 40
0.0
 40
0.0
 40
0.0
 40
0.1285860189
 40
0.2593698211
 40
0.3907001434
 40
0.5209047807
 40
0.6483570469
 40
0.7715380076
 40
0.889109845
 40
1.0
 40
1.0
 40
1.0
 40
1.0
 10
49.2381425373
 20
31.7332703688
 30
0.0
 10
49.3870685621
 20
31.7045806592
 30
0.0
 10
49.6900999323
 20
31.6596682167
 30
0.0
 10
50.1503896871
 20
31.6293293839
 30
0.0
 10
50.6135726051
 20
31.6357083421
 30
0.0
 10
51.0708581675
 20
31.6786979376
 30
0.0
 10
51.5136234069
 20
31.7574814088
 30
0.0
 10
51.9335492612
 20
31.8705965842
 30
0.0
 10
52.322686998
 20
32.0158996824
 30
0.0
 10
52.5644996782
 20
32.1363301781
 30
0.0
 10
52.6777694144
 20
32.2017261004
 30
0.0
  0
SPLINE
  5
32F
100
AcDbEntity
  8
0
100
AcDbSpline
 62
7
  6
BYLAYER
 70
0
 71
3
 72
21
 73
17
 74
0
 42
0.0000001
 43
0.0000001
 44
0.0000000001
 40
0.0
 40
0.0
 40
0.0
 40
0.0
 40
0.0766800295
 40
0.1500403806
 40
0.2200650604
 40
0.2868404289
 40
0.4113228427
 40
0.4699696615
 40
0.5268485849
 40
0.5826136959
 40
0.6379878297
 40
0.6937205423
 40
0.7505369572
 40
0.8090946068
 40
0.8699487851
 40
1.0
 40
1.0
 40
1.0
 40
1.0
 10
52.6777694144
 20
32.2017261004
 30
0.0
 10
52.7417173135
 20
32.2386462168
 30
0.0
 10
52.8643835865
 20
32.3152916629
 30
0.0
 10
53.0350278504
 20
32.4413026617
 30
0.0
 10
53.1872552639
 20
32.5751301471
 30
0.0
 10
53.3600706989
 20
32.7582871698
 30
0.0
 10
53.4984314852
 20
32.9581880719
 30
0.0
 10
53.5923583192
 20
33.1699724391
 30
0.0
 10
53.6389567407
 20
33.3287439592
 30
0.0
 10
53.6626177321
 20
33.4893447006
 30
0.0
 10
53.6631240731
 20
33.6505903962
 30
0.0
 10
53.6404675338
 20
33.8112484292
 30
0.0
 10
53.5948743926
 20
33.9701116125
 30
0.0
 10
53.5267272837
 20
34.1260558364
 30
0.0
 10
53.403974643
 20
34.3330861677
 30
0.0
 10
53.2831729008
 20
34.4740117575
 30
0.0
 10
53.1935312203
 20
34.5614661866
 30
0.0
  0
SPLINE
  5
330
100
AcDbEntity
  8
0
100
AcDbSpline
 62
7
  6
BYLAYER
 70
0
 71
3
 72
15
 73
11
 74
0
 42
0.0000001
 43
0.0000001
 44
0.0000000001
 40
0.0
 40
0.0
 40
0.0
 40
0.0
 40
0.1121645535
 40
0.2323633347
 40
0.3587738416
 40
0.4891483375
 40
0.6209947259
 40
0.7517267431
 40
0.8788256986
 40
1.0
 40
1.0
 40
1.0
 40
1.0
 10
52.4938001534
 20
32.3079383999
 30
0.0
 10
52.3630972847
 20
32.232477514
 30
0.0
 10
52.0800882236
 20
32.0968466564
 30
0.0
 10
51.6210104437
 20
31.9442534938
 30
0.0
 10
51.1238369231
 20
31.8387591748
 30
0.0
 10
50.602967554
 20
31.7834326773
 30
0.0
 10
50.0733908598
 20
31.7798427762
 30
0.0
 10
49.5503890896
 20
31.8281097398
 30
0.0
 10
49.049160522
 20
31.9268025851
 30
0.0
 10
48.7296253525
 20
32.0273478094
 30
0.0
 10
48.5775375896
 20
32.0861112093
 30
0.0
  0
SPLINE
  5
331
100
AcDbEntity
  8
0
100
AcDbSpline
 62
7
  6
BYLAYER
 70
0
 71
3
 72
19
 73
15
 74
0
 42
0.0000001
 43
0.0000001
 44
0.0000000001
 40
0.0
 40
0.0
 40
0.0
 40
0.0
 40
0.1584662634
 40
0.3049211459
 40
0.4387291159
 40
0.5606027038
 40
0.6178463978
 40
0.6731560751
 40
0.7271058906
 40
0.7803496434
 40
0.8335861618
 40
0.8875156758
 40
0.9427941139
 40
1.0
 40
1.0
 40
1.0
 40
1.0
 10
48.5775375896
 20
32.0861112093
 30
0.0
 10
48.4420478145
 20
32.1384615082
 30
0.0
 10
48.1867070413
 20
32.2542076313
 30
0.0
 10
47.8450516723
 20
32.4690086453
 30
0.0
 10
47.5670233359
 20
32.7137705771
 30
0.0
 10
47.3910503307
 20
32.9434175856
 30
0.0
 10
47.2926603291
 20
33.1350043893
 30
0.0
 10
47.2405268695
 20
33.2789138854
 30
0.0
 10
47.2089592609
 20
33.4249646749
 30
0.0
 10
47.1982969173
 20
33.5721237613
 30
0.0
 10
47.208569051
 20
33.719290633
 30
0.0
 10
47.2397577512
 20
33.8653740095
 30
0.0
 10
47.2914944159
 20
34.0093155776
 30
0.0
 10
47.3385399403
 20
34.1013994757
 30
0.0
 10
47.3650357278
 20
34.1466482125
 30
0.0
  0
SPLINE
  5
332
100
AcDbEntity
  8
0
100
AcDbSpline
 62
7
  6
BYLAYER
 70
0
 71
3
 72
19
 73
15
 74
0
 42
0.0000001
 43
0.0000001
 44
0.0000000001
 40
0.0
 40
0.0
 40
0.0
 40
0.0
 40
0.1266468264
 40
0.1863993227
 40
0.2442888047
 40
0.3008630728
 40
0.3567401176
 40
0.4125778571
 40
0.469037093
 40
0.5267430244
 40
0.5862560009
 40
0.7122806489
 40
0.8498787756
 40
1.0
 40
1.0
 40
1.0
 40
1.0
 10
53.067376272
 20
34.3820390862
 30
0.0
 10
53.1364809492
 20
34.3032589448
 30
0.0
 10
53.2281225156
 20
34.1773436291
 30
0.0
 10
53.3174917313
 20
33.9956195216
 30
0.0
 10
53.3651592293
 20
33.85916108
 30
0.0
 10
53.3943622656
 20
33.7208635177
 30
0.0
 10
53.4048316671
 20
33.5815871894
 30
0.0
 10
53.3965472228
 20
33.4422586115
 30
0.0
 10
53.3695048206
 20
33.3038026573
 30
0.0
 10
53.3239808372
 20
33.1670887538
 30
0.0
 10
53.2374290532
 20
32.9849022018
 30
0.0
 10
53.0814352149
 20
32.7650242242
 30
0.0
 10
52.8325601612
 20
32.5276222401
 30
0.0
 10
52.6355724732
 20
32.3921402306
 30
0.0
 10
52.5288821236
 20
32.3285223403
 30
0.0
  0
SPLINE
  5
333
100
AcDbEntity
  8
0
100
AcDbSpline
 62
7
  6
BYLAYER
 70
0
 71
3
 72
15
 73
11
 74
0
 42
0.0000001
 43
0.0000001
 44
0.0000000001
 40
0.0
 40
0.0
 40
0.0
 40
0.0
 40
0.1280763549
 40
0.2510914399
 40
0.3709877763
 40
0.4899807425
 40
0.6103724542
 40
0.7343349251
 40
0.8637305564
 40
1.0
 40
1.0
 40
1.0
 40
1.0
 10
44.2575832489
 20
27.3581909976
 30
0.0
 10
44.189975383
 20
27.2460768463
 30
0.0
 10
44.0723240817
 20
27.0167306784
 30
0.0
 10
43.9528407483
 20
26.6551580509
 30
0.0
 10
43.8960876917
 20
26.2877795503
 30
0.0
 10
43.9030315231
 20
25.9187630901
 30
0.0
 10
43.973500789
 20
25.5523085319
 30
0.0
 10
44.1064571695
 20
25.1924224505
 30
0.0
 10
44.3000918296
 20
24.842842495
 30
0.0
 10
44.463555198
 20
24.6248612521
 30
0.0
 10
44.5536481144
 20
24.5186220391
 30
0.0
  0
SPLINE
  5
334
100
AcDbEntity
  8
0
100
AcDbSpline
 62
7
  6
BYLAYER
 70
0
 71
3
 72
15
 73
11
 74
0
 42
0.0000001
 43
0.0000001
 44
0.0000000001
 40
0.0
 40
0.0
 40
0.0
 40
0.0
 40
0.1021394647
 40
0.2115274829
 40
0.3282233478
 40
0.4518940086
 40
0.5818921546
 40
0.7173229291
 40
0.8571009557
 40
1.0
 40
1.0
 40
1.0
 40
1.0
 10
44.5536481144
 20
24.5186220391
 30
0.0
 10
44.6699501068
 20
24.3814766048
 30
0.0
 10
44.9329821976
 20
24.1158048733
 30
0.0
 10
45.3903486196
 20
23.7605168818
 30
0.0
 10
45.9172329071
 20
23.4395640884
 30
0.0
 10
46.5061139121
 20
23.1573712189
 30
0.0
 10
47.1487518034
 20
22.9177427761
 30
0.0
 10
47.8361013181
 20
22.7240146868
 30
0.0
 10
48.558407882
 20
22.5789040365
 30
0.0
 10
49.0526325446
 20
22.5164365015
 30
0.0
 10
49.3031702748
 20
22.4935838925
 30
0.0
  0
SPLINE
  5
335
100
AcDbEntity
  8
0
100
AcDbSpline
 62
7
  6
BYLAYER
 70
0
 71
3
 72
15
 73
11
 74
0
 42
0.0000001
 43
0.0000001
 44
0.0000000001
 40
0.0
 40
0.0
 40
0.0
 40
0.0
 40
0.131664263
 40
0.2637316282
 40
0.3949840948
 40
0.5242261436
 40
0.6503231156
 40
0.7722215016
 40
0.8890393447
 40
1.0
 40
1.0
 40
1.0
 40
1.0
 10
49.3031702748
 20
22.4935838925
 30
0.0
 10
49.5524092156
 20
22.4708497517
 30
0.0
 10
50.053390175
 20
22.4426111268
 30
0.0
 10
50.8046901361
 20
22.4512323924
 30
0.0
 10
51.549126051
 20
22.510520882
 30
0.0
 10
52.2764455409
 20
22.619669917
 30
0.0
 10
52.9766706818
 20
22.7771957855
 30
0.0
 10
53.640301483
 20
22.9809291592
 30
0.0
 10
54.2581340887
 20
23.2281296852
 30
0.0
 10
54.6446005586
 20
23.4251127643
 30
0.0
 10
54.8272622505
 20
23.5305719118
 30
0.0
  0
SPLINE
  5
336
100
AcDbEntity
  8
0
100
AcDbSpline
 62
7
  6
BYLAYER
 70
0
 71
3
 72
20
 73
16
 74
0
 42
0.0000001
 43
0.0000001
 44
0.0000000001
 40
0.0
 40
0.0
 40
0.0
 40
0.0
 40
0.1517723828
 40
0.2920887753
 40
0.4214796446
 40
0.4826333338
 40
0.5417855802
 40
0.5993359919
 40
0.6557514388
 40
0.711548676
 40
0.7672749534
 40
0.8234804607
 40
0.8806934433
 40
0.939393637
 40
1.0
 40
1.0
 40
1.0
 40
1.0
 10
54.8272622505
 20
23.5305719118
 30
0.0
 10
55.0323900495
 20
23.6490017948
 30
0.0
 10
55.4144549802
 20
23.900441946
 30
0.0
 10
55.9094698771
 20
24.3371425644
 30
0.0
 10
56.2368185278
 20
24.7405783201
 30
0.0
 10
56.4349488601
 20
25.0768425663
 30
0.0
 10
56.5502442163
 20
25.3299427597
 30
0.0
 10
56.6342931771
 20
25.5873315746
 30
0.0
 10
56.6866015751
 20
25.8476980076
 30
0.0
 10
56.7068433346
 20
26.1096614523
 30
0.0
 10
56.694857718
 20
26.371806673
 30
0.0
 10
56.6507675361
 20
26.6327176071
 30
0.0
 10
56.5747972825
 20
26.8909997619
 30
0.0
 10
56.4674962057
 20
27.145307052
 30
0.0
 10
56.3770157408
 20
27.3084819531
 30
0.0
 10
56.3271665549
 20
27.3888637565
 30
0.0
  0
SPLINE
  5
337
100
AcDbEntity
  8
0
100
AcDbSpline
 62
7
  6
BYLAYER
 70
0
 71
3
 72
16
 73
12
 74
0
 42
0.0000001
 43
0.0000001
 44
0.0000000001
 40
0.0
 40
0.0
 40
0.0
 40
0.0
 40
0.1091837744
 40
0.2190505321
 40
0.3320364305
 40
0.4502547405
 40
0.5118961411
 40
0.5754029825
 40
0.7083951305
 40
0.8499271111
 40
1.0
 40
1.0
 40
1.0
 40
1.0
 10
55.3858842979
 20
26.3753831022
 30
0.0
 10
55.4002727594
 20
26.2703137473
 30
0.0
 10
55.4096303995
 20
26.0562799412
 30
0.0
 10
55.3627326689
 20
25.7353940817
 30
0.0
 10
55.2558373104
 20
25.4200374678
 30
0.0
 10
55.1201223291
 20
25.1686038401
 30
0.0
 10
54.9852527247
 20
24.9742791266
 30
0.0
 10
54.8279145374
 20
24.7788124053
 30
0.0
 10
54.5963937071
 20
24.5446402887
 30
0.0
 10
54.2733300723
 20
24.2870511369
 30
0.0
 10
54.0342564114
 20
24.1341673101
 30
0.0
 10
53.9080196078
 20
24.0612848926
 30
0.0
  0
SPLINE
  5
338
100
AcDbEntity
  8
0
100
AcDbSpline
 62
7
  6
BYLAYER
 70
0
 71
3
 72
9
 73
5
 74
0
 42
0.0000001
 43
0.0000001
 44
0.0000000001
 40
0.0
 40
0.0
 40
0.0
 40
0.0
 40
0.4845410277
 40
1.0
 40
1.0
 40
1.0
 40
1.0
 10
53.9080196078
 20
24.0612848926
 30
0.0
 10
53.7234578587
 20
23.9547287532
 30
0.0
 10
53.3277971888
 20
23.7598692732
 30
0.0
 10
52.9132899344
 20
23.6102232436
 30
0.0
 10
52.6965650846
 20
23.5436759532
 30
0.0
  0
SPLINE
  5
339
100
AcDbEntity
  8
0
100
AcDbSpline
 62
7
  6
BYLAYER
 70
0
 71
3
 72
15
 73
11
 74
0
 42
0.0000001
 43
0.0000001
 44
0.0000000001
 40
0.0
 40
0.0
 40
0.0
 40
0.0
 40
0.1206906153
 40
0.2450350389
 40
0.3718776827
 40
0.499993108
 40
0.6281087291
 40
0.7549553104
 40
0.8793030886
 40
1.0
 40
1.0
 40
1.0
 40
1.0
 10
52.6965650846
 20
23.5436759532
 30
0.0
 10
52.5098511145
 20
23.48634377
 30
0.0
 10
52.1257372957
 20
23.3858249222
 30
0.0
 10
51.5330341482
 20
23.2784627786
 30
0.0
 10
50.9221129509
 20
23.213395311
 30
0.0
 10
50.302043587
 20
23.1915810034
 30
0.0
 10
49.6819662566
 20
23.2133549767
 30
0.0
 10
49.0710294534
 20
23.2783893074
 30
0.0
 10
48.4782965867
 20
23.3857098512
 30
0.0
 10
48.0941607744
 20
23.4862075026
 30
0.0
 10
47.907433932
 20
23.543532476
 30
0.0
  0
SPLINE
  5
33A
100
AcDbEntity
  8
0
100
AcDbSpline
 62
7
  6
BYLAYER
 70
0
 71
3
 72
18
 73
14
 74
0
 42
0.0000001
 43
0.0000001
 44
0.0000000001
 40
0.0
 40
0.0
 40
0.0
 40
0.0
 40
0.1567825034
 40
0.304618325
 40
0.442442846
 40
0.5698441298
 40
0.6872495791
 40
0.7426854831
 40
0.7962621741
 40
0.8483390705
 40
0.8993354609
 40
0.9497227039
 40
1.0
 40
1.0
 40
1.0
 40
1.0
 10
47.907433932
 20
23.543532476
 30
0.0
 10
47.6993330529
 20
23.6074192595
 30
0.0
 10
47.3004446355
 20
23.7505376926
 30
0.0
 10
46.746321005
 20
24.0186082117
 30
0.0
 10
46.2624783502
 20
24.3295887748
 30
0.0
 10
45.858584789
 20
24.6776892077
 30
0.0
 10
45.5903443529
 20
25.0001105399
 30
0.0
 10
45.4270820666
 20
25.2693426406
 30
0.0
 10
45.3316190144
 20
25.4721081374
 30
0.0
 10
45.2613385794
 20
25.6784459719
 30
0.0
 10
45.2167437149
 20
25.8873320195
 30
0.0
 10
45.1980409665
 20
26.0975832345
 30
0.0
 10
45.2029618572
 20
26.2376853609
 30
0.0
 10
45.2096726753
 20
26.3071702111
 30
0.0
  0
SPLINE
  5
33B
100
AcDbEntity
  8
0
100
AcDbSpline
 62
7
  6
BYLAYER
 70
0
 71
3
 72
15
 73
11
 74
0
 42
0.0000001
 43
0.0000001
 44
0.0000000001
 40
0.0
 40
0.0
 40
0.0
 40
0.0
 40
0.1485855515
 40
0.2895083633
 40
0.4227232286
 40
0.5486425556
 40
0.6680017289
 40
0.7819390888
 40
0.8919878313
 40
1.0
 40
1.0
 40
1.0
 40
1.0
 10
55.6050829482
 20
22.1833544229
 30
0.0
 10
55.774233751
 20
22.2810131015
 30
0.0
 10
56.0961638947
 20
22.4850654832
 30
0.0
 10
56.5362831328
 20
22.825718808
 30
0.0
 10
56.9169626669
 20
23.1901031606
 30
0.0
 10
57.2344048798
 20
23.5748711368
 30
0.0
 10
57.4853759241
 20
23.9766234918
 30
0.0
 10
57.6670459405
 20
24.3917186107
 30
0.0
 10
57.777098721
 20
24.8159549979
 30
0.0
 10
57.8017520205
 20
25.1031762512
 30
0.0
 10
57.801751987
 20
25.2451600819
 30
0.0
  0
SPLINE
  5
33C
100
AcDbEntity
  8
0
100
AcDbSpline
 62
7
  6
BYLAYER
 70
0
 71
3
 72
26
 73
22
 74
0
 42
0.0000001
 43
0.0000001
 44
0.0000000001
 40
0.0
 40
0.0
 40
0.0
 40
0.0
 40
0.062551727
 40
0.1290193564
 40
0.1987037674
 40
0.2707324606
 40
0.344125256
 40
0.4178403216
 40
0.490822065
 40
0.562046911
 40
0.6305709841
 40
0.6955815639
 40
0.7564556157
 40
0.8128291843
 40
0.8646805515
 40
0.8890490651
 40
0.9124839972
 40
0.9351183103
 40
0.9571162199
 40
0.9786717452
 40
1.0
 40
1.0
 40
1.0
 40
1.0
 10
55.5715703082
 20
20.3678225673
 30
0.0
 10
55.3012168036
 20
20.2136948498
 30
0.0
 10
54.7225454624
 20
19.9318374896
 30
0.0
 10
53.7902237742
 20
19.5982646105
 30
0.0
 10
52.7839616425
 20
19.3464438371
 30
0.0
 10
51.7251365606
 20
19.1817571514
 30
0.0
 10
50.6361087589
 20
19.1076343512
 30
0.0
 10
49.5399882655
 20
19.1256593647
 30
0.0
 10
48.4600315462
 20
19.235445721
 30
0.0
 10
47.4191306223
 20
19.4346710197
 30
0.0
 10
46.4392774963
 20
19.7191543234
 30
0.0
 10
45.5410904609
 20
20.0829741398
 30
0.0
 10
44.7432926247
 20
20.5188173384
 30
0.0
 10
44.0626665079
 20
21.0179258798
 30
0.0
 10
43.5954636351
 20
21.4887657538
 30
0.0
 10
43.2992396525
 20
21.8872301964
 30
0.0
 10
43.1193257911
 20
22.1887209671
 30
0.0
 10
42.9781387136
 20
22.4973102903
 30
0.0
 10
42.8766356215
 20
22.8114039341
 30
0.0
 10
42.8154097359
 20
23.1291471745
 30
0.0
 10
42.8017685709
 20
23.342744428
 30
0.0
 10
42.8017679214
 20
23.4488547642
 30
0.0
  0
SPLINE
  5
33D
100
AcDbEntity
  8
0
100
AcDbSpline
 62
7
  6
BYLAYER
 70
0
 71
3
 72
26
 73
22
 74
0
 42
0.0000001
 43
0.0000001
 44
0.0000000001
 40
0.0
 40
0.0
 40
0.0
 40
0.0
 40
0.0213396058
 40
0.0428842798
 40
0.0648522529
 40
0.0874412974
 40
0.1108197152
 40
0.1351244465
 40
0.1868398609
 40
0.2430864405
 40
0.3038581559
 40
0.3688000911
 40
0.4372930159
 40
0.5085241528
 40
0.5815467394
 40
0.655332174
 40
0.7288184013
 40
0.8009559136
 40
0.8707569898
 40
0.9373417971
 40
1.0
 40
1.0
 40
1.0
 40
1.0
 10
43.0019878235
 20
22.3383195621
 30
0.0
 10
43.0006034737
 20
22.2348197308
 30
0.0
 10
43.0111426007
 20
22.026404393
 30
0.0
 10
43.0668927488
 20
21.7160173269
 30
0.0
 10
43.1621137886
 20
21.4090283945
 30
0.0
 10
43.2962453075
 20
21.1072647163
 30
0.0
 10
43.468366139
 20
20.8123000249
 30
0.0
 10
43.7530214513
 20
20.4222793265
 30
0.0
 10
44.2040865864
 20
19.9609864669
 30
0.0
 10
44.8634611113
 20
19.4715718944
 30
0.0
 10
45.6380765844
 20
19.0437275915
 30
0.0
 10
46.5115506449
 20
18.6860825855
 30
0.0
 10
47.4655826191
 20
18.4058539018
 30
0.0
 10
48.4799950064
 20
18.2089016854
 30
0.0
 10
49.5332444184
 20
18.0993794613
 30
0.0
 10
50.6028881437
 20
18.0796160232
 30
0.0
 10
51.6661105329
 20
18.1500367122
 30
0.0
 10
52.7002290221
 20
18.3091299332
 30
0.0
 10
53.6832920805
 20
18.5535617077
 30
0.0
 10
54.5942827806
 20
18.8780868585
 30
0.0
 10
55.1597982113
 20
19.1526513809
 30
0.0
 10
55.4240051747
 20
19.3028732793
 30
0.0
  0
SPLINE
  5
33E
100
AcDbEntity
  8
0
100
AcDbSpline
 62
7
  6
BYLAYER
 70
0
 71
3
 72
15
 73
11
 74
0
 42
0.0000001
 43
0.0000001
 44
0.0000000001
 40
0.0
 40
0.0
 40
0.0
 40
0.0
 40
0.14857218
 40
0.2894884567
 40
0.4227038703
 40
0.548629016
 40
0.6679964019
 40
0.781941401
 40
0.8919935963
 40
1.0
 40
1.0
 40
1.0
 40
1.0
 10
55.4636609873
 20
19.3255938813
 30
0.0
 10
55.6281723153
 20
19.4205739739
 30
0.0
 10
55.9412848762
 20
19.6190230853
 30
0.0
 10
56.3693879886
 20
19.9502977672
 30
0.0
 10
56.7397348869
 20
20.3046375237
 30
0.0
 10
57.0486365858
 20
20.678792021
 30
0.0
 10
57.2929528578
 20
21.0694596954
 30
0.0
 10
57.4699336317
 20
21.473106784
 30
0.0
 10
57.5773317541
 20
21.8856551224
 30
0.0
 10
57.601597283
 20
22.1649929818
 30
0.0
 10
57.6017485625
 20
22.3030874486
 30
0.0
  0
SPLINE
  5
33F
100
AcDbEntity
  8
0
100
AcDbSpline
 62
7
  6
BYLAYER
 70
0
 71
3
 72
25
 73
21
 74
0
 42
0.0000001
 43
0.0000001
 44
0.0000000001
 40
0.0
 40
0.0
 40
0.0
 40
0.0
 40
0.0612610289
 40
0.1262475674
 40
0.194348839
 40
0.2648082864
 40
0.3367668981
 40
0.4093041754
 40
0.481476535
 40
0.552355067
 40
0.6210632632
 40
0.6868170296
 40
0.7489690425
 40
0.8070603601
 40
0.8608816585
 40
0.9105448907
 40
0.9339861946
 40
0.9566158253
 40
0.9785671777
 40
1.0
 40
1.0
 40
1.0
 40
1.0
 10
55.2515280856
 20
19.4480660985
 30
0.0
 10
55.0129742881
 20
19.3103378215
 30
0.0
 10
54.503367561
 20
19.0569611439
 30
0.0
 10
53.6829406475
 20
18.7521404615
 30
0.0
 10
52.7973691524
 20
18.5159104881
 30
0.0
 10
51.8637782533
 20
18.352832792
 30
0.0
 10
50.9000659786
 20
18.2660084542
 30
0.0
 10
49.9248169473
 20
18.2571123106
 30
0.0
 10
48.9568380562
 20
18.3263153228
 30
0.0
 10
48.014789507
 20
18.4722849976
 30
0.0
 10
47.1167942448
 20
18.6922215121
 30
0.0
 10
46.2800632825
 20
18.9819492437
 30
0.0
 10
45.5205671789
 20
19.3360241432
 30
0.0
 10
44.8526862841
 20
19.7480350179
 30
0.0
 10
44.2892419043
 20
20.2105202549
 30
0.0
 10
43.9085665137
 20
20.6399849474
 30
0.0
 10
43.6712366568
 20
20.9998492558
 30
0.0
 10
43.5290431381
 20
21.2712900602
 30
0.0
 10
43.420059877
 20
21.548000355
 30
0.0
 10
43.3694943236
 20
21.7369466457
 30
0.0
 10
43.350161719
 20
21.8313594685
 30
0.0
  0
SPLINE
  5
340
100
AcDbEntity
  8
0
100
AcDbSpline
 62
7
  6
BYLAYER
 70
0
 71
3
 72
14
 73
10
 74
0
 42
0.0000001
 43
0.0000001
 44
0.0000000001
 40
0.0
 40
0.0
 40
0.0
 40
0.0
 40
0.1079858692
 40
0.2193561823
 40
0.335131272
 40
0.4561105887
 40
0.7154438856
 40
0.8546312734
 40
1.0
 40
1.0
 40
1.0
 40
1.0
 10
57.2424480377
 20
21.7808093382
 30
0.0
 10
57.217343558
 20
21.6701786228
 30
0.0
 10
57.1506317122
 20
21.4487417863
 30
0.0
 10
57.0055838306
 20
21.1269767661
 30
0.0
 10
56.8155415354
 20
20.813502287
 30
0.0
 10
56.4967865987
 20
20.4000852862
 30
0.0
 10
56.0978193226
 20
20.0221462778
 30
0.0
 10
55.6376427558
 20
19.6829856545
 30
0.0
 10
55.3837837618
 20
19.524423493
 30
0.0
 10
55.2515280856
 20
19.4480660985
 30
0.0
  0
SPLINE
  5
341
100
AcDbEntity
  8
0
100
AcDbSpline
 62
7
  6
BYLAYER
 70
0
 71
3
 72
15
 73
11
 74
0
 42
0.0000001
 43
0.0000001
 44
0.0000000001
 40
0.0
 40
0.0
 40
0.0
 40
0.0
 40
0.1485858122
 40
0.2895083047
 40
0.4227231685
 40
0.5486426044
 40
0.6680017219
 40
0.7819390613
 40
0.8919878306
 40
1.0
 40
1.0
 40
1.0
 40
1.0
 10
55.6050829482
 20
19.0806452379
 30
0.0
 10
55.7742340504
 20
19.1783040893
 30
0.0
 10
56.0961642759
 20
19.3823562183
 30
0.0
 10
56.5362832492
 20
19.7230098018
 30
0.0
 10
56.916962417
 20
20.0873940935
 30
0.0
 10
57.2344052195
 20
20.4721616825
 30
0.0
 10
57.4853759847
 20
20.8739143536
 30
0.0
 10
57.6670454135
 20
21.2890095454
 30
0.0
 10
57.7770995551
 20
21.7132456851
 30
0.0
 10
57.8017517116
 20
22.000467063
 30
0.0
 10
57.8017520748
 20
22.1424508968
 30
0.0
  0
SPLINE
  5
342
100
AcDbEntity
  8
0
100
AcDbSpline
 62
7
  6
BYLAYER
 70
0
 71
3
 72
25
 73
21
 74
0
 42
0.0000001
 43
0.0000001
 44
0.0000000001
 40
0.0
 40
0.0
 40
0.0
 40
0.0
 40
0.0213602338
 40
0.0431770991
 40
0.065623457
 40
0.0888453727
 40
0.1380097504
 40
0.1913273172
 40
0.2489742379
 40
0.3107829883
 40
0.376318258
 40
0.444942253
 40
0.5158694225
 40
0.5882134683
 40
0.6610295222
 40
0.7333536947
 40
0.8042419805
 40
0.8728095483
 40
0.9382738218
 40
1.0
 40
1.0
 40
1.0
 40
1.0
 10
42.8322840215
 20
21.7522011837
 30
0.0
 10
42.8483030668
 20
21.6500258116
 30
0.0
 10
42.8932765838
 20
21.4452656434
 30
0.0
 10
42.9972978135
 20
21.1443496451
 30
0.0
 10
43.1378479309
 20
20.8486475706
 30
0.0
 10
43.3772675051
 20
20.4560191057
 30
0.0
 10
43.7694270048
 20
19.9857979777
 30
0.0
 10
44.3587409438
 20
19.4777104878
 30
0.0
 10
45.0639343581
 20
19.0233425993
 30
0.0
 10
45.8712093416
 20
18.6310052778
 30
0.0
 10
46.765025945
 20
18.3078823873
 30
0.0
 10
47.7280433769
 20
18.0601317035
 30
0.0
 10
48.7414947266
 20
17.8925304792
 30
0.0
 10
49.7855497347
 20
17.8083469725
 30
0.0
 10
50.8397338542
 20
17.8092290171
 30
0.0
 10
51.8833643025
 20
17.8951609474
 30
0.0
 10
52.8959614714
 20
18.0644534875
 30
0.0
 10
53.8577657813
 20
18.313833285
 30
0.0
 10
54.7498540711
 20
18.6383926275
 30
0.0
 10
55.3045301316
 20
18.9095799568
 30
0.0
 10
55.5643406748
 20
19.0573021535
 30
0.0
  0
SPLINE
  5
343
100
AcDbEntity
  8
0
100
AcDbSpline
 62
7
  6
BYLAYER
 70
0
 71
3
 72
10
 73
6
 74
0
 42
0.0000001
 43
0.0000001
 44
0.0000000001
 40
0.0
 40
0.0
 40
0.0
 40
0.0
 40
0.2461731151
 40
0.4939647384
 40
1.0
 40
1.0
 40
1.0
 40
1.0
 10
57.8017520978
 20
23.4488547642
 30
0.0
 10
57.8017526065
 20
23.3657451881
 30
0.0
 10
57.7934099351
 20
23.1988386401
 30
0.0
 10
57.743178423
 20
22.8646094688
 30
0.0
 10
57.6682259457
 20
22.6193006408
 30
0.0
 10
57.6039745564
 20
22.4610025417
 30
0.0
  0
SPLINE
  5
344
100
AcDbEntity
  8
0
100
AcDbSpline
 62
7
  6
BYLAYER
 70
0
 71
3
 72
13
 73
9
 74
0
 42
0.0000001
 43
0.0000001
 44
0.0000000001
 40
0.0
 40
0.0
 40
0.0
 40
0.0
 40
0.1094720944
 40
0.2226058942
 40
0.3399568733
 40
0.4619346448
 40
0.7206780524
 40
1.0
 40
1.0
 40
1.0
 40
1.0
 10
57.6039745564
 20
22.4610025417
 30
0.0
 10
57.5642046832
 20
22.3630202973
 30
0.0
 10
57.4723589705
 20
22.1680752111
 30
0.0
 10
57.3027539055
 20
21.8863031054
 30
0.0
 10
57.1000956794
 20
21.6121175822
 30
0.0
 10
56.7810316866
 20
21.2513160942
 30
0.0
 10
56.3010758022
 20
20.8276687471
 30
0.0
 10
55.8666097817
 20
20.5395872057
 30
0.0
 10
55.6335773103
 20
20.403589105
 30
0.0
  0
SPLINE
  5
345
100
AcDbEntity
  8
0
100
AcDbSpline
 62
7
  6
BYLAYER
 70
0
 71
3
 72
25
 73
21
 74
0
 42
0.0000001
 43
0.0000001
 44
0.0000000001
 40
0.0
 40
0.0
 40
0.0
 40
0.0
 40
0.0214064438
 40
0.0429904846
 40
0.064922256
 40
0.0873587157
 40
0.1342262947
 40
0.1844962883
 40
0.2386505418
 40
0.2968431726
 40
0.3589554861
 40
0.4246512838
 40
0.4934253254
 40
0.5646444244
 40
0.6375828424
 40
0.7114537707
 40
0.7854386019
 40
0.8587146588
 40
0.9304838594
 40
1.0
 40
1.0
 40
1.0
 40
1.0
 10
42.8017680321
 20
25.2451600819
 30
0.0
 10
42.8017680542
 20
25.151684803
 30
0.0
 10
42.8123271789
 20
24.9637892432
 30
0.0
 10
42.8597753785
 20
24.6837408227
 30
0.0
 10
42.9385453063
 20
24.4061398527
 30
0.0
 10
43.0869313271
 20
24.0357381954
 30
0.0
 10
43.3535712294
 20
23.582871931
 30
0.0
 10
43.7842451412
 20
23.0782855235
 30
0.0
 10
44.3223449548
 20
22.6114190412
 30
0.0
 10
44.9587203988
 20
22.1893393659
 30
0.0
 10
45.6829565823
 20
21.8183850487
 30
0.0
 10
46.483242144
 20
21.5043827222
 30
0.0
 10
47.346493053
 20
21.2523547687
 30
0.0
 10
48.2585347778
 20
21.0663979685
 30
0.0
 10
49.2043398602
 20
20.9495609982
 30
0.0
 10
50.1682914389
 20
20.9037695812
 30
0.0
 10
51.1344446074
 20
20.9297797404
 30
0.0
 10
52.0868510235
 20
21.0271673768
 30
0.0
 10
53.0096779324
 20
21.1942995509
 30
0.0
 10
53.6066442874
 20
21.3534954164
 30
0.0
 10
53.8961548159
 20
21.4447615459
 30
0.0
  0
SPLINE
  5
346
100
AcDbEntity
  8
0
100
AcDbSpline
 62
7
  6
BYLAYER
 70
0
 71
3
 72
9
 73
5
 74
0
 42
0.0000001
 43
0.0000001
 44
0.0000000001
 40
0.0
 40
0.0
 40
0.0
 40
0.0
 40
0.514664748
 40
1.0
 40
1.0
 40
1.0
 40
1.0
 10
53.9482383526
 20
21.4613358086
 30
0.0
 10
54.2438529766
 20
21.5562928464
 30
0.0
 10
54.8101270467
 20
21.7674411076
 30
0.0
 10
55.3515127996
 20
22.0369565033
 30
0.0
 10
55.6050829482
 20
22.1833544229
 30
0.0
  0
SPLINE
  5
347
100
AcDbEntity
  8
0
100
AcDbSpline
 62
7
  6
BYLAYER
 70
0
 71
3
 72
26
 73
22
 74
0
 42
0.0000001
 43
0.0000001
 44
0.0000000001
 40
0.0
 40
0.0
 40
0.0
 40
0.0
 40
0.0644315923
 40
0.1332889728
 40
0.2056407447
 40
0.2803679268
 40
0.3561999747
 40
0.431813729
 40
0.5058953167
 40
0.5772149938
 40
0.64470309
 40
0.7075374899
 40
0.7652480982
 40
0.8178437752
 40
0.8659534382
 40
0.8887679609
 40
0.9110256888
 40
0.9329944047
 40
0.9549587331
 40
0.9772046828
 40
1.0
 40
1.0
 40
1.0
 40
1.0
 10
52.3806626001
 20
32.4385771145
 30
0.0
 10
52.263786859
 20
32.3710992767
 30
0.0
 10
52.0116918494
 20
32.2489545552
 30
0.0
 10
51.6035693213
 20
32.1086463521
 30
0.0
 10
51.161796451
 20
32.0079495643
 30
0.0
 10
50.6978572226
 20
31.9494382509
 30
0.0
 10
50.2236638612
 20
31.9346299599
 30
0.0
 10
49.7514941136
 20
31.9638940877
 30
0.0
 10
49.293543596
 20
32.0364835387
 30
0.0
 10
48.8616130856
 20
32.1505340157
 30
0.0
 10
48.4667659205
 20
32.3031720103
 30
0.0
 10
48.1190356202
 20
32.4906283121
 30
0.0
 10
47.8272074591
 20
32.7085675635
 30
0.0
 10
47.5988587514
 20
32.952028418
 30
0.0
 10
47.4646929118
 20
33.1763289737
 30
0.0
 10
47.3982751573
 20
33.360398323
 30
0.0
 10
47.3686171097
 20
33.4981111994
 30
0.0
 10
47.3585014769
 20
33.6368393682
 30
0.0
 10
47.3680558919
 20
33.775592395
 30
0.0
 10
47.3971707481
 20
33.9133187929
 30
0.0
 10
47.4289633834
 20
34.0024761816
 30
0.0
 10
47.4477701839
 20
34.0463625691
 30
0.0
  0
SPLINE
  5
348
100
AcDbEntity
  8
0
100
AcDbSpline
 62
7
  6
BYLAYER
 70
0
 71
3
 72
15
 73
11
 74
0
 42
0.0000001
 43
0.0000001
 44
0.0000000001
 40
0.0
 40
0.0
 40
0.0
 40
0.0
 40
0.1234646021
 40
0.2391795537
 40
0.3511631904
 40
0.4641601886
 40
0.5827148415
 40
0.7103226086
 40
0.8491751738
 40
1.0
 40
1.0
 40
1.0
 40
1.0
 10
52.9958647913
 20
34.318341543
 30
0.0
 10
53.0514932089
 20
34.244832315
 30
0.0
 10
53.1464210231
 20
34.0917725661
 30
0.0
 10
53.2318260408
 20
33.8412682803
 30
0.0
 10
53.2512959148
 20
33.5847516556
 30
0.0
 10
53.2037847794
 20
33.3298767362
 30
0.0
 10
53.0915536544
 20
33.0837518108
 30
0.0
 10
52.918700926
 20
32.8517538928
 30
0.0
 10
52.689881149
 20
32.6382958046
 30
0.0
 10
52.5106576612
 20
32.5157736249
 30
0.0
 10
52.4139338881
 20
32.458098658
 30
0.0
  0
SPLINE
  5
349
100
AcDbEntity
  8
0
100
AcDbSpline
 62
7
  6
BYLAYER
 70
0
 71
3
 72
10
 73
6
 74
0
 42
0.0000001
 43
0.0000001
 44
0.0000000001
 40
0.0
 40
0.0
 40
0.0
 40
0.0
 40
0.250135117
 40
0.6265431622
 40
1.0
 40
1.0
 40
1.0
 40
1.0
 10
52.4938001534
 20
32.3079383999
 30
0.0
 10
52.49673725
 20
32.3096341233
 30
0.0
 10
52.5040354516
 20
32.313982438
 30
0.0
 10
52.5158411834
 20
32.320652854
 30
0.0
 10
52.5245330783
 20
32.3259290684
 30
0.0
 10
52.5288821236
 20
32.3285223403
 30
0.0
  0
SPLINE
  5
34A
100
AcDbEntity
  8
0
100
AcDbSpline
 62
7
  6
BYLAYER
 70
0
 71
3
 72
15
 73
11
 74
0
 42
0.0000001
 43
0.0000001
 44
0.0000000001
 40
0.0
 40
0.0
 40
0.0
 40
0.0
 40
0.128760454
 40
0.2706332326
 40
0.4178843929
 40
0.5623921083
 40
0.6962100651
 40
0.813594429
 40
0.9130639332
 40
1.0
 40
1.0
 40
1.0
 40
1.0
 10
48.9936034853
 20
129.5329014645
 30
0.0
 10
48.9492143494
 20
129.5585289755
 30
0.0
 10
48.848611469
 20
129.5999632457
 30
0.0
 10
48.684748692
 20
129.6328521118
 30
0.0
 10
48.5113626722
 20
129.6375722902
 30
0.0
 10
48.3427714499
 20
129.6139472975
 30
0.0
 10
48.1923661504
 20
129.5636674582
 30
0.0
 10
48.0718955988
 20
129.4902499763
 30
0.0
 10
47.9902805449
 20
129.3974328905
 30
0.0
 10
47.9693665812
 20
129.3225617722
 30
0.0
 10
47.9693509155
 20
129.287955
 30
0.0
  0
SPLINE
  5
34B
100
AcDbEntity
  8
0
100
AcDbSpline
 62
7
  6
BYLAYER
 70
0
 71
3
 72
12
 73
8
 74
0
 42
0.0000001
 43
0.0000001
 44
0.0000000001
 40
0.0
 40
0.0
 40
0.0
 40
0.0
 40
0.1017314034
 40
0.2065416479
 40
0.433878408
 40
0.6965629123
 40
1.0
 40
1.0
 40
1.0
 40
1.0
 10
47.2529185242
 20
47.4352945544
 30
0.0
 10
47.252922925
 20
47.3767790432
 30
0.0
 10
47.2657339462
 20
47.257635043
 30
0.0
 10
47.3422553597
 20
47.018599634
 30
0.0
 10
47.5375902044
 20
46.7290861503
 30
0.0
 10
47.8947216332
 20
46.4377118277
 30
0.0
 10
48.1882824525
 20
46.2914494366
 30
0.0
 10
48.3499584391
 20
46.2256950739
 30
0.0
  0
SPLINE
  5
34C
100
AcDbEntity
  8
0
100
AcDbSpline
 62
7
  6
BYLAYER
 70
0
 71
3
 72
15
 73
11
 74
0
 42
0.0000001
 43
0.0000001
 44
0.0000000001
 40
0.0
 40
0.0
 40
0.0
 40
0.0
 40
0.1148696493
 40
0.2379306345
 40
0.3668019416
 40
0.4989005814
 40
0.631186486
 40
0.7605580206
 40
0.8841613773
 40
1.0
 40
1.0
 40
1.0
 40
1.0
 10
48.3499584391
 20
46.2256950739
 30
0.0
 10
48.5013342764
 20
46.164129829
 30
0.0
 10
48.8244662826
 20
46.0595442119
 30
0.0
 10
49.3377082264
 20
45.9595004472
 30
0.0
 10
49.8835648286
 20
45.91675
 30
0.0
 10
50.4437852527
 20
45.934834661
 30
0.0
 10
50.9997870622
 20
46.0107789194
 30
0.0
 10
51.5329371544
 20
46.1428175796
 30
0.0
 10
52.0247549692
 20
46.3295606171
 30
0.0
 10
52.3243269213
 20
46.4948913388
 30
0.0
 10
52.4616899705
 20
46.5859339156
 30
0.0
  0
SPLINE
  5
34D
100
AcDbEntity
  8
0
100
AcDbSpline
 62
7
  6
BYLAYER
 70
0
 71
3
 72
11
 73
7
 74
0
 42
0.0000001
 43
0.0000001
 44
0.0000000001
 40
0.0
 40
0.0
 40
0.0
 40
0.0
 40
0.2830730845
 40
0.5410534975
 40
0.7768673751
 40
1.0
 40
1.0
 40
1.0
 40
1.0
 10
52.4616899705
 20
46.5859339156
 30
0.0
 10
52.5949350041
 20
46.6742471211
 30
0.0
 10
52.8370204139
 20
46.8636798793
 30
0.0
 10
53.1256428578
 20
47.1986111999
 30
0.0
 10
53.3085837947
 20
47.5655715076
 30
0.0
 10
53.3492575231
 20
47.8265101103
 30
0.0
 10
53.3493704628
 20
47.9525155197
 30
0.0
  0
SPLINE
  5
34E
100
AcDbEntity
  8
0
100
AcDbSpline
 62
7
  6
BYLAYER
 70
0
 71
3
 72
13
 73
9
 74
0
 42
0.0000001
 43
0.0000001
 44
0.0000000001
 40
0.0
 40
0.0
 40
0.0
 40
0.0
 40
0.10147105
 40
0.2060061559
 40
0.316497833
 40
0.4348471923
 40
0.6983730943
 40
1.0
 40
1.0
 40
1.0
 40
1.0
 10
47.2531201496
 20
37.8693373882
 30
0.0
 10
47.2531266846
 20
37.8115473482
 30
0.0
 10
47.2655373683
 20
37.6938333555
 30
0.0
 10
47.3222319137
 20
37.5214582602
 30
0.0
 10
47.415502292
 20
37.354907947
 30
0.0
 10
47.5911647746
 20
37.1350350545
 30
0.0
 10
47.8965370168
 20
36.8867904725
 30
0.0
 10
48.1847751736
 20
36.7391273915
 30
0.0
 10
48.3435480413
 20
36.673547852
 30
0.0
  0
SPLINE
  5
34F
100
AcDbEntity
  8
0
100
AcDbSpline
 62
7
  6
BYLAYER
 70
0
 71
3
 72
15
 73
11
 74
0
 42
0.0000001
 43
0.0000001
 44
0.0000000001
 40
0.0
 40
0.0
 40
0.0
 40
0.0
 40
0.1125641842
 40
0.232838828
 40
0.3588320397
 40
0.4883622142
 40
0.6192300239
 40
0.7493706915
 40
0.876905102
 40
1.0
 40
1.0
 40
1.0
 40
1.0
 10
48.3435480413
 20
36.673547852
 30
0.0
 10
48.4716431993
 20
36.6206394326
 30
0.0
 10
48.7442006334
 20
36.529129893
 30
0.0
 10
49.1765643372
 20
36.4349863058
 30
0.0
 10
49.6366884253
 20
36.380243698
 30
0.0
 10
50.1128651182
 20
36.3669339654
 30
0.0
 10
50.5934707458
 20
36.3968759346
 30
0.0
 10
51.0666350933
 20
36.4723092387
 30
0.0
 10
51.5210733908
 20
36.5902674005
 30
0.0
 10
51.8111616362
 20
36.6974713551
 30
0.0
 10
51.950117516
 20
36.7579768228
 30
0.0
  0
SPLINE
  5
350
100
AcDbEntity
  8
0
100
AcDbSpline
 62
7
  6
BYLAYER
 70
0
 71
3
 72
13
 73
9
 74
0
 42
0.0000001
 43
0.0000001
 44
0.0000000001
 40
0.0
 40
0.0
 40
0.0
 40
0.0
 40
0.2433822354
 40
0.3769114908
 40
0.5130399289
 40
0.7748621892
 40
0.8935748002
 40
1.0
 40
1.0
 40
1.0
 40
1.0
 10
48.1450788806
 20
54.7412889009
 30
0.0
 10
48.2129153369
 20
54.7015225437
 30
0.0
 10
48.3309112074
 20
54.6613908133
 30
0.0
 10
48.4954010955
 20
54.6400518876
 30
0.0
 10
48.6674046875
 20
54.6383945728
 30
0.0
 10
48.8343775137
 20
54.6676095144
 30
0.0
 10
48.9795102083
 20
54.7297437263
 30
0.0
 10
49.0407095578
 20
54.770225306
 30
0.0
 10
49.0668308131
 20
54.7925851219
 30
0.0
  0
SPLINE
  5
351
100
AcDbEntity
  8
0
100
AcDbSpline
 62
7
  6
BYLAYER
 70
0
 71
3
 72
13
 73
9
 74
0
 42
0.0000001
 43
0.0000001
 44
0.0000000001
 40
0.0
 40
0.0
 40
0.0
 40
0.0
 40
0.260946006
 40
0.3922307004
 40
0.5207668402
 40
0.6454913983
 40
0.7667846043
 40
1.0
 40
1.0
 40
1.0
 40
1.0
 10
51.8074702016
 20
52.8250200142
 30
0.0
 10
51.7803313484
 20
52.782606164
 30
0.0
 10
51.7427046582
 20
52.7168417219
 30
0.0
 10
51.6954176371
 20
52.6281832698
 30
0.0
 10
51.6616802539
 20
52.5620832399
 30
0.0
 10
51.6333163319
 20
52.4954500918
 30
0.0
 10
51.6084273618
 20
52.4061359341
 30
0.0
 10
51.6053337707
 20
52.3364971171
 30
0.0
 10
51.609779915
 20
52.2917150376
 30
0.0
  0
SPLINE
  5
352
100
AcDbEntity
  8
0
100
AcDbSpline
 62
7
  6
BYLAYER
 70
0
 71
3
 72
10
 73
6
 74
0
 42
0.0000001
 43
0.0000001
 44
0.0000000001
 40
0.0
 40
0.0
 40
0.0
 40
0.0
 40
0.2605577686
 40
0.5193888379
 40
1.0
 40
1.0
 40
1.0
 40
1.0
 10
50.7665157528
 20
50.2765290241
 30
0.0
 10
50.6377141299
 20
50.3077588066
 30
0.0
 10
50.3766686637
 20
50.3537874407
 30
0.0
 10
49.8683479906
 20
50.3826114276
 30
0.0
 10
49.4891782234
 20
50.334776027
 30
0.0
 10
49.2541848829
 20
50.2673888268
 30
0.0
  0
SPLINE
  5
353
100
AcDbEntity
  8
0
100
AcDbSpline
 62
7
  6
BYLAYER
 70
0
 71
3
 72
14
 73
10
 74
0
 42
0.0000001
 43
0.0000001
 44
0.0000000001
 40
0.0
 40
0.0
 40
0.0
 40
0.0
 40
0.1015787472
 40
0.2061491069
 40
0.3162515702
 40
0.4341409659
 40
0.5612767418
 40
0.6981296646
 40
1.0
 40
1.0
 40
1.0
 40
1.0
 10
47.2549785998
 20
36.796379054
 30
0.0
 10
47.2561858663
 20
36.739012921
 30
0.0
 10
47.2705137409
 20
36.6225219319
 30
0.0
 10
47.3270655679
 20
36.4519728379
 30
0.0
 10
47.4184555115
 20
36.286692719
 30
0.0
 10
47.5443330047
 20
36.1294373619
 30
0.0
 10
47.7025162807
 20
35.9818318073
 30
0.0
 10
47.9612747073
 20
35.7932393621
 30
0.0
 10
48.1839187942
 20
35.6800426373
 30
0.0
 10
48.341387252
 20
35.6146213099
 30
0.0
  0
SPLINE
  5
354
100
AcDbEntity
  8
0
100
AcDbSpline
 62
7
  6
BYLAYER
 70
0
 71
3
 72
13
 73
9
 74
0
 42
0.0000001
 43
0.0000001
 44
0.0000000001
 40
0.0
 40
0.0
 40
0.0
 40
0.0
 40
0.2365514436
 40
0.3655458482
 40
0.4977557939
 40
0.7590111569
 40
0.8831015885
 40
1.0
 40
1.0
 40
1.0
 40
1.0
 10
48.341387252
 20
35.6146213099
 30
0.0
 10
48.6494568025
 20
35.486631748
 30
0.0
 10
49.1568393617
 20
35.3605473465
 30
0.0
 10
49.8572014762
 20
35.3051318735
 30
0.0
 10
50.5947321506
 20
35.3224587909
 30
0.0
 10
51.3207388251
 20
35.4507053943
 30
0.0
 10
51.9853056222
 20
35.699957735
 30
0.0
 10
52.2866078733
 20
35.8601097191
 30
0.0
 10
52.4257007613
 20
35.9486027404
 30
0.0
  0
SPLINE
  5
355
100
AcDbEntity
  8
0
100
AcDbSpline
 62
7
  6
BYLAYER
 70
0
 71
3
 72
11
 73
7
 74
0
 42
0.0000001
 43
0.0000001
 44
0.0000000001
 40
0.0
 40
0.0
 40
0.0
 40
0.0
 40
0.2794984339
 40
0.5376820224
 40
0.7760892825
 40
1.0
 40
1.0
 40
1.0
 40
1.0
 10
52.4257007613
 20
35.9486027404
 30
0.0
 10
52.5397718236
 20
36.0211764937
 30
0.0
 10
52.7506779058
 20
36.1751222884
 30
0.0
 10
53.0163116613
 20
36.4432468948
 30
0.0
 10
53.2091999762
 20
36.7365078709
 30
0.0
 10
53.2885240204
 20
36.9481582736
 30
0.0
 10
53.3137637463
 20
37.0534876804
 30
0.0
  0
SPLINE
  5
356
100
AcDbEntity
  8
0
100
AcDbSpline
 62
7
  6
BYLAYER
 70
0
 71
3
 72
9
 73
5
 74
0
 42
0.0000001
 43
0.0000001
 44
0.0000000001
 40
0.0
 40
0.0
 40
0.0
 40
0.0
 40
0.252161708
 40
1.0
 40
1.0
 40
1.0
 40
1.0
 10
53.3137637463
 20
37.0534876804
 30
0.0
 10
53.3196103414
 20
37.0778864552
 30
0.0
 10
53.3400492061
 20
37.1752798849
 30
0.0
 10
53.349156213
 20
37.2750728907
 30
0.0
 10
53.3492254143
 20
37.3494810117
 30
0.0
  0
SPLINE
  5
357
100
AcDbEntity
  8
0
100
AcDbSpline
 62
7
  6
BYLAYER
 70
0
 71
3
 72
13
 73
9
 74
0
 42
0.0000001
 43
0.0000001
 44
0.0000000001
 40
0.0
 40
0.0
 40
0.0
 40
0.0
 40
0.1010551804
 40
0.205207367
 40
0.3154449941
 40
0.4337281682
 40
0.6976308167
 40
1.0
 40
1.0
 40
1.0
 40
1.0
 10
47.2533524467
 20
49.5453290426
 30
0.0
 10
47.2533628521
 20
49.4866301123
 30
0.0
 10
47.2661255405
 20
49.367037217
 30
0.0
 10
47.3242968474
 20
49.1919579338
 30
0.0
 10
47.420387484
 20
49.0230629598
 30
0.0
 10
47.6015387406
 20
48.8003534779
 30
0.0
 10
47.9160993418
 20
48.5499821583
 30
0.0
 10
48.2121847661
 20
48.4021250109
 30
0.0
 10
48.3751991988
 20
48.3367516646
 30
0.0
  0
SPLINE
  5
358
100
AcDbEntity
  8
0
100
AcDbSpline
 62
7
  6
BYLAYER
 70
0
 71
3
 72
19
 73
15
 74
0
 42
0.0000001
 43
0.0000001
 44
0.0000000001
 40
0.0
 40
0.0
 40
0.0
 40
0.0
 40
0.1282891862
 40
0.2684027005
 40
0.4127491528
 40
0.5541084318
 40
0.6217035461
 40
0.6862016791
 40
0.747014722
 40
0.8038462774
 40
0.8569273762
 40
0.9067652219
 40
0.9541035384
 40
1.0
 40
1.0
 40
1.0
 40
1.0
 10
48.3751991988
 20
48.3367516646
 30
0.0
 10
48.6111821249
 20
48.242115912
 30
0.0
 10
49.1290595191
 20
48.1033584512
 30
0.0
 10
49.9465784322
 20
48.0278038341
 30
0.0
 10
50.7924833745
 20
48.0822513045
 30
0.0
 10
51.477434925
 20
48.2455434094
 30
0.0
 10
51.9833702122
 20
48.4417009664
 30
0.0
 10
52.3249597095
 20
48.6150019716
 30
0.0
 10
52.6271127542
 20
48.8142186072
 30
0.0
 10
52.8824419525
 20
49.0380705837
 30
0.0
 10
53.0865753583
 20
49.2818799715
 30
0.0
 10
53.2367007499
 20
49.540994257
 30
0.0
 10
53.3296859018
 20
49.8108396056
 30
0.0
 10
53.3513370481
 20
49.9961813379
 30
0.0
 10
53.3514055455
 20
50.0871418078
 30
0.0
  0
SPLINE
  5
359
100
AcDbEntity
  8
0
100
AcDbSpline
 62
7
  6
BYLAYER
 70
0
 71
3
 72
15
 73
11
 74
0
 42
0.0000001
 43
0.0000001
 44
0.0000000001
 40
0.0
 40
0.0
 40
0.0
 40
0.0
 40
0.1287604559
 40
0.2706332311
 40
0.4178843931
 40
0.5623921081
 40
0.6962100649
 40
0.8135944291
 40
0.913063933
 40
1.0
 40
1.0
 40
1.0
 40
1.0
 10
48.1450788806
 20
129.0430084799
 30
0.0
 10
48.189468022
 20
129.0173809769
 30
0.0
 10
48.2900708964
 20
128.9759466994
 30
0.0
 10
48.4539336746
 20
128.9430578306
 30
0.0
 10
48.6273196933
 20
128.938337655
 30
0.0
 10
48.7959109161
 20
128.9619626466
 30
0.0
 10
48.9463162155
 20
129.0122424863
 30
0.0
 10
49.066786767
 20
129.0856599679
 30
0.0
 10
49.1484018211
 20
129.178477054
 30
0.0
 10
49.169315784
 20
129.2533481721
 30
0.0
 10
49.1693314504
 20
129.2879549443
 30
0.0
  0
SPLINE
  5
35A
100
AcDbEntity
  8
0
100
AcDbSpline
 62
7
  6
BYLAYER
 70
0
 71
3
 72
9
 73
5
 74
0
 42
0.0000001
 43
0.0000001
 44
0.0000000001
 40
0.0
 40
0.0
 40
0.0
 40
0.0
 40
0.4940612225
 40
1.0
 40
1.0
 40
1.0
 40
1.0
 10
47.2547759854
 20
48.4907259647
 30
0.0
 10
47.2548088496
 20
48.4366110671
 30
0.0
 10
47.2653908065
 20
48.3268453257
 30
0.0
 10
47.2962383777
 20
48.2210438534
 30
0.0
 10
47.3162842771
 20
48.1693807133
 30
0.0
  0
SPLINE
  5
35B
100
AcDbEntity
  8
0
100
AcDbSpline
 62
7
  6
BYLAYER
 70
0
 71
3
 72
11
 73
7
 74
0
 42
0.0000001
 43
0.0000001
 44
0.0000000001
 40
0.0
 40
0.0
 40
0.0
 40
0.0
 40
0.2097830876
 40
0.4443993128
 40
0.7080429545
 40
1.0
 40
1.0
 40
1.0
 40
1.0
 10
47.3162842771
 20
48.1693807133
 30
0.0
 10
47.3518460111
 20
48.0777295076
 30
0.0
 10
47.4576119992
 20
47.8946244017
 30
0.0
 10
47.692786565
 20
47.6569353555
 30
0.0
 10
47.9998912179
 20
47.4469826955
 30
0.0
 10
48.2354310919
 20
47.3337774429
 30
0.0
 10
48.3621494667
 20
47.2821892796
 30
0.0
  0
SPLINE
  5
35C
100
AcDbEntity
  8
0
100
AcDbSpline
 62
7
  6
BYLAYER
 70
0
 71
3
 72
19
 73
15
 74
0
 42
0.0000001
 43
0.0000001
 44
0.0000000001
 40
0.0
 40
0.0
 40
0.0
 40
0.0
 40
0.1278018499
 40
0.2676580803
 40
0.4122938526
 40
0.5537230748
 40
0.621231006
 40
0.6857309497
 40
0.746710699
 40
0.8038207823
 40
0.8570024779
 40
0.9067503776
 40
0.9540353034
 40
1.0
 40
1.0
 40
1.0
 40
1.0
 10
48.3621494667
 20
47.2821892796
 30
0.0
 10
48.59726987
 20
47.1864696984
 30
0.0
 10
49.1132519942
 20
47.0416149903
 30
0.0
 10
49.9323280993
 20
46.9671201026
 30
0.0
 10
50.7798830209
 20
47.0207887234
 30
0.0
 10
51.468422475
 20
47.1788821343
 30
0.0
 10
51.9752935144
 20
47.3762123948
 30
0.0
 10
52.3174461521
 20
47.5506554476
 30
0.0
 10
52.6209405244
 20
47.7507672169
 30
0.0
 10
52.8796082617
 20
47.9734252917
 30
0.0
 10
53.086913663
 20
48.2164229368
 30
0.0
 10
53.2369466814
 20
48.4764796256
 30
0.0
 10
53.328208965
 20
48.7474742903
 30
0.0
 10
53.3489790383
 20
48.9332674928
 30
0.0
 10
53.3490680778
 20
49.0245689616
 30
0.0
  0
SPLINE
  5
35D
100
AcDbEntity
  8
0
100
AcDbSpline
 62
7
  6
BYLAYER
 70
0
 71
3
 72
14
 73
10
 74
0
 42
0.0000001
 43
0.0000001
 44
0.0000000001
 40
0.0
 40
0.0
 40
0.0
 40
0.0
 40
0.1016555745
 40
0.2060968646
 40
0.3160001865
 40
0.4337404656
 40
0.560780904
 40
0.6976378385
 40
1.0
 40
1.0
 40
1.0
 40
1.0
 10
47.2549381088
 20
42.1200929048
 30
0.0
 10
47.2549674642
 20
42.0620148705
 30
0.0
 10
47.2671845154
 20
41.943934454
 30
0.0
 10
47.3217233432
 20
41.7706766349
 30
0.0
 10
47.4122932799
 20
41.6027404684
 30
0.0
 10
47.5384643591
 20
41.4430668887
 30
0.0
 10
47.6976374027
 20
41.29308752
 30
0.0
 10
47.9589829884
 20
41.1014149847
 30
0.0
 10
48.1844346317
 20
40.9866736001
 30
0.0
 10
48.3440170884
 20
40.9205324749
 30
0.0
  0
SPLINE
  5
35E
100
AcDbEntity
  8
0
100
AcDbSpline
 62
7
  6
BYLAYER
 70
0
 71
3
 72
17
 73
13
 74
0
 42
0.0000001
 43
0.0000001
 44
0.0000000001
 40
0.0
 40
0.0
 40
0.0
 40
0.0
 40
0.1603034322
 40
0.3185498171
 40
0.4692451369
 40
0.6075371716
 40
0.7302234627
 40
0.7850498343
 40
0.8353095092
 40
0.9228641156
 40
0.9621859953
 40
1.0
 40
1.0
 40
1.0
 40
1.0
 10
50.6949645955
 20
51.3553674935
 30
0.0
 10
50.5601726128
 20
51.3846999672
 30
0.0
 10
50.2881749206
 20
51.4252073454
 30
0.0
 10
49.8836329722
 20
51.4361209452
 30
0.0
 10
49.4993747671
 20
51.3987983756
 30
0.0
 10
49.1541695862
 20
51.3137803715
 30
0.0
 10
48.9025598488
 20
51.2067475455
 30
0.0
 10
48.736285375
 20
51.102029357
 30
0.0
 10
48.6076671737
 20
50.9972431261
 30
0.0
 10
48.5107477375
 20
50.8744739123
 30
0.0
 10
48.4618923577
 20
50.7403660941
 30
0.0
 10
48.4535424571
 20
50.6738162902
 30
0.0
 10
48.453298586
 20
50.6412769495
 30
0.0
  0
SPLINE
  5
35F
100
AcDbEntity
  8
0
100
AcDbSpline
 62
7
  6
BYLAYER
 70
0
 71
3
 72
12
 73
8
 74
0
 42
0.0000001
 43
0.0000001
 44
0.0000000001
 40
0.0
 40
0.0
 40
0.0
 40
0.0
 40
0.1013100775
 40
0.2057093593
 40
0.4325015103
 40
0.6957165938
 40
1.0
 40
1.0
 40
1.0
 40
1.0
 10
47.253462803
 20
41.0664157234
 30
0.0
 10
47.2534747282
 20
41.006951015
 30
0.0
 10
47.2665783169
 20
40.8858536206
 30
0.0
 10
47.3450734997
 20
40.6428838033
 30
0.0
 10
47.5464635783
 20
40.3488000234
 30
0.0
 10
47.9154262692
 20
40.0561898632
 30
0.0
 10
48.2170418875
 20
39.9095367497
 30
0.0
 10
48.3831363508
 20
39.8438777905
 30
0.0
  0
SPLINE
  5
360
100
AcDbEntity
  8
0
100
AcDbSpline
 62
7
  6
BYLAYER
 70
0
 71
3
 72
19
 73
15
 74
0
 42
0.0000001
 43
0.0000001
 44
0.0000000001
 40
0.0
 40
0.0
 40
0.0
 40
0.0
 40
0.1240058252
 40
0.2584030991
 40
0.398298393
 40
0.53768326
 40
0.6053464499
 40
0.6707349041
 40
0.7334134326
 40
0.7930999683
 40
0.8495818015
 40
0.9027683072
 40
0.9527686988
 40
1.0
 40
1.0
 40
1.0
 40
1.0
 10
48.3831363508
 20
39.8438777905
 30
0.0
 10
48.5937055262
 20
39.7606374907
 30
0.0
 10
49.0500089192
 20
39.6300241844
 30
0.0
 10
49.7747999131
 20
39.5432721204
 30
0.0
 10
50.5323393603
 20
39.5664757931
 30
0.0
 10
51.1591920811
 20
39.6734084772
 30
0.0
 10
51.6370037398
 20
39.8135661036
 30
0.0
 10
51.9704240682
 20
39.943636368
 30
0.0
 10
52.2771470213
 20
40.0979580857
 30
0.0
 10
52.5532445136
 20
40.2734606747
 30
0.0
 10
52.7949054558
 20
40.4675125223
 30
0.0
 10
52.998323227
 20
40.6775915752
 30
0.0
 10
53.1596778193
 20
40.9011495843
 30
0.0
 10
53.2380607135
 20
41.0617558612
 30
0.0
 10
53.2681202501
 20
41.1425883209
 30
0.0
  0
SPLINE
  5
361
100
AcDbEntity
  8
0
100
AcDbSpline
 62
7
  6
BYLAYER
 70
0
 71
3
 72
9
 73
5
 74
0
 42
0.0000001
 43
0.0000001
 44
0.0000000001
 40
0.0
 40
0.0
 40
0.0
 40
0.0
 40
0.5047970578
 40
1.0
 40
1.0
 40
1.0
 40
1.0
 10
53.2681202501
 20
41.1425883209
 30
0.0
 10
53.2946318192
 20
41.2138800164
 30
0.0
 10
53.3351690695
 20
41.3599168382
 30
0.0
 10
53.3489290087
 20
41.5108875743
 30
0.0
 10
53.349004695
 20
41.5855035316
 30
0.0
  0
SPLINE
  5
362
100
AcDbEntity
  8
0
100
AcDbSpline
 62
7
  6
BYLAYER
 70
0
 71
3
 72
13
 73
9
 74
0
 42
0.0000001
 43
0.0000001
 44
0.0000000001
 40
0.0
 40
0.0
 40
0.0
 40
0.0
 40
0.1011750657
 40
0.2056796224
 40
0.3161083611
 40
0.4342589577
 40
0.6973499526
 40
1.0
 40
1.0
 40
1.0
 40
1.0
 10
47.2517904779
 20
39.9972091254
 30
0.0
 10
47.2517950419
 20
39.9385034657
 30
0.0
 10
47.2653838338
 20
39.8187966121
 30
0.0
 10
47.3242174657
 20
39.6438626535
 30
0.0
 10
47.4192290162
 20
39.4744116976
 30
0.0
 10
47.5978988345
 20
39.2506799351
 30
0.0
 10
47.9099828494
 20
38.9981807393
 30
0.0
 10
48.2060736199
 20
38.8513822549
 30
0.0
 10
48.3692303235
 20
38.7864324616
 30
0.0
  0
SPLINE
  5
363
100
AcDbEntity
  8
0
100
AcDbSpline
 62
7
  6
BYLAYER
 70
0
 71
3
 72
18
 73
14
 74
0
 42
0.0000001
 43
0.0000001
 44
0.0000000001
 40
0.0
 40
0.0
 40
0.0
 40
0.0
 40
0.1283343622
 40
0.268115005
 40
0.4123501067
 40
0.553961978
 40
0.6216121872
 40
0.6860661751
 40
0.8035228527
 40
0.8568282282
 40
0.9068134321
 40
0.9541570454
 40
1.0
 40
1.0
 40
1.0
 40
1.0
 10
48.3692303235
 20
38.7864324616
 30
0.0
 10
48.605330672
 20
38.6924450955
 30
0.0
 10
49.1214573017
 20
38.5524754921
 30
0.0
 10
49.9373769697
 20
38.4726191707
 30
0.0
 10
50.7820266421
 20
38.5297776603
 30
0.0
 10
51.4671723323
 20
38.6896829691
 30
0.0
 10
51.9743557494
 20
38.8832490302
 30
0.0
 10
52.4161917083
 20
39.1055904739
 30
0.0
 10
52.7954879576
 20
39.3871350046
 30
0.0
 10
53.080222668
 20
39.7209265573
 30
0.0
 10
53.2337043778
 20
39.9786347102
 30
0.0
 10
53.3295659313
 20
40.2475529854
 30
0.0
 10
53.3512972861
 20
40.432751461
 30
0.0
 10
53.3512946902
 20
40.5235269453
 30
0.0
  0
SPLINE
  5
364
100
AcDbEntity
  8
0
100
AcDbSpline
 62
7
  6
BYLAYER
 70
0
 71
3
 72
17
 73
13
 74
0
 42
0.0000001
 43
0.0000001
 44
0.0000000001
 40
0.0
 40
0.0
 40
0.0
 40
0.0
 40
0.1502312709
 40
0.3159679657
 40
0.4846890743
 40
0.6442868897
 40
0.7837173362
 40
0.8425345339
 40
0.8924155089
 40
0.9327856135
 40
0.9636605641
 40
1.0
 40
1.0
 40
1.0
 40
1.0
 10
50.6949645664
 20
51.3553665351
 30
0.0
 10
50.6949645231
 20
51.404217682
 30
0.0
 10
50.6989468429
 20
51.5069633151
 30
0.0
 10
50.7128926326
 20
51.6639987091
 30
0.0
 10
50.7344621933
 20
51.8232633868
 30
0.0
 10
50.762531969
 20
51.9728255698
 30
0.0
 10
50.790207609
 20
52.0859063247
 30
0.0
 10
50.8144881777
 20
52.1629716104
 30
0.0
 10
50.8315332385
 20
52.2081775861
 30
0.0
 10
50.8489847146
 20
52.2441875082
 30
0.0
 10
50.8665650704
 20
52.2725916465
 30
0.0
 10
50.8868413761
 20
52.2906837688
 30
0.0
 10
50.8984866328
 20
52.2886787562
 30
0.0
  0
SPLINE
  5
365
100
AcDbEntity
  8
0
100
AcDbSpline
 62
7
  6
BYLAYER
 70
0
 71
3
 72
9
 73
5
 74
0
 42
0.0000001
 43
0.0000001
 44
0.0000000001
 40
0.0
 40
0.0
 40
0.0
 40
0.0
 40
0.2472362288
 40
1.0
 40
1.0
 40
1.0
 40
1.0
 10
47.2539299046
 20
38.931518529
 30
0.0
 10
47.2539356664
 20
38.9065340138
 30
0.0
 10
47.2584165904
 20
38.8055112151
 30
0.0
 10
47.2814707313
 20
38.7054562944
 30
0.0
 10
47.3078089102
 20
38.6340906512
 30
0.0
  0
SPLINE
  5
366
100
AcDbEntity
  8
0
100
AcDbSpline
 62
7
  6
BYLAYER
 70
0
 71
3
 72
10
 73
6
 74
0
 42
0.0000001
 43
0.0000001
 44
0.0000000001
 40
0.0
 40
0.0
 40
0.0
 40
0.0
 40
0.4428563467
 40
0.7071772432
 40
1.0
 40
1.0
 40
1.0
 40
1.0
 10
47.3078089102
 20
38.6340906512
 30
0.0
 10
47.3800148065
 20
38.4384423399
 30
0.0
 10
47.604274099
 20
38.1678348863
 30
0.0
 10
47.9900154201
 20
37.8992037346
 30
0.0
 10
48.2271686076
 20
37.7831945498
 30
0.0
 10
48.3547393825
 20
37.7308443491
 30
0.0
  0
SPLINE
  5
367
100
AcDbEntity
  8
0
100
AcDbSpline
 62
7
  6
BYLAYER
 70
0
 71
3
 72
11
 73
7
 74
0
 42
0.0000001
 43
0.0000001
 44
0.0000000001
 40
0.0
 40
0.0
 40
0.0
 40
0.0
 40
0.2304773176
 40
0.4827335586
 40
0.7435772702
 40
1.0
 40
1.0
 40
1.0
 40
1.0
 10
48.3547393825
 20
37.7308443491
 30
0.0
 10
48.5839701899
 20
37.6367767322
 30
0.0
 10
49.0878062493
 20
37.496275799
 30
0.0
 10
49.8860896136
 20
37.4159069815
 30
0.0
 10
50.7156078192
 20
37.4578777364
 30
0.0
 10
51.2619962833
 20
37.577731625
 30
0.0
 10
51.524864941
 20
37.6607766408
 30
0.0
  0
SPLINE
  5
368
100
AcDbEntity
  8
0
100
AcDbSpline
 62
7
  6
BYLAYER
 70
0
 71
3
 72
11
 73
7
 74
0
 42
0.0000001
 43
0.0000001
 44
0.0000000001
 40
0.0
 40
0.0
 40
0.0
 40
0.0
 40
0.2813821448
 40
0.5437904829
 40
0.7831102003
 40
1.0
 40
1.0
 40
1.0
 40
1.0
 10
51.524864941
 20
37.6607766408
 30
0.0
 10
51.707117354
 20
37.7183535108
 30
0.0
 10
52.0529085229
 20
37.8517952369
 30
0.0
 10
52.5186978145
 20
38.1131692385
 30
0.0
 10
52.8978329924
 20
38.4254981821
 30
0.0
 10
53.088997334
 20
38.6740754941
 30
0.0
 10
53.1622177858
 20
38.8019157697
 30
0.0
  0
SPLINE
  5
369
100
AcDbEntity
  8
0
100
AcDbSpline
 62
7
  6
BYLAYER
 70
0
 71
3
 72
9
 73
5
 74
0
 42
0.0000001
 43
0.0000001
 44
0.0000000001
 40
0.0
 40
0.0
 40
0.0
 40
0.0
 40
0.510660001
 40
1.0
 40
1.0
 40
1.0
 40
1.0
 10
53.1750798891
 20
38.8248028636
 30
0.0
 10
53.2308228907
 20
38.9259224567
 30
0.0
 10
53.3188976322
 20
39.1367610281
 30
0.0
 10
53.3507607857
 20
39.3637228156
 30
0.0
 10
53.3508567029
 20
39.4743683178
 30
0.0
  0
SPLINE
  5
36A
100
AcDbEntity
  8
0
100
AcDbSpline
 62
7
  6
BYLAYER
 70
0
 71
3
 72
13
 73
9
 74
0
 42
0.0000001
 43
0.0000001
 44
0.0000000001
 40
0.0
 40
0.0
 40
0.0
 40
0.0
 40
0.1014875514
 40
0.2062400521
 40
0.3168807774
 40
0.435193109
 40
0.6982677347
 40
1.0
 40
1.0
 40
1.0
 40
1.0
 10
47.2519651622
 20
46.364174808
 30
0.0
 10
47.2519514751
 20
46.3063700613
 30
0.0
 10
47.2649102955
 20
46.1885197796
 30
0.0
 10
47.3223313429
 20
46.0162100052
 30
0.0
 10
47.4151466209
 20
45.8492358717
 30
0.0
 10
47.5895738388
 20
45.6286075153
 30
0.0
 10
47.8936145952
 20
45.3788794023
 30
0.0
 10
48.181971761
 20
45.2314987195
 30
0.0
 10
48.3409685506
 20
45.1662640222
 30
0.0
  0
SPLINE
  5
36B
100
AcDbEntity
  8
0
100
AcDbSpline
 62
7
  6
BYLAYER
 70
0
 71
3
 72
15
 73
11
 74
0
 42
0.0000001
 43
0.0000001
 44
0.0000000001
 40
0.0
 40
0.0
 40
0.0
 40
0.0
 40
0.1145569319
 40
0.2376520816
 40
0.3665317325
 40
0.4983362203
 40
0.6303152288
 40
0.7596906612
 40
0.8837185845
 40
1.0
 40
1.0
 40
1.0
 40
1.0
 10
48.3409685506
 20
45.1662640222
 30
0.0
 10
48.4914510433
 20
45.1045226506
 30
0.0
 10
48.8137469232
 20
45.0005154508
 30
0.0
 10
49.3256781417
 20
44.901439278
 30
0.0
 10
49.8698034795
 20
44.8564939062
 30
0.0
 10
50.4282761175
 20
44.8701680656
 30
0.0
 10
50.9825303827
 20
44.9454501284
 30
0.0
 10
51.5147464733
 20
45.0774215328
 30
0.0
 10
52.0074034634
 20
45.2619491595
 30
0.0
 10
52.3096191142
 20
45.4235995153
 30
0.0
 10
52.4480146728
 20
45.5136338583
 30
0.0
  0
SPLINE
  5
36C
100
AcDbEntity
  8
0
100
AcDbSpline
 62
7
  6
BYLAYER
 70
0
 71
3
 72
9
 73
5
 74
0
 42
0.0000001
 43
0.0000001
 44
0.0000000001
 40
0.0
 40
0.0
 40
0.0
 40
0.0
 40
0.2675624703
 40
1.0
 40
1.0
 40
1.0
 40
1.0
 10
52.4480146728
 20
45.5136338583
 30
0.0
 10
52.5148735159
 20
45.5571294161
 30
0.0
 10
52.7576909676
 20
45.7298204626
 30
0.0
 10
52.9719984561
 20
45.9460705309
 30
0.0
 10
53.0952178677
 20
46.1263232807
 30
0.0
  0
SPLINE
  5
36D
100
AcDbEntity
  8
0
100
AcDbSpline
 62
7
  6
BYLAYER
 70
0
 71
3
 72
10
 73
6
 74
0
 42
0.0000001
 43
0.0000001
 44
0.0000000001
 40
0.0
 40
0.0
 40
0.0
 40
0.0
 40
0.5146944778
 40
0.7595001627
 40
1.0
 40
1.0
 40
1.0
 40
1.0
 10
53.0952178677
 20
46.1263232807
 30
0.0
 10
53.1746662375
 20
46.2425451238
 30
0.0
 10
53.2723254877
 20
46.4299233493
 30
0.0
 10
53.3402181921
 20
46.6958041022
 30
0.0
 10
53.351630488
 20
46.8288305115
 30
0.0
 10
53.3516383012
 20
46.8946133005
 30
0.0
  0
SPLINE
  5
36E
100
AcDbEntity
  8
0
100
AcDbSpline
 62
7
  6
BYLAYER
 70
0
 71
3
 72
10
 73
6
 74
0
 42
0.0000001
 43
0.0000001
 44
0.0000000001
 40
0.0
 40
0.0
 40
0.0
 40
0.0
 40
0.2206283334
 40
0.4658865126
 40
1.0
 40
1.0
 40
1.0
 40
1.0
 10
48.7492717754
 20
41.6889230827
 30
0.0
 10
48.7202747177
 20
41.6709689168
 30
0.0
 10
48.6630931896
 20
41.6264120102
 30
0.0
 10
48.5565511188
 20
41.5140207485
 30
0.0
 10
48.4903140541
 20
41.4115932406
 30
0.0
 10
48.4533298105
 20
41.3377749156
 30
0.0
  0
SPLINE
  5
36F
100
AcDbEntity
  8
0
100
AcDbSpline
 62
7
  6
BYLAYER
 70
0
 71
3
 72
9
 73
5
 74
0
 42
0.0000001
 43
0.0000001
 44
0.0000000001
 40
0.0
 40
0.0
 40
0.0
 40
0.0
 40
0.5248913598
 40
1.0
 40
1.0
 40
1.0
 40
1.0
 10
48.4533298105
 20
41.3377749156
 30
0.0
 10
48.4193174873
 20
41.2698883648
 30
0.0
 10
48.3676295391
 20
41.133802866
 30
0.0
 10
48.3440064843
 20
40.9892586502
 30
0.0
 10
48.3440072695
 20
40.9205298042
 30
0.0
  0
SPLINE
  5
370
100
AcDbEntity
  8
0
100
AcDbSpline
 62
7
  6
BYLAYER
 70
0
 71
3
 72
10
 73
6
 74
0
 42
0.0000001
 43
0.0000001
 44
0.0000000001
 40
0.0
 40
0.0
 40
0.0
 40
0.0
 40
0.4711820552
 40
0.7302247902
 40
1.0
 40
1.0
 40
1.0
 40
1.0
 10
51.8287903473
 20
50.7851699172
 30
0.0
 10
51.7014481313
 20
50.914491585
 30
0.0
 10
51.4661861276
 20
51.078858288
 30
0.0
 10
51.1142434275
 20
51.2357997699
 30
0.0
 10
50.9196773288
 20
51.2979898767
 30
0.0
 10
50.8192191905
 20
51.3245676303
 30
0.0
  0
SPLINE
  5
371
100
AcDbEntity
  8
0
100
AcDbSpline
 62
7
  6
BYLAYER
 70
0
 71
3
 72
11
 73
7
 74
0
 42
0.0000001
 43
0.0000001
 44
0.0000000001
 40
0.0
 40
0.0
 40
0.0
 40
0.0
 40
0.2965252631
 40
0.5593692179
 40
0.7912436227
 40
1.0
 40
1.0
 40
1.0
 40
1.0
 10
48.3440226128
 20
40.9205223335
 30
0.0
 10
48.3440229999
 20
40.8914450911
 30
0.0
 10
48.3480332494
 20
40.8364437533
 30
0.0
 10
48.3678538382
 20
40.7608829903
 30
0.0
 10
48.4003986793
 20
40.6992295313
 30
0.0
 10
48.4318172481
 20
40.6681311407
 30
0.0
 10
48.4488614538
 20
40.6567935103
 30
0.0
  0
SPLINE
  5
372
100
AcDbEntity
  8
0
100
AcDbSpline
 62
7
  6
BYLAYER
 70
0
 71
3
 72
14
 73
10
 74
0
 42
0.0000001
 43
0.0000001
 44
0.0000000001
 40
0.0
 40
0.0
 40
0.0
 40
0.0
 40
0.10031893
 40
0.2035934126
 40
0.3127493132
 40
0.4302999402
 40
0.5576370101
 40
0.6952103679
 40
1.0
 40
1.0
 40
1.0
 40
1.0
 10
47.2542874899
 20
50.6372227578
 30
0.0
 10
47.2543232449
 20
50.5787621902
 30
0.0
 10
47.2672413268
 20
50.4597526371
 30
0.0
 10
47.3248839928
 20
50.2855719964
 30
0.0
 10
47.4205660226
 20
50.1174237312
 30
0.0
 10
47.5534624093
 20
49.9584190493
 30
0.0
 10
47.7204905719
 20
49.8098184298
 30
0.0
 10
47.994429892
 20
49.6211913577
 30
0.0
 10
48.2296740428
 20
49.5106292308
 30
0.0
 10
48.3958921869
 20
49.4480294848
 30
0.0
  0
SPLINE
  5
373
100
AcDbEntity
  8
0
100
AcDbSpline
 62
7
  6
BYLAYER
 70
0
 71
3
 72
14
 73
10
 74
0
 42
0.0000001
 43
0.0000001
 44
0.0000000001
 40
0.0
 40
0.0
 40
0.0
 40
0.0
 40
0.23516652
 40
0.3629788147
 40
0.4940225782
 40
0.6255801559
 40
0.7551352502
 40
0.8805781074
 40
1.0
 40
1.0
 40
1.0
 40
1.0
 10
48.3958921869
 20
49.4480294848
 30
0.0
 10
48.6920659482
 20
49.3364868953
 30
0.0
 10
49.1751327158
 20
49.2299996972
 30
0.0
 10
49.8389390623
 20
49.1871288065
 30
0.0
 10
50.3650437067
 20
49.2046970555
 30
0.0
 10
50.8890868893
 20
49.2742595739
 30
0.0
 10
51.3955327306
 20
49.3978365245
 30
0.0
 10
51.8696733649
 20
49.5713573624
 30
0.0
 10
52.1644097181
 20
49.7211546033
 30
0.0
 10
52.3021720259
 20
49.8039249454
 30
0.0
  0
SPLINE
  5
374
100
AcDbEntity
  8
0
100
AcDbSpline
 62
7
  6
BYLAYER
 70
0
 71
3
 72
10
 73
6
 74
0
 42
0.0000001
 43
0.0000001
 44
0.0000000001
 40
0.0
 40
0.0
 40
0.0
 40
0.0
 40
0.2757967549
 40
0.5338981821
 40
1.0
 40
1.0
 40
1.0
 40
1.0
 10
52.3021720259
 20
49.8039249454
 30
0.0
 10
52.4134512112
 20
49.8707836995
 30
0.0
 10
52.6219194413
 20
50.0129110889
 30
0.0
 10
52.9708787597
 20
50.3297585526
 30
0.0
 10
53.1666144805
 20
50.6209508255
 30
0.0
 10
53.2480040451
 20
50.8246935944
 30
0.0
  0
SPLINE
  5
375
100
AcDbEntity
  8
0
100
AcDbSpline
 62
7
  6
BYLAYER
 70
0
 71
3
 72
9
 73
5
 74
0
 42
0.0000001
 43
0.0000001
 44
0.0000000001
 40
0.0
 40
0.0
 40
0.0
 40
0.0
 40
0.5056799406
 40
1.0
 40
1.0
 40
1.0
 40
1.0
 10
53.2480040451
 20
50.8246935944
 30
0.0
 10
53.2811720337
 20
50.9077231311
 30
0.0
 10
53.3326275483
 20
51.0780357978
 30
0.0
 10
53.3507313452
 20
51.2552192535
 30
0.0
 10
53.350858923
 20
51.3426199
 30
0.0
  0
SPLINE
  5
376
100
AcDbEntity
  8
0
100
AcDbSpline
 62
7
  6
BYLAYER
 70
0
 71
3
 72
15
 73
11
 74
0
 42
0.0000001
 43
0.0000001
 44
0.0000000001
 40
0.0
 40
0.0
 40
0.0
 40
0.0
 40
0.1167079778
 40
0.2403846498
 40
0.3689530996
 40
0.5001732203
 40
0.6314291516
 40
0.7600530149
 40
0.8835531158
 40
1.0
 40
1.0
 40
1.0
 40
1.0
 10
48.4997408469
 20
40.8613057058
 30
0.0
 10
48.6466743363
 20
40.8094171815
 30
0.0
 10
48.9563870996
 20
40.7219506144
 30
0.0
 10
49.4431114819
 20
40.6405424673
 30
0.0
 10
49.9551344734
 20
40.6096604622
 30
0.0
 10
50.4776382098
 20
40.6317526899
 30
0.0
 10
50.9956027801
 20
40.7042062122
 30
0.0
 10
51.493861404
 20
40.8255012038
 30
0.0
 10
51.9574559993
 20
40.9937938559
 30
0.0
 10
52.2430111128
 20
41.141699646
 30
0.0
 10
52.3753944496
 20
41.2232349048
 30
0.0
  0
SPLINE
  5
377
100
AcDbEntity
  8
0
100
AcDbSpline
 62
7
  6
BYLAYER
 70
0
 71
3
 72
11
 73
7
 74
0
 42
0.0000001
 43
0.0000001
 44
0.0000000001
 40
0.0
 40
0.0
 40
0.0
 40
0.0
 40
0.2799656363
 40
0.5388705329
 40
0.7775460864
 40
1.0
 40
1.0
 40
1.0
 40
1.0
 10
52.3753944496
 20
41.2232349048
 30
0.0
 10
52.4965196073
 20
41.2978362203
 30
0.0
 10
52.7204139137
 20
41.4575024013
 30
0.0
 10
53.0025826438
 20
41.7368184933
 30
0.0
 10
53.2105360908
 20
42.0410028893
 30
0.0
 10
53.2943620811
 20
42.2630898283
 30
0.0
 10
53.3192343644
 20
42.3733522353
 30
0.0
  0
SPLINE
  5
378
100
AcDbEntity
  8
0
100
AcDbSpline
 62
7
  6
BYLAYER
 70
0
 71
3
 72
9
 73
5
 74
0
 42
0.0000001
 43
0.0000001
 44
0.0000000001
 40
0.0
 40
0.0
 40
0.0
 40
0.0
 40
0.4951495917
 40
1.0
 40
1.0
 40
1.0
 40
1.0
 10
52.1512381343
 20
51.3436104595
 30
0.0
 10
52.1511432221
 20
51.3975916722
 30
0.0
 10
52.14133052
 20
51.5068270126
 30
0.0
 10
52.1123579381
 20
51.6125369474
 30
0.0
 10
52.0936757504
 20
51.6643081196
 30
0.0
  0
SPLINE
  5
379
100
AcDbEntity
  8
0
100
AcDbSpline
 62
7
  6
BYLAYER
 70
0
 71
3
 72
9
 73
5
 74
0
 42
0.0000001
 43
0.0000001
 44
0.0000000001
 40
0.0
 40
0.0
 40
0.0
 40
0.0
 40
0.2429066167
 40
1.0
 40
1.0
 40
1.0
 40
1.0
 10
52.0936757504
 20
51.6643081196
 30
0.0
 10
52.0844860142
 20
51.6897742705
 30
0.0
 10
52.0425945094
 20
51.7931362442
 30
0.0
 10
51.9853126841
 20
51.8899928441
 30
0.0
 10
51.9359534731
 20
51.9584337717
 30
0.0
  0
SPLINE
  5
37A
100
AcDbEntity
  8
0
100
AcDbSpline
 62
7
  6
BYLAYER
 70
0
 71
3
 72
9
 73
5
 74
0
 42
0.0000001
 43
0.0000001
 44
0.0000000001
 40
0.0
 40
0.0
 40
0.0
 40
0.0
 40
0.24580373
 40
1.0
 40
1.0
 40
1.0
 40
1.0
 10
51.9359534731
 20
51.9584337717
 30
0.0
 10
51.9272483219
 20
51.9705042366
 30
0.0
 10
51.8910468303
 20
52.0190401841
 30
0.0
 10
51.8517961594
 20
52.0652868413
 30
0.0
 10
51.8207903814
 20
52.0988084663
 30
0.0
  0
SPLINE
  5
37B
100
AcDbEntity
  8
0
100
AcDbSpline
 62
7
  6
BYLAYER
 70
0
 71
3
 72
9
 73
5
 74
0
 42
0.0000001
 43
0.0000001
 44
0.0000000001
 40
0.0
 40
0.0
 40
0.0
 40
0.0
 40
0.2438786637
 40
1.0
 40
1.0
 40
1.0
 40
1.0
 10
51.8207903814
 20
52.0988084663
 30
0.0
 10
51.8049993216
 20
52.1158808322
 30
0.0
 10
51.7387304992
 20
52.1844709225
 30
0.0
 10
51.6666670213
 20
52.2474029787
 30
0.0
 10
51.6097924626
 20
52.2917193
 30
0.0
  0
SPLINE
  5
37C
100
AcDbEntity
  8
0
100
AcDbSpline
 62
7
  6
BYLAYER
 70
0
 71
3
 72
9
 73
5
 74
0
 42
0.0000001
 43
0.0000001
 44
0.0000000001
 40
0.0
 40
0.0
 40
0.0
 40
0.0
 40
0.2554292236
 40
1.0
 40
1.0
 40
1.0
 40
1.0
 10
52.1014198472
 20
36.8277394847
 30
0.0
 10
52.1316389874
 20
36.8426647442
 30
0.0
 10
52.249133145
 20
36.9027203893
 30
0.0
 10
52.3632986404
 20
36.9693543651
 30
0.0
 10
52.4457035004
 20
37.0228502047
 30
0.0
  0
SPLINE
  5
37D
100
AcDbEntity
  8
0
100
AcDbSpline
 62
7
  6
BYLAYER
 70
0
 71
3
 72
9
 73
5
 74
0
 42
0.0000001
 43
0.0000001
 44
0.0000000001
 40
0.0
 40
0.0
 40
0.0
 40
0.0
 40
0.523400806
 40
1.0
 40
1.0
 40
1.0
 40
1.0
 10
52.4457035004
 20
37.0228502047
 30
0.0
 10
52.5775804138
 20
37.1084624635
 30
0.0
 10
52.8178264375
 20
37.2913271749
 30
0.0
 10
53.0192857998
 20
37.5180672083
 30
0.0
 10
53.0996915813
 20
37.6365262026
 30
0.0
  0
SPLINE
  5
37E
100
AcDbEntity
  8
0
100
AcDbSpline
 62
7
  6
BYLAYER
 70
0
 71
3
 72
9
 73
5
 74
0
 42
0.0000001
 43
0.0000001
 44
0.0000000001
 40
0.0
 40
0.0
 40
0.0
 40
0.0
 40
0.51409644
 40
1.0
 40
1.0
 40
1.0
 40
1.0
 10
53.0996915813
 20
37.6365262026
 30
0.0
 10
53.1785630452
 20
37.7527247411
 30
0.0
 10
53.3037113442
 20
38.0002585519
 30
0.0
 10
53.3484928968
 20
38.2749246473
 30
0.0
 10
53.3486306779
 20
38.4076609224
 30
0.0
  0
SPLINE
  5
37F
100
AcDbEntity
  8
0
100
AcDbSpline
 62
7
  6
BYLAYER
 70
0
 71
3
 72
11
 73
7
 74
0
 42
0.0000001
 43
0.0000001
 44
0.0000000001
 40
0.0
 40
0.0
 40
0.0
 40
0.0
 40
0.2292788161
 40
0.4913642468
 40
0.7581885377
 40
1.0
 40
1.0
 40
1.0
 40
1.0
 10
51.7531147778
 20
37.5924526949
 30
0.0
 10
51.8041998465
 20
37.550932761
 30
0.0
 10
51.8980256605
 20
37.4430740069
 30
0.0
 10
52.0068295201
 20
37.2533183331
 30
0.0
 10
52.0794099157
 20
37.0431075864
 30
0.0
 10
52.1014183468
 20
36.8971743799
 30
0.0
 10
52.1014176176
 20
36.8277460337
 30
0.0
  0
SPLINE
  5
380
100
AcDbEntity
  8
0
100
AcDbSpline
 62
7
  6
BYLAYER
 70
0
 71
3
 72
11
 73
7
 74
0
 42
0.0000001
 43
0.0000001
 44
0.0000000001
 40
0.0
 40
0.0
 40
0.0
 40
0.0
 40
0.2180127065
 40
0.4523991246
 40
0.7119243654
 40
1.0
 40
1.0
 40
1.0
 40
1.0
 10
47.9693631483
 20
54.9843556834
 30
0.0
 10
47.9695933371
 20
54.961605872
 30
0.0
 10
47.978471598
 20
54.9142008223
 30
0.0
 10
48.0145397055
 20
54.8481255619
 30
0.0
 10
48.0714161681
 20
54.7885675531
 30
0.0
 10
48.1189538881
 20
54.756162949
 30
0.0
 10
48.1450788806
 20
54.7412889029
 30
0.0
  0
SPLINE
  5
381
100
AcDbEntity
  8
0
100
AcDbSpline
 62
7
  6
BYLAYER
 70
0
 71
3
 72
23
 73
19
 74
0
 42
0.0000001
 43
0.0000001
 44
0.0000000001
 40
0.0
 40
0.0
 40
0.0
 40
0.0
 40
0.0577795621
 40
0.1109107663
 40
0.1619584153
 40
0.2132333271
 40
0.2661907191
 40
0.3214847434
 40
0.3794941297
 40
0.4404079184
 40
0.5044615414
 40
0.5718121551
 40
0.6424070483
 40
0.7158009544
 40
0.7903231806
 40
0.8640443499
 40
0.9349348799
 40
1.0
 40
1.0
 40
1.0
 40
1.0
 10
49.0668308084
 20
54.7925851237
 30
0.0
 10
49.0669073047
 20
54.7249712111
 30
0.0
 10
49.0803805756
 20
54.5944373422
 30
0.0
 10
49.1478749917
 20
54.4150431853
 30
0.0
 10
49.2538280211
 20
54.2651883248
 30
0.0
 10
49.386417668
 20
54.1397076793
 30
0.0
 10
49.5395110061
 20
54.0321315007
 30
0.0
 10
49.7086946535
 20
53.935696837
 30
0.0
 10
49.8918895634
 20
53.8460636233
 30
0.0
 10
50.0873421526
 20
53.7585862632
 30
0.0
 10
50.2940749076
 20
53.6696510635
 30
0.0
 10
50.5109330887
 20
53.5755693875
 30
0.0
 10
50.7345974747
 20
53.4698381432
 30
0.0
 10
50.9599573358
 20
53.3488089451
 30
0.0
 10
51.1834011411
 20
53.2170164744
 30
0.0
 10
51.4000087408
 20
53.0797209465
 30
0.0
 10
51.6062857793
 20
52.9468874862
 30
0.0
 10
51.7415722449
 20
52.8630681133
 30
0.0
 10
51.8074985682
 20
52.8249767526
 30
0.0
  0
SPLINE
  5
382
100
AcDbEntity
  8
0
100
AcDbSpline
 62
7
  6
BYLAYER
 70
0
 71
3
 72
25
 73
21
 74
0
 42
0.0000001
 43
0.0000001
 44
0.0000000001
 40
0.0
 40
0.0
 40
0.0
 40
0.0
 40
0.0203304423
 40
0.0411953175
 40
0.0860453176
 40
0.1369066179
 40
0.1946615435
 40
0.2594111203
 40
0.330087374
 40
0.4049643412
 40
0.4821762015
 40
0.5599029622
 40
0.6362946981
 40
0.7095049281
 40
0.7779205755
 40
0.8406667996
 40
0.8978810357
 40
0.9503444874
 40
0.9753743954
 40
1.0
 40
1.0
 40
1.0
 40
1.0
 10
47.2519022979
 20
34.6886026701
 30
0.0
 10
47.2518904593
 20
34.6365375417
 30
0.0
 10
47.2624199681
 20
34.5307573832
 30
0.0
 10
47.325815257
 20
34.3185584192
 30
0.0
 10
47.4854390195
 20
34.0601098091
 30
0.0
 10
47.7748670555
 20
33.7894476583
 30
0.0
 10
48.1568886498
 20
33.5579406074
 30
0.0
 10
48.6198141786
 20
33.3779535845
 30
0.0
 10
49.1449786283
 20
33.2524464817
 30
0.0
 10
49.7128572309
 20
33.1861689393
 30
0.0
 10
50.3027139234
 20
33.18440936
 30
0.0
 10
50.89260334
 20
33.2520251956
 30
0.0
 10
51.4609857535
 20
33.3838660971
 30
0.0
 10
51.9871367821
 20
33.5751672175
 30
0.0
 10
52.4510619356
 20
33.8221085873
 30
0.0
 10
52.8332614929
 20
34.1211382099
 30
0.0
 10
53.1221756976
 20
34.4594514583
 30
0.0
 10
53.2786300984
 20
34.7721226437
 30
0.0
 10
53.3411489934
 20
35.026997394
 30
0.0
 10
53.3515078549
 20
35.1544075239
 30
0.0
 10
53.3515094088
 20
35.2174723249
 30
0.0
  0
SPLINE
  5
383
100
AcDbEntity
  8
0
100
AcDbSpline
 62
7
  6
BYLAYER
 70
0
 71
3
 72
9
 73
5
 74
0
 42
0.0000001
 43
0.0000001
 44
0.0000000001
 40
0.0
 40
0.0
 40
0.0
 40
0.0
 40
0.2434741558
 40
1.0
 40
1.0
 40
1.0
 40
1.0
 10
52.3354434521
 20
53.0551631305
 30
0.0
 10
52.3285180003
 20
53.0591497481
 30
0.0
 10
52.2990716091
 20
53.0737795435
 30
0.0
 10
52.2662569596
 20
53.0810904065
 30
0.0
 10
52.2415041731
 20
53.0830409807
 30
0.0
  0
SPLINE
  5
384
100
AcDbEntity
  8
0
100
AcDbSpline
 62
7
  6
BYLAYER
 70
0
 71
3
 72
12
 73
8
 74
0
 42
0.0000001
 43
0.0000001
 44
0.0000000001
 40
0.0
 40
0.0
 40
0.0
 40
0.0
 40
0.2048004299
 40
0.4380231601
 40
0.5678233228
 40
0.7061542132
 40
1.0
 40
1.0
 40
1.0
 40
1.0
 10
52.2415041731
 20
53.0830409807
 30
0.0
 10
52.2059927667
 20
53.0858393577
 30
0.0
 10
52.128317915
 20
53.076810199
 30
0.0
 10
52.0387252423
 20
53.0320714393
 30
0.0
 10
51.9679008691
 20
52.9811592877
 30
0.0
 10
51.8929842171
 20
52.9182582789
 30
0.0
 10
51.8404212142
 20
52.8640891977
 30
0.0
 10
51.8074702016
 20
52.8250200142
 30
0.0
  0
SPLINE
  5
385
100
AcDbEntity
  8
0
100
AcDbSpline
 62
7
  6
BYLAYER
 70
0
 71
3
 72
12
 73
8
 74
0
 42
0.0000001
 43
0.0000001
 44
0.0000000001
 40
0.0
 40
0.0
 40
0.0
 40
0.0
 40
0.1122181723
 40
0.2023372667
 40
0.3169956233
 40
0.6164103192
 40
1.0
 40
1.0
 40
1.0
 40
1.0
 10
50.7457540353
 20
51.099119421
 30
0.0
 10
50.7359452803
 20
51.1012322278
 30
0.0
 10
50.7238751805
 20
51.1188141224
 30
0.0
 10
50.7147593238
 20
51.144730633
 30
0.0
 10
50.7043064673
 20
51.1890682465
 30
0.0
 10
50.6967530802
 20
51.2599142958
 30
0.0
 10
50.6949630336
 20
51.3210692405
 30
0.0
 10
50.6949630004
 20
51.3553670114
 30
0.0
  0
SPLINE
  5
386
100
AcDbEntity
  8
0
100
AcDbSpline
 62
7
  6
BYLAYER
 70
0
 71
3
 72
12
 73
8
 74
0
 42
0.0000001
 43
0.0000001
 44
0.0000000001
 40
0.0
 40
0.0
 40
0.0
 40
0.0
 40
0.1016228617
 40
0.2065432836
 40
0.4347823089
 40
0.6977160673
 40
1.0
 40
1.0
 40
1.0
 40
1.0
 10
47.2517729372
 20
45.302195825
 30
0.0
 10
47.252082966
 20
45.2443085468
 30
0.0
 10
47.26583363
 20
45.1263809825
 30
0.0
 10
47.3447713795
 20
44.8901056525
 30
0.0
 10
47.5416850832
 20
44.6052695285
 30
0.0
 10
47.8941506726
 20
44.3159792111
 30
0.0
 10
48.1836323906
 20
44.1695077459
 30
0.0
 10
48.3430603881
 20
44.1044477523
 30
0.0
  0
SPLINE
  5
387
100
AcDbEntity
  8
0
100
AcDbSpline
 62
7
  6
BYLAYER
 70
0
 71
3
 72
15
 73
11
 74
0
 42
0.0000001
 43
0.0000001
 44
0.0000000001
 40
0.0
 40
0.0
 40
0.0
 40
0.0
 40
0.1145878705
 40
0.2375203837
 40
0.3661690845
 40
0.4978564393
 40
0.6298824097
 40
0.7593730058
 40
0.8835378503
 40
1.0
 40
1.0
 40
1.0
 40
1.0
 10
48.3430603881
 20
44.1044477523
 30
0.0
 10
48.4928186704
 20
44.0433338134
 30
0.0
 10
48.8129491825
 20
43.9398513758
 30
0.0
 10
49.321173426
 20
43.8404363712
 30
0.0
 10
49.8613402218
 20
43.7947306377
 30
0.0
 10
50.4161135804
 20
43.8084064714
 30
0.0
 10
50.9673262577
 20
43.8817613771
 30
0.0
 10
51.4974109391
 20
44.0105889787
 30
0.0
 10
51.9888107332
 20
44.1914770169
 30
0.0
 10
52.2903295766
 20
44.3511158133
 30
0.0
 10
52.4286272656
 20
44.4399925158
 30
0.0
  0
SPLINE
  5
388
100
AcDbEntity
  8
0
100
AcDbSpline
 62
7
  6
BYLAYER
 70
0
 71
3
 72
12
 73
8
 74
0
 42
0.0000001
 43
0.0000001
 44
0.0000000001
 40
0.0
 40
0.0
 40
0.0
 40
0.0
 40
0.2831530208
 40
0.5411298705
 40
0.7770692266
 40
0.8894425537
 40
1.0
 40
1.0
 40
1.0
 40
1.0
 10
52.4286272656
 20
44.4399925158
 30
0.0
 10
52.5663487899
 20
44.5284989475
 30
0.0
 10
52.816426104
 20
44.7199838555
 30
0.0
 10
53.1141025594
 20
45.0608389794
 30
0.0
 10
53.2761369434
 20
45.3772096694
 30
0.0
 10
53.3404831078
 20
45.6356064412
 30
0.0
 10
53.3509733339
 20
45.7647538225
 30
0.0
 10
53.3510353557
 20
45.8286741377
 30
0.0
  0
SPLINE
  5
389
100
AcDbEntity
  8
0
100
AcDbSpline
 62
7
  6
BYLAYER
 70
0
 71
3
 72
12
 73
8
 74
0
 42
0.0000001
 43
0.0000001
 44
0.0000000001
 40
0.0
 40
0.0
 40
0.0
 40
0.0
 40
0.1018768461
 40
0.2067816082
 40
0.4341204649
 40
0.6967447735
 40
1.0
 40
1.0
 40
1.0
 40
1.0
 10
47.2531583074
 20
35.7592892567
 30
0.0
 10
47.2531692762
 20
35.7010376048
 30
0.0
 10
47.2658079301
 20
35.5824672562
 30
0.0
 10
47.3413589333
 20
35.3445578064
 30
0.0
 10
47.5346138115
 20
35.0561068212
 30
0.0
 10
47.8889652255
 20
34.7658376782
 30
0.0
 10
48.1801391154
 20
34.6195562465
 30
0.0
 10
48.340532621
 20
34.5536747573
 30
0.0
  0
SPLINE
  5
38A
100
AcDbEntity
  8
0
100
AcDbSpline
 62
7
  6
BYLAYER
 70
0
 71
3
 72
9
 73
5
 74
0
 42
0.0000001
 43
0.0000001
 44
0.0000000001
 40
0.0
 40
0.0
 40
0.0
 40
0.0
 40
0.2435335893
 40
1.0
 40
1.0
 40
1.0
 40
1.0
 10
48.340532621
 20
34.5536747573
 30
0.0
 10
48.3703264873
 20
34.5414369533
 30
0.0
 10
48.4934030283
 20
34.4929895751
 30
0.0
 10
48.6192141929
 20
34.4515641471
 30
0.0
 10
48.7153468226
 20
34.4238462531
 30
0.0
  0
SPLINE
  5
38B
100
AcDbEntity
  8
0
100
AcDbSpline
 62
7
  6
BYLAYER
 70
0
 71
3
 72
13
 73
9
 74
0
 42
0.0000001
 43
0.0000001
 44
0.0000000001
 40
0.0
 40
0.0
 40
0.0
 40
0.0
 40
0.2465918495
 40
0.3762753028
 40
0.5073010176
 40
0.6373374233
 40
0.7641138564
 40
1.0
 40
1.0
 40
1.0
 40
1.0
 10
48.7928274429
 20
34.4023408092
 30
0.0
 10
49.0902766124
 20
34.3229360754
 30
0.0
 10
49.5588569734
 20
34.2514612378
 30
0.0
 10
50.1927102496
 20
34.2461280674
 30
0.0
 10
50.6796019531
 20
34.2863053241
 30
0.0
 10
51.157365677
 20
34.3698348904
 30
0.0
 10
51.7508871413
 20
34.5328500086
 30
0.0
 10
52.1684245328
 20
34.7226010595
 30
0.0
 10
52.4167505773
 20
34.8809177001
 30
0.0
  0
SPLINE
  5
38C
100
AcDbEntity
  8
0
100
AcDbSpline
 62
7
  6
BYLAYER
 70
0
 71
3
 72
11
 73
7
 74
0
 42
0.0000001
 43
0.0000001
 44
0.0000000001
 40
0.0
 40
0.0
 40
0.0
 40
0.0
 40
0.2813883838
 40
0.5401211975
 40
0.7776272291
 40
1.0
 40
1.0
 40
1.0
 40
1.0
 10
52.4167505773
 20
34.8809177001
 30
0.0
 10
52.54177062
 20
34.9606224012
 30
0.0
 10
52.7714104263
 20
35.1310800169
 30
0.0
 10
53.0550844924
 20
35.4300400201
 30
0.0
 10
53.2539097446
 20
35.7564102056
 30
0.0
 10
53.3216580787
 20
35.9928950801
 30
0.0
 10
53.3376055823
 20
36.1089750105
 30
0.0
  0
SPLINE
  5
38D
100
AcDbEntity
  8
0
100
AcDbSpline
 62
7
  6
BYLAYER
 70
0
 71
3
 72
13
 73
9
 74
0
 42
0.0000001
 43
0.0000001
 44
0.0000000001
 40
0.0
 40
0.0
 40
0.0
 40
0.0
 40
0.1015010724
 40
0.2059737113
 40
0.3163604071
 40
0.4346704787
 40
0.6983245266
 40
1.0
 40
1.0
 40
1.0
 40
1.0
 10
47.2536520973
 20
44.2368592986
 30
0.0
 10
47.2537642648
 20
44.1791113788
 30
0.0
 10
47.2662584371
 20
44.0615853645
 30
0.0
 10
47.3223101001
 20
43.889288076
 30
0.0
 10
47.4153572689
 20
43.7229279008
 30
0.0
 10
47.5911027445
 20
43.5034877501
 30
0.0
 10
47.8966563684
 20
43.2559961855
 30
0.0
 10
48.1846112888
 20
43.1084269369
 30
0.0
 10
48.3431627232
 20
43.0426994057
 30
0.0
  0
SPLINE
  5
38E
100
AcDbEntity
  8
0
100
AcDbSpline
 62
7
  6
BYLAYER
 70
0
 71
3
 72
9
 73
5
 74
0
 42
0.0000001
 43
0.0000001
 44
0.0000000001
 40
0.0
 40
0.0
 40
0.0
 40
0.0
 40
0.2440487817
 40
1.0
 40
1.0
 40
1.0
 40
1.0
 10
48.3431627232
 20
43.0426994057
 30
0.0
 10
48.3688260078
 20
43.0320606855
 30
0.0
 10
48.4745598064
 20
42.989868814
 30
0.0
 10
48.5825043895
 20
42.9532624481
 30
0.0
 10
48.6649248665
 20
42.9285243398
 30
0.0
  0
SPLINE
  5
38F
100
AcDbEntity
  8
0
100
AcDbSpline
 62
7
  6
BYLAYER
 70
0
 71
3
 72
14
 73
10
 74
0
 42
0.0000001
 43
0.0000001
 44
0.0000000001
 40
0.0
 40
0.0
 40
0.0
 40
0.0
 40
0.1191516365
 40
0.2446530605
 40
0.3741091089
 40
0.5050632169
 40
0.762043007
 40
0.8843654774
 40
1.0
 40
1.0
 40
1.0
 40
1.0
 10
48.6649248665
 20
42.9285243398
 30
0.0
 10
48.8122248295
 20
42.884312967
 30
0.0
 10
49.1204788987
 20
42.8122492648
 30
0.0
 10
49.600146347
 20
42.7510082733
 30
0.0
 10
50.098801969
 20
42.7350279765
 30
0.0
 10
50.7660283612
 20
42.7760499131
 30
0.0
 10
51.4158054164
 20
42.9139075532
 30
0.0
 10
52.0124355609
 20
43.1448631434
 30
0.0
 10
52.284787662
 20
43.2891038634
 30
0.0
 10
52.4113306476
 20
43.3682435635
 30
0.0
  0
SPLINE
  5
390
100
AcDbEntity
  8
0
100
AcDbSpline
 62
7
  6
BYLAYER
 70
0
 71
3
 72
11
 73
7
 74
0
 42
0.0000001
 43
0.0000001
 44
0.0000000001
 40
0.0
 40
0.0
 40
0.0
 40
0.0
 40
0.2842838065
 40
0.541797812
 40
0.77751794
 40
1.0
 40
1.0
 40
1.0
 40
1.0
 10
52.4113306476
 20
43.3682435635
 30
0.0
 10
52.5530644859
 20
43.4568835889
 30
0.0
 10
52.81055063
 20
43.6483887467
 30
0.0
 10
53.1132811612
 20
43.9964203903
 30
0.0
 10
53.3045950749
 20
44.3768155513
 30
0.0
 10
53.3507404992
 20
44.6475981608
 30
0.0
 10
53.3511298972
 20
44.7784250954
 30
0.0
  0
SPLINE
  5
391
100
AcDbEntity
  8
0
100
AcDbSpline
 62
7
  6
BYLAYER
 70
0
 71
3
 72
13
 73
9
 74
0
 42
0.0000001
 43
0.0000001
 44
0.0000000001
 40
0.0
 40
0.0
 40
0.0
 40
0.0
 40
0.1017067279
 40
0.2062583099
 40
0.433024443
 40
0.5600319753
 40
0.6970380429
 40
1.0
 40
1.0
 40
1.0
 40
1.0
 10
47.254710869
 20
43.1839070512
 30
0.0
 10
47.2547928563
 20
43.1256280876
 30
0.0
 10
47.2672473733
 20
43.0071129805
 30
0.0
 10
47.3421615856
 20
42.7691155007
 30
0.0
 10
47.4928208561
 20
42.5465580157
 30
0.0
 10
47.697927278
 20
42.3535777416
 30
0.0
 10
47.9608282342
 20
42.1614499419
 30
0.0
 10
48.1876507087
 20
42.0469139326
 30
0.0
 10
48.3481618352
 20
41.9807832344
 30
0.0
  0
SPLINE
  5
392
100
AcDbEntity
  8
0
100
AcDbSpline
 62
7
  6
BYLAYER
 70
0
 71
3
 72
9
 73
5
 74
0
 42
0.0000001
 43
0.0000001
 44
0.0000000001
 40
0.0
 40
0.0
 40
0.0
 40
0.0
 40
0.2436474906
 40
1.0
 40
1.0
 40
1.0
 40
1.0
 10
48.5148986883
 20
41.9171839823
 30
0.0
 10
48.5498423167
 20
41.904872995
 30
0.0
 10
48.6940417282
 20
41.8565788608
 30
0.0
 10
48.8411572478
 20
41.8170752672
 30
0.0
 10
48.9533714389
 20
41.7918688052
 30
0.0
  0
SPLINE
  5
393
100
AcDbEntity
  8
0
100
AcDbSpline
 62
7
  6
BYLAYER
 70
0
 71
3
 72
13
 73
9
 74
0
 42
0.0000001
 43
0.0000001
 44
0.0000000001
 40
0.0
 40
0.0
 40
0.0
 40
0.0
 40
0.2491581944
 40
0.3790216466
 40
0.5095347962
 40
0.7640751506
 40
0.8850206201
 40
1.0
 40
1.0
 40
1.0
 40
1.0
 10
48.9533714389
 20
41.7918688052
 30
0.0
 10
49.2409429376
 20
41.7272721619
 30
0.0
 10
49.6897821245
 20
41.6756095879
 30
0.0
 10
50.2928951213
 20
41.6823959693
 30
0.0
 10
50.8997351937
 20
41.7404944938
 30
0.0
 10
51.487574336
 20
41.8747087743
 30
0.0
 10
52.0268345659
 20
42.0911265442
 30
0.0
 10
52.2736401823
 20
42.2230455238
 30
0.0
 10
52.3893011661
 20
42.2946138922
 30
0.0
  0
SPLINE
  5
394
100
AcDbEntity
  8
0
100
AcDbSpline
 62
7
  6
BYLAYER
 70
0
 71
3
 72
11
 73
7
 74
0
 42
0.0000001
 43
0.0000001
 44
0.0000000001
 40
0.0
 40
0.0
 40
0.0
 40
0.0
 40
0.2820448298
 40
0.5406937187
 40
0.777710551
 40
1.0
 40
1.0
 40
1.0
 40
1.0
 10
52.3893011661
 20
42.2946138922
 30
0.0
 10
52.5165813523
 20
42.3733719569
 30
0.0
 10
52.7506320474
 20
42.5416297236
 30
0.0
 10
53.0410706475
 20
42.8386223249
 30
0.0
 10
53.2425556263
 20
43.166129642
 30
0.0
 10
53.3146789772
 20
43.4024819725
 30
0.0
 10
53.3331854793
 20
43.5189866478
 30
0.0
  0
SPLINE
  5
395
100
AcDbEntity
  8
0
100
AcDbSpline
 62
7
  6
BYLAYER
 70
0
 71
3
 72
9
 73
5
 74
0
 42
0.0000001
 43
0.0000001
 44
0.0000000001
 40
0.0
 40
0.0
 40
0.0
 40
0.0
 40
0.2562358659
 40
1.0
 40
1.0
 40
1.0
 40
1.0
 10
54.0396839383
 20
17.9802363455
 30
0.0
 10
54.1303696556
 20
18.0103350574
 30
0.0
 10
54.4825517262
 20
18.1329135757
 30
0.0
 10
54.8276066845
 20
18.2763093546
 30
0.0
 10
55.0779457597
 20
18.3956947778
 30
0.0
  0
ENDSEC
  0
SECTION
  2
OBJECTS
  0
DICTIONARY
  5
C
100
AcDbDictionary
280
0
281
1
  3
ACAD_GROUP
350
D
  3
ACAD_MLINESTYLE
350
17
  3
ACAD_LAYOUT
350
1A
  3
ACAD_PLOTSETTINGS
350
19
  3
ACAD_PLOTSTYLENAME
350
E
  0
DICTIONARY
  5
D
102
{ACAD_REACTORS
330
C
102
}
100
AcDbDictionary
280
0
281
1
  0
ACDBDICTIONARYWDFLT
  5
E
102
{ACAD_REACTORS
330
C
102
}
100
AcDbDictionary
281
1
  3
Normal
350
F
100
AcDbDictionaryWithDefault
340
F
  0
DICTIONARY
  5
17
102
{ACAD_REACTORS
330
C
102
}
100
AcDbDictionary
280
0
281
1
  3
Standard
350
18
  0
DICTIONARY
  5
19
102
{ACAD_REACTORS
330
C
102
}
100
AcDbDictionary
281
1
  0
DICTIONARY
  5
1A
102
{ACAD_REACTORS
330
C
102
}
100
AcDbDictionary
281
1
  3
Model
350
396
  3
Layout1
350
397
  0
ACDBPLACEHOLDER
  5
F
102
{ACAD_REACTORS
330
E
102
}
  0
MLINESTYLE
  5
18
102
{ACAD_REACTORS
330
17
102
}
100
AcDbMlineStyle
  2
STANDARD
 70
0
  3

 62
256
 51
90.0
 52
90.0
 71
2
 49
0.5
 62
256
  6
BYLAYER
 49
-0.5
 62
256
  6
BYLAYER
  0
LAYOUT
  5
396
102
{ACAD_REACTORS
330
1A
102
}
100
AcDbPlotSettings
  1

  2
none_device
  4

  6

 40
0.0
 41
0.0
 42
0.0
 43
0.0
 44
210.0
 45
297.0
 46
0.0
 47
0.0
 48
0.0
 49
0.0
140
0.0
141
0.0
142
1.0
143
1.0
 70
1024
 72
1
 73
0
 74
0
  7

 75
0
147
1.0
148
0.0
149
0.0
100
AcDbLayout
  1
Model
 70
0
 71
0
 10
0.0
 20
0.0
 11
210.0
 21
297.0
 12
0.0
 22
0.0
 32
0.0
 14
0.0
 24
0.0
 34
0.0
 15
0.0
 25
0.0
 35
0.0
146
0.0
 13
0.0
 23
0.0
 33
0.0
 16
1.0
 26
0.0
 36
0.0
 17
0.0
 27
1.0
 37
0.0
 76
0
330
210
345
0
346
0
  0
LAYOUT
  5
397
102
{ACAD_REACTORS
330
1A
102
}
100
AcDbPlotSettings
  1

  2
none_device
  4

  6

 40
0.0
 41
0.0
 42
0.0
 43
0.0
 44
210.0
 45
297.0
 46
0.0
 47
0.0
 48
0.0
 49
0.0
140
0.0
141
0.0
142
1.0
143
1.0
 70
0
 72
1
 73
0
 74
0
  7

 75
0
147
1.0
148
0.0
149
0.0
100
AcDbLayout
  1
Layout1
 70
0
 71
1
 10
0.0
 20
0.0
 11
210.0
 21
297.0
 12
0.0
 22
0.0
 32
0.0
 14
0.0
 24
0.0
 34
0.0
 15
0.0
 25
0.0
 35
0.0
146
0.0
 13
0.0
 23
0.0
 33
0.0
 16
1.0
 26
0.0
 36
0.0
 17
0.0
 27
1.0
 37
0.0
 76
0
330
211
345
0
346
0
  0
ENDSEC
  0
EOF
