  0
SECTION
  2
HEADER
  9
$ACADVER
  1
AC1012
  9
$DWGCODEPAGE
  3
ANSI_1252
  9
$INSBASE
 10
0.0
 20
0.0
 30
0.0
  9
$EXTMIN
 10
4.416137728393238
 20
3.257858301114591
 30
-0.0015258207003583
  9
$EXTMAX
 10
7.876831077827176
 20
4.153244033867078
 30
0.0000000349246037
  9
$LIMMIN
 10
0.0
 20
0.0
  9
$LIMMAX
 10
12.0
 20
9.0
  9
$ORTHOMODE
 70
     0
  9
$REGENMODE
 70
     1
  9
$FILLMODE
 70
     1
  9
$QTEXTMODE
 70
     0
  9
$MIRRTEXT
 70
     1
  9
$DRAGMODE
 70
     2
  9
$LTSCALE
 40
1.0
  9
$OSMODE
 70
    37
  9
$ATTMODE
 70
     1
  9
$TEXTSIZE
 40
0.2
  9
$TRACEWID
 40
0.05
  9
$TEXTSTYLE
  7
STANDARD
  9
$CLAYER
  8
0
  9
$CELTYPE
  6
BYLAYER
  9
$CECOLOR
 62
   256
  9
$CELTSCALE
 40
1.0
  9
$DELOBJ
 70
     1
  9
$DISPSILH
 70
     0
  9
$DIMSCALE
 40
1.0
  9
$DIMASZ
 40
0.18
  9
$DIMEXO
 40
0.0625
  9
$DIMDLI
 40
0.38
  9
$DIMRND
 40
0.0
  9
$DIMDLE
 40
0.0
  9
$DIMEXE
 40
0.18
  9
$DIMTP
 40
0.0
  9
$DIMTM
 40
0.0
  9
$DIMTXT
 40
0.18
  9
$DIMCEN
 40
0.09
  9
$DIMTSZ
 40
0.0
  9
$DIMTOL
 70
     0
  9
$DIMLIM
 70
     0
  9
$DIMTIH
 70
     1
  9
$DIMTOH
 70
     1
  9
$DIMSE1
 70
     0
  9
$DIMSE2
 70
     0
  9
$DIMTAD
 70
     0
  9
$DIMZIN
 70
     0
  9
$DIMBLK
  1

  9
$DIMASO
 70
     1
  9
$DIMSHO
 70
     1
  9
$DIMPOST
  1

  9
$DIMAPOST
  1

  9
$DIMALT
 70
     0
  9
$DIMALTD
 70
     2
  9
$DIMALTF
 40
25.4
  9
$DIMLFAC
 40
1.0
  9
$DIMTOFL
 70
     0
  9
$DIMTVP
 40
0.0
  9
$DIMTIX
 70
     0
  9
$DIMSOXD
 70
     0
  9
$DIMSAH
 70
     0
  9
$DIMBLK1
  1

  9
$DIMBLK2
  1

  9
$DIMSTYLE
  2
STANDARD
  9
$DIMCLRD
 70
     0
  9
$DIMCLRE
 70
     0
  9
$DIMCLRT
 70
     0
  9
$DIMTFAC
 40
1.0
  9
$DIMGAP
 40
0.09
  9
$DIMJUST
 70
     0
  9
$DIMSD1
 70
     0
  9
$DIMSD2
 70
     0
  9
$DIMTOLJ
 70
     1
  9
$DIMTZIN
 70
     0
  9
$DIMALTZ
 70
     0
  9
$DIMALTTZ
 70
     0
  9
$DIMFIT
 70
     5
  9
$DIMUPT
 70
     0
  9
$DIMUNIT
 70
     2
  9
$DIMDEC
 70
     4
  9
$DIMTDEC
 70
     4
  9
$DIMALTU
 70
     2
  9
$DIMALTTD
 70
     2
  9
$DIMTXSTY
  7
STANDARD
  9
$DIMAUNIT
 70
     0
  9
$LUNITS
 70
     2
  9
$LUPREC
 70
     4
  9
$SKETCHINC
 40
0.1
  9
$FILLETRAD
 40
0.0
  9
$AUNITS
 70
     0
  9
$AUPREC
 70
     0
  9
$MENU
  1
acad
  9
$ELEVATION
 40
0.0
  9
$PELEVATION
 40
0.0
  9
$THICKNESS
 40
0.0
  9
$LIMCHECK
 70
     0
  9
$BLIPMODE
 70
     0
  9
$CHAMFERA
 40
0.0
  9
$CHAMFERB
 40
0.0
  9
$CHAMFERC
 40
0.0
  9
$CHAMFERD
 40
0.0
  9
$SKPOLY
 70
     0
  9
$TDCREATE
 40
2454231.586053240
  9
$TDUPDATE
 40
2454231.587824178
  9
$TDINDWG
 40
0.0009578125
  9
$TDUSRTIMER
 40
0.0009578125
  9
$USRTIMER
 70
     1
  9
$ANGBASE
 50
0.0
  9
$ANGDIR
 70
     0
  9
$PDMODE
 70
     0
  9
$PDSIZE
 40
0.0
  9
$PLINEWID
 40
0.0
  9
$COORDS
 70
     1
  9
$SPLFRAME
 70
     0
  9
$SPLINETYPE
 70
     6
  9
$SPLINESEGS
 70
     8
  9
$ATTDIA
 70
     0
  9
$ATTREQ
 70
     1
  9
$HANDLING
 70
  4097
  9
$HANDSEED
  5
3E98
  9
$SURFTAB1
 70
     6
  9
$SURFTAB2
 70
     6
  9
$SURFTYPE
 70
     6
  9
$SURFU
 70
     6
  9
$SURFV
 70
     6
  9
$UCSNAME
  2

  9
$UCSORG
 10
0.0
 20
0.0
 30
0.0
  9
$UCSXDIR
 10
1.0
 20
0.0
 30
0.0
  9
$UCSYDIR
 10
0.0
 20
1.0
 30
0.0
  9
$PUCSNAME
  2

  9
$PUCSORG
 10
0.0
 20
0.0
 30
0.0
  9
$PUCSXDIR
 10
1.0
 20
0.0
 30
0.0
  9
$PUCSYDIR
 10
0.0
 20
1.0
 30
0.0
  9
$USERI1
 70
     0
  9
$USERI2
 70
     0
  9
$USERI3
 70
     0
  9
$USERI4
 70
     0
  9
$USERI5
 70
     0
  9
$USERR1
 40
0.0
  9
$USERR2
 40
0.0
  9
$USERR3
 40
0.0
  9
$USERR4
 40
0.0
  9
$USERR5
 40
0.0
  9
$WORLDVIEW
 70
     1
  9
$SHADEDGE
 70
     3
  9
$SHADEDIF
 70
    70
  9
$TILEMODE
 70
     1
  9
$MAXACTVP
 70
    16
  9
$PINSBASE
 10
0.0
 20
0.0
 30
0.0
  9
$PLIMCHECK
 70
     0
  9
$PEXTMIN
 10
1.000000000000000E+20
 20
1.000000000000000E+20
 30
1.000000000000000E+20
  9
$PEXTMAX
 10
-1.000000000000000E+20
 20
-1.000000000000000E+20
 30
-1.000000000000000E+20
  9
$PLIMMIN
 10
0.0
 20
0.0
  9
$PLIMMAX
 10
12.0
 20
9.0
  9
$UNITMODE
 70
     0
  9
$VISRETAIN
 70
     0
  9
$PLINEGEN
 70
     0
  9
$PSLTSCALE
 70
     1
  9
$TREEDEPTH
 70
  3020
  9
$PICKSTYLE
 70
     1
  9
$CMLSTYLE
  2
STANDARD
  9
$CMLJUST
 70
     0
  9
$CMLSCALE
 40
1.0
  9
$SAVEIMAGES
 70
     1
  0
ENDSEC
  0
SECTION
  2
CLASSES
  0
CLASS
  1
ACDBDICTIONARYWDFLT
  2
AcDbDictionaryWithDefault
  3
AutoCAD 2000
 90
    32768
280
     0
281
     0
  0
CLASS
  1
ACDBPLACEHOLDER
  2
AcDbPlaceHolder
  3
AutoCAD 2000
 90
    32768
280
     0
281
     0
  0
CLASS
  1
LAYOUT
  2
AcDbLayout
  3
AutoCAD 2000
 90
    32768
280
     0
281
     0
  0
CLASS
  1
LONG_TRANSACTION
  2
AcDbLongTransaction
  3
AutoCAD 2000
 90
    32768
280
     0
281
     0
  0
CLASS
  1
LWPOLYLINE
  2
AcDbPolyline
  3
AutoCAD 2000
 90
    32768
280
     0
281
     1
  0
CLASS
  1
HATCH
  2
AcDbHatch
  3
AutoCAD 2000
 90
    32768
280
     0
281
     1
  0
CLASS
  1
XRECORD
  2
AcDbXrecord
  3
AutoCAD 2000
 90
    32768
280
     0
281
     0
  0
ENDSEC
  0
SECTION
  2
TABLES
  0
TABLE
  2
VPORT
  5
8
330
0
100
AcDbSymbolTable
 70
     3
  0
VPORT
  5
3CD4
330
8
100
AcDbSymbolTableRecord
100
AcDbViewportTableRecord
  2
*ACTIVE
 70
     0
 10
0.0
 20
0.0
 11
1.0
 21
1.0
 12
6.146484403110207
 22
3.705551167490835
 13
0.0
 23
0.0
 14
1.0
 24
1.0
 15
0.0
 25
0.0
 16
0.0
 26
0.0
 36
1.0
 17
0.0
 27
0.0
 37
0.0
 40
1.894766590391561
 41
1.838323353293413
 42
50.0
 43
0.0
 44
0.0
 50
0.0
 51
0.0
 71
     0
 72
   100
 73
     1
 74
     1
 75
     0
 76
     0
 77
     0
 78
     0
  0
ENDTAB
  0
TABLE
  2
LTYPE
  5
5
330
0
100
AcDbSymbolTable
 70
    25
  0
LTYPE
  5
13
330
5
100
AcDbSymbolTableRecord
100
AcDbLinetypeTableRecord
  2
BYBLOCK
 70
     0
  3

 72
    65
 73
     0
 40
0.0
  0
LTYPE
  5
14
330
5
100
AcDbSymbolTableRecord
100
AcDbLinetypeTableRecord
  2
BYLAYER
 70
     0
  3

 72
    65
 73
     0
 40
0.0
  0
LTYPE
  5
15
330
5
100
AcDbSymbolTableRecord
100
AcDbLinetypeTableRecord
  2
CONTINUOUS
 70
     0
  3
Solid line
 72
    65
 73
     0
 40
0.0
  0
LTYPE
  5
22
330
5
100
AcDbSymbolTableRecord
100
AcDbLinetypeTableRecord
  2
BORDER
 70
     0
  3
__ __ . __ __ . __ __ . __ __ . __ __ . __ __ .
 72
    65
 73
     6
 40
1.75
 49
0.5
 74
     0
 49
-0.25
 74
     0
 49
0.5
 74
     0
 49
-0.25
 74
     0
 49
0.5
 74
     0
 49
-0.25
 74
     0
  0
LTYPE
  5
23
330
5
100
AcDbSymbolTableRecord
100
AcDbLinetypeTableRecord
  2
BORDER2
 70
     0
  3
__.__.__.__.__.__.__.__.
 72
    65
 73
     6
 40
0.875
 49
0.25
 74
     0
 49
-0.125
 74
     0
 49
0.25
 74
     0
 49
-0.125
 74
     0
 49
0.25
 74
     0
 49
-0.125
 74
     0
  0
LTYPE
  5
24
330
5
100
AcDbSymbolTableRecord
100
AcDbLinetypeTableRecord
  2
BORDERX2
 70
     0
  3
____  ____  .  
 72
    65
 73
     6
 40
3.5
 49
1.0
 74
     0
 49
-0.5
 74
     0
 49
1.0
 74
     0
 49
-0.5
 74
     0
 49
1.0
 74
     0
 49
-0.5
 74
     0
  0
LTYPE
  5
25
330
5
100
AcDbSymbolTableRecord
100
AcDbLinetypeTableRecord
  2
CENTER
 70
     0
  3
____ _ ____ _ ____ _ 
 72
    65
 73
     4
 40
2.0
 49
1.25
 74
     0
 49
-0.25
 74
     0
 49
0.25
 74
     0
 49
-0.25
 74
     0
  0
LTYPE
  5
26
330
5
100
AcDbSymbolTableRecord
100
AcDbLinetypeTableRecord
  2
CENTER2
 70
     0
  3
____ _ ____ _ ____ _ 
 72
    65
 73
     4
 40
1.125
 49
0.75
 74
     0
 49
-0.125
 74
     0
 49
0.125
 74
     0
 49
-0.125
 74
     0
  0
LTYPE
  5
27
330
5
100
AcDbSymbolTableRecord
100
AcDbLinetypeTableRecord
  2
CENTERX2
 70
     0
  3
________  __  
 72
    65
 73
     4
 40
4.0
 49
2.5
 74
     0
 49
-0.5
 74
     0
 49
0.5
 74
     0
 49
-0.5
 74
     0
  0
LTYPE
  5
28
330
5
100
AcDbSymbolTableRecord
100
AcDbLinetypeTableRecord
  2
DASHDOT
 70
     0
  3
__ . __ . __ . __ . 
 72
    65
 73
     4
 40
1.0
 49
0.5
 74
     0
 49
-0.25
 74
     0
 49
0.0
 74
     0
 49
-0.25
 74
     0
  0
LTYPE
  5
29
330
5
100
AcDbSymbolTableRecord
100
AcDbLinetypeTableRecord
  2
DASHDOT2
 70
     0
  3
_._._._._._._._._.
 72
    65
 73
     4
 40
0.5
 49
0.25
 74
     0
 49
-0.125
 74
     0
 49
0.0
 74
     0
 49
-0.125
 74
     0
  0
LTYPE
  5
2A
330
5
100
AcDbSymbolTableRecord
100
AcDbLinetypeTableRecord
  2
DASHDOTX2
 70
     0
  3
____  .  ____  .  
 72
    65
 73
     4
 40
2.0
 49
1.0
 74
     0
 49
-0.5
 74
     0
 49
0.0
 74
     0
 49
-0.5
 74
     0
  0
LTYPE
  5
2B
330
5
100
AcDbSymbolTableRecord
100
AcDbLinetypeTableRecord
  2
DASHED
 70
     0
  3
__ __ __ __ __ __ __ 
 72
    65
 73
     2
 40
0.75
 49
0.5
 74
     0
 49
-0.25
 74
     0
  0
LTYPE
  5
2C
330
5
100
AcDbSymbolTableRecord
100
AcDbLinetypeTableRecord
  2
DASHED2
 70
     0
  3
_ _ _ _ _ _ _ _ _ _ 
 72
    65
 73
     2
 40
0.375
 49
0.25
 74
     0
 49
-0.125
 74
     0
  0
LTYPE
  5
2D
330
5
100
AcDbSymbolTableRecord
100
AcDbLinetypeTableRecord
  2
DASHEDX2
 70
     0
  3
____  ____  ____  
 72
    65
 73
     2
 40
1.5
 49
1.0
 74
     0
 49
-0.5
 74
     0
  0
LTYPE
  5
2E
330
5
100
AcDbSymbolTableRecord
100
AcDbLinetypeTableRecord
  2
DIVIDE
 70
     0
  3
____ . . ____ . . 
 72
    65
 73
     6
 40
1.25
 49
0.5
 74
     0
 49
-0.25
 74
     0
 49
0.0
 74
     0
 49
-0.25
 74
     0
 49
0.0
 74
     0
 49
-0.25
 74
     0
  0
LTYPE
  5
2F
330
5
100
AcDbSymbolTableRecord
100
AcDbLinetypeTableRecord
  2
DIVIDE2
 70
     0
  3
__..__..__..__..__..
 72
    65
 73
     6
 40
0.625
 49
0.25
 74
     0
 49
-0.125
 74
     0
 49
0.0
 74
     0
 49
-0.125
 74
     0
 49
0.0
 74
     0
 49
-0.125
 74
     0
  0
LTYPE
  5
30
330
5
100
AcDbSymbolTableRecord
100
AcDbLinetypeTableRecord
  2
DIVIDEX2
 70
     0
  3
________  .  .  
 72
    65
 73
     6
 40
2.5
 49
1.0
 74
     0
 49
-0.5
 74
     0
 49
0.0
 74
     0
 49
-0.5
 74
     0
 49
0.0
 74
     0
 49
-0.5
 74
     0
  0
LTYPE
  5
31
330
5
100
AcDbSymbolTableRecord
100
AcDbLinetypeTableRecord
  2
DOT
 70
     0
  3
. . . . . . . . . 
 72
    65
 73
     2
 40
0.25
 49
0.0
 74
     0
 49
-0.25
 74
     0
  0
LTYPE
  5
32
330
5
100
AcDbSymbolTableRecord
100
AcDbLinetypeTableRecord
  2
DOT2
 70
     0
  3
..................
 72
    65
 73
     2
 40
0.125
 49
0.0
 74
     0
 49
-0.125
 74
     0
  0
LTYPE
  5
33
330
5
100
AcDbSymbolTableRecord
100
AcDbLinetypeTableRecord
  2
DOTX2
 70
     0
  3
.  .  .  .  .  .  
 72
    65
 73
     2
 40
0.5
 49
0.0
 74
     0
 49
-0.5
 74
     0
  0
LTYPE
  5
34
330
5
100
AcDbSymbolTableRecord
100
AcDbLinetypeTableRecord
  2
HIDDEN
 70
     0
  3
__ __ __ __ __ __ 
 72
    65
 73
     2
 40
0.375
 49
0.25
 74
     0
 49
-0.125
 74
     0
  0
LTYPE
  5
35
330
5
100
AcDbSymbolTableRecord
100
AcDbLinetypeTableRecord
  2
HIDDEN2
 70
     0
  3
_ _ _ _ _ _ _ _ _ 
 72
    65
 73
     2
 40
0.1875
 49
0.125
 74
     0
 49
-0.0625
 74
     0
  0
LTYPE
  5
36
330
5
100
AcDbSymbolTableRecord
100
AcDbLinetypeTableRecord
  2
HIDDENX2
 70
     0
  3
____ ____ ____ ____ 
 72
    65
 73
     2
 40
0.75
 49
0.5
 74
     0
 49
-0.25
 74
     0
  0
LTYPE
  5
37
330
5
100
AcDbSymbolTableRecord
100
AcDbLinetypeTableRecord
  2
PHANTOM
 70
     0
  3
______  __  __  
 72
    65
 73
     6
 40
2.5
 49
1.25
 74
     0
 49
-0.25
 74
     0
 49
0.25
 74
     0
 49
-0.25
 74
     0
 49
0.25
 74
     0
 49
-0.25
 74
     0
  0
LTYPE
  5
38
330
5
100
AcDbSymbolTableRecord
100
AcDbLinetypeTableRecord
  2
PHANTOM2
 70
     0
  3
___ _ _ ___ _ _ 
 72
    65
 73
     6
 40
1.25
 49
0.625
 74
     0
 49
-0.125
 74
     0
 49
0.125
 74
     0
 49
-0.125
 74
     0
 49
0.125
 74
     0
 49
-0.125
 74
     0
  0
LTYPE
  5
39
330
5
100
AcDbSymbolTableRecord
100
AcDbLinetypeTableRecord
  2
PHANTOMX2
 70
     0
  3
___ _ _ ___ _ _ 
 72
    65
 73
     6
 40
5.0
 49
2.5
 74
     0
 49
-0.5
 74
     0
 49
0.5
 74
     0
 49
-0.5
 74
     0
 49
0.5
 74
     0
 49
-0.5
 74
     0
  0
ENDTAB
  0
TABLE
  2
LAYER
  5
2
330
0
100
AcDbSymbolTable
 70
   256
  0
LAYER
  5
10
330
2
100
AcDbSymbolTableRecord
100
AcDbLayerTableRecord
  2
0
 70
     0
 62
     7
  6
CONTINUOUS
  0
LAYER
  5
3A
330
2
100
AcDbSymbolTableRecord
100
AcDbLayerTableRecord
  2
1
 70
     0
 62
     1
  6
CONTINUOUS
  0
LAYER
  5
3B
330
2
100
AcDbSymbolTableRecord
100
AcDbLayerTableRecord
  2
2
 70
     0
 62
     2
  6
CONTINUOUS
  0
LAYER
  5
3C
330
2
100
AcDbSymbolTableRecord
100
AcDbLayerTableRecord
  2
3
 70
     0
 62
     3
  6
CONTINUOUS
  0
LAYER
  5
3D
330
2
100
AcDbSymbolTableRecord
100
AcDbLayerTableRecord
  2
4
 70
     0
 62
     4
  6
CONTINUOUS
  0
LAYER
  5
3E
330
2
100
AcDbSymbolTableRecord
100
AcDbLayerTableRecord
  2
5
 70
     0
 62
     5
  6
CONTINUOUS
  0
LAYER
  5
3F
330
2
100
AcDbSymbolTableRecord
100
AcDbLayerTableRecord
  2
6
 70
     0
 62
     6
  6
CONTINUOUS
  0
LAYER
  5
40
330
2
100
AcDbSymbolTableRecord
100
AcDbLayerTableRecord
  2
7
 70
     0
 62
     7
  6
CONTINUOUS
  0
LAYER
  5
41
330
2
100
AcDbSymbolTableRecord
100
AcDbLayerTableRecord
  2
8
 70
     0
 62
     8
  6
CONTINUOUS
  0
LAYER
  5
42
330
2
100
AcDbSymbolTableRecord
100
AcDbLayerTableRecord
  2
9
 70
     0
 62
     9
  6
CONTINUOUS
  0
LAYER
  5
43
330
2
100
AcDbSymbolTableRecord
100
AcDbLayerTableRecord
  2
10
 70
     0
 62
    10
  6
CONTINUOUS
  0
LAYER
  5
44
330
2
100
AcDbSymbolTableRecord
100
AcDbLayerTableRecord
  2
11
 70
     0
 62
    11
  6
CONTINUOUS
  0
LAYER
  5
45
330
2
100
AcDbSymbolTableRecord
100
AcDbLayerTableRecord
  2
12
 70
     0
 62
    12
  6
CONTINUOUS
  0
LAYER
  5
46
330
2
100
AcDbSymbolTableRecord
100
AcDbLayerTableRecord
  2
13
 70
     0
 62
    13
  6
CONTINUOUS
  0
LAYER
  5
47
330
2
100
AcDbSymbolTableRecord
100
AcDbLayerTableRecord
  2
14
 70
     0
 62
    14
  6
CONTINUOUS
  0
LAYER
  5
48
330
2
100
AcDbSymbolTableRecord
100
AcDbLayerTableRecord
  2
15
 70
     0
 62
    15
  6
CONTINUOUS
  0
LAYER
  5
49
330
2
100
AcDbSymbolTableRecord
100
AcDbLayerTableRecord
  2
16
 70
     0
 62
    16
  6
CONTINUOUS
  0
LAYER
  5
4A
330
2
100
AcDbSymbolTableRecord
100
AcDbLayerTableRecord
  2
17
 70
     0
 62
    17
  6
CONTINUOUS
  0
LAYER
  5
4B
330
2
100
AcDbSymbolTableRecord
100
AcDbLayerTableRecord
  2
18
 70
     0
 62
    18
  6
CONTINUOUS
  0
LAYER
  5
4C
330
2
100
AcDbSymbolTableRecord
100
AcDbLayerTableRecord
  2
19
 70
     0
 62
    19
  6
CONTINUOUS
  0
LAYER
  5
4D
330
2
100
AcDbSymbolTableRecord
100
AcDbLayerTableRecord
  2
20
 70
     0
 62
    20
  6
CONTINUOUS
  0
LAYER
  5
4E
330
2
100
AcDbSymbolTableRecord
100
AcDbLayerTableRecord
  2
21
 70
     0
 62
    21
  6
CONTINUOUS
  0
LAYER
  5
4F
330
2
100
AcDbSymbolTableRecord
100
AcDbLayerTableRecord
  2
22
 70
     0
 62
    22
  6
CONTINUOUS
  0
LAYER
  5
50
330
2
100
AcDbSymbolTableRecord
100
AcDbLayerTableRecord
  2
23
 70
     0
 62
    23
  6
CONTINUOUS
  0
LAYER
  5
51
330
2
100
AcDbSymbolTableRecord
100
AcDbLayerTableRecord
  2
24
 70
     0
 62
    24
  6
CONTINUOUS
  0
LAYER
  5
52
330
2
100
AcDbSymbolTableRecord
100
AcDbLayerTableRecord
  2
25
 70
     0
 62
    25
  6
CONTINUOUS
  0
LAYER
  5
53
330
2
100
AcDbSymbolTableRecord
100
AcDbLayerTableRecord
  2
26
 70
     0
 62
    26
  6
CONTINUOUS
  0
LAYER
  5
54
330
2
100
AcDbSymbolTableRecord
100
AcDbLayerTableRecord
  2
27
 70
     0
 62
    27
  6
CONTINUOUS
  0
LAYER
  5
55
330
2
100
AcDbSymbolTableRecord
100
AcDbLayerTableRecord
  2
28
 70
     0
 62
    28
  6
CONTINUOUS
  0
LAYER
  5
56
330
2
100
AcDbSymbolTableRecord
100
AcDbLayerTableRecord
  2
29
 70
     0
 62
    29
  6
CONTINUOUS
  0
LAYER
  5
57
330
2
100
AcDbSymbolTableRecord
100
AcDbLayerTableRecord
  2
30
 70
     0
 62
    30
  6
CONTINUOUS
  0
LAYER
  5
58
330
2
100
AcDbSymbolTableRecord
100
AcDbLayerTableRecord
  2
31
 70
     0
 62
    31
  6
CONTINUOUS
  0
LAYER
  5
59
330
2
100
AcDbSymbolTableRecord
100
AcDbLayerTableRecord
  2
32
 70
     0
 62
    32
  6
CONTINUOUS
  0
LAYER
  5
5A
330
2
100
AcDbSymbolTableRecord
100
AcDbLayerTableRecord
  2
33
 70
     0
 62
    33
  6
CONTINUOUS
  0
LAYER
  5
5B
330
2
100
AcDbSymbolTableRecord
100
AcDbLayerTableRecord
  2
34
 70
     0
 62
    34
  6
CONTINUOUS
  0
LAYER
  5
5C
330
2
100
AcDbSymbolTableRecord
100
AcDbLayerTableRecord
  2
35
 70
     0
 62
    35
  6
CONTINUOUS
  0
LAYER
  5
5D
330
2
100
AcDbSymbolTableRecord
100
AcDbLayerTableRecord
  2
36
 70
     0
 62
    36
  6
CONTINUOUS
  0
LAYER
  5
5E
330
2
100
AcDbSymbolTableRecord
100
AcDbLayerTableRecord
  2
37
 70
     0
 62
    37
  6
CONTINUOUS
  0
LAYER
  5
5F
330
2
100
AcDbSymbolTableRecord
100
AcDbLayerTableRecord
  2
38
 70
     0
 62
    38
  6
CONTINUOUS
  0
LAYER
  5
60
330
2
100
AcDbSymbolTableRecord
100
AcDbLayerTableRecord
  2
39
 70
     0
 62
    39
  6
CONTINUOUS
  0
LAYER
  5
61
330
2
100
AcDbSymbolTableRecord
100
AcDbLayerTableRecord
  2
40
 70
     0
 62
    40
  6
CONTINUOUS
  0
LAYER
  5
62
330
2
100
AcDbSymbolTableRecord
100
AcDbLayerTableRecord
  2
41
 70
     0
 62
    41
  6
CONTINUOUS
  0
LAYER
  5
63
330
2
100
AcDbSymbolTableRecord
100
AcDbLayerTableRecord
  2
42
 70
     0
 62
    42
  6
CONTINUOUS
  0
LAYER
  5
64
330
2
100
AcDbSymbolTableRecord
100
AcDbLayerTableRecord
  2
43
 70
     0
 62
    43
  6
CONTINUOUS
  0
LAYER
  5
65
330
2
100
AcDbSymbolTableRecord
100
AcDbLayerTableRecord
  2
44
 70
     0
 62
    44
  6
CONTINUOUS
  0
LAYER
  5
66
330
2
100
AcDbSymbolTableRecord
100
AcDbLayerTableRecord
  2
45
 70
     0
 62
    45
  6
CONTINUOUS
  0
LAYER
  5
67
330
2
100
AcDbSymbolTableRecord
100
AcDbLayerTableRecord
  2
46
 70
     0
 62
    46
  6
CONTINUOUS
  0
LAYER
  5
68
330
2
100
AcDbSymbolTableRecord
100
AcDbLayerTableRecord
  2
47
 70
     0
 62
    47
  6
CONTINUOUS
  0
LAYER
  5
69
330
2
100
AcDbSymbolTableRecord
100
AcDbLayerTableRecord
  2
48
 70
     0
 62
    48
  6
CONTINUOUS
  0
LAYER
  5
6A
330
2
100
AcDbSymbolTableRecord
100
AcDbLayerTableRecord
  2
49
 70
     0
 62
    49
  6
CONTINUOUS
  0
LAYER
  5
6B
330
2
100
AcDbSymbolTableRecord
100
AcDbLayerTableRecord
  2
50
 70
     0
 62
    50
  6
CONTINUOUS
  0
LAYER
  5
6C
330
2
100
AcDbSymbolTableRecord
100
AcDbLayerTableRecord
  2
51
 70
     0
 62
    51
  6
CONTINUOUS
  0
LAYER
  5
6D
330
2
100
AcDbSymbolTableRecord
100
AcDbLayerTableRecord
  2
52
 70
     0
 62
    52
  6
CONTINUOUS
  0
LAYER
  5
6E
330
2
100
AcDbSymbolTableRecord
100
AcDbLayerTableRecord
  2
53
 70
     0
 62
    53
  6
CONTINUOUS
  0
LAYER
  5
6F
330
2
100
AcDbSymbolTableRecord
100
AcDbLayerTableRecord
  2
54
 70
     0
 62
    54
  6
CONTINUOUS
  0
LAYER
  5
70
330
2
100
AcDbSymbolTableRecord
100
AcDbLayerTableRecord
  2
55
 70
     0
 62
    55
  6
CONTINUOUS
  0
LAYER
  5
71
330
2
100
AcDbSymbolTableRecord
100
AcDbLayerTableRecord
  2
56
 70
     0
 62
    56
  6
CONTINUOUS
  0
LAYER
  5
72
330
2
100
AcDbSymbolTableRecord
100
AcDbLayerTableRecord
  2
57
 70
     0
 62
    57
  6
CONTINUOUS
  0
LAYER
  5
73
330
2
100
AcDbSymbolTableRecord
100
AcDbLayerTableRecord
  2
58
 70
     0
 62
    58
  6
CONTINUOUS
  0
LAYER
  5
74
330
2
100
AcDbSymbolTableRecord
100
AcDbLayerTableRecord
  2
59
 70
     0
 62
    59
  6
CONTINUOUS
  0
LAYER
  5
75
330
2
100
AcDbSymbolTableRecord
100
AcDbLayerTableRecord
  2
60
 70
     0
 62
    60
  6
CONTINUOUS
  0
LAYER
  5
76
330
2
100
AcDbSymbolTableRecord
100
AcDbLayerTableRecord
  2
61
 70
     0
 62
    61
  6
CONTINUOUS
  0
LAYER
  5
77
330
2
100
AcDbSymbolTableRecord
100
AcDbLayerTableRecord
  2
62
 70
     0
 62
    62
  6
CONTINUOUS
  0
LAYER
  5
78
330
2
100
AcDbSymbolTableRecord
100
AcDbLayerTableRecord
  2
63
 70
     0
 62
    63
  6
CONTINUOUS
  0
LAYER
  5
79
330
2
100
AcDbSymbolTableRecord
100
AcDbLayerTableRecord
  2
64
 70
     0
 62
    64
  6
CONTINUOUS
  0
LAYER
  5
7A
330
2
100
AcDbSymbolTableRecord
100
AcDbLayerTableRecord
  2
65
 70
     0
 62
    65
  6
CONTINUOUS
  0
LAYER
  5
7B
330
2
100
AcDbSymbolTableRecord
100
AcDbLayerTableRecord
  2
66
 70
     0
 62
    66
  6
CONTINUOUS
  0
LAYER
  5
7C
330
2
100
AcDbSymbolTableRecord
100
AcDbLayerTableRecord
  2
67
 70
     0
 62
    67
  6
CONTINUOUS
  0
LAYER
  5
7D
330
2
100
AcDbSymbolTableRecord
100
AcDbLayerTableRecord
  2
68
 70
     0
 62
    68
  6
CONTINUOUS
  0
LAYER
  5
7E
330
2
100
AcDbSymbolTableRecord
100
AcDbLayerTableRecord
  2
69
 70
     0
 62
    69
  6
CONTINUOUS
  0
LAYER
  5
7F
330
2
100
AcDbSymbolTableRecord
100
AcDbLayerTableRecord
  2
70
 70
     0
 62
    70
  6
CONTINUOUS
  0
LAYER
  5
80
330
2
100
AcDbSymbolTableRecord
100
AcDbLayerTableRecord
  2
71
 70
     0
 62
    71
  6
CONTINUOUS
  0
LAYER
  5
81
330
2
100
AcDbSymbolTableRecord
100
AcDbLayerTableRecord
  2
72
 70
     0
 62
    72
  6
CONTINUOUS
  0
LAYER
  5
82
330
2
100
AcDbSymbolTableRecord
100
AcDbLayerTableRecord
  2
73
 70
     0
 62
    73
  6
CONTINUOUS
  0
LAYER
  5
83
330
2
100
AcDbSymbolTableRecord
100
AcDbLayerTableRecord
  2
74
 70
     0
 62
    74
  6
CONTINUOUS
  0
LAYER
  5
84
330
2
100
AcDbSymbolTableRecord
100
AcDbLayerTableRecord
  2
75
 70
     0
 62
    75
  6
CONTINUOUS
  0
LAYER
  5
85
330
2
100
AcDbSymbolTableRecord
100
AcDbLayerTableRecord
  2
76
 70
     0
 62
    76
  6
CONTINUOUS
  0
LAYER
  5
86
330
2
100
AcDbSymbolTableRecord
100
AcDbLayerTableRecord
  2
77
 70
     0
 62
    77
  6
CONTINUOUS
  0
LAYER
  5
87
330
2
100
AcDbSymbolTableRecord
100
AcDbLayerTableRecord
  2
78
 70
     0
 62
    78
  6
CONTINUOUS
  0
LAYER
  5
88
330
2
100
AcDbSymbolTableRecord
100
AcDbLayerTableRecord
  2
79
 70
     0
 62
    79
  6
CONTINUOUS
  0
LAYER
  5
89
330
2
100
AcDbSymbolTableRecord
100
AcDbLayerTableRecord
  2
80
 70
     0
 62
    80
  6
CONTINUOUS
  0
LAYER
  5
8A
330
2
100
AcDbSymbolTableRecord
100
AcDbLayerTableRecord
  2
81
 70
     0
 62
    81
  6
CONTINUOUS
  0
LAYER
  5
8B
330
2
100
AcDbSymbolTableRecord
100
AcDbLayerTableRecord
  2
82
 70
     0
 62
    82
  6
CONTINUOUS
  0
LAYER
  5
8C
330
2
100
AcDbSymbolTableRecord
100
AcDbLayerTableRecord
  2
83
 70
     0
 62
    83
  6
CONTINUOUS
  0
LAYER
  5
8D
330
2
100
AcDbSymbolTableRecord
100
AcDbLayerTableRecord
  2
84
 70
     0
 62
    84
  6
CONTINUOUS
  0
LAYER
  5
8E
330
2
100
AcDbSymbolTableRecord
100
AcDbLayerTableRecord
  2
85
 70
     0
 62
    85
  6
CONTINUOUS
  0
LAYER
  5
8F
330
2
100
AcDbSymbolTableRecord
100
AcDbLayerTableRecord
  2
86
 70
     0
 62
    86
  6
CONTINUOUS
  0
LAYER
  5
90
330
2
100
AcDbSymbolTableRecord
100
AcDbLayerTableRecord
  2
87
 70
     0
 62
    87
  6
CONTINUOUS
  0
LAYER
  5
91
330
2
100
AcDbSymbolTableRecord
100
AcDbLayerTableRecord
  2
88
 70
     0
 62
    88
  6
CONTINUOUS
  0
LAYER
  5
92
330
2
100
AcDbSymbolTableRecord
100
AcDbLayerTableRecord
  2
89
 70
     0
 62
    89
  6
CONTINUOUS
  0
LAYER
  5
93
330
2
100
AcDbSymbolTableRecord
100
AcDbLayerTableRecord
  2
90
 70
     0
 62
    90
  6
CONTINUOUS
  0
LAYER
  5
94
330
2
100
AcDbSymbolTableRecord
100
AcDbLayerTableRecord
  2
91
 70
     0
 62
    91
  6
CONTINUOUS
  0
LAYER
  5
95
330
2
100
AcDbSymbolTableRecord
100
AcDbLayerTableRecord
  2
92
 70
     0
 62
    92
  6
CONTINUOUS
  0
LAYER
  5
96
330
2
100
AcDbSymbolTableRecord
100
AcDbLayerTableRecord
  2
93
 70
     0
 62
    93
  6
CONTINUOUS
  0
LAYER
  5
97
330
2
100
AcDbSymbolTableRecord
100
AcDbLayerTableRecord
  2
94
 70
     0
 62
    94
  6
CONTINUOUS
  0
LAYER
  5
98
330
2
100
AcDbSymbolTableRecord
100
AcDbLayerTableRecord
  2
95
 70
     0
 62
    95
  6
CONTINUOUS
  0
LAYER
  5
99
330
2
100
AcDbSymbolTableRecord
100
AcDbLayerTableRecord
  2
96
 70
     0
 62
    96
  6
CONTINUOUS
  0
LAYER
  5
9A
330
2
100
AcDbSymbolTableRecord
100
AcDbLayerTableRecord
  2
97
 70
     0
 62
    97
  6
CONTINUOUS
  0
LAYER
  5
9B
330
2
100
AcDbSymbolTableRecord
100
AcDbLayerTableRecord
  2
98
 70
     0
 62
    98
  6
CONTINUOUS
  0
LAYER
  5
9C
330
2
100
AcDbSymbolTableRecord
100
AcDbLayerTableRecord
  2
99
 70
     0
 62
    99
  6
CONTINUOUS
  0
LAYER
  5
9D
330
2
100
AcDbSymbolTableRecord
100
AcDbLayerTableRecord
  2
100
 70
     0
 62
   100
  6
CONTINUOUS
  0
LAYER
  5
9E
330
2
100
AcDbSymbolTableRecord
100
AcDbLayerTableRecord
  2
101
 70
     0
 62
   101
  6
CONTINUOUS
  0
LAYER
  5
9F
330
2
100
AcDbSymbolTableRecord
100
AcDbLayerTableRecord
  2
102
 70
     0
 62
   102
  6
CONTINUOUS
  0
LAYER
  5
A0
330
2
100
AcDbSymbolTableRecord
100
AcDbLayerTableRecord
  2
103
 70
     0
 62
   103
  6
CONTINUOUS
  0
LAYER
  5
A1
330
2
100
AcDbSymbolTableRecord
100
AcDbLayerTableRecord
  2
104
 70
     0
 62
   104
  6
CONTINUOUS
  0
LAYER
  5
A2
330
2
100
AcDbSymbolTableRecord
100
AcDbLayerTableRecord
  2
105
 70
     0
 62
   105
  6
CONTINUOUS
  0
LAYER
  5
A3
330
2
100
AcDbSymbolTableRecord
100
AcDbLayerTableRecord
  2
106
 70
     0
 62
   106
  6
CONTINUOUS
  0
LAYER
  5
A4
330
2
100
AcDbSymbolTableRecord
100
AcDbLayerTableRecord
  2
107
 70
     0
 62
   107
  6
CONTINUOUS
  0
LAYER
  5
A5
330
2
100
AcDbSymbolTableRecord
100
AcDbLayerTableRecord
  2
108
 70
     0
 62
   108
  6
CONTINUOUS
  0
LAYER
  5
A6
330
2
100
AcDbSymbolTableRecord
100
AcDbLayerTableRecord
  2
109
 70
     0
 62
   109
  6
CONTINUOUS
  0
LAYER
  5
A7
330
2
100
AcDbSymbolTableRecord
100
AcDbLayerTableRecord
  2
110
 70
     0
 62
   110
  6
CONTINUOUS
  0
LAYER
  5
A8
330
2
100
AcDbSymbolTableRecord
100
AcDbLayerTableRecord
  2
111
 70
     0
 62
   111
  6
CONTINUOUS
  0
LAYER
  5
A9
330
2
100
AcDbSymbolTableRecord
100
AcDbLayerTableRecord
  2
112
 70
     0
 62
   112
  6
CONTINUOUS
  0
LAYER
  5
AA
330
2
100
AcDbSymbolTableRecord
100
AcDbLayerTableRecord
  2
113
 70
     0
 62
   113
  6
CONTINUOUS
  0
LAYER
  5
AB
330
2
100
AcDbSymbolTableRecord
100
AcDbLayerTableRecord
  2
114
 70
     0
 62
   114
  6
CONTINUOUS
  0
LAYER
  5
AC
330
2
100
AcDbSymbolTableRecord
100
AcDbLayerTableRecord
  2
115
 70
     0
 62
   115
  6
CONTINUOUS
  0
LAYER
  5
AD
330
2
100
AcDbSymbolTableRecord
100
AcDbLayerTableRecord
  2
116
 70
     0
 62
   116
  6
CONTINUOUS
  0
LAYER
  5
AE
330
2
100
AcDbSymbolTableRecord
100
AcDbLayerTableRecord
  2
117
 70
     0
 62
   117
  6
CONTINUOUS
  0
LAYER
  5
AF
330
2
100
AcDbSymbolTableRecord
100
AcDbLayerTableRecord
  2
118
 70
     0
 62
   118
  6
CONTINUOUS
  0
LAYER
  5
B0
330
2
100
AcDbSymbolTableRecord
100
AcDbLayerTableRecord
  2
119
 70
     0
 62
   119
  6
CONTINUOUS
  0
LAYER
  5
B1
330
2
100
AcDbSymbolTableRecord
100
AcDbLayerTableRecord
  2
120
 70
     0
 62
   120
  6
CONTINUOUS
  0
LAYER
  5
B2
330
2
100
AcDbSymbolTableRecord
100
AcDbLayerTableRecord
  2
121
 70
     0
 62
   121
  6
CONTINUOUS
  0
LAYER
  5
B3
330
2
100
AcDbSymbolTableRecord
100
AcDbLayerTableRecord
  2
122
 70
     0
 62
   122
  6
CONTINUOUS
  0
LAYER
  5
B4
330
2
100
AcDbSymbolTableRecord
100
AcDbLayerTableRecord
  2
123
 70
     0
 62
   123
  6
CONTINUOUS
  0
LAYER
  5
B5
330
2
100
AcDbSymbolTableRecord
100
AcDbLayerTableRecord
  2
124
 70
     0
 62
   124
  6
CONTINUOUS
  0
LAYER
  5
B6
330
2
100
AcDbSymbolTableRecord
100
AcDbLayerTableRecord
  2
125
 70
     0
 62
   125
  6
CONTINUOUS
  0
LAYER
  5
B7
330
2
100
AcDbSymbolTableRecord
100
AcDbLayerTableRecord
  2
126
 70
     0
 62
   126
  6
CONTINUOUS
  0
LAYER
  5
B8
330
2
100
AcDbSymbolTableRecord
100
AcDbLayerTableRecord
  2
127
 70
     0
 62
   127
  6
CONTINUOUS
  0
LAYER
  5
B9
330
2
100
AcDbSymbolTableRecord
100
AcDbLayerTableRecord
  2
128
 70
     0
 62
   128
  6
CONTINUOUS
  0
LAYER
  5
BA
330
2
100
AcDbSymbolTableRecord
100
AcDbLayerTableRecord
  2
129
 70
     0
 62
   129
  6
CONTINUOUS
  0
LAYER
  5
BB
330
2
100
AcDbSymbolTableRecord
100
AcDbLayerTableRecord
  2
130
 70
     0
 62
   130
  6
CONTINUOUS
  0
LAYER
  5
BC
330
2
100
AcDbSymbolTableRecord
100
AcDbLayerTableRecord
  2
131
 70
     0
 62
   131
  6
CONTINUOUS
  0
LAYER
  5
BD
330
2
100
AcDbSymbolTableRecord
100
AcDbLayerTableRecord
  2
132
 70
     0
 62
   132
  6
CONTINUOUS
  0
LAYER
  5
BE
330
2
100
AcDbSymbolTableRecord
100
AcDbLayerTableRecord
  2
133
 70
     0
 62
   133
  6
CONTINUOUS
  0
LAYER
  5
BF
330
2
100
AcDbSymbolTableRecord
100
AcDbLayerTableRecord
  2
134
 70
     0
 62
   134
  6
CONTINUOUS
  0
LAYER
  5
C0
330
2
100
AcDbSymbolTableRecord
100
AcDbLayerTableRecord
  2
135
 70
     0
 62
   135
  6
CONTINUOUS
  0
LAYER
  5
C1
330
2
100
AcDbSymbolTableRecord
100
AcDbLayerTableRecord
  2
136
 70
     0
 62
   136
  6
CONTINUOUS
  0
LAYER
  5
C2
330
2
100
AcDbSymbolTableRecord
100
AcDbLayerTableRecord
  2
137
 70
     0
 62
   137
  6
CONTINUOUS
  0
LAYER
  5
C3
330
2
100
AcDbSymbolTableRecord
100
AcDbLayerTableRecord
  2
138
 70
     0
 62
   138
  6
CONTINUOUS
  0
LAYER
  5
C4
330
2
100
AcDbSymbolTableRecord
100
AcDbLayerTableRecord
  2
139
 70
     0
 62
   139
  6
CONTINUOUS
  0
LAYER
  5
C5
330
2
100
AcDbSymbolTableRecord
100
AcDbLayerTableRecord
  2
140
 70
     0
 62
   140
  6
CONTINUOUS
  0
LAYER
  5
C6
330
2
100
AcDbSymbolTableRecord
100
AcDbLayerTableRecord
  2
141
 70
     0
 62
   141
  6
CONTINUOUS
  0
LAYER
  5
C7
330
2
100
AcDbSymbolTableRecord
100
AcDbLayerTableRecord
  2
142
 70
     0
 62
   142
  6
CONTINUOUS
  0
LAYER
  5
C8
330
2
100
AcDbSymbolTableRecord
100
AcDbLayerTableRecord
  2
143
 70
     0
 62
   143
  6
CONTINUOUS
  0
LAYER
  5
C9
330
2
100
AcDbSymbolTableRecord
100
AcDbLayerTableRecord
  2
144
 70
     0
 62
   144
  6
CONTINUOUS
  0
LAYER
  5
CA
330
2
100
AcDbSymbolTableRecord
100
AcDbLayerTableRecord
  2
145
 70
     0
 62
   145
  6
CONTINUOUS
  0
LAYER
  5
CB
330
2
100
AcDbSymbolTableRecord
100
AcDbLayerTableRecord
  2
146
 70
     0
 62
   146
  6
CONTINUOUS
  0
LAYER
  5
CC
330
2
100
AcDbSymbolTableRecord
100
AcDbLayerTableRecord
  2
147
 70
     0
 62
   147
  6
CONTINUOUS
  0
LAYER
  5
CD
330
2
100
AcDbSymbolTableRecord
100
AcDbLayerTableRecord
  2
148
 70
     0
 62
   148
  6
CONTINUOUS
  0
LAYER
  5
CE
330
2
100
AcDbSymbolTableRecord
100
AcDbLayerTableRecord
  2
149
 70
     0
 62
   149
  6
CONTINUOUS
  0
LAYER
  5
CF
330
2
100
AcDbSymbolTableRecord
100
AcDbLayerTableRecord
  2
150
 70
     0
 62
   150
  6
CONTINUOUS
  0
LAYER
  5
D0
330
2
100
AcDbSymbolTableRecord
100
AcDbLayerTableRecord
  2
151
 70
     0
 62
   151
  6
CONTINUOUS
  0
LAYER
  5
D1
330
2
100
AcDbSymbolTableRecord
100
AcDbLayerTableRecord
  2
152
 70
     0
 62
   152
  6
CONTINUOUS
  0
LAYER
  5
D2
330
2
100
AcDbSymbolTableRecord
100
AcDbLayerTableRecord
  2
153
 70
     0
 62
   153
  6
CONTINUOUS
  0
LAYER
  5
D3
330
2
100
AcDbSymbolTableRecord
100
AcDbLayerTableRecord
  2
154
 70
     0
 62
   154
  6
CONTINUOUS
  0
LAYER
  5
D4
330
2
100
AcDbSymbolTableRecord
100
AcDbLayerTableRecord
  2
155
 70
     0
 62
   155
  6
CONTINUOUS
  0
LAYER
  5
D5
330
2
100
AcDbSymbolTableRecord
100
AcDbLayerTableRecord
  2
156
 70
     0
 62
   156
  6
CONTINUOUS
  0
LAYER
  5
D6
330
2
100
AcDbSymbolTableRecord
100
AcDbLayerTableRecord
  2
157
 70
     0
 62
   157
  6
CONTINUOUS
  0
LAYER
  5
D7
330
2
100
AcDbSymbolTableRecord
100
AcDbLayerTableRecord
  2
158
 70
     0
 62
   158
  6
CONTINUOUS
  0
LAYER
  5
D8
330
2
100
AcDbSymbolTableRecord
100
AcDbLayerTableRecord
  2
159
 70
     0
 62
   159
  6
CONTINUOUS
  0
LAYER
  5
D9
330
2
100
AcDbSymbolTableRecord
100
AcDbLayerTableRecord
  2
160
 70
     0
 62
   160
  6
CONTINUOUS
  0
LAYER
  5
DA
330
2
100
AcDbSymbolTableRecord
100
AcDbLayerTableRecord
  2
161
 70
     0
 62
   161
  6
CONTINUOUS
  0
LAYER
  5
DB
330
2
100
AcDbSymbolTableRecord
100
AcDbLayerTableRecord
  2
162
 70
     0
 62
   162
  6
CONTINUOUS
  0
LAYER
  5
DC
330
2
100
AcDbSymbolTableRecord
100
AcDbLayerTableRecord
  2
163
 70
     0
 62
   163
  6
CONTINUOUS
  0
LAYER
  5
DD
330
2
100
AcDbSymbolTableRecord
100
AcDbLayerTableRecord
  2
164
 70
     0
 62
   164
  6
CONTINUOUS
  0
LAYER
  5
DE
330
2
100
AcDbSymbolTableRecord
100
AcDbLayerTableRecord
  2
165
 70
     0
 62
   165
  6
CONTINUOUS
  0
LAYER
  5
DF
330
2
100
AcDbSymbolTableRecord
100
AcDbLayerTableRecord
  2
166
 70
     0
 62
   166
  6
CONTINUOUS
  0
LAYER
  5
E0
330
2
100
AcDbSymbolTableRecord
100
AcDbLayerTableRecord
  2
167
 70
     0
 62
   167
  6
CONTINUOUS
  0
LAYER
  5
E1
330
2
100
AcDbSymbolTableRecord
100
AcDbLayerTableRecord
  2
168
 70
     0
 62
   168
  6
CONTINUOUS
  0
LAYER
  5
E2
330
2
100
AcDbSymbolTableRecord
100
AcDbLayerTableRecord
  2
169
 70
     0
 62
   169
  6
CONTINUOUS
  0
LAYER
  5
E3
330
2
100
AcDbSymbolTableRecord
100
AcDbLayerTableRecord
  2
170
 70
     0
 62
   170
  6
CONTINUOUS
  0
LAYER
  5
E4
330
2
100
AcDbSymbolTableRecord
100
AcDbLayerTableRecord
  2
171
 70
     0
 62
   171
  6
CONTINUOUS
  0
LAYER
  5
E5
330
2
100
AcDbSymbolTableRecord
100
AcDbLayerTableRecord
  2
172
 70
     0
 62
   172
  6
CONTINUOUS
  0
LAYER
  5
E6
330
2
100
AcDbSymbolTableRecord
100
AcDbLayerTableRecord
  2
173
 70
     0
 62
   173
  6
CONTINUOUS
  0
LAYER
  5
E7
330
2
100
AcDbSymbolTableRecord
100
AcDbLayerTableRecord
  2
174
 70
     0
 62
   174
  6
CONTINUOUS
  0
LAYER
  5
E8
330
2
100
AcDbSymbolTableRecord
100
AcDbLayerTableRecord
  2
175
 70
     0
 62
   175
  6
CONTINUOUS
  0
LAYER
  5
E9
330
2
100
AcDbSymbolTableRecord
100
AcDbLayerTableRecord
  2
176
 70
     0
 62
   176
  6
CONTINUOUS
  0
LAYER
  5
EA
330
2
100
AcDbSymbolTableRecord
100
AcDbLayerTableRecord
  2
177
 70
     0
 62
   177
  6
CONTINUOUS
  0
LAYER
  5
EB
330
2
100
AcDbSymbolTableRecord
100
AcDbLayerTableRecord
  2
178
 70
     0
 62
   178
  6
CONTINUOUS
  0
LAYER
  5
EC
330
2
100
AcDbSymbolTableRecord
100
AcDbLayerTableRecord
  2
179
 70
     0
 62
   179
  6
CONTINUOUS
  0
LAYER
  5
ED
330
2
100
AcDbSymbolTableRecord
100
AcDbLayerTableRecord
  2
180
 70
     0
 62
   180
  6
CONTINUOUS
  0
LAYER
  5
EE
330
2
100
AcDbSymbolTableRecord
100
AcDbLayerTableRecord
  2
181
 70
     0
 62
   181
  6
CONTINUOUS
  0
LAYER
  5
EF
330
2
100
AcDbSymbolTableRecord
100
AcDbLayerTableRecord
  2
182
 70
     0
 62
   182
  6
CONTINUOUS
  0
LAYER
  5
F0
330
2
100
AcDbSymbolTableRecord
100
AcDbLayerTableRecord
  2
183
 70
     0
 62
   183
  6
CONTINUOUS
  0
LAYER
  5
F1
330
2
100
AcDbSymbolTableRecord
100
AcDbLayerTableRecord
  2
184
 70
     0
 62
   184
  6
CONTINUOUS
  0
LAYER
  5
F2
330
2
100
AcDbSymbolTableRecord
100
AcDbLayerTableRecord
  2
185
 70
     0
 62
   185
  6
CONTINUOUS
  0
LAYER
  5
F3
330
2
100
AcDbSymbolTableRecord
100
AcDbLayerTableRecord
  2
186
 70
     0
 62
   186
  6
CONTINUOUS
  0
LAYER
  5
F4
330
2
100
AcDbSymbolTableRecord
100
AcDbLayerTableRecord
  2
187
 70
     0
 62
   187
  6
CONTINUOUS
  0
LAYER
  5
F5
330
2
100
AcDbSymbolTableRecord
100
AcDbLayerTableRecord
  2
188
 70
     0
 62
   188
  6
CONTINUOUS
  0
LAYER
  5
F6
330
2
100
AcDbSymbolTableRecord
100
AcDbLayerTableRecord
  2
189
 70
     0
 62
   189
  6
CONTINUOUS
  0
LAYER
  5
F7
330
2
100
AcDbSymbolTableRecord
100
AcDbLayerTableRecord
  2
190
 70
     0
 62
   190
  6
CONTINUOUS
  0
LAYER
  5
F8
330
2
100
AcDbSymbolTableRecord
100
AcDbLayerTableRecord
  2
191
 70
     0
 62
   191
  6
CONTINUOUS
  0
LAYER
  5
F9
330
2
100
AcDbSymbolTableRecord
100
AcDbLayerTableRecord
  2
192
 70
     0
 62
   192
  6
CONTINUOUS
  0
LAYER
  5
FA
330
2
100
AcDbSymbolTableRecord
100
AcDbLayerTableRecord
  2
193
 70
     0
 62
   193
  6
CONTINUOUS
  0
LAYER
  5
FB
330
2
100
AcDbSymbolTableRecord
100
AcDbLayerTableRecord
  2
194
 70
     0
 62
   194
  6
CONTINUOUS
  0
LAYER
  5
FC
330
2
100
AcDbSymbolTableRecord
100
AcDbLayerTableRecord
  2
195
 70
     0
 62
   195
  6
CONTINUOUS
  0
LAYER
  5
FD
330
2
100
AcDbSymbolTableRecord
100
AcDbLayerTableRecord
  2
196
 70
     0
 62
   196
  6
CONTINUOUS
  0
LAYER
  5
FE
330
2
100
AcDbSymbolTableRecord
100
AcDbLayerTableRecord
  2
197
 70
     0
 62
   197
  6
CONTINUOUS
  0
LAYER
  5
FF
330
2
100
AcDbSymbolTableRecord
100
AcDbLayerTableRecord
  2
198
 70
     0
 62
   198
  6
CONTINUOUS
  0
LAYER
  5
100
330
2
100
AcDbSymbolTableRecord
100
AcDbLayerTableRecord
  2
199
 70
     0
 62
   199
  6
CONTINUOUS
  0
LAYER
  5
101
330
2
100
AcDbSymbolTableRecord
100
AcDbLayerTableRecord
  2
200
 70
     0
 62
   200
  6
CONTINUOUS
  0
LAYER
  5
102
330
2
100
AcDbSymbolTableRecord
100
AcDbLayerTableRecord
  2
201
 70
     0
 62
   201
  6
CONTINUOUS
  0
LAYER
  5
103
330
2
100
AcDbSymbolTableRecord
100
AcDbLayerTableRecord
  2
202
 70
     0
 62
   202
  6
CONTINUOUS
  0
LAYER
  5
104
330
2
100
AcDbSymbolTableRecord
100
AcDbLayerTableRecord
  2
203
 70
     0
 62
   203
  6
CONTINUOUS
  0
LAYER
  5
105
330
2
100
AcDbSymbolTableRecord
100
AcDbLayerTableRecord
  2
204
 70
     0
 62
   204
  6
CONTINUOUS
  0
LAYER
  5
106
330
2
100
AcDbSymbolTableRecord
100
AcDbLayerTableRecord
  2
205
 70
     0
 62
   205
  6
CONTINUOUS
  0
LAYER
  5
107
330
2
100
AcDbSymbolTableRecord
100
AcDbLayerTableRecord
  2
206
 70
     0
 62
   206
  6
CONTINUOUS
  0
LAYER
  5
108
330
2
100
AcDbSymbolTableRecord
100
AcDbLayerTableRecord
  2
207
 70
     0
 62
   207
  6
CONTINUOUS
  0
LAYER
  5
109
330
2
100
AcDbSymbolTableRecord
100
AcDbLayerTableRecord
  2
208
 70
     0
 62
   208
  6
CONTINUOUS
  0
LAYER
  5
10A
330
2
100
AcDbSymbolTableRecord
100
AcDbLayerTableRecord
  2
209
 70
     0
 62
   209
  6
CONTINUOUS
  0
LAYER
  5
10B
330
2
100
AcDbSymbolTableRecord
100
AcDbLayerTableRecord
  2
210
 70
     0
 62
   210
  6
CONTINUOUS
  0
LAYER
  5
10C
330
2
100
AcDbSymbolTableRecord
100
AcDbLayerTableRecord
  2
211
 70
     0
 62
   211
  6
CONTINUOUS
  0
LAYER
  5
10D
330
2
100
AcDbSymbolTableRecord
100
AcDbLayerTableRecord
  2
212
 70
     0
 62
   212
  6
CONTINUOUS
  0
LAYER
  5
10E
330
2
100
AcDbSymbolTableRecord
100
AcDbLayerTableRecord
  2
213
 70
     0
 62
   213
  6
CONTINUOUS
  0
LAYER
  5
10F
330
2
100
AcDbSymbolTableRecord
100
AcDbLayerTableRecord
  2
214
 70
     0
 62
   214
  6
CONTINUOUS
  0
LAYER
  5
110
330
2
100
AcDbSymbolTableRecord
100
AcDbLayerTableRecord
  2
215
 70
     0
 62
   215
  6
CONTINUOUS
  0
LAYER
  5
111
330
2
100
AcDbSymbolTableRecord
100
AcDbLayerTableRecord
  2
216
 70
     0
 62
   216
  6
CONTINUOUS
  0
LAYER
  5
112
330
2
100
AcDbSymbolTableRecord
100
AcDbLayerTableRecord
  2
217
 70
     0
 62
   217
  6
CONTINUOUS
  0
LAYER
  5
113
330
2
100
AcDbSymbolTableRecord
100
AcDbLayerTableRecord
  2
218
 70
     0
 62
   218
  6
CONTINUOUS
  0
LAYER
  5
114
330
2
100
AcDbSymbolTableRecord
100
AcDbLayerTableRecord
  2
219
 70
     0
 62
   219
  6
CONTINUOUS
  0
LAYER
  5
115
330
2
100
AcDbSymbolTableRecord
100
AcDbLayerTableRecord
  2
220
 70
     0
 62
   220
  6
CONTINUOUS
  0
LAYER
  5
116
330
2
100
AcDbSymbolTableRecord
100
AcDbLayerTableRecord
  2
221
 70
     0
 62
   221
  6
CONTINUOUS
  0
LAYER
  5
117
330
2
100
AcDbSymbolTableRecord
100
AcDbLayerTableRecord
  2
222
 70
     0
 62
   222
  6
CONTINUOUS
  0
LAYER
  5
118
330
2
100
AcDbSymbolTableRecord
100
AcDbLayerTableRecord
  2
223
 70
     0
 62
   223
  6
CONTINUOUS
  0
LAYER
  5
119
330
2
100
AcDbSymbolTableRecord
100
AcDbLayerTableRecord
  2
224
 70
     0
 62
   224
  6
CONTINUOUS
  0
LAYER
  5
11A
330
2
100
AcDbSymbolTableRecord
100
AcDbLayerTableRecord
  2
225
 70
     0
 62
   225
  6
CONTINUOUS
  0
LAYER
  5
11B
330
2
100
AcDbSymbolTableRecord
100
AcDbLayerTableRecord
  2
226
 70
     0
 62
   226
  6
CONTINUOUS
  0
LAYER
  5
11C
330
2
100
AcDbSymbolTableRecord
100
AcDbLayerTableRecord
  2
227
 70
     0
 62
   227
  6
CONTINUOUS
  0
LAYER
  5
11D
330
2
100
AcDbSymbolTableRecord
100
AcDbLayerTableRecord
  2
228
 70
     0
 62
   228
  6
CONTINUOUS
  0
LAYER
  5
11E
330
2
100
AcDbSymbolTableRecord
100
AcDbLayerTableRecord
  2
229
 70
     0
 62
   229
  6
CONTINUOUS
  0
LAYER
  5
11F
330
2
100
AcDbSymbolTableRecord
100
AcDbLayerTableRecord
  2
230
 70
     0
 62
   230
  6
CONTINUOUS
  0
LAYER
  5
120
330
2
100
AcDbSymbolTableRecord
100
AcDbLayerTableRecord
  2
231
 70
     0
 62
   231
  6
CONTINUOUS
  0
LAYER
  5
121
330
2
100
AcDbSymbolTableRecord
100
AcDbLayerTableRecord
  2
232
 70
     0
 62
   232
  6
CONTINUOUS
  0
LAYER
  5
122
330
2
100
AcDbSymbolTableRecord
100
AcDbLayerTableRecord
  2
233
 70
     0
 62
   233
  6
CONTINUOUS
  0
LAYER
  5
123
330
2
100
AcDbSymbolTableRecord
100
AcDbLayerTableRecord
  2
234
 70
     0
 62
   234
  6
CONTINUOUS
  0
LAYER
  5
124
330
2
100
AcDbSymbolTableRecord
100
AcDbLayerTableRecord
  2
235
 70
     0
 62
   235
  6
CONTINUOUS
  0
LAYER
  5
125
330
2
100
AcDbSymbolTableRecord
100
AcDbLayerTableRecord
  2
236
 70
     0
 62
   236
  6
CONTINUOUS
  0
LAYER
  5
126
330
2
100
AcDbSymbolTableRecord
100
AcDbLayerTableRecord
  2
237
 70
     0
 62
   237
  6
CONTINUOUS
  0
LAYER
  5
127
330
2
100
AcDbSymbolTableRecord
100
AcDbLayerTableRecord
  2
238
 70
     0
 62
   238
  6
CONTINUOUS
  0
LAYER
  5
128
330
2
100
AcDbSymbolTableRecord
100
AcDbLayerTableRecord
  2
239
 70
     0
 62
   239
  6
CONTINUOUS
  0
LAYER
  5
129
330
2
100
AcDbSymbolTableRecord
100
AcDbLayerTableRecord
  2
240
 70
     0
 62
   240
  6
CONTINUOUS
  0
LAYER
  5
12A
330
2
100
AcDbSymbolTableRecord
100
AcDbLayerTableRecord
  2
241
 70
     0
 62
   241
  6
CONTINUOUS
  0
LAYER
  5
12B
330
2
100
AcDbSymbolTableRecord
100
AcDbLayerTableRecord
  2
242
 70
     0
 62
   242
  6
CONTINUOUS
  0
LAYER
  5
12C
330
2
100
AcDbSymbolTableRecord
100
AcDbLayerTableRecord
  2
243
 70
     0
 62
   243
  6
CONTINUOUS
  0
LAYER
  5
12D
330
2
100
AcDbSymbolTableRecord
100
AcDbLayerTableRecord
  2
244
 70
     0
 62
   244
  6
CONTINUOUS
  0
LAYER
  5
12E
330
2
100
AcDbSymbolTableRecord
100
AcDbLayerTableRecord
  2
245
 70
     0
 62
   245
  6
CONTINUOUS
  0
LAYER
  5
12F
330
2
100
AcDbSymbolTableRecord
100
AcDbLayerTableRecord
  2
246
 70
     0
 62
   246
  6
CONTINUOUS
  0
LAYER
  5
130
330
2
100
AcDbSymbolTableRecord
100
AcDbLayerTableRecord
  2
247
 70
     0
 62
   247
  6
CONTINUOUS
  0
LAYER
  5
131
330
2
100
AcDbSymbolTableRecord
100
AcDbLayerTableRecord
  2
248
 70
     0
 62
   248
  6
CONTINUOUS
  0
LAYER
  5
132
330
2
100
AcDbSymbolTableRecord
100
AcDbLayerTableRecord
  2
249
 70
     0
 62
   249
  6
CONTINUOUS
  0
LAYER
  5
133
330
2
100
AcDbSymbolTableRecord
100
AcDbLayerTableRecord
  2
250
 70
     0
 62
   250
  6
CONTINUOUS
  0
LAYER
  5
134
330
2
100
AcDbSymbolTableRecord
100
AcDbLayerTableRecord
  2
251
 70
     0
 62
   251
  6
CONTINUOUS
  0
LAYER
  5
135
330
2
100
AcDbSymbolTableRecord
100
AcDbLayerTableRecord
  2
252
 70
     0
 62
   252
  6
CONTINUOUS
  0
LAYER
  5
136
330
2
100
AcDbSymbolTableRecord
100
AcDbLayerTableRecord
  2
253
 70
     0
 62
   253
  6
CONTINUOUS
  0
LAYER
  5
137
330
2
100
AcDbSymbolTableRecord
100
AcDbLayerTableRecord
  2
254
 70
     0
 62
   254
  6
CONTINUOUS
  0
LAYER
  5
138
330
2
100
AcDbSymbolTableRecord
100
AcDbLayerTableRecord
  2
255
 70
     0
 62
   255
  6
CONTINUOUS
  0
ENDTAB
  0
TABLE
  2
STYLE
  5
3
330
0
100
AcDbSymbolTable
 70
     1
  0
STYLE
  5
11
330
3
100
AcDbSymbolTableRecord
100
AcDbTextStyleTableRecord
  2
STANDARD
 70
     0
 40
0.0
 41
1.0
 50
0.0
 71
     0
 42
0.2
  3
txt
  4

  0
ENDTAB
  0
TABLE
  2
VIEW
  5
6
330
0
100
AcDbSymbolTable
 70
     0
  0
ENDTAB
  0
TABLE
  2
UCS
  5
7
330
0
100
AcDbSymbolTable
 70
     0
  0
ENDTAB
  0
TABLE
  2
APPID
  5
9
330
0
100
AcDbSymbolTable
 70
     1
  0
APPID
  5
12
330
9
100
AcDbSymbolTableRecord
100
AcDbRegAppTableRecord
  2
ACAD
 70
     0
  0
ENDTAB
  0
TABLE
  2
DIMSTYLE
  5
A
330
0
100
AcDbSymbolTable
 70
     1
  0
DIMSTYLE
105
3CD0
330
A
100
AcDbSymbolTableRecord
100
AcDbDimStyleTableRecord
  2
STANDARD
 70
     0
  3

  4

  5

  6

  7

 40
1.0
 41
0.18
 42
0.0625
 43
0.38
 44
0.18
 45
0.0
 46
0.0
 47
0.0
 48
0.0
140
0.18
141
0.09
142
0.0
143
25.4
144
1.0
145
0.0
146
1.0
147
0.09
 71
     0
 72
     0
 73
     1
 74
     1
 75
     0
 76
     0
 77
     0
 78
     0
170
     0
171
     2
172
     0
173
     0
174
     0
175
     0
176
     0
177
     0
178
     0
270
     2
271
     4
272
     4
273
     2
274
     2
340
11
275
     0
280
     0
281
     0
282
     0
283
     1
284
     0
285
     0
286
     0
287
     3
288
     0
  0
ENDTAB
  0
TABLE
  2
BLOCK_RECORD
  5
1
330
0
100
AcDbSymbolTable
 70
     0
  0
BLOCK_RECORD
  5
1E
102
{ACAD_XDICTIONARY
360
3CD7
102
}
330
1
100
AcDbSymbolTableRecord
100
AcDbBlockTableRecord
  2
*MODEL_SPACE
  0
BLOCK_RECORD
  5
1A
102
{ACAD_XDICTIONARY
360
3CD5
102
}
330
1
100
AcDbSymbolTableRecord
100
AcDbBlockTableRecord
  2
*PAPER_SPACE
  0
ENDTAB
  0
ENDSEC
  0
SECTION
  2
BLOCKS
  0
BLOCK
  5
13B
330
1E
100
AcDbEntity
  8
0
100
AcDbBlockBegin
  2
*MODEL_SPACE
 70
     0
 10
0.0
 20
0.0
 30
0.0
  3
*MODEL_SPACE
  1

  0
ENDBLK
  5
13C
330
1E
100
AcDbEntity
  8
0
100
AcDbBlockEnd
  0
BLOCK
  5
139
330
1A
100
AcDbEntity
 67
     1
  8
0
100
AcDbBlockBegin
  2
*PAPER_SPACE
 70
     0
 10
0.0
 20
0.0
 30
0.0
  3
*PAPER_SPACE
  1

  0
ENDBLK
  5
13A
330
1A
100
AcDbEntity
 67
     1
  8
0
100
AcDbBlockEnd
  0
ENDSEC
  0
SECTION
  2
ENTITIES
  0
LINE
  5
389D
330
1E
100
AcDbEntity
  8
0
100
AcDbLine
 10
7.037401574803149
 20
3.634842519685039
 30
0.0
 11
7.037401574803149
 21
3.579724409448818
 31
0.0
  0
LINE
  5
389E
330
1E
100
AcDbEntity
  8
0
100
AcDbLine
 10
7.313976377952755
 20
3.63779527559055
 30
0.0
 11
7.313976377952755
 21
3.634842519685039
 31
0.0
  0
LINE
  5
389F
330
1E
100
AcDbEntity
  8
0
100
AcDbLine
 10
7.312992125984251
 20
3.634842519685039
 30
0.0
 11
7.313976377952755
 21
3.634842519685039
 31
0.0
  0
LINE
  5
38A0
330
1E
100
AcDbEntity
  8
0
100
AcDbLine
 10
7.298228346456692
 20
3.634842519685039
 30
0.0
 11
7.313976377952755
 21
3.634842519685039
 31
0.0
  0
LINE
  5
38A1
330
1E
100
AcDbEntity
  8
0
100
AcDbLine
 10
7.358267716535433
 20
3.634842519685039
 30
0.0
 11
7.363188976377952
 21
3.634842519685039
 31
0.0
  0
LINE
  5
38A2
330
1E
100
AcDbEntity
  8
0
100
AcDbLine
 10
7.463582677165354
 20
3.634842519685039
 30
0.0
 11
7.51279527559055
 21
3.634842519685039
 31
0.0
  0
LINE
  5
38A3
330
1E
100
AcDbEntity
  8
0
100
AcDbLine
 10
7.358267716535433
 20
3.634842519685039
 30
0.0
 11
7.363188976377952
 21
3.634842519685039
 31
0.0
  0
LINE
  5
38A4
330
1E
100
AcDbEntity
  8
0
100
AcDbLine
 10
7.463582677165354
 20
3.634842519685039
 30
0.0
 11
7.51279527559055
 21
3.634842519685039
 31
0.0
  0
LINE
  5
38A5
330
1E
100
AcDbEntity
  8
0
100
AcDbLine
 10
7.292322834645669
 20
3.634842519685039
 30
0.0
 11
7.232283464566928
 21
3.634842519685039
 31
0.0
  0
LINE
  5
38A6
330
1E
100
AcDbEntity
  8
0
100
AcDbLine
 10
7.292322834645669
 20
3.634842519685039
 30
0.0
 11
7.298228346456692
 21
3.634842519685039
 31
0.0
  0
LINE
  5
38A7
330
1E
100
AcDbEntity
  8
0
100
AcDbLine
 10
7.312992125984251
 20
3.634842519685039
 30
0.0
 11
7.313976377952755
 21
3.634842519685039
 31
0.0
  0
LINE
  5
38A8
330
1E
100
AcDbEntity
  8
0
100
AcDbLine
 10
7.358267716535433
 20
3.634842519685039
 30
0.0
 11
7.363188976377952
 21
3.634842519685039
 31
0.0
  0
LINE
  5
38A9
330
1E
100
AcDbEntity
  8
0
100
AcDbLine
 10
7.463582677165354
 20
3.634842519685039
 30
0.0
 11
7.46751968503937
 21
3.634842519685039
 31
0.0
  0
LINE
  5
38AA
330
1E
100
AcDbEntity
  8
0
100
AcDbLine
 10
7.358267716535433
 20
3.634842519685039
 30
0.0
 11
7.46751968503937
 21
3.634842519685039
 31
0.0
  0
LINE
  5
38AB
330
1E
100
AcDbEntity
  8
0
100
AcDbLine
 10
7.358267716535433
 20
3.634842519685039
 30
0.0
 11
7.363188976377952
 21
3.634842519685039
 31
0.0
  0
LINE
  5
38AC
330
1E
100
AcDbEntity
  8
0
100
AcDbLine
 10
7.463582677165354
 20
3.634842519685039
 30
0.0
 11
7.46751968503937
 21
3.634842519685039
 31
0.0
  0
LINE
  5
38AD
330
1E
100
AcDbEntity
  8
0
100
AcDbLine
 10
7.358267716535433
 20
3.634842519685039
 30
0.0
 11
7.363188976377952
 21
3.634842519685039
 31
0.0
  0
LINE
  5
38AE
330
1E
100
AcDbEntity
  8
0
100
AcDbLine
 10
7.463582677165354
 20
3.634842519685039
 30
0.0
 11
7.46751968503937
 21
3.634842519685039
 31
0.0
  0
POLYLINE
  5
38AF
330
1E
100
AcDbEntity
  8
0
100
AcDb2dPolyline
 66
     1
 10
0.0
 20
0.0
 30
0.0
  0
VERTEX
  5
3CD9
330
38AF
100
AcDbEntity
  8
0
100
AcDbVertex
100
AcDb2dVertex
 10
7.542322834645669
 20
3.634842519685039
 30
0.0
  0
VERTEX
  5
3CDA
330
38AF
100
AcDbEntity
  8
0
100
AcDbVertex
100
AcDb2dVertex
 10
7.548228346456692
 20
3.634842519685039
 30
0.0
  0
VERTEX
  5
3CDB
330
38AF
100
AcDbEntity
  8
0
100
AcDbVertex
100
AcDb2dVertex
 10
7.562992125984251
 20
3.634842519685039
 30
0.0
  0
SEQEND
  5
3CDC
330
38AF
100
AcDbEntity
  8
0
  0
POLYLINE
  5
38B4
330
1E
100
AcDbEntity
  8
0
100
AcDb2dPolyline
 66
     1
 10
0.0
 20
0.0
 30
0.0
  0
VERTEX
  5
3CDD
330
38B4
100
AcDbEntity
  8
0
100
AcDbVertex
100
AcDb2dVertex
 10
7.562992125984251
 20
3.634842519685039
 30
0.0
  0
VERTEX
  5
3CDE
330
38B4
100
AcDbEntity
  8
0
100
AcDbVertex
100
AcDb2dVertex
 10
7.548228346456692
 20
3.634842519685039
 30
0.0
  0
VERTEX
  5
3CDF
330
38B4
100
AcDbEntity
  8
0
100
AcDbVertex
100
AcDb2dVertex
 10
7.542322834645669
 20
3.634842519685039
 30
0.0
  0
SEQEND
  5
3CE0
330
38B4
100
AcDbEntity
  8
0
  0
LINE
  5
38B9
330
1E
100
AcDbEntity
  8
0
100
AcDbLine
 10
7.562992125984251
 20
3.634842519685039
 30
0.0
 11
7.710629921259842
 21
3.634842519685039
 31
0.0
  0
POLYLINE
  5
38BA
330
1E
100
AcDbEntity
  8
0
100
AcDb2dPolyline
 66
     1
 10
0.0
 20
0.0
 30
0.0
  0
VERTEX
  5
3CE1
330
38BA
100
AcDbEntity
  8
0
100
AcDbVertex
100
AcDb2dVertex
 10
7.731299212598425
 20
3.634842519685039
 30
0.0
  0
VERTEX
  5
3CE2
330
38BA
100
AcDbEntity
  8
0
100
AcDbVertex
100
AcDb2dVertex
 10
7.725393700787401
 20
3.634842519685039
 30
0.0
  0
VERTEX
  5
3CE3
330
38BA
100
AcDbEntity
  8
0
100
AcDbVertex
100
AcDb2dVertex
 10
7.710629921259842
 20
3.634842519685039
 30
0.0
  0
SEQEND
  5
3CE4
330
38BA
100
AcDbEntity
  8
0
  0
POLYLINE
  5
38BF
330
1E
100
AcDbEntity
  8
0
100
AcDb2dPolyline
 66
     1
 10
0.0
 20
0.0
 30
0.0
  0
VERTEX
  5
3CE5
330
38BF
100
AcDbEntity
  8
0
100
AcDbVertex
100
AcDb2dVertex
 10
7.710629921259842
 20
3.634842519685039
 30
0.0
  0
VERTEX
  5
3CE6
330
38BF
100
AcDbEntity
  8
0
100
AcDbVertex
100
AcDb2dVertex
 10
7.725393700787401
 20
3.634842519685039
 30
0.0
  0
VERTEX
  5
3CE7
330
38BF
100
AcDbEntity
  8
0
100
AcDbVertex
100
AcDb2dVertex
 10
7.731299212598425
 20
3.634842519685039
 30
0.0
  0
SEQEND
  5
3CE8
330
38BF
100
AcDbEntity
  8
0
  0
LINE
  5
38C4
330
1E
100
AcDbEntity
  8
0
100
AcDbLine
 10
7.562992125984251
 20
3.634842519685039
 30
0.0
 11
7.710629921259842
 21
3.634842519685039
 31
0.0
  0
LINE
  5
38C5
330
1E
100
AcDbEntity
  8
0
100
AcDbLine
 10
7.765748031496062
 20
3.634842519685039
 30
0.0
 11
7.763779527559054
 21
3.634842519685039
 31
0.0
  0
LINE
  5
38C6
330
1E
100
AcDbEntity
  8
0
100
AcDbLine
 10
7.313976377952755
 20
3.634842519685039
 30
0.0
 11
7.363188976377952
 21
3.634842519685039
 31
0.0
  0
LINE
  5
38C7
330
1E
100
AcDbEntity
  8
0
100
AcDbLine
 10
7.463582677165354
 20
3.634842519685039
 30
0.0
 11
7.793307086614173
 21
3.634842519685039
 31
0.0
  0
LINE
  5
38C8
330
1E
100
AcDbEntity
  8
0
100
AcDbLine
 10
7.206692913385826
 20
3.634842519685039
 30
0.0
 11
7.232283464566928
 21
3.634842519685039
 31
0.0
  0
LINE
  5
38C9
330
1E
100
AcDbEntity
  8
0
100
AcDbLine
 10
7.248031496062991
 20
3.634842519685039
 30
0.0
 11
7.298228346456692
 21
3.634842519685039
 31
0.0
  0
LINE
  5
38CA
330
1E
100
AcDbEntity
  8
0
100
AcDbLine
 10
7.037401574803149
 20
3.634842519685039
 30
0.0
 11
7.206692913385826
 21
3.634842519685039
 31
0.0
  0
LINE
  5
38CB
330
1E
100
AcDbEntity
  8
0
100
AcDbLine
 10
7.037401574803149
 20
3.634842519685039
 30
0.0
 11
7.206692913385826
 21
3.634842519685039
 31
0.0
  0
LINE
  5
38CC
330
1E
100
AcDbEntity
  8
0
100
AcDbLine
 10
7.206692913385826
 20
3.634842519685039
 30
0.0
 11
7.263779527559054
 21
3.634842519685039
 31
0.0
  0
LINE
  5
38CD
330
1E
100
AcDbEntity
  8
0
100
AcDbLine
 10
7.263779527559054
 20
3.634842519685039
 30
0.0
 11
7.380905511811023
 21
3.634842519685039
 31
0.0
  0
LINE
  5
38CE
330
1E
100
AcDbEntity
  8
0
100
AcDbLine
 10
7.380905511811023
 20
3.634842519685039
 30
0.0
 11
7.793307086614173
 21
3.634842519685039
 31
0.0
  0
LINE
  5
38CF
330
1E
100
AcDbEntity
  8
0
100
AcDbLine
 10
7.763779527559054
 20
3.634842519685039
 30
0.0
 11
7.793307086614173
 21
3.634842519685039
 31
0.0
  0
LINE
  5
38D0
330
1E
100
AcDbEntity
  8
0
100
AcDbLine
 10
7.796259842519685
 20
3.761811023622047
 30
0.0
 11
7.793307086614173
 21
3.634842519685039
 31
0.0
  0
LINE
  5
38D1
330
1E
100
AcDbEntity
  8
0
100
AcDbLine
 10
7.232283464566928
 20
3.63779527559055
 30
0.0
 11
7.232283464566928
 21
3.634842519685039
 31
0.0
  0
LINE
  5
38D2
330
1E
100
AcDbEntity
  8
0
100
AcDbLine
 10
7.292322834645669
 20
3.63779527559055
 30
0.0
 11
7.292322834645669
 21
3.634842519685039
 31
0.0
  0
LINE
  5
38D3
330
1E
100
AcDbEntity
  8
0
100
AcDbLine
 10
7.206692913385826
 20
3.634842519685039
 30
0.0
 11
7.201771653543307
 21
3.579724409448818
 31
0.0
  0
LINE
  5
38D4
330
1E
100
AcDbEntity
  8
0
100
AcDbLine
 10
7.201771653543307
 20
3.579724409448818
 30
0.0
 11
7.263779527559054
 21
3.579724409448818
 31
0.0
  0
LINE
  5
38D5
330
1E
100
AcDbEntity
  8
0
100
AcDbLine
 10
7.263779527559054
 20
3.634842519685039
 30
0.0
 11
7.263779527559054
 21
3.579724409448818
 31
0.0
  0
LINE
  5
38D6
330
1E
100
AcDbEntity
  8
0
100
AcDbLine
 10
7.380905511811023
 20
3.634842519685039
 30
0.0
 11
7.380905511811023
 21
3.579724409448818
 31
0.0
  0
LINE
  5
38D7
330
1E
100
AcDbEntity
  8
0
100
AcDbLine
 10
7.263779527559054
 20
3.579724409448818
 30
0.0
 11
7.380905511811023
 21
3.579724409448818
 31
0.0
  0
LINE
  5
38D8
330
1E
100
AcDbEntity
  8
0
100
AcDbLine
 10
7.380905511811023
 20
3.579724409448818
 30
0.0
 11
7.74507874015748
 21
3.579724409448818
 31
0.0
  0
LINE
  5
38D9
330
1E
100
AcDbEntity
  8
0
100
AcDbLine
 10
7.80511811023622
 20
3.579724409448818
 30
0.0
 11
7.820866141732283
 21
3.579724409448818
 31
0.0
  0
LINE
  5
38DA
330
1E
100
AcDbEntity
  8
0
100
AcDbLine
 10
7.820866141732283
 20
3.579724409448818
 30
0.0
 11
7.819881889763779
 21
3.634842519685039
 31
0.0
  0
LINE
  5
38DB
330
1E
100
AcDbEntity
  8
0
100
AcDbLine
 10
7.848425196850393
 20
3.761811023622047
 30
0.0
 11
7.851377952755905
 21
3.634842519685039
 31
0.0
  0
LINE
  5
38DC
330
1E
100
AcDbEntity
  8
0
100
AcDbLine
 10
7.851377952755905
 20
3.634842519685039
 30
0.0
 11
7.852362204724409
 21
3.579724409448818
 31
0.0
  0
LINE
  5
38DD
330
1E
100
AcDbEntity
  8
0
100
AcDbLine
 10
7.037401574803149
 20
3.534448818897637
 30
0.0
 11
7.037401574803149
 21
3.579724409448818
 31
0.0
  0
POLYLINE
  5
38DE
330
1E
100
AcDbEntity
  8
0
100
AcDb2dPolyline
 66
     1
 10
0.0
 20
0.0
 30
0.0
  0
VERTEX
  5
3CE9
330
38DE
100
AcDbEntity
  8
0
100
AcDbVertex
100
AcDb2dVertex
 10
7.852362204724409
 20
3.579724409448818
 30
0.0
  0
VERTEX
  5
3CEA
330
38DE
100
AcDbEntity
  8
0
100
AcDbVertex
100
AcDb2dVertex
 10
7.847440944881889
 20
3.579724409448818
 30
0.0
  0
VERTEX
  5
3CEB
330
38DE
100
AcDbEntity
  8
0
100
AcDbVertex
100
AcDb2dVertex
 10
7.836614173228346
 20
3.579724409448818
 30
0.0
  0
VERTEX
  5
3CEC
330
38DE
100
AcDbEntity
  8
0
100
AcDbVertex
100
AcDb2dVertex
 10
7.820866141732283
 20
3.579724409448818
 30
0.0
  0
SEQEND
  5
3CED
330
38DE
100
AcDbEntity
  8
0
  0
LINE
  5
38E4
330
1E
100
AcDbEntity
  8
0
100
AcDbLine
 10
7.80511811023622
 20
3.579724409448818
 30
0.0
 11
7.74507874015748
 21
3.579724409448818
 31
0.0
  0
LINE
  5
38E5
330
1E
100
AcDbEntity
  8
0
100
AcDbLine
 10
7.749015748031496
 20
3.625
 30
0.0
 11
7.801181102362204
 21
3.625
 31
0.0
  0
LINE
  5
38E6
330
1E
100
AcDbEntity
  8
0
100
AcDbLine
 10
7.74507874015748
 20
3.579724409448818
 30
0.0
 11
7.747047244094487
 21
3.599409448818897
 31
0.0
  0
LINE
  5
38E7
330
1E
100
AcDbEntity
  8
0
100
AcDbLine
 10
7.747047244094487
 20
3.599409448818897
 30
0.0
 11
7.749015748031496
 21
3.625
 31
0.0
  0
LINE
  5
38E8
330
1E
100
AcDbEntity
  8
0
100
AcDbLine
 10
7.801181102362204
 20
3.625
 30
0.0
 11
7.803149606299212
 21
3.599409448818897
 31
0.0
  0
LINE
  5
38E9
330
1E
100
AcDbEntity
  8
0
100
AcDbLine
 10
7.803149606299212
 20
3.599409448818897
 30
0.0
 11
7.80511811023622
 21
3.579724409448818
 31
0.0
  0
LINE
  5
38EA
330
1E
100
AcDbEntity
  8
0
100
AcDbLine
 10
7.803149606299212
 20
3.599409448818897
 30
0.0
 11
7.747047244094487
 21
3.599409448818897
 31
0.0
  0
LINE
  5
38EB
330
1E
100
AcDbEntity
  8
0
100
AcDbLine
 10
7.037401574803149
 20
3.579724409448818
 30
0.0
 11
7.201771653543307
 21
3.579724409448818
 31
0.0
  0
LINE
  5
38EC
330
1E
100
AcDbEntity
  8
0
100
AcDbLine
 10
7.264763779527559
 20
3.534448818897637
 30
0.0
 11
7.263779527559054
 21
3.579724409448818
 31
0.0
  0
LINE
  5
38ED
330
1E
100
AcDbEntity
  8
0
100
AcDbLine
 10
7.379921259842519
 20
3.534448818897637
 30
0.0
 11
7.380905511811023
 21
3.579724409448818
 31
0.0
  0
LINE
  5
38EE
330
1E
100
AcDbEntity
  8
0
100
AcDbLine
 10
7.820866141732283
 20
3.534448818897637
 30
0.0
 11
7.820866141732283
 21
3.579724409448818
 31
0.0
  0
LINE
  5
38EF
330
1E
100
AcDbEntity
  8
0
100
AcDbLine
 10
7.852362204724409
 20
3.579724409448818
 30
0.0
 11
7.851377952755905
 21
3.534448818897637
 31
0.0
  0
POLYLINE
  5
38F0
330
1E
100
AcDbEntity
  8
0
100
AcDb2dPolyline
 66
     1
 10
0.0
 20
0.0
 30
0.0
  0
VERTEX
  5
3CEE
330
38F0
100
AcDbEntity
  8
0
100
AcDbVertex
100
AcDb2dVertex
 10
7.851377952755905
 20
3.634842519685039
 30
0.0
  0
VERTEX
  5
3CEF
330
38F0
100
AcDbEntity
  8
0
100
AcDbVertex
100
AcDb2dVertex
 10
7.846456692913386
 20
3.634842519685039
 30
0.0
  0
VERTEX
  5
3CF0
330
38F0
100
AcDbEntity
  8
0
100
AcDbVertex
100
AcDb2dVertex
 10
7.835629921259842
 20
3.634842519685039
 30
0.0
  0
VERTEX
  5
3CF1
330
38F0
100
AcDbEntity
  8
0
100
AcDbVertex
100
AcDb2dVertex
 10
7.819881889763779
 20
3.634842519685039
 30
0.0
  0
SEQEND
  5
3CF2
330
38F0
100
AcDbEntity
  8
0
  0
LINE
  5
38F6
330
1E
100
AcDbEntity
  8
0
100
AcDbLine
 10
7.819881889763779
 20
3.634842519685039
 30
0.0
 11
7.793307086614173
 21
3.634842519685039
 31
0.0
  0
LINE
  5
38F7
330
1E
100
AcDbEntity
  8
0
100
AcDbLine
 10
7.819881889763779
 20
3.634842519685039
 30
0.0
 11
7.817913385826771
 21
3.761811023622047
 31
0.0
  0
LINE
  5
38F8
330
1E
100
AcDbEntity
  8
0
100
AcDbLine
 10
7.817913385826771
 20
3.761811023622047
 30
0.0
 11
7.796259842519685
 21
3.761811023622047
 31
0.0
  0
POLYLINE
  5
38F9
330
1E
100
AcDbEntity
  8
0
100
AcDb2dPolyline
 66
     1
 10
0.0
 20
0.0
 30
0.0
  0
VERTEX
  5
3CF3
330
38F9
100
AcDbEntity
  8
0
100
AcDbVertex
100
AcDb2dVertex
 10
7.817913385826771
 20
3.761811023622047
 30
0.0
  0
VERTEX
  5
3CF4
330
38F9
100
AcDbEntity
  8
0
100
AcDbVertex
100
AcDb2dVertex
 10
7.833661417322834
 20
3.761811023622047
 30
0.0
  0
VERTEX
  5
3CF5
330
38F9
100
AcDbEntity
  8
0
100
AcDbVertex
100
AcDb2dVertex
 10
7.844488188976377
 20
3.761811023622047
 30
0.0
  0
VERTEX
  5
3CF6
330
38F9
100
AcDbEntity
  8
0
100
AcDbVertex
100
AcDb2dVertex
 10
7.848425196850393
 20
3.761811023622047
 30
0.0
  0
SEQEND
  5
3CF7
330
38F9
100
AcDbEntity
  8
0
  0
LINE
  5
38FF
330
1E
100
AcDbEntity
  8
0
100
AcDbLine
 10
7.788385826771653
 20
3.761811023622047
 30
0.0
 11
7.796259842519685
 21
3.761811023622047
 31
0.0
  0
LINE
  5
3900
330
1E
100
AcDbEntity
  8
0
100
AcDbLine
 10
7.788385826771653
 20
3.747047244094487
 30
0.0
 11
7.79527559055118
 21
3.747047244094487
 31
0.0
  0
LINE
  5
3901
330
1E
100
AcDbEntity
  8
0
100
AcDbLine
 10
7.763779527559054
 20
3.634842519685039
 30
0.0
 11
7.763779527559054
 21
3.63779527559055
 31
0.0
  0
LINE
  5
3902
330
1E
100
AcDbEntity
  8
0
100
AcDbLine
 10
7.033464566929133
 20
3.634842519685039
 30
0.0
 11
7.037401574803149
 21
3.634842519685039
 31
0.0
  0
LINE
  5
3903
330
1E
100
AcDbEntity
  8
0
100
AcDbLine
 10
7.033464566929133
 20
3.579724409448818
 30
0.0
 11
7.037401574803149
 21
3.579724409448818
 31
0.0
  0
LINE
  5
3904
330
1E
100
AcDbEntity
  8
0
100
AcDbLine
 10
7.312992125984251
 20
3.634842519685039
 30
0.0
 11
7.312992125984251
 21
3.63779527559055
 31
0.0
  0
LINE
  5
3905
330
1E
100
AcDbEntity
  8
0
100
AcDbLine
 10
7.298228346456692
 20
3.634842519685039
 30
0.0
 11
7.298228346456692
 21
3.63779527559055
 31
0.0
  0
LINE
  5
3906
330
1E
100
AcDbEntity
  8
0
100
AcDbLine
 10
7.043307086614173
 20
3.839566929133858
 30
0.0
 11
7.263779527559054
 21
3.839566929133858
 31
0.0
  0
POLYLINE
  5
3907
330
1E
100
AcDbEntity
  8
0
100
AcDb2dPolyline
 66
     1
 10
0.0
 20
0.0
 30
0.0
  0
VERTEX
  5
3CF8
330
3907
100
AcDbEntity
  8
0
100
AcDbVertex
100
AcDb2dVertex
 10
7.038385826771653
 20
3.839566929133858
 30
0.0
  0
VERTEX
  5
3CF9
330
3907
100
AcDbEntity
  8
0
100
AcDbVertex
100
AcDb2dVertex
 10
7.039370078740157
 20
3.839566929133858
 30
0.0
  0
VERTEX
  5
3CFA
330
3907
100
AcDbEntity
  8
0
100
AcDbVertex
100
AcDb2dVertex
 10
7.043307086614173
 20
3.839566929133858
 30
0.0
  0
SEQEND
  5
3CFB
330
3907
100
AcDbEntity
  8
0
  0
LINE
  5
390C
330
1E
100
AcDbEntity
  8
0
100
AcDbLine
 10
7.757874015748031
 20
3.63779527559055
 30
0.0
 11
7.380905511811023
 21
3.63779527559055
 31
0.0
  0
LINE
  5
390D
330
1E
100
AcDbEntity
  8
0
100
AcDbLine
 10
7.263779527559054
 20
3.63779527559055
 30
0.0
 11
7.380905511811023
 21
3.63779527559055
 31
0.0
  0
LINE
  5
390E
330
1E
100
AcDbEntity
  8
0
100
AcDbLine
 10
7.263779527559054
 20
3.63779527559055
 30
0.0
 11
7.263779527559054
 21
3.63779527559055
 31
0.0
  0
LINE
  5
390F
330
1E
100
AcDbEntity
  8
0
100
AcDbLine
 10
7.263779527559054
 20
3.63779527559055
 30
0.0
 11
7.038385826771653
 21
3.63779527559055
 31
0.0
  0
POLYLINE
  5
3910
330
1E
100
AcDbEntity
  8
0
100
AcDb2dPolyline
 66
     1
 10
0.0
 20
0.0
 30
0.0
  0
VERTEX
  5
3CFC
330
3910
100
AcDbEntity
  8
0
100
AcDbVertex
100
AcDb2dVertex
 10
7.038385826771653
 20
3.809055118110236
 30
0.0
  0
VERTEX
  5
3CFD
330
3910
100
AcDbEntity
  8
0
100
AcDbVertex
100
AcDb2dVertex
 10
7.038385826771653
 20
3.827755905511811
 30
0.0
  0
VERTEX
  5
3CFE
330
3910
100
AcDbEntity
  8
0
100
AcDbVertex
100
AcDb2dVertex
 10
7.038385826771653
 20
3.838582677165354
 30
0.0
  0
SEQEND
  5
3CFF
330
3910
100
AcDbEntity
  8
0
  0
LINE
  5
3915
330
1E
100
AcDbEntity
  8
0
100
AcDbLine
 10
7.038385826771653
 20
3.63779527559055
 30
0.0
 11
7.038385826771653
 21
3.809055118110236
 31
0.0
  0
LINE
  5
3916
330
1E
100
AcDbEntity
  8
0
100
AcDbLine
 10
7.263779527559054
 20
3.63779527559055
 30
0.0
 11
7.263779527559054
 21
3.809055118110236
 31
0.0
  0
LINE
  5
3917
330
1E
100
AcDbEntity
  8
0
100
AcDbLine
 10
7.263779527559054
 20
3.809055118110236
 30
0.0
 11
7.038385826771653
 21
3.809055118110236
 31
0.0
  0
POLYLINE
  5
3918
330
1E
100
AcDbEntity
  8
0
100
AcDb2dPolyline
 66
     1
 10
0.0
 20
0.0
 30
0.0
  0
VERTEX
  5
3D00
330
3918
100
AcDbEntity
  8
0
100
AcDbVertex
100
AcDb2dVertex
 10
7.043307086614173
 20
3.839566929133858
 30
0.0
  0
VERTEX
  5
3D01
330
3918
100
AcDbEntity
  8
0
100
AcDbVertex
100
AcDb2dVertex
 10
7.041338582677164
 20
3.839566929133858
 30
0.0
  0
VERTEX
  5
3D02
330
3918
100
AcDbEntity
  8
0
100
AcDbVertex
100
AcDb2dVertex
 10
7.039370078740157
 20
3.839566929133858
 30
0.0
  0
VERTEX
  5
3D03
330
3918
100
AcDbEntity
  8
0
100
AcDbVertex
100
AcDb2dVertex
 10
7.038385826771653
 20
3.838582677165354
 30
0.0
  0
SEQEND
  5
3D04
330
3918
100
AcDbEntity
  8
0
  0
LINE
  5
391E
330
1E
100
AcDbEntity
  8
0
100
AcDbLine
 10
7.263779527559054
 20
3.809055118110236
 30
0.0
 11
7.263779527559054
 21
3.818897637795275
 31
0.0
  0
POLYLINE
  5
391F
330
1E
100
AcDbEntity
  8
0
100
AcDb2dPolyline
 66
     1
 10
0.0
 20
0.0
 30
0.0
  0
VERTEX
  5
3D05
330
391F
100
AcDbEntity
  8
0
100
AcDbVertex
100
AcDb2dVertex
 10
7.263779527559054
 20
3.823818897637795
 30
0.0
  0
VERTEX
  5
3D06
330
391F
100
AcDbEntity
  8
0
100
AcDbVertex
100
AcDb2dVertex
 10
7.263779527559054
 20
3.824803149606299
 30
0.0
  0
VERTEX
  5
3D07
330
391F
100
AcDbEntity
  8
0
100
AcDbVertex
100
AcDb2dVertex
 10
7.264763779527559
 20
3.83267716535433
 30
0.0
  0
VERTEX
  5
3D08
330
391F
100
AcDbEntity
  8
0
100
AcDbVertex
100
AcDb2dVertex
 10
7.263779527559054
 20
3.83759842519685
 30
0.0
  0
VERTEX
  5
3D09
330
391F
100
AcDbEntity
  8
0
100
AcDbVertex
100
AcDb2dVertex
 10
7.263779527559054
 20
3.839566929133858
 30
0.0
  0
SEQEND
  5
3D0A
330
391F
100
AcDbEntity
  8
0
  0
LINE
  5
3926
330
1E
100
AcDbEntity
  8
0
100
AcDbLine
 10
7.788385826771653
 20
3.774606299212598
 30
0.0
 11
7.788385826771653
 21
3.667322834645669
 31
0.0
  0
LINE
  5
3927
330
1E
100
AcDbEntity
  8
0
100
AcDbLine
 10
7.849409448818897
 20
3.799212598425196
 30
0.0
 11
7.849409448818897
 21
3.774606299212598
 31
0.0
  0
POLYLINE
  5
3928
330
1E
100
AcDbEntity
  8
0
100
AcDb2dPolyline
 66
     1
 10
0.0
 20
0.0
 30
0.0
  0
VERTEX
  5
3D0B
330
3928
100
AcDbEntity
  8
0
100
AcDbVertex
100
AcDb2dVertex
 10
7.757874015748031
 20
3.63779527559055
 30
0.0
  0
VERTEX
  5
3D0C
330
3928
100
AcDbEntity
  8
0
100
AcDbVertex
100
AcDb2dVertex
 10
7.77263779527559
 20
3.641732283464566
 30
0.0
  0
VERTEX
  5
3D0D
330
3928
100
AcDbEntity
  8
0
100
AcDbVertex
100
AcDb2dVertex
 10
7.783464566929133
 20
3.65255905511811
 30
0.0
  0
VERTEX
  5
3D0E
330
3928
100
AcDbEntity
  8
0
100
AcDbVertex
100
AcDb2dVertex
 10
7.788385826771653
 20
3.667322834645669
 30
0.0
  0
SEQEND
  5
3D0F
330
3928
100
AcDbEntity
  8
0
  0
LINE
  5
392E
330
1E
100
AcDbEntity
  8
0
100
AcDbLine
 10
7.788385826771653
 20
3.774606299212598
 30
0.0
 11
7.818897637795275
 21
3.774606299212598
 31
0.0
  0
LINE
  5
392F
330
1E
100
AcDbEntity
  8
0
100
AcDbLine
 10
7.818897637795275
 20
3.774606299212598
 30
0.0
 11
7.818897637795275
 21
3.799212598425196
 31
0.0
  0
LINE
  5
3930
330
1E
100
AcDbEntity
  8
0
100
AcDbLine
 10
7.818897637795275
 20
3.799212598425196
 30
0.0
 11
7.380905511811023
 21
3.807086614173228
 31
0.0
  0
POLYLINE
  5
3931
330
1E
100
AcDbEntity
  8
0
100
AcDb2dPolyline
 66
     1
 10
0.0
 20
0.0
 30
0.0
  0
VERTEX
  5
3D10
330
3931
100
AcDbEntity
  8
0
100
AcDbVertex
100
AcDb2dVertex
 10
7.849409448818897
 20
3.774606299212598
 30
0.0
  0
VERTEX
  5
3D11
330
3931
100
AcDbEntity
  8
0
100
AcDbVertex
100
AcDb2dVertex
 10
7.845472440944881
 20
3.774606299212598
 30
0.0
  0
VERTEX
  5
3D12
330
3931
100
AcDbEntity
  8
0
100
AcDbVertex
100
AcDb2dVertex
 10
7.834645669291338
 20
3.774606299212598
 30
0.0
  0
VERTEX
  5
3D13
330
3931
100
AcDbEntity
  8
0
100
AcDbVertex
100
AcDb2dVertex
 10
7.818897637795275
 20
3.774606299212598
 30
0.0
  0
SEQEND
  5
3D14
330
3931
100
AcDbEntity
  8
0
  0
LINE
  5
3937
330
1E
100
AcDbEntity
  8
0
100
AcDbLine
 10
7.463582677165354
 20
3.63779527559055
 30
0.0
 11
7.463582677165354
 21
3.634842519685039
 31
0.0
  0
LINE
  5
3938
330
1E
100
AcDbEntity
  8
0
100
AcDbLine
 10
7.377952755905512
 20
3.63779527559055
 30
0.0
 11
7.377952755905512
 21
3.634842519685039
 31
0.0
  0
LINE
  5
3939
330
1E
100
AcDbEntity
  8
0
100
AcDbLine
 10
7.363188976377952
 20
3.634842519685039
 30
0.0
 11
7.363188976377952
 21
3.63779527559055
 31
0.0
  0
LINE
  5
393A
330
1E
100
AcDbEntity
  8
0
100
AcDbLine
 10
7.263779527559054
 20
3.839566929133858
 30
0.0
 11
7.819881889763779
 21
3.829724409448818
 31
0.0
  0
POLYLINE
  5
393B
330
1E
100
AcDbEntity
  8
0
100
AcDb2dPolyline
 66
     1
 10
0.0
 20
0.0
 30
0.0
  0
VERTEX
  5
3D15
330
393B
100
AcDbEntity
  8
0
100
AcDbVertex
100
AcDb2dVertex
 10
7.849409448818897
 20
3.799212598425196
 30
0.0
  0
VERTEX
  5
3D16
330
393B
100
AcDbEntity
  8
0
100
AcDbVertex
100
AcDb2dVertex
 10
7.845472440944881
 20
3.799212598425196
 30
0.0
  0
VERTEX
  5
3D17
330
393B
100
AcDbEntity
  8
0
100
AcDbVertex
100
AcDb2dVertex
 10
7.834645669291338
 20
3.799212598425196
 30
0.0
  0
VERTEX
  5
3D18
330
393B
100
AcDbEntity
  8
0
100
AcDbVertex
100
AcDb2dVertex
 10
7.818897637795275
 20
3.799212598425196
 30
0.0
  0
SEQEND
  5
3D19
330
393B
100
AcDbEntity
  8
0
  0
POLYLINE
  5
3941
330
1E
100
AcDbEntity
  8
0
100
AcDb2dPolyline
 66
     1
 10
0.0
 20
0.0
 30
0.0
  0
VERTEX
  5
3D1A
330
3941
100
AcDbEntity
  8
0
100
AcDbVertex
100
AcDb2dVertex
 10
7.849409448818897
 20
3.799212598425196
 30
0.0
  0
VERTEX
  5
3D1B
330
3941
100
AcDbEntity
  8
0
100
AcDbVertex
100
AcDb2dVertex
 10
7.845472440944881
 20
3.814960629921259
 30
0.0
  0
VERTEX
  5
3D1C
330
3941
100
AcDbEntity
  8
0
100
AcDbVertex
100
AcDb2dVertex
 10
7.834645669291338
 20
3.825787401574803
 30
0.0
  0
VERTEX
  5
3D1D
330
3941
100
AcDbEntity
  8
0
100
AcDbVertex
100
AcDb2dVertex
 10
7.819881889763779
 20
3.829724409448818
 30
0.0
  0
SEQEND
  5
3D1E
330
3941
100
AcDbEntity
  8
0
  0
POLYLINE
  5
3947
330
1E
100
AcDbEntity
  8
0
100
AcDb2dPolyline
 66
     1
 10
0.0
 20
0.0
 30
0.0
  0
VERTEX
  5
3D1F
330
3947
100
AcDbEntity
  8
0
100
AcDbVertex
100
AcDb2dVertex
 10
7.818897637795275
 20
3.799212598425196
 30
0.0
  0
VERTEX
  5
3D20
330
3947
100
AcDbEntity
  8
0
100
AcDbVertex
100
AcDb2dVertex
 10
7.819881889763779
 20
3.814960629921259
 30
0.0
  0
VERTEX
  5
3D21
330
3947
100
AcDbEntity
  8
0
100
AcDbVertex
100
AcDb2dVertex
 10
7.819881889763779
 20
3.825787401574803
 30
0.0
  0
VERTEX
  5
3D22
330
3947
100
AcDbEntity
  8
0
100
AcDbVertex
100
AcDb2dVertex
 10
7.819881889763779
 20
3.829724409448818
 30
0.0
  0
SEQEND
  5
3D23
330
3947
100
AcDbEntity
  8
0
  0
LINE
  5
394D
330
1E
100
AcDbEntity
  8
0
100
AcDbLine
 10
7.263779527559054
 20
3.63779527559055
 30
0.0
 11
7.263779527559054
 21
3.799212598425196
 31
0.0
  0
POLYLINE
  5
394E
330
1E
100
AcDbEntity
  8
0
100
AcDb2dPolyline
 66
     1
 10
0.0
 20
0.0
 30
0.0
  0
VERTEX
  5
3D24
330
394E
100
AcDbEntity
  8
0
100
AcDbVertex
100
AcDb2dVertex
 10
7.263779527559054
 20
3.799212598425196
 30
0.0
  0
VERTEX
  5
3D25
330
394E
100
AcDbEntity
  8
0
100
AcDbVertex
100
AcDb2dVertex
 10
7.263779527559054
 20
3.812992125984251
 30
0.0
  0
VERTEX
  5
3D26
330
394E
100
AcDbEntity
  8
0
100
AcDbVertex
100
AcDb2dVertex
 10
7.263779527559054
 20
3.823818897637795
 30
0.0
  0
SEQEND
  5
3D27
330
394E
100
AcDbEntity
  8
0
  0
LINE
  5
3953
330
1E
100
AcDbEntity
  8
0
100
AcDbLine
 10
7.263779527559054
 20
3.818897637795275
 30
0.0
 11
7.263779527559054
 21
3.823818897637795
 31
0.0
  0
POLYLINE
  5
3954
330
1E
100
AcDbEntity
  8
0
100
AcDb2dPolyline
 66
     1
 10
0.0
 20
0.0
 30
0.0
  0
VERTEX
  5
3D28
330
3954
100
AcDbEntity
  8
0
100
AcDbVertex
100
AcDb2dVertex
 10
7.380905511811023
 20
3.823818897637795
 30
0.0
  0
VERTEX
  5
3D29
330
3954
100
AcDbEntity
  8
0
100
AcDbVertex
100
AcDb2dVertex
 10
7.380905511811023
 20
3.812992125984251
 30
0.0
  0
VERTEX
  5
3D2A
330
3954
100
AcDbEntity
  8
0
100
AcDbVertex
100
AcDb2dVertex
 10
7.380905511811023
 20
3.799212598425196
 30
0.0
  0
SEQEND
  5
3D2B
330
3954
100
AcDbEntity
  8
0
  0
LINE
  5
3959
330
1E
100
AcDbEntity
  8
0
100
AcDbLine
 10
7.380905511811023
 20
3.63779527559055
 30
0.0
 11
7.380905511811023
 21
3.799212598425196
 31
0.0
  0
LINE
  5
395A
330
1E
100
AcDbEntity
  8
0
100
AcDbLine
 10
7.263779527559054
 20
3.823818897637795
 30
0.0
 11
7.380905511811023
 21
3.823818897637795
 31
0.0
  0
LINE
  5
395B
330
1E
100
AcDbEntity
  8
0
100
AcDbLine
 10
7.380905511811023
 20
3.799212598425196
 30
0.0
 11
7.263779527559054
 21
3.799212598425196
 31
0.0
  0
LINE
  5
395C
330
1E
100
AcDbEntity
  8
0
100
AcDbLine
 10
7.033464566929133
 20
3.325787401574803
 30
0.0
 11
7.179133858267716
 21
3.325787401574803
 31
0.0
  0
LINE
  5
395D
330
1E
100
AcDbEntity
  8
0
100
AcDbLine
 10
6.823818897637795
 20
3.325787401574803
 30
0.0
 11
7.033464566929133
 21
3.325787401574803
 31
0.0
  0
LINE
  5
395E
330
1E
100
AcDbEntity
  8
0
100
AcDbLine
 10
7.033464566929133
 20
3.534448818897637
 30
0.0
 11
7.033464566929133
 21
4.094488188976377
 31
0.0
  0
LINE
  5
395F
330
1E
100
AcDbEntity
  8
0
100
AcDbLine
 10
7.834645669291338
 20
3.534448818897637
 30
0.0
 11
7.468503937007874
 21
3.534448818897637
 31
0.0
  0
LINE
  5
3960
330
1E
100
AcDbEntity
  8
0
100
AcDbLine
 10
7.834645669291338
 20
3.374015748031495
 30
0.0
 11
7.468503937007874
 21
3.374015748031495
 31
0.0
  0
LINE
  5
3961
330
1E
100
AcDbEntity
  8
0
100
AcDbLine
 10
7.834645669291338
 20
3.534448818897637
 30
0.0
 11
7.834645669291338
 21
3.374015748031495
 31
0.0
  0
LINE
  5
3962
330
1E
100
AcDbEntity
  8
0
100
AcDbLine
 10
7.198818897637795
 20
3.345472440944881
 30
0.0
 11
7.199803149606299
 21
3.374015748031495
 31
0.0
  0
POLYLINE
  5
3963
330
1E
100
AcDbEntity
  8
0
100
AcDb2dPolyline
 66
     1
 10
0.0
 20
0.0
 30
0.0
  0
VERTEX
  5
3D2C
330
3963
100
AcDbEntity
  8
0
100
AcDbVertex
100
AcDb2dVertex
 10
7.834645669291338
 20
3.374015748031495
 30
0.0
  0
VERTEX
  5
3D2D
330
3963
100
AcDbEntity
  8
0
100
AcDbVertex
100
AcDb2dVertex
 10
7.843503937007874
 20
3.374015748031495
 30
0.0
  0
VERTEX
  5
3D2E
330
3963
100
AcDbEntity
  8
0
100
AcDbVertex
100
AcDb2dVertex
 10
7.851377952755905
 20
3.374015748031495
 30
0.0
  0
SEQEND
  5
3D2F
330
3963
100
AcDbEntity
  8
0
  0
POLYLINE
  5
3968
330
1E
100
AcDbEntity
  8
0
100
AcDb2dPolyline
 66
     1
 10
0.0
 20
0.0
 30
0.0
  0
VERTEX
  5
3D30
330
3968
100
AcDbEntity
  8
0
100
AcDbVertex
100
AcDb2dVertex
 10
7.468503937007874
 20
3.374015748031495
 30
0.0
  0
VERTEX
  5
3D31
330
3968
100
AcDbEntity
  8
0
100
AcDbVertex
100
AcDb2dVertex
 10
7.465551181102362
 20
3.374015748031495
 30
0.0
  0
VERTEX
  5
3D32
330
3968
100
AcDbEntity
  8
0
100
AcDbVertex
100
AcDb2dVertex
 10
7.458661417322834
 20
3.374015748031495
 30
0.0
  0
SEQEND
  5
3D33
330
3968
100
AcDbEntity
  8
0
  0
LINE
  5
396D
330
1E
100
AcDbEntity
  8
0
100
AcDbLine
 10
7.458661417322834
 20
3.374015748031495
 30
0.0
 11
7.033464566929133
 21
3.374015748031495
 31
0.0
  0
LINE
  5
396E
330
1E
100
AcDbEntity
  8
0
100
AcDbLine
 10
6.978346456692912
 20
3.374015748031495
 30
0.0
 11
7.033464566929133
 21
3.374015748031495
 31
0.0
  0
LINE
  5
396F
330
1E
100
AcDbEntity
  8
0
100
AcDbLine
 10
7.458661417322834
 20
3.534448818897637
 30
0.0
 11
7.033464566929133
 21
3.534448818897637
 31
0.0
  0
POLYLINE
  5
3970
330
1E
100
AcDbEntity
  8
0
100
AcDb2dPolyline
 66
     1
 10
0.0
 20
0.0
 30
0.0
  0
VERTEX
  5
3D34
330
3970
100
AcDbEntity
  8
0
100
AcDbVertex
100
AcDb2dVertex
 10
7.458661417322834
 20
3.534448818897637
 30
0.0
  0
VERTEX
  5
3D35
330
3970
100
AcDbEntity
  8
0
100
AcDbVertex
100
AcDb2dVertex
 10
7.465551181102362
 20
3.534448818897637
 30
0.0
  0
VERTEX
  5
3D36
330
3970
100
AcDbEntity
  8
0
100
AcDbVertex
100
AcDb2dVertex
 10
7.468503937007874
 20
3.534448818897637
 30
0.0
  0
SEQEND
  5
3D37
330
3970
100
AcDbEntity
  8
0
  0
POLYLINE
  5
3975
330
1E
100
AcDbEntity
  8
0
100
AcDb2dPolyline
 66
     1
 10
0.0
 20
0.0
 30
0.0
  0
VERTEX
  5
3D38
330
3975
100
AcDbEntity
  8
0
100
AcDbVertex
100
AcDb2dVertex
 10
7.834645669291338
 20
3.534448818897637
 30
0.0
  0
VERTEX
  5
3D39
330
3975
100
AcDbEntity
  8
0
100
AcDbVertex
100
AcDb2dVertex
 10
7.855314960629921
 20
3.534448818897637
 30
0.0
  0
VERTEX
  5
3D3A
330
3975
100
AcDbEntity
  8
0
100
AcDbVertex
100
AcDb2dVertex
 10
7.871062992125984
 20
3.534448818897637
 30
0.0
  0
VERTEX
  5
3D3B
330
3975
100
AcDbEntity
  8
0
100
AcDbVertex
100
AcDb2dVertex
 10
7.875984251968503
 20
3.534448818897637
 30
0.0
  0
SEQEND
  5
3D3C
330
3975
100
AcDbEntity
  8
0
  0
LINE
  5
397B
330
1E
100
AcDbEntity
  8
0
100
AcDbLine
 10
6.888779527559054
 20
4.091535433070865
 30
0.0
 11
6.503937007874015
 21
4.084645669291338
 31
0.0
  0
LINE
  5
397C
330
1E
100
AcDbEntity
  8
0
100
AcDbLine
 10
6.888779527559054
 20
4.091535433070865
 30
0.0
 11
7.033464566929133
 21
4.094488188976377
 31
0.0
  0
POLYLINE
  5
397D
330
1E
100
AcDbEntity
  8
0
100
AcDb2dPolyline
 66
     1
 10
0.0
 20
0.0
 30
0.0
  0
VERTEX
  5
3D3D
330
397D
100
AcDbEntity
  8
0
100
AcDbVertex
100
AcDb2dVertex
 10
7.179133858267716
 20
3.325787401574803
 30
0.0
  0
VERTEX
  5
3D3E
330
397D
100
AcDbEntity
  8
0
100
AcDbVertex
100
AcDb2dVertex
 10
7.192913385826771
 20
3.331692913385826
 30
0.0
  0
VERTEX
  5
3D3F
330
397D
100
AcDbEntity
  8
0
100
AcDbVertex
100
AcDb2dVertex
 10
7.198818897637795
 20
3.345472440944881
 30
0.0
  0
SEQEND
  5
3D40
330
397D
100
AcDbEntity
  8
0
  0
LINE
  5
3982
330
1E
100
AcDbEntity
  8
0
100
AcDbLine
 10
7.0
 20
3.374015748031495
 30
0.0
 11
6.714566929133858
 21
3.369094488188976
 31
0.0
  0
LINE
  5
3983
330
1E
100
AcDbEntity
  8
0
100
AcDbLine
 10
6.714566929133858
 20
3.344488188976377
 30
0.0
 11
6.714566929133858
 21
3.369094488188976
 31
0.0
  0
LINE
  5
3984
330
1E
100
AcDbEntity
  8
0
100
AcDbLine
 10
7.033464566929133
 20
3.325787401574803
 30
0.0
 11
7.033464566929133
 21
3.374015748031495
 31
0.0
  0
LINE
  5
3985
330
1E
100
AcDbEntity
  8
0
100
AcDbLine
 10
6.817913385826771
 20
3.279527559055118
 30
0.0
 11
6.714566929133858
 21
3.344488188976377
 31
0.0
  0
LINE
  5
3986
330
1E
100
AcDbEntity
  8
0
100
AcDbLine
 10
6.823818897637795
 20
3.28248031496063
 30
0.0
 11
6.823818897637795
 21
3.325787401574803
 31
0.0
  0
POLYLINE
  5
3987
330
1E
100
AcDbEntity
  8
0
100
AcDb2dPolyline
 66
     1
 10
0.0
 20
0.0
 30
0.0
  0
VERTEX
  5
3D41
330
3987
100
AcDbEntity
  8
0
100
AcDbVertex
100
AcDb2dVertex
 10
6.817913385826771
 20
3.279527559055118
 30
0.0
  0
VERTEX
  5
3D42
330
3987
100
AcDbEntity
  8
0
100
AcDbVertex
100
AcDb2dVertex
 10
6.821850393700787
 20
3.279527559055118
 30
0.0
  0
VERTEX
  5
3D43
330
3987
100
AcDbEntity
  8
0
100
AcDbVertex
100
AcDb2dVertex
 10
6.823818897637795
 20
3.28248031496063
 30
0.0
  0
SEQEND
  5
3D44
330
3987
100
AcDbEntity
  8
0
  0
LINE
  5
398C
330
1E
100
AcDbEntity
  8
0
100
AcDbLine
 10
7.005905511811023
 20
3.374015748031495
 30
0.0
 11
7.0
 21
3.374015748031495
 31
0.0
  0
LINE
  5
398D
330
1E
100
AcDbEntity
  8
0
100
AcDbLine
 10
6.888779527559054
 20
3.442913385826771
 30
0.0
 11
6.503937007874015
 21
3.449803149606299
 31
0.0
  0
LINE
  5
398E
330
1E
100
AcDbEntity
  8
0
100
AcDbLine
 10
6.721456692913386
 20
4.088582677165354
 30
0.0
 11
6.823818897637795
 21
4.15255905511811
 31
0.0
  0
LINE
  5
398F
330
1E
100
AcDbEntity
  8
0
100
AcDbLine
 10
6.823818897637795
 20
4.090551181102362
 30
0.0
 11
6.823818897637795
 21
4.15255905511811
 31
0.0
  0
LINE
  5
3990
330
1E
100
AcDbEntity
  8
0
100
AcDbLine
 10
6.888779527559054
 20
3.437007874015748
 30
0.0
 11
6.888779527559054
 21
4.091535433070865
 31
0.0
  0
LINE
  5
3991
330
1E
100
AcDbEntity
  8
0
100
AcDbLine
 10
6.503937007874015
 20
4.084645669291338
 30
0.0
 11
6.503937007874015
 21
3.449803149606299
 31
0.0
  0
LINE
  5
3992
330
1E
100
AcDbEntity
  8
0
100
AcDbLine
 10
7.875984251968503
 20
3.534448818897637
 30
0.0
 11
7.875984251968503
 21
3.399606299212598
 31
0.0
  0
POLYLINE
  5
3993
330
1E
100
AcDbEntity
  8
0
100
AcDb2dPolyline
 66
     1
 10
0.0
 20
0.0
 30
0.0
  0
VERTEX
  5
3D45
330
3993
100
AcDbEntity
  8
0
100
AcDbVertex
100
AcDb2dVertex
 10
7.851377952755905
 20
3.374015748031495
 30
0.0
  0
VERTEX
  5
3D46
330
3993
100
AcDbEntity
  8
0
100
AcDbVertex
100
AcDb2dVertex
 10
7.864173228346456
 20
3.38779527559055
 30
0.0
  0
VERTEX
  5
3D47
330
3993
100
AcDbEntity
  8
0
100
AcDbVertex
100
AcDb2dVertex
 10
7.873031496062991
 20
3.396653543307086
 30
0.0
  0
VERTEX
  5
3D48
330
3993
100
AcDbEntity
  8
0
100
AcDbVertex
100
AcDb2dVertex
 10
7.875984251968503
 20
3.399606299212598
 30
0.0
  0
SEQEND
  5
3D49
330
3993
100
AcDbEntity
  8
0
  0
LINE
  5
3999
330
1E
100
AcDbEntity
  8
0
100
AcDbLine
 10
6.888779527559054
 20
3.437007874015748
 30
0.0
 11
6.978346456692912
 21
3.374015748031495
 31
0.0
  0
LINE
  5
399A
330
1E
100
AcDbEntity
  8
0
100
AcDbLine
 10
7.033464566929133
 20
3.374015748031495
 30
0.0
 11
7.033464566929133
 21
3.534448818897637
 31
0.0
  0
LINE
  5
399B
330
1E
100
AcDbEntity
  8
0
100
AcDbLine
 10
7.458661417322834
 20
3.374015748031495
 30
0.0
 11
7.458661417322834
 21
3.534448818897637
 31
0.0
  0
LINE
  5
399C
330
1E
100
AcDbEntity
  8
0
100
AcDbLine
 10
7.468503937007874
 20
3.534448818897637
 30
0.0
 11
7.468503937007874
 21
3.374015748031495
 31
0.0
  0
LINE
  5
399D
330
1E
100
AcDbEntity
  8
0
100
AcDbLine
 10
6.899606299212598
 20
3.325787401574803
 30
0.0
 11
6.899606299212598
 21
3.318897637795275
 31
0.0
  0
LINE
  5
399E
330
1E
100
AcDbEntity
  8
0
100
AcDbLine
 10
6.937007874015748
 20
3.325787401574803
 30
0.0
 11
6.937007874015748
 21
3.318897637795275
 31
0.0
  0
LINE
  5
399F
330
1E
100
AcDbEntity
  8
0
100
AcDbLine
 10
6.899606299212598
 20
3.318897637795275
 30
0.0
 11
6.937007874015748
 21
3.318897637795275
 31
0.0
  0
LINE
  5
39A0
330
1E
100
AcDbEntity
  8
0
100
AcDbLine
 10
6.989173228346456
 20
3.325787401574803
 30
0.0
 11
6.989173228346456
 21
3.318897637795275
 31
0.0
  0
LINE
  5
39A1
330
1E
100
AcDbEntity
  8
0
100
AcDbLine
 10
6.937007874015748
 20
3.318897637795275
 30
0.0
 11
6.989173228346456
 21
3.318897637795275
 31
0.0
  0
LINE
  5
39A2
330
1E
100
AcDbEntity
  8
0
100
AcDbLine
 10
4.589566929133858
 20
3.648622047244094
 30
0.0
 11
4.585629921259842
 21
3.648622047244094
 31
0.0
  0
LINE
  5
39A3
330
1E
100
AcDbEntity
  8
0
100
AcDbLine
 10
4.55511811023622
 20
3.648622047244094
 30
0.0
 11
4.504921259842519
 21
3.648622047244094
 31
0.0
  0
LINE
  5
39A4
330
1E
100
AcDbEntity
  8
0
100
AcDbLine
 10
4.971456692913386
 20
3.648622047244094
 30
0.0
 11
4.922244094488188
 21
3.648622047244094
 31
0.0
  0
LINE
  5
39A5
330
1E
100
AcDbEntity
  8
0
100
AcDbLine
 10
4.890748031496062
 20
3.648622047244094
 30
0.0
 11
4.88779527559055
 21
3.648622047244094
 31
0.0
  0
LINE
  5
39A6
330
1E
100
AcDbEntity
  8
0
100
AcDbLine
 10
4.501968503937007
 20
3.257874015748031
 30
0.0
 11
4.974409448818897
 21
3.257874015748031
 31
0.0
  0
LINE
  5
39A7
330
1E
100
AcDbEntity
  8
0
100
AcDbLine
 10
4.88779527559055
 20
3.648622047244094
 30
0.0
 11
4.88779527559055
 21
3.661417322834645
 31
0.0
  0
LINE
  5
39A8
330
1E
100
AcDbEntity
  8
0
100
AcDbLine
 10
4.588582677165354
 20
3.648622047244094
 30
0.0
 11
4.589566929133858
 21
3.661417322834645
 31
0.0
  0
LINE
  5
39A9
330
1E
100
AcDbEntity
  8
0
100
AcDbLine
 10
4.607283464566928
 20
3.646653543307086
 30
0.0
 11
4.61023622047244
 21
3.646653543307086
 31
0.0
  0
LINE
  5
39AA
330
1E
100
AcDbEntity
  8
0
100
AcDbLine
 10
4.625984251968503
 20
3.646653543307086
 30
0.0
 11
4.629921259842519
 21
3.646653543307086
 31
0.0
  0
LINE
  5
39AB
330
1E
100
AcDbEntity
  8
0
100
AcDbLine
 10
4.64763779527559
 20
3.646653543307086
 30
0.0
 11
4.650590551181101
 21
3.646653543307086
 31
0.0
  0
LINE
  5
39AC
330
1E
100
AcDbEntity
  8
0
100
AcDbLine
 10
4.666338582677165
 20
3.646653543307086
 30
0.0
 11
4.669291338582676
 21
3.646653543307086
 31
0.0
  0
LINE
  5
39AD
330
1E
100
AcDbEntity
  8
0
100
AcDbLine
 10
4.687007874015748
 20
3.646653543307086
 30
0.0
 11
4.690944881889763
 21
3.646653543307086
 31
0.0
  0
LINE
  5
39AE
330
1E
100
AcDbEntity
  8
0
100
AcDbLine
 10
4.706692913385826
 20
3.646653543307086
 30
0.0
 11
4.709645669291338
 21
3.646653543307086
 31
0.0
  0
LINE
  5
39AF
330
1E
100
AcDbEntity
  8
0
100
AcDbLine
 10
4.727362204724409
 20
3.646653543307086
 30
0.0
 11
4.730314960629921
 21
3.646653543307086
 31
0.0
  0
LINE
  5
39B0
330
1E
100
AcDbEntity
  8
0
100
AcDbLine
 10
4.746062992125984
 20
3.646653543307086
 30
0.0
 11
4.749015748031496
 21
3.646653543307086
 31
0.0
  0
LINE
  5
39B1
330
1E
100
AcDbEntity
  8
0
100
AcDbLine
 10
4.76771653543307
 20
3.646653543307086
 30
0.0
 11
4.770669291338582
 21
3.646653543307086
 31
0.0
  0
LINE
  5
39B2
330
1E
100
AcDbEntity
  8
0
100
AcDbLine
 10
4.786417322834645
 20
3.646653543307086
 30
0.0
 11
4.789370078740157
 21
3.646653543307086
 31
0.0
  0
LINE
  5
39B3
330
1E
100
AcDbEntity
  8
0
100
AcDbLine
 10
4.807086614173228
 20
3.646653543307086
 30
0.0
 11
4.810039370078739
 21
3.646653543307086
 31
0.0
  0
LINE
  5
39B4
330
1E
100
AcDbEntity
  8
0
100
AcDbLine
 10
4.826771653543307
 20
3.646653543307086
 30
0.0
 11
4.829724409448818
 21
3.646653543307086
 31
0.0
  0
LINE
  5
39B5
330
1E
100
AcDbEntity
  8
0
100
AcDbLine
 10
4.847440944881889
 20
3.646653543307086
 30
0.0
 11
4.850393700787401
 21
3.646653543307086
 31
0.0
  0
LINE
  5
39B6
330
1E
100
AcDbEntity
  8
0
100
AcDbLine
 10
4.866141732283464
 20
3.646653543307086
 30
0.0
 11
4.869094488188975
 21
3.646653543307086
 31
0.0
  0
LINE
  5
39B7
330
1E
100
AcDbEntity
  8
0
100
AcDbLine
 10
4.88779527559055
 20
3.648622047244094
 30
0.0
 11
4.890748031496062
 21
3.648622047244094
 31
0.0
  0
LINE
  5
39B8
330
1E
100
AcDbEntity
  8
0
100
AcDbLine
 10
4.922244094488188
 20
3.648622047244094
 30
0.0
 11
4.971456692913386
 21
3.648622047244094
 31
0.0
  0
LINE
  5
39B9
330
1E
100
AcDbEntity
  8
0
100
AcDbLine
 10
4.613188976377952
 20
3.639763779527558
 30
0.0
 11
4.629921259842519
 21
3.639763779527558
 31
0.0
  0
LINE
  5
39BA
330
1E
100
AcDbEntity
  8
0
100
AcDbLine
 10
4.64763779527559
 20
3.639763779527558
 30
0.0
 11
4.669291338582676
 21
3.639763779527558
 31
0.0
  0
LINE
  5
39BB
330
1E
100
AcDbEntity
  8
0
100
AcDbLine
 10
4.687007874015748
 20
3.639763779527558
 30
0.0
 11
4.709645669291338
 21
3.639763779527558
 31
0.0
  0
LINE
  5
39BC
330
1E
100
AcDbEntity
  8
0
100
AcDbLine
 10
4.727362204724409
 20
3.639763779527558
 30
0.0
 11
4.749015748031496
 21
3.639763779527558
 31
0.0
  0
LINE
  5
39BD
330
1E
100
AcDbEntity
  8
0
100
AcDbLine
 10
4.76771653543307
 20
3.639763779527558
 30
0.0
 11
4.789370078740157
 21
3.639763779527558
 31
0.0
  0
LINE
  5
39BE
330
1E
100
AcDbEntity
  8
0
100
AcDbLine
 10
4.807086614173228
 20
3.639763779527558
 30
0.0
 11
4.829724409448818
 21
3.639763779527558
 31
0.0
  0
LINE
  5
39BF
330
1E
100
AcDbEntity
  8
0
100
AcDbLine
 10
4.847440944881889
 20
3.639763779527558
 30
0.0
 11
4.864173228346456
 21
3.639763779527558
 31
0.0
  0
POLYLINE
  5
39C0
330
1E
100
AcDbEntity
  8
0
100
AcDb2dPolyline
 66
     1
 10
0.0
 20
0.0
 30
0.0
  0
VERTEX
  5
3D4A
330
39C0
100
AcDbEntity
  8
0
100
AcDbVertex
100
AcDb2dVertex
 10
4.613188976377952
 20
3.639763779527558
 30
0.0
  0
VERTEX
  5
3D4B
330
39C0
100
AcDbEntity
  8
0
100
AcDbVertex
100
AcDb2dVertex
 10
4.613188976377952
 20
3.636811023622047
 30
0.0
  0
VERTEX
  5
3D4C
330
39C0
100
AcDbEntity
  8
0
100
AcDbVertex
100
AcDb2dVertex
 10
4.613188976377952
 20
3.630905511811023
 30
0.0
  0
SEQEND
  5
3D4D
330
39C0
100
AcDbEntity
  8
0
  0
LINE
  5
39C5
330
1E
100
AcDbEntity
  8
0
100
AcDbLine
 10
4.613188976377952
 20
3.630905511811023
 30
0.0
 11
4.629921259842519
 21
3.630905511811023
 31
0.0
  0
LINE
  5
39C6
330
1E
100
AcDbEntity
  8
0
100
AcDbLine
 10
4.64763779527559
 20
3.630905511811023
 30
0.0
 11
4.669291338582676
 21
3.630905511811023
 31
0.0
  0
LINE
  5
39C7
330
1E
100
AcDbEntity
  8
0
100
AcDbLine
 10
4.687007874015748
 20
3.630905511811023
 30
0.0
 11
4.709645669291338
 21
3.630905511811023
 31
0.0
  0
LINE
  5
39C8
330
1E
100
AcDbEntity
  8
0
100
AcDbLine
 10
4.727362204724409
 20
3.630905511811023
 30
0.0
 11
4.749015748031496
 21
3.630905511811023
 31
0.0
  0
LINE
  5
39C9
330
1E
100
AcDbEntity
  8
0
100
AcDbLine
 10
4.76771653543307
 20
3.630905511811023
 30
0.0
 11
4.789370078740157
 21
3.630905511811023
 31
0.0
  0
LINE
  5
39CA
330
1E
100
AcDbEntity
  8
0
100
AcDbLine
 10
4.807086614173228
 20
3.630905511811023
 30
0.0
 11
4.829724409448818
 21
3.630905511811023
 31
0.0
  0
LINE
  5
39CB
330
1E
100
AcDbEntity
  8
0
100
AcDbLine
 10
4.847440944881889
 20
3.630905511811023
 30
0.0
 11
4.864173228346456
 21
3.630905511811023
 31
0.0
  0
POLYLINE
  5
39CC
330
1E
100
AcDbEntity
  8
0
100
AcDb2dPolyline
 66
     1
 10
0.0
 20
0.0
 30
0.0
  0
VERTEX
  5
3D4E
330
39CC
100
AcDbEntity
  8
0
100
AcDbVertex
100
AcDb2dVertex
 10
4.864173228346456
 20
3.630905511811023
 30
0.0
  0
VERTEX
  5
3D4F
330
39CC
100
AcDbEntity
  8
0
100
AcDbVertex
100
AcDb2dVertex
 10
4.864173228346456
 20
3.636811023622047
 30
0.0
  0
VERTEX
  5
3D50
330
39CC
100
AcDbEntity
  8
0
100
AcDbVertex
100
AcDb2dVertex
 10
4.864173228346456
 20
3.639763779527558
 30
0.0
  0
SEQEND
  5
3D51
330
39CC
100
AcDbEntity
  8
0
  0
LINE
  5
39D1
330
1E
100
AcDbEntity
  8
0
100
AcDbLine
 10
4.504921259842519
 20
3.648622047244094
 30
0.0
 11
4.55511811023622
 21
3.648622047244094
 31
0.0
  0
LINE
  5
39D2
330
1E
100
AcDbEntity
  8
0
100
AcDbLine
 10
4.585629921259842
 20
3.648622047244094
 30
0.0
 11
4.589566929133858
 21
3.648622047244094
 31
0.0
  0
LINE
  5
39D3
330
1E
100
AcDbEntity
  8
0
100
AcDbLine
 10
4.503937007874015
 20
3.639763779527558
 30
0.0
 11
4.503937007874015
 21
3.639763779527558
 31
0.0
  0
LINE
  5
39D4
330
1E
100
AcDbEntity
  8
0
100
AcDbLine
 10
4.503937007874015
 20
3.639763779527558
 30
0.0
 11
4.585629921259842
 21
3.639763779527558
 31
0.0
  0
LINE
  5
39D5
330
1E
100
AcDbEntity
  8
0
100
AcDbLine
 10
4.585629921259842
 20
3.639763779527558
 30
0.0
 11
4.585629921259842
 21
3.645669291338582
 31
0.0
  0
LINE
  5
39D6
330
1E
100
AcDbEntity
  8
0
100
AcDbLine
 10
4.61023622047244
 20
3.646653543307086
 30
0.0
 11
4.607283464566928
 21
3.646653543307086
 31
0.0
  0
LINE
  5
39D7
330
1E
100
AcDbEntity
  8
0
100
AcDbLine
 10
4.589566929133858
 20
3.646653543307086
 30
0.0
 11
4.585629921259842
 21
3.646653543307086
 31
0.0
  0
LINE
  5
39D8
330
1E
100
AcDbEntity
  8
0
100
AcDbLine
 10
4.613188976377952
 20
3.645669291338582
 30
0.0
 11
4.613188976377952
 21
3.639763779527558
 31
0.0
  0
LINE
  5
39D9
330
1E
100
AcDbEntity
  8
0
100
AcDbLine
 10
4.864173228346456
 20
3.639763779527558
 30
0.0
 11
4.864173228346456
 21
3.645669291338582
 31
0.0
  0
LINE
  5
39DA
330
1E
100
AcDbEntity
  8
0
100
AcDbLine
 10
4.866141732283464
 20
3.646653543307086
 30
0.0
 11
4.869094488188975
 21
3.646653543307086
 31
0.0
  0
LINE
  5
39DB
330
1E
100
AcDbEntity
  8
0
100
AcDbLine
 10
4.88779527559055
 20
3.646653543307086
 30
0.0
 11
4.890748031496062
 21
3.646653543307086
 31
0.0
  0
LINE
  5
39DC
330
1E
100
AcDbEntity
  8
0
100
AcDbLine
 10
4.890748031496062
 20
3.645669291338582
 30
0.0
 11
4.890748031496062
 21
3.639763779527558
 31
0.0
  0
LINE
  5
39DD
330
1E
100
AcDbEntity
  8
0
100
AcDbLine
 10
4.890748031496062
 20
3.639763779527558
 30
0.0
 11
4.972440944881889
 21
3.639763779527558
 31
0.0
  0
LINE
  5
39DE
330
1E
100
AcDbEntity
  8
0
100
AcDbLine
 10
4.972440944881889
 20
3.639763779527558
 30
0.0
 11
4.973425196850393
 21
3.639763779527558
 31
0.0
  0
POLYLINE
  5
39DF
330
1E
100
AcDbEntity
  8
0
100
AcDb2dPolyline
 66
     1
 10
0.0
 20
0.0
 30
0.0
  0
VERTEX
  5
3D52
330
39DF
100
AcDbEntity
  8
0
100
AcDbVertex
100
AcDb2dVertex
 10
4.890748031496062
 20
3.639763779527558
 30
0.0
  0
VERTEX
  5
3D53
330
39DF
100
AcDbEntity
  8
0
100
AcDbVertex
100
AcDb2dVertex
 10
4.890748031496062
 20
3.636811023622047
 30
0.0
  0
VERTEX
  5
3D54
330
39DF
100
AcDbEntity
  8
0
100
AcDbVertex
100
AcDb2dVertex
 10
4.890748031496062
 20
3.630905511811023
 30
0.0
  0
SEQEND
  5
3D55
330
39DF
100
AcDbEntity
  8
0
  0
LINE
  5
39E4
330
1E
100
AcDbEntity
  8
0
100
AcDbLine
 10
4.890748031496062
 20
3.630905511811023
 30
0.0
 11
4.973425196850393
 21
3.630905511811023
 31
0.0
  0
LINE
  5
39E5
330
1E
100
AcDbEntity
  8
0
100
AcDbLine
 10
4.972440944881889
 20
3.639763779527558
 30
0.0
 11
4.973425196850393
 21
3.636811023622047
 31
0.0
  0
LINE
  5
39E6
330
1E
100
AcDbEntity
  8
0
100
AcDbLine
 10
4.613188976377952
 20
3.630905511811023
 30
0.0
 11
4.613188976377952
 21
3.614173228346456
 31
0.0
  0
LINE
  5
39E7
330
1E
100
AcDbEntity
  8
0
100
AcDbLine
 10
4.585629921259842
 20
3.614173228346456
 30
0.0
 11
4.585629921259842
 21
3.630905511811023
 31
0.0
  0
LINE
  5
39E8
330
1E
100
AcDbEntity
  8
0
100
AcDbLine
 10
4.503937007874015
 20
3.630905511811023
 30
0.0
 11
4.585629921259842
 21
3.630905511811023
 31
0.0
  0
LINE
  5
39E9
330
1E
100
AcDbEntity
  8
0
100
AcDbLine
 10
4.890748031496062
 20
3.630905511811023
 30
0.0
 11
4.890748031496062
 21
3.614173228346456
 31
0.0
  0
LINE
  5
39EA
330
1E
100
AcDbEntity
  8
0
100
AcDbLine
 10
4.864173228346456
 20
3.614173228346456
 30
0.0
 11
4.864173228346456
 21
3.630905511811023
 31
0.0
  0
POLYLINE
  5
39EB
330
1E
100
AcDbEntity
  8
0
100
AcDb2dPolyline
 66
     1
 10
0.0
 20
0.0
 30
0.0
  0
VERTEX
  5
3D56
330
39EB
100
AcDbEntity
  8
0
100
AcDbVertex
100
AcDb2dVertex
 10
4.585629921259842
 20
3.630905511811023
 30
0.0
  0
VERTEX
  5
3D57
330
39EB
100
AcDbEntity
  8
0
100
AcDbVertex
100
AcDb2dVertex
 10
4.585629921259842
 20
3.636811023622047
 30
0.0
  0
VERTEX
  5
3D58
330
39EB
100
AcDbEntity
  8
0
100
AcDbVertex
100
AcDb2dVertex
 10
4.585629921259842
 20
3.639763779527558
 30
0.0
  0
SEQEND
  5
3D59
330
39EB
100
AcDbEntity
  8
0
  0
LINE
  5
39F0
330
1E
100
AcDbEntity
  8
0
100
AcDbLine
 10
4.503937007874015
 20
3.639763779527558
 30
0.0
 11
4.503937007874015
 21
3.636811023622047
 31
0.0
  0
LINE
  5
39F1
330
1E
100
AcDbEntity
  8
0
100
AcDbLine
 10
4.866141732283464
 20
3.645669291338582
 30
0.0
 11
4.867125984251968
 21
3.643700787401574
 31
0.0
  0
LINE
  5
39F2
330
1E
100
AcDbEntity
  8
0
100
AcDbLine
 10
4.88779527559055
 20
3.643700787401574
 30
0.0
 11
4.890748031496062
 21
3.646653543307086
 31
0.0
  0
LINE
  5
39F3
330
1E
100
AcDbEntity
  8
0
100
AcDbLine
 10
4.88779527559055
 20
3.614173228346456
 30
0.0
 11
4.88779527559055
 21
3.629921259842519
 31
0.0
  0
POLYLINE
  5
39F4
330
1E
100
AcDbEntity
  8
0
100
AcDb2dPolyline
 66
     1
 10
0.0
 20
0.0
 30
0.0
  0
VERTEX
  5
3D5A
330
39F4
100
AcDbEntity
  8
0
100
AcDbVertex
100
AcDb2dVertex
 10
4.88779527559055
 20
3.629921259842519
 30
0.0
  0
VERTEX
  5
3D5B
330
39F4
100
AcDbEntity
  8
0
100
AcDbVertex
100
AcDb2dVertex
 10
4.88779527559055
 20
3.634842519685039
 30
0.0
  0
VERTEX
  5
3D5C
330
39F4
100
AcDbEntity
  8
0
100
AcDbVertex
100
AcDb2dVertex
 10
4.88779527559055
 20
3.636811023622047
 30
0.0
  0
SEQEND
  5
3D5D
330
39F4
100
AcDbEntity
  8
0
  0
LINE
  5
39F9
330
1E
100
AcDbEntity
  8
0
100
AcDbLine
 10
4.88779527559055
 20
3.636811023622047
 30
0.0
 11
4.88779527559055
 21
3.643700787401574
 31
0.0
  0
LINE
  5
39FA
330
1E
100
AcDbEntity
  8
0
100
AcDbLine
 10
4.867125984251968
 20
3.643700787401574
 30
0.0
 11
4.867125984251968
 21
3.636811023622047
 31
0.0
  0
POLYLINE
  5
39FB
330
1E
100
AcDbEntity
  8
0
100
AcDb2dPolyline
 66
     1
 10
0.0
 20
0.0
 30
0.0
  0
VERTEX
  5
3D5E
330
39FB
100
AcDbEntity
  8
0
100
AcDbVertex
100
AcDb2dVertex
 10
4.867125984251968
 20
3.636811023622047
 30
0.0
  0
VERTEX
  5
3D5F
330
39FB
100
AcDbEntity
  8
0
100
AcDbVertex
100
AcDb2dVertex
 10
4.867125984251968
 20
3.634842519685039
 30
0.0
  0
VERTEX
  5
3D60
330
39FB
100
AcDbEntity
  8
0
100
AcDbVertex
100
AcDb2dVertex
 10
4.867125984251968
 20
3.629921259842519
 30
0.0
  0
SEQEND
  5
3D61
330
39FB
100
AcDbEntity
  8
0
  0
LINE
  5
3A00
330
1E
100
AcDbEntity
  8
0
100
AcDbLine
 10
4.867125984251968
 20
3.629921259842519
 30
0.0
 11
4.867125984251968
 21
3.614173228346456
 31
0.0
  0
LINE
  5
3A01
330
1E
100
AcDbEntity
  8
0
100
AcDbLine
 10
4.585629921259842
 20
3.646653543307086
 30
0.0
 11
4.588582677165354
 21
3.643700787401574
 31
0.0
  0
LINE
  5
3A02
330
1E
100
AcDbEntity
  8
0
100
AcDbLine
 10
4.61023622047244
 20
3.643700787401574
 30
0.0
 11
4.611220472440944
 21
3.645669291338582
 31
0.0
  0
LINE
  5
3A03
330
1E
100
AcDbEntity
  8
0
100
AcDbLine
 10
4.588582677165354
 20
3.643700787401574
 30
0.0
 11
4.588582677165354
 21
3.636811023622047
 31
0.0
  0
POLYLINE
  5
3A04
330
1E
100
AcDbEntity
  8
0
100
AcDb2dPolyline
 66
     1
 10
0.0
 20
0.0
 30
0.0
  0
VERTEX
  5
3D62
330
3A04
100
AcDbEntity
  8
0
100
AcDbVertex
100
AcDb2dVertex
 10
4.588582677165354
 20
3.636811023622047
 30
0.0
  0
VERTEX
  5
3D63
330
3A04
100
AcDbEntity
  8
0
100
AcDbVertex
100
AcDb2dVertex
 10
4.588582677165354
 20
3.634842519685039
 30
0.0
  0
VERTEX
  5
3D64
330
3A04
100
AcDbEntity
  8
0
100
AcDbVertex
100
AcDb2dVertex
 10
4.588582677165354
 20
3.629921259842519
 30
0.0
  0
SEQEND
  5
3D65
330
3A04
100
AcDbEntity
  8
0
  0
LINE
  5
3A09
330
1E
100
AcDbEntity
  8
0
100
AcDbLine
 10
4.588582677165354
 20
3.629921259842519
 30
0.0
 11
4.588582677165354
 21
3.614173228346456
 31
0.0
  0
LINE
  5
3A0A
330
1E
100
AcDbEntity
  8
0
100
AcDbLine
 10
4.61023622047244
 20
3.614173228346456
 30
0.0
 11
4.61023622047244
 21
3.629921259842519
 31
0.0
  0
POLYLINE
  5
3A0B
330
1E
100
AcDbEntity
  8
0
100
AcDb2dPolyline
 66
     1
 10
0.0
 20
0.0
 30
0.0
  0
VERTEX
  5
3D66
330
3A0B
100
AcDbEntity
  8
0
100
AcDbVertex
100
AcDb2dVertex
 10
4.61023622047244
 20
3.629921259842519
 30
0.0
  0
VERTEX
  5
3D67
330
3A0B
100
AcDbEntity
  8
0
100
AcDbVertex
100
AcDb2dVertex
 10
4.61023622047244
 20
3.634842519685039
 30
0.0
  0
VERTEX
  5
3D68
330
3A0B
100
AcDbEntity
  8
0
100
AcDbVertex
100
AcDb2dVertex
 10
4.61023622047244
 20
3.636811023622047
 30
0.0
  0
SEQEND
  5
3D69
330
3A0B
100
AcDbEntity
  8
0
  0
LINE
  5
3A10
330
1E
100
AcDbEntity
  8
0
100
AcDbLine
 10
4.61023622047244
 20
3.636811023622047
 30
0.0
 11
4.61023622047244
 21
3.643700787401574
 31
0.0
  0
POLYLINE
  5
3A11
330
1E
100
AcDbEntity
  8
0
100
AcDb2dPolyline
 66
     1
 10
0.0
 20
0.0
 30
0.0
  0
VERTEX
  5
3D6A
330
3A11
100
AcDbEntity
  8
0
100
AcDbVertex
100
AcDb2dVertex
 10
4.890748031496062
 20
3.639763779527558
 30
0.0
  0
VERTEX
  5
3D6B
330
3A11
100
AcDbEntity
  8
0
100
AcDbVertex
100
AcDb2dVertex
 10
4.888779527559054
 20
3.638779527559055
 30
0.0
  0
VERTEX
  5
3D6C
330
3A11
100
AcDbEntity
  8
0
100
AcDbVertex
100
AcDb2dVertex
 10
4.88779527559055
 20
3.636811023622047
 30
0.0
  0
SEQEND
  5
3D6D
330
3A11
100
AcDbEntity
  8
0
  0
POLYLINE
  5
3A16
330
1E
100
AcDbEntity
  8
0
100
AcDb2dPolyline
 66
     1
 10
0.0
 20
0.0
 30
0.0
  0
VERTEX
  5
3D6E
330
3A16
100
AcDbEntity
  8
0
100
AcDbVertex
100
AcDb2dVertex
 10
4.890748031496062
 20
3.630905511811023
 30
0.0
  0
VERTEX
  5
3D6F
330
3A16
100
AcDbEntity
  8
0
100
AcDbVertex
100
AcDb2dVertex
 10
4.888779527559054
 20
3.630905511811023
 30
0.0
  0
VERTEX
  5
3D70
330
3A16
100
AcDbEntity
  8
0
100
AcDbVertex
100
AcDb2dVertex
 10
4.88779527559055
 20
3.629921259842519
 30
0.0
  0
SEQEND
  5
3D71
330
3A16
100
AcDbEntity
  8
0
  0
POLYLINE
  5
3A1B
330
1E
100
AcDbEntity
  8
0
100
AcDb2dPolyline
 66
     1
 10
0.0
 20
0.0
 30
0.0
  0
VERTEX
  5
3D72
330
3A1B
100
AcDbEntity
  8
0
100
AcDbVertex
100
AcDb2dVertex
 10
4.864173228346456
 20
3.630905511811023
 30
0.0
  0
VERTEX
  5
3D73
330
3A1B
100
AcDbEntity
  8
0
100
AcDbVertex
100
AcDb2dVertex
 10
4.866141732283464
 20
3.630905511811023
 30
0.0
  0
VERTEX
  5
3D74
330
3A1B
100
AcDbEntity
  8
0
100
AcDbVertex
100
AcDb2dVertex
 10
4.867125984251968
 20
3.629921259842519
 30
0.0
  0
SEQEND
  5
3D75
330
3A1B
100
AcDbEntity
  8
0
  0
POLYLINE
  5
3A20
330
1E
100
AcDbEntity
  8
0
100
AcDb2dPolyline
 66
     1
 10
0.0
 20
0.0
 30
0.0
  0
VERTEX
  5
3D76
330
3A20
100
AcDbEntity
  8
0
100
AcDbVertex
100
AcDb2dVertex
 10
4.864173228346456
 20
3.639763779527558
 30
0.0
  0
VERTEX
  5
3D77
330
3A20
100
AcDbEntity
  8
0
100
AcDbVertex
100
AcDb2dVertex
 10
4.866141732283464
 20
3.638779527559055
 30
0.0
  0
VERTEX
  5
3D78
330
3A20
100
AcDbEntity
  8
0
100
AcDbVertex
100
AcDb2dVertex
 10
4.867125984251968
 20
3.636811023622047
 30
0.0
  0
SEQEND
  5
3D79
330
3A20
100
AcDbEntity
  8
0
  0
POLYLINE
  5
3A25
330
1E
100
AcDbEntity
  8
0
100
AcDb2dPolyline
 66
     1
 10
0.0
 20
0.0
 30
0.0
  0
VERTEX
  5
3D7A
330
3A25
100
AcDbEntity
  8
0
100
AcDbVertex
100
AcDb2dVertex
 10
4.613188976377952
 20
3.639763779527558
 30
0.0
  0
VERTEX
  5
3D7B
330
3A25
100
AcDbEntity
  8
0
100
AcDbVertex
100
AcDb2dVertex
 10
4.611220472440944
 20
3.638779527559055
 30
0.0
  0
VERTEX
  5
3D7C
330
3A25
100
AcDbEntity
  8
0
100
AcDbVertex
100
AcDb2dVertex
 10
4.61023622047244
 20
3.636811023622047
 30
0.0
  0
SEQEND
  5
3D7D
330
3A25
100
AcDbEntity
  8
0
  0
POLYLINE
  5
3A2A
330
1E
100
AcDbEntity
  8
0
100
AcDb2dPolyline
 66
     1
 10
0.0
 20
0.0
 30
0.0
  0
VERTEX
  5
3D7E
330
3A2A
100
AcDbEntity
  8
0
100
AcDbVertex
100
AcDb2dVertex
 10
4.613188976377952
 20
3.630905511811023
 30
0.0
  0
VERTEX
  5
3D7F
330
3A2A
100
AcDbEntity
  8
0
100
AcDbVertex
100
AcDb2dVertex
 10
4.611220472440944
 20
3.630905511811023
 30
0.0
  0
VERTEX
  5
3D80
330
3A2A
100
AcDbEntity
  8
0
100
AcDbVertex
100
AcDb2dVertex
 10
4.61023622047244
 20
3.629921259842519
 30
0.0
  0
SEQEND
  5
3D81
330
3A2A
100
AcDbEntity
  8
0
  0
POLYLINE
  5
3A2F
330
1E
100
AcDbEntity
  8
0
100
AcDb2dPolyline
 66
     1
 10
0.0
 20
0.0
 30
0.0
  0
VERTEX
  5
3D82
330
3A2F
100
AcDbEntity
  8
0
100
AcDbVertex
100
AcDb2dVertex
 10
4.585629921259842
 20
3.630905511811023
 30
0.0
  0
VERTEX
  5
3D83
330
3A2F
100
AcDbEntity
  8
0
100
AcDbVertex
100
AcDb2dVertex
 10
4.588582677165354
 20
3.630905511811023
 30
0.0
  0
VERTEX
  5
3D84
330
3A2F
100
AcDbEntity
  8
0
100
AcDbVertex
100
AcDb2dVertex
 10
4.588582677165354
 20
3.629921259842519
 30
0.0
  0
SEQEND
  5
3D85
330
3A2F
100
AcDbEntity
  8
0
  0
POLYLINE
  5
3A34
330
1E
100
AcDbEntity
  8
0
100
AcDb2dPolyline
 66
     1
 10
0.0
 20
0.0
 30
0.0
  0
VERTEX
  5
3D86
330
3A34
100
AcDbEntity
  8
0
100
AcDbVertex
100
AcDb2dVertex
 10
4.585629921259842
 20
3.639763779527558
 30
0.0
  0
VERTEX
  5
3D87
330
3A34
100
AcDbEntity
  8
0
100
AcDbVertex
100
AcDb2dVertex
 10
4.588582677165354
 20
3.638779527559055
 30
0.0
  0
VERTEX
  5
3D88
330
3A34
100
AcDbEntity
  8
0
100
AcDbVertex
100
AcDb2dVertex
 10
4.588582677165354
 20
3.636811023622047
 30
0.0
  0
SEQEND
  5
3D89
330
3A34
100
AcDbEntity
  8
0
  0
LINE
  5
3A39
330
1E
100
AcDbEntity
  8
0
100
AcDbLine
 10
4.749015748031496
 20
3.619094488188976
 30
0.0
 11
4.749015748031496
 21
3.614173228346456
 31
0.0
  0
POLYLINE
  5
3A3A
330
1E
100
AcDbEntity
  8
0
100
AcDb2dPolyline
 66
     1
 10
0.0
 20
0.0
 30
0.0
  0
VERTEX
  5
3D8A
330
3A3A
100
AcDbEntity
  8
0
100
AcDbVertex
100
AcDb2dVertex
 10
4.749015748031496
 20
3.622047244094487
 30
0.0
  0
VERTEX
  5
3D8B
330
3A3A
100
AcDbEntity
  8
0
100
AcDbVertex
100
AcDb2dVertex
 10
4.749015748031496
 20
3.621062992125984
 30
0.0
  0
VERTEX
  5
3D8C
330
3A3A
100
AcDbEntity
  8
0
100
AcDbVertex
100
AcDb2dVertex
 10
4.749015748031496
 20
3.619094488188976
 30
0.0
  0
SEQEND
  5
3D8D
330
3A3A
100
AcDbEntity
  8
0
  0
LINE
  5
3A3F
330
1E
100
AcDbEntity
  8
0
100
AcDbLine
 10
4.749015748031496
 20
3.622047244094487
 30
0.0
 11
4.749015748031496
 21
3.703740157480314
 31
0.0
  0
POLYLINE
  5
3A40
330
1E
100
AcDbEntity
  8
0
100
AcDb2dPolyline
 66
     1
 10
0.0
 20
0.0
 30
0.0
  0
VERTEX
  5
3D8E
330
3A40
100
AcDbEntity
  8
0
100
AcDbVertex
100
AcDb2dVertex
 10
4.749015748031496
 20
3.705708661417322
 30
0.0
  0
VERTEX
  5
3D8F
330
3A40
100
AcDbEntity
  8
0
100
AcDbVertex
100
AcDb2dVertex
 10
4.749015748031496
 20
3.704724409448818
 30
0.0
  0
VERTEX
  5
3D90
330
3A40
100
AcDbEntity
  8
0
100
AcDbVertex
100
AcDb2dVertex
 10
4.749015748031496
 20
3.703740157480314
 30
0.0
  0
SEQEND
  5
3D91
330
3A40
100
AcDbEntity
  8
0
  0
LINE
  5
3A45
330
1E
100
AcDbEntity
  8
0
100
AcDbLine
 10
4.749015748031496
 20
3.711614173228346
 30
0.0
 11
4.749015748031496
 21
3.705708661417322
 31
0.0
  0
LINE
  5
3A46
330
1E
100
AcDbEntity
  8
0
100
AcDbLine
 10
4.749015748031496
 20
3.711614173228346
 30
0.0
 11
4.749015748031496
 21
3.71259842519685
 31
0.0
  0
LINE
  5
3A47
330
1E
100
AcDbEntity
  8
0
100
AcDbLine
 10
4.749015748031496
 20
3.71259842519685
 30
0.0
 11
4.749015748031496
 21
3.74015748031496
 31
0.0
  0
LINE
  5
3A48
330
1E
100
AcDbEntity
  8
0
100
AcDbLine
 10
4.76771653543307
 20
3.71259842519685
 30
0.0
 11
4.76771653543307
 21
3.74015748031496
 31
0.0
  0
LINE
  5
3A49
330
1E
100
AcDbEntity
  8
0
100
AcDbLine
 10
4.76771653543307
 20
3.711614173228346
 30
0.0
 11
4.76771653543307
 21
3.71259842519685
 31
0.0
  0
LINE
  5
3A4A
330
1E
100
AcDbEntity
  8
0
100
AcDbLine
 10
4.76771653543307
 20
3.711614173228346
 30
0.0
 11
4.76771653543307
 21
3.705708661417322
 31
0.0
  0
POLYLINE
  5
3A4B
330
1E
100
AcDbEntity
  8
0
100
AcDb2dPolyline
 66
     1
 10
0.0
 20
0.0
 30
0.0
  0
VERTEX
  5
3D92
330
3A4B
100
AcDbEntity
  8
0
100
AcDbVertex
100
AcDb2dVertex
 10
4.76771653543307
 20
3.705708661417322
 30
0.0
  0
VERTEX
  5
3D93
330
3A4B
100
AcDbEntity
  8
0
100
AcDbVertex
100
AcDb2dVertex
 10
4.76771653543307
 20
3.704724409448818
 30
0.0
  0
VERTEX
  5
3D94
330
3A4B
100
AcDbEntity
  8
0
100
AcDbVertex
100
AcDb2dVertex
 10
4.76771653543307
 20
3.703740157480314
 30
0.0
  0
SEQEND
  5
3D95
330
3A4B
100
AcDbEntity
  8
0
  0
LINE
  5
3A50
330
1E
100
AcDbEntity
  8
0
100
AcDbLine
 10
4.76771653543307
 20
3.622047244094487
 30
0.0
 11
4.76771653543307
 21
3.703740157480314
 31
0.0
  0
POLYLINE
  5
3A51
330
1E
100
AcDbEntity
  8
0
100
AcDb2dPolyline
 66
     1
 10
0.0
 20
0.0
 30
0.0
  0
VERTEX
  5
3D96
330
3A51
100
AcDbEntity
  8
0
100
AcDbVertex
100
AcDb2dVertex
 10
4.76771653543307
 20
3.622047244094487
 30
0.0
  0
VERTEX
  5
3D97
330
3A51
100
AcDbEntity
  8
0
100
AcDbVertex
100
AcDb2dVertex
 10
4.76771653543307
 20
3.621062992125984
 30
0.0
  0
VERTEX
  5
3D98
330
3A51
100
AcDbEntity
  8
0
100
AcDbVertex
100
AcDb2dVertex
 10
4.76771653543307
 20
3.619094488188976
 30
0.0
  0
SEQEND
  5
3D99
330
3A51
100
AcDbEntity
  8
0
  0
LINE
  5
3A56
330
1E
100
AcDbEntity
  8
0
100
AcDbLine
 10
4.76771653543307
 20
3.619094488188976
 30
0.0
 11
4.76771653543307
 21
3.614173228346456
 31
0.0
  0
LINE
  5
3A57
330
1E
100
AcDbEntity
  8
0
100
AcDbLine
 10
4.749015748031496
 20
3.705708661417322
 30
0.0
 11
4.76771653543307
 21
3.705708661417322
 31
0.0
  0
LINE
  5
3A58
330
1E
100
AcDbEntity
  8
0
100
AcDbLine
 10
4.749015748031496
 20
3.703740157480314
 30
0.0
 11
4.76771653543307
 21
3.703740157480314
 31
0.0
  0
LINE
  5
3A59
330
1E
100
AcDbEntity
  8
0
100
AcDbLine
 10
4.749015748031496
 20
3.711614173228346
 30
0.0
 11
4.76771653543307
 21
3.711614173228346
 31
0.0
  0
LINE
  5
3A5A
330
1E
100
AcDbEntity
  8
0
100
AcDbLine
 10
4.749015748031496
 20
3.71259842519685
 30
0.0
 11
4.76771653543307
 21
3.71259842519685
 31
0.0
  0
LINE
  5
3A5B
330
1E
100
AcDbEntity
  8
0
100
AcDbLine
 10
4.749015748031496
 20
3.622047244094487
 30
0.0
 11
4.76771653543307
 21
3.622047244094487
 31
0.0
  0
LINE
  5
3A5C
330
1E
100
AcDbEntity
  8
0
100
AcDbLine
 10
4.749015748031496
 20
3.619094488188976
 30
0.0
 11
4.76771653543307
 21
3.619094488188976
 31
0.0
  0
LINE
  5
3A5D
330
1E
100
AcDbEntity
  8
0
100
AcDbLine
 10
4.629921259842519
 20
3.711614173228346
 30
0.0
 11
4.629921259842519
 21
3.705708661417322
 31
0.0
  0
LINE
  5
3A5E
330
1E
100
AcDbEntity
  8
0
100
AcDbLine
 10
4.629921259842519
 20
3.705708661417322
 30
0.0
 11
4.64763779527559
 21
3.705708661417322
 31
0.0
  0
LINE
  5
3A5F
330
1E
100
AcDbEntity
  8
0
100
AcDbLine
 10
4.64763779527559
 20
3.711614173228346
 30
0.0
 11
4.64763779527559
 21
3.705708661417322
 31
0.0
  0
LINE
  5
3A60
330
1E
100
AcDbEntity
  8
0
100
AcDbLine
 10
4.629921259842519
 20
3.711614173228346
 30
0.0
 11
4.64763779527559
 21
3.711614173228346
 31
0.0
  0
LINE
  5
3A61
330
1E
100
AcDbEntity
  8
0
100
AcDbLine
 10
4.629921259842519
 20
3.71259842519685
 30
0.0
 11
4.64763779527559
 21
3.71259842519685
 31
0.0
  0
LINE
  5
3A62
330
1E
100
AcDbEntity
  8
0
100
AcDbLine
 10
4.629921259842519
 20
3.711614173228346
 30
0.0
 11
4.629921259842519
 21
3.71259842519685
 31
0.0
  0
LINE
  5
3A63
330
1E
100
AcDbEntity
  8
0
100
AcDbLine
 10
4.64763779527559
 20
3.711614173228346
 30
0.0
 11
4.64763779527559
 21
3.71259842519685
 31
0.0
  0
LINE
  5
3A64
330
1E
100
AcDbEntity
  8
0
100
AcDbLine
 10
4.629921259842519
 20
3.71259842519685
 30
0.0
 11
4.629921259842519
 21
3.74015748031496
 31
0.0
  0
LINE
  5
3A65
330
1E
100
AcDbEntity
  8
0
100
AcDbLine
 10
4.64763779527559
 20
3.71259842519685
 30
0.0
 11
4.64763779527559
 21
3.74015748031496
 31
0.0
  0
POLYLINE
  5
3A66
330
1E
100
AcDbEntity
  8
0
100
AcDb2dPolyline
 66
     1
 10
0.0
 20
0.0
 30
0.0
  0
VERTEX
  5
3D9A
330
3A66
100
AcDbEntity
  8
0
100
AcDbVertex
100
AcDb2dVertex
 10
4.629921259842519
 20
3.705708661417322
 30
0.0
  0
VERTEX
  5
3D9B
330
3A66
100
AcDbEntity
  8
0
100
AcDbVertex
100
AcDb2dVertex
 10
4.629921259842519
 20
3.704724409448818
 30
0.0
  0
VERTEX
  5
3D9C
330
3A66
100
AcDbEntity
  8
0
100
AcDbVertex
100
AcDb2dVertex
 10
4.629921259842519
 20
3.703740157480314
 30
0.0
  0
SEQEND
  5
3D9D
330
3A66
100
AcDbEntity
  8
0
  0
LINE
  5
3A6B
330
1E
100
AcDbEntity
  8
0
100
AcDbLine
 10
4.629921259842519
 20
3.703740157480314
 30
0.0
 11
4.64763779527559
 21
3.703740157480314
 31
0.0
  0
POLYLINE
  5
3A6C
330
1E
100
AcDbEntity
  8
0
100
AcDb2dPolyline
 66
     1
 10
0.0
 20
0.0
 30
0.0
  0
VERTEX
  5
3D9E
330
3A6C
100
AcDbEntity
  8
0
100
AcDbVertex
100
AcDb2dVertex
 10
4.64763779527559
 20
3.705708661417322
 30
0.0
  0
VERTEX
  5
3D9F
330
3A6C
100
AcDbEntity
  8
0
100
AcDbVertex
100
AcDb2dVertex
 10
4.64763779527559
 20
3.704724409448818
 30
0.0
  0
VERTEX
  5
3DA0
330
3A6C
100
AcDbEntity
  8
0
100
AcDbVertex
100
AcDb2dVertex
 10
4.64763779527559
 20
3.703740157480314
 30
0.0
  0
SEQEND
  5
3DA1
330
3A6C
100
AcDbEntity
  8
0
  0
LINE
  5
3A71
330
1E
100
AcDbEntity
  8
0
100
AcDbLine
 10
4.629921259842519
 20
3.622047244094487
 30
0.0
 11
4.629921259842519
 21
3.703740157480314
 31
0.0
  0
LINE
  5
3A72
330
1E
100
AcDbEntity
  8
0
100
AcDbLine
 10
4.629921259842519
 20
3.622047244094487
 30
0.0
 11
4.64763779527559
 21
3.622047244094487
 31
0.0
  0
LINE
  5
3A73
330
1E
100
AcDbEntity
  8
0
100
AcDbLine
 10
4.64763779527559
 20
3.622047244094487
 30
0.0
 11
4.64763779527559
 21
3.703740157480314
 31
0.0
  0
POLYLINE
  5
3A74
330
1E
100
AcDbEntity
  8
0
100
AcDb2dPolyline
 66
     1
 10
0.0
 20
0.0
 30
0.0
  0
VERTEX
  5
3DA2
330
3A74
100
AcDbEntity
  8
0
100
AcDbVertex
100
AcDb2dVertex
 10
4.64763779527559
 20
3.622047244094487
 30
0.0
  0
VERTEX
  5
3DA3
330
3A74
100
AcDbEntity
  8
0
100
AcDbVertex
100
AcDb2dVertex
 10
4.64763779527559
 20
3.621062992125984
 30
0.0
  0
VERTEX
  5
3DA4
330
3A74
100
AcDbEntity
  8
0
100
AcDbVertex
100
AcDb2dVertex
 10
4.64763779527559
 20
3.619094488188976
 30
0.0
  0
SEQEND
  5
3DA5
330
3A74
100
AcDbEntity
  8
0
  0
LINE
  5
3A79
330
1E
100
AcDbEntity
  8
0
100
AcDbLine
 10
4.64763779527559
 20
3.619094488188976
 30
0.0
 11
4.64763779527559
 21
3.614173228346456
 31
0.0
  0
LINE
  5
3A7A
330
1E
100
AcDbEntity
  8
0
100
AcDbLine
 10
4.629921259842519
 20
3.619094488188976
 30
0.0
 11
4.629921259842519
 21
3.614173228346456
 31
0.0
  0
POLYLINE
  5
3A7B
330
1E
100
AcDbEntity
  8
0
100
AcDb2dPolyline
 66
     1
 10
0.0
 20
0.0
 30
0.0
  0
VERTEX
  5
3DA6
330
3A7B
100
AcDbEntity
  8
0
100
AcDbVertex
100
AcDb2dVertex
 10
4.629921259842519
 20
3.622047244094487
 30
0.0
  0
VERTEX
  5
3DA7
330
3A7B
100
AcDbEntity
  8
0
100
AcDbVertex
100
AcDb2dVertex
 10
4.629921259842519
 20
3.621062992125984
 30
0.0
  0
VERTEX
  5
3DA8
330
3A7B
100
AcDbEntity
  8
0
100
AcDbVertex
100
AcDb2dVertex
 10
4.629921259842519
 20
3.619094488188976
 30
0.0
  0
SEQEND
  5
3DA9
330
3A7B
100
AcDbEntity
  8
0
  0
LINE
  5
3A80
330
1E
100
AcDbEntity
  8
0
100
AcDbLine
 10
4.629921259842519
 20
3.619094488188976
 30
0.0
 11
4.64763779527559
 21
3.619094488188976
 31
0.0
  0
LINE
  5
3A81
330
1E
100
AcDbEntity
  8
0
100
AcDbLine
 10
4.807086614173228
 20
3.71259842519685
 30
0.0
 11
4.807086614173228
 21
3.74015748031496
 31
0.0
  0
LINE
  5
3A82
330
1E
100
AcDbEntity
  8
0
100
AcDbLine
 10
4.807086614173228
 20
3.711614173228346
 30
0.0
 11
4.807086614173228
 21
3.71259842519685
 31
0.0
  0
LINE
  5
3A83
330
1E
100
AcDbEntity
  8
0
100
AcDbLine
 10
4.807086614173228
 20
3.711614173228346
 30
0.0
 11
4.807086614173228
 21
3.705708661417322
 31
0.0
  0
POLYLINE
  5
3A84
330
1E
100
AcDbEntity
  8
0
100
AcDb2dPolyline
 66
     1
 10
0.0
 20
0.0
 30
0.0
  0
VERTEX
  5
3DAA
330
3A84
100
AcDbEntity
  8
0
100
AcDbVertex
100
AcDb2dVertex
 10
4.807086614173228
 20
3.705708661417322
 30
0.0
  0
VERTEX
  5
3DAB
330
3A84
100
AcDbEntity
  8
0
100
AcDbVertex
100
AcDb2dVertex
 10
4.807086614173228
 20
3.704724409448818
 30
0.0
  0
VERTEX
  5
3DAC
330
3A84
100
AcDbEntity
  8
0
100
AcDbVertex
100
AcDb2dVertex
 10
4.807086614173228
 20
3.703740157480314
 30
0.0
  0
SEQEND
  5
3DAD
330
3A84
100
AcDbEntity
  8
0
  0
LINE
  5
3A89
330
1E
100
AcDbEntity
  8
0
100
AcDbLine
 10
4.807086614173228
 20
3.622047244094487
 30
0.0
 11
4.807086614173228
 21
3.703740157480314
 31
0.0
  0
POLYLINE
  5
3A8A
330
1E
100
AcDbEntity
  8
0
100
AcDb2dPolyline
 66
     1
 10
0.0
 20
0.0
 30
0.0
  0
VERTEX
  5
3DAE
330
3A8A
100
AcDbEntity
  8
0
100
AcDbVertex
100
AcDb2dVertex
 10
4.807086614173228
 20
3.622047244094487
 30
0.0
  0
VERTEX
  5
3DAF
330
3A8A
100
AcDbEntity
  8
0
100
AcDbVertex
100
AcDb2dVertex
 10
4.807086614173228
 20
3.621062992125984
 30
0.0
  0
VERTEX
  5
3DB0
330
3A8A
100
AcDbEntity
  8
0
100
AcDbVertex
100
AcDb2dVertex
 10
4.807086614173228
 20
3.619094488188976
 30
0.0
  0
SEQEND
  5
3DB1
330
3A8A
100
AcDbEntity
  8
0
  0
LINE
  5
3A8F
330
1E
100
AcDbEntity
  8
0
100
AcDbLine
 10
4.807086614173228
 20
3.619094488188976
 30
0.0
 11
4.807086614173228
 21
3.614173228346456
 31
0.0
  0
LINE
  5
3A90
330
1E
100
AcDbEntity
  8
0
100
AcDbLine
 10
4.789370078740157
 20
3.619094488188976
 30
0.0
 11
4.789370078740157
 21
3.614173228346456
 31
0.0
  0
POLYLINE
  5
3A91
330
1E
100
AcDbEntity
  8
0
100
AcDb2dPolyline
 66
     1
 10
0.0
 20
0.0
 30
0.0
  0
VERTEX
  5
3DB2
330
3A91
100
AcDbEntity
  8
0
100
AcDbVertex
100
AcDb2dVertex
 10
4.789370078740157
 20
3.622047244094487
 30
0.0
  0
VERTEX
  5
3DB3
330
3A91
100
AcDbEntity
  8
0
100
AcDbVertex
100
AcDb2dVertex
 10
4.789370078740157
 20
3.621062992125984
 30
0.0
  0
VERTEX
  5
3DB4
330
3A91
100
AcDbEntity
  8
0
100
AcDbVertex
100
AcDb2dVertex
 10
4.789370078740157
 20
3.619094488188976
 30
0.0
  0
SEQEND
  5
3DB5
330
3A91
100
AcDbEntity
  8
0
  0
LINE
  5
3A96
330
1E
100
AcDbEntity
  8
0
100
AcDbLine
 10
4.789370078740157
 20
3.622047244094487
 30
0.0
 11
4.789370078740157
 21
3.703740157480314
 31
0.0
  0
POLYLINE
  5
3A97
330
1E
100
AcDbEntity
  8
0
100
AcDb2dPolyline
 66
     1
 10
0.0
 20
0.0
 30
0.0
  0
VERTEX
  5
3DB6
330
3A97
100
AcDbEntity
  8
0
100
AcDbVertex
100
AcDb2dVertex
 10
4.789370078740157
 20
3.705708661417322
 30
0.0
  0
VERTEX
  5
3DB7
330
3A97
100
AcDbEntity
  8
0
100
AcDbVertex
100
AcDb2dVertex
 10
4.789370078740157
 20
3.704724409448818
 30
0.0
  0
VERTEX
  5
3DB8
330
3A97
100
AcDbEntity
  8
0
100
AcDbVertex
100
AcDb2dVertex
 10
4.789370078740157
 20
3.703740157480314
 30
0.0
  0
SEQEND
  5
3DB9
330
3A97
100
AcDbEntity
  8
0
  0
LINE
  5
3A9C
330
1E
100
AcDbEntity
  8
0
100
AcDbLine
 10
4.789370078740157
 20
3.711614173228346
 30
0.0
 11
4.789370078740157
 21
3.705708661417322
 31
0.0
  0
LINE
  5
3A9D
330
1E
100
AcDbEntity
  8
0
100
AcDbLine
 10
4.789370078740157
 20
3.711614173228346
 30
0.0
 11
4.789370078740157
 21
3.71259842519685
 31
0.0
  0
LINE
  5
3A9E
330
1E
100
AcDbEntity
  8
0
100
AcDbLine
 10
4.789370078740157
 20
3.71259842519685
 30
0.0
 11
4.789370078740157
 21
3.74015748031496
 31
0.0
  0
LINE
  5
3A9F
330
1E
100
AcDbEntity
  8
0
100
AcDbLine
 10
4.789370078740157
 20
3.71259842519685
 30
0.0
 11
4.807086614173228
 21
3.71259842519685
 31
0.0
  0
LINE
  5
3AA0
330
1E
100
AcDbEntity
  8
0
100
AcDbLine
 10
4.789370078740157
 20
3.711614173228346
 30
0.0
 11
4.807086614173228
 21
3.711614173228346
 31
0.0
  0
LINE
  5
3AA1
330
1E
100
AcDbEntity
  8
0
100
AcDbLine
 10
4.789370078740157
 20
3.705708661417322
 30
0.0
 11
4.807086614173228
 21
3.705708661417322
 31
0.0
  0
LINE
  5
3AA2
330
1E
100
AcDbEntity
  8
0
100
AcDbLine
 10
4.789370078740157
 20
3.703740157480314
 30
0.0
 11
4.807086614173228
 21
3.703740157480314
 31
0.0
  0
LINE
  5
3AA3
330
1E
100
AcDbEntity
  8
0
100
AcDbLine
 10
4.789370078740157
 20
3.622047244094487
 30
0.0
 11
4.807086614173228
 21
3.622047244094487
 31
0.0
  0
LINE
  5
3AA4
330
1E
100
AcDbEntity
  8
0
100
AcDbLine
 10
4.789370078740157
 20
3.619094488188976
 30
0.0
 11
4.807086614173228
 21
3.619094488188976
 31
0.0
  0
LINE
  5
3AA5
330
1E
100
AcDbEntity
  8
0
100
AcDbLine
 10
4.709645669291338
 20
3.71259842519685
 30
0.0
 11
4.709645669291338
 21
3.74015748031496
 31
0.0
  0
LINE
  5
3AA6
330
1E
100
AcDbEntity
  8
0
100
AcDbLine
 10
4.709645669291338
 20
3.71259842519685
 30
0.0
 11
4.727362204724409
 21
3.71259842519685
 31
0.0
  0
LINE
  5
3AA7
330
1E
100
AcDbEntity
  8
0
100
AcDbLine
 10
4.727362204724409
 20
3.71259842519685
 30
0.0
 11
4.727362204724409
 21
3.74015748031496
 31
0.0
  0
LINE
  5
3AA8
330
1E
100
AcDbEntity
  8
0
100
AcDbLine
 10
4.709645669291338
 20
3.711614173228346
 30
0.0
 11
4.709645669291338
 21
3.71259842519685
 31
0.0
  0
LINE
  5
3AA9
330
1E
100
AcDbEntity
  8
0
100
AcDbLine
 10
4.709645669291338
 20
3.711614173228346
 30
0.0
 11
4.727362204724409
 21
3.711614173228346
 31
0.0
  0
LINE
  5
3AAA
330
1E
100
AcDbEntity
  8
0
100
AcDbLine
 10
4.727362204724409
 20
3.711614173228346
 30
0.0
 11
4.727362204724409
 21
3.71259842519685
 31
0.0
  0
LINE
  5
3AAB
330
1E
100
AcDbEntity
  8
0
100
AcDbLine
 10
4.709645669291338
 20
3.711614173228346
 30
0.0
 11
4.709645669291338
 21
3.705708661417322
 31
0.0
  0
LINE
  5
3AAC
330
1E
100
AcDbEntity
  8
0
100
AcDbLine
 10
4.709645669291338
 20
3.705708661417322
 30
0.0
 11
4.727362204724409
 21
3.705708661417322
 31
0.0
  0
LINE
  5
3AAD
330
1E
100
AcDbEntity
  8
0
100
AcDbLine
 10
4.727362204724409
 20
3.711614173228346
 30
0.0
 11
4.727362204724409
 21
3.705708661417322
 31
0.0
  0
POLYLINE
  5
3AAE
330
1E
100
AcDbEntity
  8
0
100
AcDb2dPolyline
 66
     1
 10
0.0
 20
0.0
 30
0.0
  0
VERTEX
  5
3DBA
330
3AAE
100
AcDbEntity
  8
0
100
AcDbVertex
100
AcDb2dVertex
 10
4.709645669291338
 20
3.705708661417322
 30
0.0
  0
VERTEX
  5
3DBB
330
3AAE
100
AcDbEntity
  8
0
100
AcDbVertex
100
AcDb2dVertex
 10
4.709645669291338
 20
3.704724409448818
 30
0.0
  0
VERTEX
  5
3DBC
330
3AAE
100
AcDbEntity
  8
0
100
AcDbVertex
100
AcDb2dVertex
 10
4.709645669291338
 20
3.703740157480314
 30
0.0
  0
SEQEND
  5
3DBD
330
3AAE
100
AcDbEntity
  8
0
  0
LINE
  5
3AB3
330
1E
100
AcDbEntity
  8
0
100
AcDbLine
 10
4.709645669291338
 20
3.703740157480314
 30
0.0
 11
4.727362204724409
 21
3.703740157480314
 31
0.0
  0
POLYLINE
  5
3AB4
330
1E
100
AcDbEntity
  8
0
100
AcDb2dPolyline
 66
     1
 10
0.0
 20
0.0
 30
0.0
  0
VERTEX
  5
3DBE
330
3AB4
100
AcDbEntity
  8
0
100
AcDbVertex
100
AcDb2dVertex
 10
4.727362204724409
 20
3.705708661417322
 30
0.0
  0
VERTEX
  5
3DBF
330
3AB4
100
AcDbEntity
  8
0
100
AcDbVertex
100
AcDb2dVertex
 10
4.727362204724409
 20
3.704724409448818
 30
0.0
  0
VERTEX
  5
3DC0
330
3AB4
100
AcDbEntity
  8
0
100
AcDbVertex
100
AcDb2dVertex
 10
4.727362204724409
 20
3.703740157480314
 30
0.0
  0
SEQEND
  5
3DC1
330
3AB4
100
AcDbEntity
  8
0
  0
LINE
  5
3AB9
330
1E
100
AcDbEntity
  8
0
100
AcDbLine
 10
4.709645669291338
 20
3.622047244094487
 30
0.0
 11
4.709645669291338
 21
3.703740157480314
 31
0.0
  0
LINE
  5
3ABA
330
1E
100
AcDbEntity
  8
0
100
AcDbLine
 10
4.709645669291338
 20
3.622047244094487
 30
0.0
 11
4.727362204724409
 21
3.622047244094487
 31
0.0
  0
LINE
  5
3ABB
330
1E
100
AcDbEntity
  8
0
100
AcDbLine
 10
4.727362204724409
 20
3.622047244094487
 30
0.0
 11
4.727362204724409
 21
3.703740157480314
 31
0.0
  0
LINE
  5
3ABC
330
1E
100
AcDbEntity
  8
0
100
AcDbLine
 10
4.709645669291338
 20
3.619094488188976
 30
0.0
 11
4.709645669291338
 21
3.614173228346456
 31
0.0
  0
POLYLINE
  5
3ABD
330
1E
100
AcDbEntity
  8
0
100
AcDb2dPolyline
 66
     1
 10
0.0
 20
0.0
 30
0.0
  0
VERTEX
  5
3DC2
330
3ABD
100
AcDbEntity
  8
0
100
AcDbVertex
100
AcDb2dVertex
 10
4.709645669291338
 20
3.622047244094487
 30
0.0
  0
VERTEX
  5
3DC3
330
3ABD
100
AcDbEntity
  8
0
100
AcDbVertex
100
AcDb2dVertex
 10
4.709645669291338
 20
3.621062992125984
 30
0.0
  0
VERTEX
  5
3DC4
330
3ABD
100
AcDbEntity
  8
0
100
AcDbVertex
100
AcDb2dVertex
 10
4.709645669291338
 20
3.619094488188976
 30
0.0
  0
SEQEND
  5
3DC5
330
3ABD
100
AcDbEntity
  8
0
  0
POLYLINE
  5
3AC2
330
1E
100
AcDbEntity
  8
0
100
AcDb2dPolyline
 66
     1
 10
0.0
 20
0.0
 30
0.0
  0
VERTEX
  5
3DC6
330
3AC2
100
AcDbEntity
  8
0
100
AcDbVertex
100
AcDb2dVertex
 10
4.727362204724409
 20
3.622047244094487
 30
0.0
  0
VERTEX
  5
3DC7
330
3AC2
100
AcDbEntity
  8
0
100
AcDbVertex
100
AcDb2dVertex
 10
4.727362204724409
 20
3.621062992125984
 30
0.0
  0
VERTEX
  5
3DC8
330
3AC2
100
AcDbEntity
  8
0
100
AcDbVertex
100
AcDb2dVertex
 10
4.727362204724409
 20
3.619094488188976
 30
0.0
  0
SEQEND
  5
3DC9
330
3AC2
100
AcDbEntity
  8
0
  0
LINE
  5
3AC7
330
1E
100
AcDbEntity
  8
0
100
AcDbLine
 10
4.727362204724409
 20
3.619094488188976
 30
0.0
 11
4.727362204724409
 21
3.614173228346456
 31
0.0
  0
LINE
  5
3AC8
330
1E
100
AcDbEntity
  8
0
100
AcDbLine
 10
4.709645669291338
 20
3.619094488188976
 30
0.0
 11
4.727362204724409
 21
3.619094488188976
 31
0.0
  0
LINE
  5
3AC9
330
1E
100
AcDbEntity
  8
0
100
AcDbLine
 10
4.869094488188975
 20
3.71259842519685
 30
0.0
 11
4.869094488188975
 21
3.74015748031496
 31
0.0
  0
LINE
  5
3ACA
330
1E
100
AcDbEntity
  8
0
100
AcDbLine
 10
4.869094488188975
 20
3.71259842519685
 30
0.0
 11
4.88779527559055
 21
3.71259842519685
 31
0.0
  0
LINE
  5
3ACB
330
1E
100
AcDbEntity
  8
0
100
AcDbLine
 10
4.88779527559055
 20
3.71259842519685
 30
0.0
 11
4.88779527559055
 21
3.74015748031496
 31
0.0
  0
LINE
  5
3ACC
330
1E
100
AcDbEntity
  8
0
100
AcDbLine
 10
4.869094488188975
 20
3.711614173228346
 30
0.0
 11
4.869094488188975
 21
3.71259842519685
 31
0.0
  0
LINE
  5
3ACD
330
1E
100
AcDbEntity
  8
0
100
AcDbLine
 10
4.869094488188975
 20
3.711614173228346
 30
0.0
 11
4.88779527559055
 21
3.711614173228346
 31
0.0
  0
LINE
  5
3ACE
330
1E
100
AcDbEntity
  8
0
100
AcDbLine
 10
4.88779527559055
 20
3.711614173228346
 30
0.0
 11
4.88779527559055
 21
3.71259842519685
 31
0.0
  0
LINE
  5
3ACF
330
1E
100
AcDbEntity
  8
0
100
AcDbLine
 10
4.869094488188975
 20
3.711614173228346
 30
0.0
 11
4.869094488188975
 21
3.705708661417322
 31
0.0
  0
LINE
  5
3AD0
330
1E
100
AcDbEntity
  8
0
100
AcDbLine
 10
4.869094488188975
 20
3.705708661417322
 30
0.0
 11
4.88779527559055
 21
3.705708661417322
 31
0.0
  0
LINE
  5
3AD1
330
1E
100
AcDbEntity
  8
0
100
AcDbLine
 10
4.88779527559055
 20
3.711614173228346
 30
0.0
 11
4.88779527559055
 21
3.705708661417322
 31
0.0
  0
POLYLINE
  5
3AD2
330
1E
100
AcDbEntity
  8
0
100
AcDb2dPolyline
 66
     1
 10
0.0
 20
0.0
 30
0.0
  0
VERTEX
  5
3DCA
330
3AD2
100
AcDbEntity
  8
0
100
AcDbVertex
100
AcDb2dVertex
 10
4.869094488188975
 20
3.705708661417322
 30
0.0
  0
VERTEX
  5
3DCB
330
3AD2
100
AcDbEntity
  8
0
100
AcDbVertex
100
AcDb2dVertex
 10
4.869094488188975
 20
3.704724409448818
 30
0.0
  0
VERTEX
  5
3DCC
330
3AD2
100
AcDbEntity
  8
0
100
AcDbVertex
100
AcDb2dVertex
 10
4.869094488188975
 20
3.703740157480314
 30
0.0
  0
SEQEND
  5
3DCD
330
3AD2
100
AcDbEntity
  8
0
  0
LINE
  5
3AD7
330
1E
100
AcDbEntity
  8
0
100
AcDbLine
 10
4.869094488188975
 20
3.703740157480314
 30
0.0
 11
4.88779527559055
 21
3.703740157480314
 31
0.0
  0
POLYLINE
  5
3AD8
330
1E
100
AcDbEntity
  8
0
100
AcDb2dPolyline
 66
     1
 10
0.0
 20
0.0
 30
0.0
  0
VERTEX
  5
3DCE
330
3AD8
100
AcDbEntity
  8
0
100
AcDbVertex
100
AcDb2dVertex
 10
4.88779527559055
 20
3.705708661417322
 30
0.0
  0
VERTEX
  5
3DCF
330
3AD8
100
AcDbEntity
  8
0
100
AcDbVertex
100
AcDb2dVertex
 10
4.88779527559055
 20
3.704724409448818
 30
0.0
  0
VERTEX
  5
3DD0
330
3AD8
100
AcDbEntity
  8
0
100
AcDbVertex
100
AcDb2dVertex
 10
4.88779527559055
 20
3.703740157480314
 30
0.0
  0
SEQEND
  5
3DD1
330
3AD8
100
AcDbEntity
  8
0
  0
LINE
  5
3ADD
330
1E
100
AcDbEntity
  8
0
100
AcDbLine
 10
4.869094488188975
 20
3.622047244094487
 30
0.0
 11
4.869094488188975
 21
3.703740157480314
 31
0.0
  0
LINE
  5
3ADE
330
1E
100
AcDbEntity
  8
0
100
AcDbLine
 10
4.869094488188975
 20
3.622047244094487
 30
0.0
 11
4.88779527559055
 21
3.622047244094487
 31
0.0
  0
LINE
  5
3ADF
330
1E
100
AcDbEntity
  8
0
100
AcDbLine
 10
4.88779527559055
 20
3.622047244094487
 30
0.0
 11
4.88779527559055
 21
3.703740157480314
 31
0.0
  0
LINE
  5
3AE0
330
1E
100
AcDbEntity
  8
0
100
AcDbLine
 10
4.869094488188975
 20
3.619094488188976
 30
0.0
 11
4.869094488188975
 21
3.614173228346456
 31
0.0
  0
POLYLINE
  5
3AE1
330
1E
100
AcDbEntity
  8
0
100
AcDb2dPolyline
 66
     1
 10
0.0
 20
0.0
 30
0.0
  0
VERTEX
  5
3DD2
330
3AE1
100
AcDbEntity
  8
0
100
AcDbVertex
100
AcDb2dVertex
 10
4.869094488188975
 20
3.622047244094487
 30
0.0
  0
VERTEX
  5
3DD3
330
3AE1
100
AcDbEntity
  8
0
100
AcDbVertex
100
AcDb2dVertex
 10
4.869094488188975
 20
3.621062992125984
 30
0.0
  0
VERTEX
  5
3DD4
330
3AE1
100
AcDbEntity
  8
0
100
AcDbVertex
100
AcDb2dVertex
 10
4.869094488188975
 20
3.619094488188976
 30
0.0
  0
SEQEND
  5
3DD5
330
3AE1
100
AcDbEntity
  8
0
  0
POLYLINE
  5
3AE6
330
1E
100
AcDbEntity
  8
0
100
AcDb2dPolyline
 66
     1
 10
0.0
 20
0.0
 30
0.0
  0
VERTEX
  5
3DD6
330
3AE6
100
AcDbEntity
  8
0
100
AcDbVertex
100
AcDb2dVertex
 10
4.88779527559055
 20
3.622047244094487
 30
0.0
  0
VERTEX
  5
3DD7
330
3AE6
100
AcDbEntity
  8
0
100
AcDbVertex
100
AcDb2dVertex
 10
4.88779527559055
 20
3.621062992125984
 30
0.0
  0
VERTEX
  5
3DD8
330
3AE6
100
AcDbEntity
  8
0
100
AcDbVertex
100
AcDb2dVertex
 10
4.88779527559055
 20
3.619094488188976
 30
0.0
  0
SEQEND
  5
3DD9
330
3AE6
100
AcDbEntity
  8
0
  0
LINE
  5
3AEB
330
1E
100
AcDbEntity
  8
0
100
AcDbLine
 10
4.88779527559055
 20
3.619094488188976
 30
0.0
 11
4.88779527559055
 21
3.614173228346456
 31
0.0
  0
LINE
  5
3AEC
330
1E
100
AcDbEntity
  8
0
100
AcDbLine
 10
4.869094488188975
 20
3.619094488188976
 30
0.0
 11
4.88779527559055
 21
3.619094488188976
 31
0.0
  0
LINE
  5
3AED
330
1E
100
AcDbEntity
  8
0
100
AcDbLine
 10
4.669291338582676
 20
3.711614173228346
 30
0.0
 11
4.669291338582676
 21
3.705708661417322
 31
0.0
  0
LINE
  5
3AEE
330
1E
100
AcDbEntity
  8
0
100
AcDbLine
 10
4.669291338582676
 20
3.705708661417322
 30
0.0
 11
4.687007874015748
 21
3.705708661417322
 31
0.0
  0
LINE
  5
3AEF
330
1E
100
AcDbEntity
  8
0
100
AcDbLine
 10
4.687007874015748
 20
3.711614173228346
 30
0.0
 11
4.687007874015748
 21
3.705708661417322
 31
0.0
  0
LINE
  5
3AF0
330
1E
100
AcDbEntity
  8
0
100
AcDbLine
 10
4.669291338582676
 20
3.711614173228346
 30
0.0
 11
4.687007874015748
 21
3.711614173228346
 31
0.0
  0
LINE
  5
3AF1
330
1E
100
AcDbEntity
  8
0
100
AcDbLine
 10
4.669291338582676
 20
3.71259842519685
 30
0.0
 11
4.687007874015748
 21
3.71259842519685
 31
0.0
  0
LINE
  5
3AF2
330
1E
100
AcDbEntity
  8
0
100
AcDbLine
 10
4.669291338582676
 20
3.711614173228346
 30
0.0
 11
4.669291338582676
 21
3.71259842519685
 31
0.0
  0
LINE
  5
3AF3
330
1E
100
AcDbEntity
  8
0
100
AcDbLine
 10
4.687007874015748
 20
3.711614173228346
 30
0.0
 11
4.687007874015748
 21
3.71259842519685
 31
0.0
  0
LINE
  5
3AF4
330
1E
100
AcDbEntity
  8
0
100
AcDbLine
 10
4.669291338582676
 20
3.71259842519685
 30
0.0
 11
4.669291338582676
 21
3.74015748031496
 31
0.0
  0
LINE
  5
3AF5
330
1E
100
AcDbEntity
  8
0
100
AcDbLine
 10
4.687007874015748
 20
3.71259842519685
 30
0.0
 11
4.687007874015748
 21
3.74015748031496
 31
0.0
  0
POLYLINE
  5
3AF6
330
1E
100
AcDbEntity
  8
0
100
AcDb2dPolyline
 66
     1
 10
0.0
 20
0.0
 30
0.0
  0
VERTEX
  5
3DDA
330
3AF6
100
AcDbEntity
  8
0
100
AcDbVertex
100
AcDb2dVertex
 10
4.669291338582676
 20
3.705708661417322
 30
0.0
  0
VERTEX
  5
3DDB
330
3AF6
100
AcDbEntity
  8
0
100
AcDbVertex
100
AcDb2dVertex
 10
4.669291338582676
 20
3.704724409448818
 30
0.0
  0
VERTEX
  5
3DDC
330
3AF6
100
AcDbEntity
  8
0
100
AcDbVertex
100
AcDb2dVertex
 10
4.669291338582676
 20
3.703740157480314
 30
0.0
  0
SEQEND
  5
3DDD
330
3AF6
100
AcDbEntity
  8
0
  0
LINE
  5
3AFB
330
1E
100
AcDbEntity
  8
0
100
AcDbLine
 10
4.669291338582676
 20
3.703740157480314
 30
0.0
 11
4.687007874015748
 21
3.703740157480314
 31
0.0
  0
POLYLINE
  5
3AFC
330
1E
100
AcDbEntity
  8
0
100
AcDb2dPolyline
 66
     1
 10
0.0
 20
0.0
 30
0.0
  0
VERTEX
  5
3DDE
330
3AFC
100
AcDbEntity
  8
0
100
AcDbVertex
100
AcDb2dVertex
 10
4.687007874015748
 20
3.705708661417322
 30
0.0
  0
VERTEX
  5
3DDF
330
3AFC
100
AcDbEntity
  8
0
100
AcDbVertex
100
AcDb2dVertex
 10
4.687007874015748
 20
3.704724409448818
 30
0.0
  0
VERTEX
  5
3DE0
330
3AFC
100
AcDbEntity
  8
0
100
AcDbVertex
100
AcDb2dVertex
 10
4.687007874015748
 20
3.703740157480314
 30
0.0
  0
SEQEND
  5
3DE1
330
3AFC
100
AcDbEntity
  8
0
  0
LINE
  5
3B01
330
1E
100
AcDbEntity
  8
0
100
AcDbLine
 10
4.669291338582676
 20
3.622047244094487
 30
0.0
 11
4.669291338582676
 21
3.703740157480314
 31
0.0
  0
LINE
  5
3B02
330
1E
100
AcDbEntity
  8
0
100
AcDbLine
 10
4.669291338582676
 20
3.622047244094487
 30
0.0
 11
4.687007874015748
 21
3.622047244094487
 31
0.0
  0
LINE
  5
3B03
330
1E
100
AcDbEntity
  8
0
100
AcDbLine
 10
4.687007874015748
 20
3.622047244094487
 30
0.0
 11
4.687007874015748
 21
3.703740157480314
 31
0.0
  0
POLYLINE
  5
3B04
330
1E
100
AcDbEntity
  8
0
100
AcDb2dPolyline
 66
     1
 10
0.0
 20
0.0
 30
0.0
  0
VERTEX
  5
3DE2
330
3B04
100
AcDbEntity
  8
0
100
AcDbVertex
100
AcDb2dVertex
 10
4.687007874015748
 20
3.622047244094487
 30
0.0
  0
VERTEX
  5
3DE3
330
3B04
100
AcDbEntity
  8
0
100
AcDbVertex
100
AcDb2dVertex
 10
4.687007874015748
 20
3.621062992125984
 30
0.0
  0
VERTEX
  5
3DE4
330
3B04
100
AcDbEntity
  8
0
100
AcDbVertex
100
AcDb2dVertex
 10
4.687007874015748
 20
3.619094488188976
 30
0.0
  0
SEQEND
  5
3DE5
330
3B04
100
AcDbEntity
  8
0
  0
LINE
  5
3B09
330
1E
100
AcDbEntity
  8
0
100
AcDbLine
 10
4.687007874015748
 20
3.619094488188976
 30
0.0
 11
4.687007874015748
 21
3.614173228346456
 31
0.0
  0
LINE
  5
3B0A
330
1E
100
AcDbEntity
  8
0
100
AcDbLine
 10
4.669291338582676
 20
3.619094488188976
 30
0.0
 11
4.669291338582676
 21
3.614173228346456
 31
0.0
  0
POLYLINE
  5
3B0B
330
1E
100
AcDbEntity
  8
0
100
AcDb2dPolyline
 66
     1
 10
0.0
 20
0.0
 30
0.0
  0
VERTEX
  5
3DE6
330
3B0B
100
AcDbEntity
  8
0
100
AcDbVertex
100
AcDb2dVertex
 10
4.669291338582676
 20
3.622047244094487
 30
0.0
  0
VERTEX
  5
3DE7
330
3B0B
100
AcDbEntity
  8
0
100
AcDbVertex
100
AcDb2dVertex
 10
4.669291338582676
 20
3.621062992125984
 30
0.0
  0
VERTEX
  5
3DE8
330
3B0B
100
AcDbEntity
  8
0
100
AcDbVertex
100
AcDb2dVertex
 10
4.669291338582676
 20
3.619094488188976
 30
0.0
  0
SEQEND
  5
3DE9
330
3B0B
100
AcDbEntity
  8
0
  0
LINE
  5
3B10
330
1E
100
AcDbEntity
  8
0
100
AcDbLine
 10
4.669291338582676
 20
3.619094488188976
 30
0.0
 11
4.687007874015748
 21
3.619094488188976
 31
0.0
  0
LINE
  5
3B11
330
1E
100
AcDbEntity
  8
0
100
AcDbLine
 10
4.829724409448818
 20
3.619094488188976
 30
0.0
 11
4.829724409448818
 21
3.614173228346456
 31
0.0
  0
POLYLINE
  5
3B12
330
1E
100
AcDbEntity
  8
0
100
AcDb2dPolyline
 66
     1
 10
0.0
 20
0.0
 30
0.0
  0
VERTEX
  5
3DEA
330
3B12
100
AcDbEntity
  8
0
100
AcDbVertex
100
AcDb2dVertex
 10
4.829724409448818
 20
3.622047244094487
 30
0.0
  0
VERTEX
  5
3DEB
330
3B12
100
AcDbEntity
  8
0
100
AcDbVertex
100
AcDb2dVertex
 10
4.829724409448818
 20
3.621062992125984
 30
0.0
  0
VERTEX
  5
3DEC
330
3B12
100
AcDbEntity
  8
0
100
AcDbVertex
100
AcDb2dVertex
 10
4.829724409448818
 20
3.619094488188976
 30
0.0
  0
SEQEND
  5
3DED
330
3B12
100
AcDbEntity
  8
0
  0
LINE
  5
3B17
330
1E
100
AcDbEntity
  8
0
100
AcDbLine
 10
4.829724409448818
 20
3.622047244094487
 30
0.0
 11
4.829724409448818
 21
3.703740157480314
 31
0.0
  0
POLYLINE
  5
3B18
330
1E
100
AcDbEntity
  8
0
100
AcDb2dPolyline
 66
     1
 10
0.0
 20
0.0
 30
0.0
  0
VERTEX
  5
3DEE
330
3B18
100
AcDbEntity
  8
0
100
AcDbVertex
100
AcDb2dVertex
 10
4.829724409448818
 20
3.705708661417322
 30
0.0
  0
VERTEX
  5
3DEF
330
3B18
100
AcDbEntity
  8
0
100
AcDbVertex
100
AcDb2dVertex
 10
4.829724409448818
 20
3.704724409448818
 30
0.0
  0
VERTEX
  5
3DF0
330
3B18
100
AcDbEntity
  8
0
100
AcDbVertex
100
AcDb2dVertex
 10
4.829724409448818
 20
3.703740157480314
 30
0.0
  0
SEQEND
  5
3DF1
330
3B18
100
AcDbEntity
  8
0
  0
LINE
  5
3B1D
330
1E
100
AcDbEntity
  8
0
100
AcDbLine
 10
4.829724409448818
 20
3.711614173228346
 30
0.0
 11
4.829724409448818
 21
3.705708661417322
 31
0.0
  0
LINE
  5
3B1E
330
1E
100
AcDbEntity
  8
0
100
AcDbLine
 10
4.829724409448818
 20
3.711614173228346
 30
0.0
 11
4.829724409448818
 21
3.71259842519685
 31
0.0
  0
LINE
  5
3B1F
330
1E
100
AcDbEntity
  8
0
100
AcDbLine
 10
4.829724409448818
 20
3.71259842519685
 30
0.0
 11
4.829724409448818
 21
3.74015748031496
 31
0.0
  0
LINE
  5
3B20
330
1E
100
AcDbEntity
  8
0
100
AcDbLine
 10
4.847440944881889
 20
3.71259842519685
 30
0.0
 11
4.847440944881889
 21
3.74015748031496
 31
0.0
  0
LINE
  5
3B21
330
1E
100
AcDbEntity
  8
0
100
AcDbLine
 10
4.847440944881889
 20
3.711614173228346
 30
0.0
 11
4.847440944881889
 21
3.71259842519685
 31
0.0
  0
LINE
  5
3B22
330
1E
100
AcDbEntity
  8
0
100
AcDbLine
 10
4.847440944881889
 20
3.711614173228346
 30
0.0
 11
4.847440944881889
 21
3.705708661417322
 31
0.0
  0
POLYLINE
  5
3B23
330
1E
100
AcDbEntity
  8
0
100
AcDb2dPolyline
 66
     1
 10
0.0
 20
0.0
 30
0.0
  0
VERTEX
  5
3DF2
330
3B23
100
AcDbEntity
  8
0
100
AcDbVertex
100
AcDb2dVertex
 10
4.847440944881889
 20
3.705708661417322
 30
0.0
  0
VERTEX
  5
3DF3
330
3B23
100
AcDbEntity
  8
0
100
AcDbVertex
100
AcDb2dVertex
 10
4.847440944881889
 20
3.704724409448818
 30
0.0
  0
VERTEX
  5
3DF4
330
3B23
100
AcDbEntity
  8
0
100
AcDbVertex
100
AcDb2dVertex
 10
4.847440944881889
 20
3.703740157480314
 30
0.0
  0
SEQEND
  5
3DF5
330
3B23
100
AcDbEntity
  8
0
  0
LINE
  5
3B28
330
1E
100
AcDbEntity
  8
0
100
AcDbLine
 10
4.847440944881889
 20
3.622047244094487
 30
0.0
 11
4.847440944881889
 21
3.703740157480314
 31
0.0
  0
POLYLINE
  5
3B29
330
1E
100
AcDbEntity
  8
0
100
AcDb2dPolyline
 66
     1
 10
0.0
 20
0.0
 30
0.0
  0
VERTEX
  5
3DF6
330
3B29
100
AcDbEntity
  8
0
100
AcDbVertex
100
AcDb2dVertex
 10
4.847440944881889
 20
3.622047244094487
 30
0.0
  0
VERTEX
  5
3DF7
330
3B29
100
AcDbEntity
  8
0
100
AcDbVertex
100
AcDb2dVertex
 10
4.847440944881889
 20
3.621062992125984
 30
0.0
  0
VERTEX
  5
3DF8
330
3B29
100
AcDbEntity
  8
0
100
AcDbVertex
100
AcDb2dVertex
 10
4.847440944881889
 20
3.619094488188976
 30
0.0
  0
SEQEND
  5
3DF9
330
3B29
100
AcDbEntity
  8
0
  0
LINE
  5
3B2E
330
1E
100
AcDbEntity
  8
0
100
AcDbLine
 10
4.847440944881889
 20
3.619094488188976
 30
0.0
 11
4.847440944881889
 21
3.614173228346456
 31
0.0
  0
LINE
  5
3B2F
330
1E
100
AcDbEntity
  8
0
100
AcDbLine
 10
4.829724409448818
 20
3.705708661417322
 30
0.0
 11
4.847440944881889
 21
3.705708661417322
 31
0.0
  0
LINE
  5
3B30
330
1E
100
AcDbEntity
  8
0
100
AcDbLine
 10
4.829724409448818
 20
3.711614173228346
 30
0.0
 11
4.847440944881889
 21
3.711614173228346
 31
0.0
  0
LINE
  5
3B31
330
1E
100
AcDbEntity
  8
0
100
AcDbLine
 10
4.829724409448818
 20
3.71259842519685
 30
0.0
 11
4.847440944881889
 21
3.71259842519685
 31
0.0
  0
LINE
  5
3B32
330
1E
100
AcDbEntity
  8
0
100
AcDbLine
 10
4.829724409448818
 20
3.703740157480314
 30
0.0
 11
4.847440944881889
 21
3.703740157480314
 31
0.0
  0
LINE
  5
3B33
330
1E
100
AcDbEntity
  8
0
100
AcDbLine
 10
4.829724409448818
 20
3.622047244094487
 30
0.0
 11
4.847440944881889
 21
3.622047244094487
 31
0.0
  0
LINE
  5
3B34
330
1E
100
AcDbEntity
  8
0
100
AcDbLine
 10
4.829724409448818
 20
3.619094488188976
 30
0.0
 11
4.847440944881889
 21
3.619094488188976
 31
0.0
  0
LINE
  5
3B35
330
1E
100
AcDbEntity
  8
0
100
AcDbLine
 10
4.589566929133858
 20
3.711614173228346
 30
0.0
 11
4.589566929133858
 21
3.705708661417322
 31
0.0
  0
LINE
  5
3B36
330
1E
100
AcDbEntity
  8
0
100
AcDbLine
 10
4.589566929133858
 20
3.705708661417322
 30
0.0
 11
4.607283464566928
 21
3.705708661417322
 31
0.0
  0
LINE
  5
3B37
330
1E
100
AcDbEntity
  8
0
100
AcDbLine
 10
4.607283464566928
 20
3.711614173228346
 30
0.0
 11
4.607283464566928
 21
3.705708661417322
 31
0.0
  0
LINE
  5
3B38
330
1E
100
AcDbEntity
  8
0
100
AcDbLine
 10
4.589566929133858
 20
3.711614173228346
 30
0.0
 11
4.607283464566928
 21
3.711614173228346
 31
0.0
  0
LINE
  5
3B39
330
1E
100
AcDbEntity
  8
0
100
AcDbLine
 10
4.589566929133858
 20
3.71259842519685
 30
0.0
 11
4.607283464566928
 21
3.71259842519685
 31
0.0
  0
LINE
  5
3B3A
330
1E
100
AcDbEntity
  8
0
100
AcDbLine
 10
4.589566929133858
 20
3.711614173228346
 30
0.0
 11
4.589566929133858
 21
3.71259842519685
 31
0.0
  0
LINE
  5
3B3B
330
1E
100
AcDbEntity
  8
0
100
AcDbLine
 10
4.607283464566928
 20
3.711614173228346
 30
0.0
 11
4.607283464566928
 21
3.71259842519685
 31
0.0
  0
LINE
  5
3B3C
330
1E
100
AcDbEntity
  8
0
100
AcDbLine
 10
4.589566929133858
 20
3.71259842519685
 30
0.0
 11
4.589566929133858
 21
3.74015748031496
 31
0.0
  0
LINE
  5
3B3D
330
1E
100
AcDbEntity
  8
0
100
AcDbLine
 10
4.607283464566928
 20
3.71259842519685
 30
0.0
 11
4.607283464566928
 21
3.74015748031496
 31
0.0
  0
POLYLINE
  5
3B3E
330
1E
100
AcDbEntity
  8
0
100
AcDb2dPolyline
 66
     1
 10
0.0
 20
0.0
 30
0.0
  0
VERTEX
  5
3DFA
330
3B3E
100
AcDbEntity
  8
0
100
AcDbVertex
100
AcDb2dVertex
 10
4.589566929133858
 20
3.705708661417322
 30
0.0
  0
VERTEX
  5
3DFB
330
3B3E
100
AcDbEntity
  8
0
100
AcDbVertex
100
AcDb2dVertex
 10
4.589566929133858
 20
3.704724409448818
 30
0.0
  0
VERTEX
  5
3DFC
330
3B3E
100
AcDbEntity
  8
0
100
AcDbVertex
100
AcDb2dVertex
 10
4.589566929133858
 20
3.703740157480314
 30
0.0
  0
SEQEND
  5
3DFD
330
3B3E
100
AcDbEntity
  8
0
  0
LINE
  5
3B43
330
1E
100
AcDbEntity
  8
0
100
AcDbLine
 10
4.589566929133858
 20
3.703740157480314
 30
0.0
 11
4.607283464566928
 21
3.703740157480314
 31
0.0
  0
POLYLINE
  5
3B44
330
1E
100
AcDbEntity
  8
0
100
AcDb2dPolyline
 66
     1
 10
0.0
 20
0.0
 30
0.0
  0
VERTEX
  5
3DFE
330
3B44
100
AcDbEntity
  8
0
100
AcDbVertex
100
AcDb2dVertex
 10
4.607283464566928
 20
3.705708661417322
 30
0.0
  0
VERTEX
  5
3DFF
330
3B44
100
AcDbEntity
  8
0
100
AcDbVertex
100
AcDb2dVertex
 10
4.607283464566928
 20
3.704724409448818
 30
0.0
  0
VERTEX
  5
3E00
330
3B44
100
AcDbEntity
  8
0
100
AcDbVertex
100
AcDb2dVertex
 10
4.607283464566928
 20
3.703740157480314
 30
0.0
  0
SEQEND
  5
3E01
330
3B44
100
AcDbEntity
  8
0
  0
LINE
  5
3B49
330
1E
100
AcDbEntity
  8
0
100
AcDbLine
 10
4.589566929133858
 20
3.622047244094487
 30
0.0
 11
4.589566929133858
 21
3.703740157480314
 31
0.0
  0
LINE
  5
3B4A
330
1E
100
AcDbEntity
  8
0
100
AcDbLine
 10
4.589566929133858
 20
3.622047244094487
 30
0.0
 11
4.607283464566928
 21
3.622047244094487
 31
0.0
  0
LINE
  5
3B4B
330
1E
100
AcDbEntity
  8
0
100
AcDbLine
 10
4.607283464566928
 20
3.622047244094487
 30
0.0
 11
4.607283464566928
 21
3.703740157480314
 31
0.0
  0
POLYLINE
  5
3B4C
330
1E
100
AcDbEntity
  8
0
100
AcDb2dPolyline
 66
     1
 10
0.0
 20
0.0
 30
0.0
  0
VERTEX
  5
3E02
330
3B4C
100
AcDbEntity
  8
0
100
AcDbVertex
100
AcDb2dVertex
 10
4.607283464566928
 20
3.622047244094487
 30
0.0
  0
VERTEX
  5
3E03
330
3B4C
100
AcDbEntity
  8
0
100
AcDbVertex
100
AcDb2dVertex
 10
4.607283464566928
 20
3.621062992125984
 30
0.0
  0
VERTEX
  5
3E04
330
3B4C
100
AcDbEntity
  8
0
100
AcDbVertex
100
AcDb2dVertex
 10
4.607283464566928
 20
3.619094488188976
 30
0.0
  0
SEQEND
  5
3E05
330
3B4C
100
AcDbEntity
  8
0
  0
LINE
  5
3B51
330
1E
100
AcDbEntity
  8
0
100
AcDbLine
 10
4.607283464566928
 20
3.619094488188976
 30
0.0
 11
4.607283464566928
 21
3.614173228346456
 31
0.0
  0
LINE
  5
3B52
330
1E
100
AcDbEntity
  8
0
100
AcDbLine
 10
4.589566929133858
 20
3.619094488188976
 30
0.0
 11
4.589566929133858
 21
3.614173228346456
 31
0.0
  0
POLYLINE
  5
3B53
330
1E
100
AcDbEntity
  8
0
100
AcDb2dPolyline
 66
     1
 10
0.0
 20
0.0
 30
0.0
  0
VERTEX
  5
3E06
330
3B53
100
AcDbEntity
  8
0
100
AcDbVertex
100
AcDb2dVertex
 10
4.589566929133858
 20
3.622047244094487
 30
0.0
  0
VERTEX
  5
3E07
330
3B53
100
AcDbEntity
  8
0
100
AcDbVertex
100
AcDb2dVertex
 10
4.589566929133858
 20
3.621062992125984
 30
0.0
  0
VERTEX
  5
3E08
330
3B53
100
AcDbEntity
  8
0
100
AcDbVertex
100
AcDb2dVertex
 10
4.589566929133858
 20
3.619094488188976
 30
0.0
  0
SEQEND
  5
3E09
330
3B53
100
AcDbEntity
  8
0
  0
LINE
  5
3B58
330
1E
100
AcDbEntity
  8
0
100
AcDbLine
 10
4.589566929133858
 20
3.619094488188976
 30
0.0
 11
4.607283464566928
 21
3.619094488188976
 31
0.0
  0
LINE
  5
3B59
330
1E
100
AcDbEntity
  8
0
100
AcDbLine
 10
4.890748031496062
 20
3.654527559055118
 30
0.0
 11
4.88779527559055
 21
3.654527559055118
 31
0.0
  0
LINE
  5
3B5A
330
1E
100
AcDbEntity
  8
0
100
AcDbLine
 10
4.890748031496062
 20
3.656496062992125
 30
0.0
 11
4.888779527559054
 21
3.656496062992125
 31
0.0
  0
LINE
  5
3B5B
330
1E
100
AcDbEntity
  8
0
100
AcDbLine
 10
4.888779527559054
 20
3.656496062992125
 30
0.0
 11
4.888779527559054
 21
3.656496062992125
 31
0.0
  0
LINE
  5
3B5C
330
1E
100
AcDbEntity
  8
0
100
AcDbLine
 10
4.88779527559055
 20
3.655511811023622
 30
0.0
 11
4.888779527559054
 21
3.656496062992125
 31
0.0
  0
LINE
  5
3B5D
330
1E
100
AcDbEntity
  8
0
100
AcDbLine
 10
4.589566929133858
 20
3.654527559055118
 30
0.0
 11
4.585629921259842
 21
3.654527559055118
 31
0.0
  0
LINE
  5
3B5E
330
1E
100
AcDbEntity
  8
0
100
AcDbLine
 10
4.589566929133858
 20
3.655511811023622
 30
0.0
 11
4.588582677165354
 21
3.656496062992125
 31
0.0
  0
LINE
  5
3B5F
330
1E
100
AcDbEntity
  8
0
100
AcDbLine
 10
4.588582677165354
 20
3.656496062992125
 30
0.0
 11
4.588582677165354
 21
3.656496062992125
 31
0.0
  0
LINE
  5
3B60
330
1E
100
AcDbEntity
  8
0
100
AcDbLine
 10
4.588582677165354
 20
3.656496062992125
 30
0.0
 11
4.585629921259842
 21
3.656496062992125
 31
0.0
  0
LINE
  5
3B61
330
1E
100
AcDbEntity
  8
0
100
AcDbLine
 10
4.588582677165354
 20
3.721456692913385
 30
0.0
 11
4.588582677165354
 21
3.721456692913385
 31
0.0
  0
LINE
  5
3B62
330
1E
100
AcDbEntity
  8
0
100
AcDbLine
 10
4.585629921259842
 20
3.721456692913385
 30
0.0
 11
4.588582677165354
 21
3.721456692913385
 31
0.0
  0
LINE
  5
3B63
330
1E
100
AcDbEntity
  8
0
100
AcDbLine
 10
4.588582677165354
 20
3.721456692913385
 30
0.0
 11
4.588582677165354
 21
3.656496062992125
 31
0.0
  0
LINE
  5
3B64
330
1E
100
AcDbEntity
  8
0
100
AcDbLine
 10
4.888779527559054
 20
3.656496062992125
 30
0.0
 11
4.888779527559054
 21
3.721456692913385
 31
0.0
  0
LINE
  5
3B65
330
1E
100
AcDbEntity
  8
0
100
AcDbLine
 10
4.888779527559054
 20
3.721456692913385
 30
0.0
 11
4.888779527559054
 21
3.721456692913385
 31
0.0
  0
LINE
  5
3B66
330
1E
100
AcDbEntity
  8
0
100
AcDbLine
 10
4.888779527559054
 20
3.721456692913385
 30
0.0
 11
4.890748031496062
 21
3.721456692913385
 31
0.0
  0
LINE
  5
3B67
330
1E
100
AcDbEntity
  8
0
100
AcDbLine
 10
4.520669291338582
 20
3.648622047244094
 30
0.0
 11
4.520669291338582
 21
3.651574803149606
 31
0.0
  0
LINE
  5
3B68
330
1E
100
AcDbEntity
  8
0
100
AcDbLine
 10
4.521653543307086
 20
3.648622047244094
 30
0.0
 11
4.521653543307086
 21
3.651574803149606
 31
0.0
  0
LINE
  5
3B69
330
1E
100
AcDbEntity
  8
0
100
AcDbLine
 10
4.535433070866141
 20
3.648622047244094
 30
0.0
 11
4.535433070866141
 21
3.651574803149606
 31
0.0
  0
LINE
  5
3B6A
330
1E
100
AcDbEntity
  8
0
100
AcDbLine
 10
4.535433070866141
 20
3.651574803149606
 30
0.0
 11
4.535433070866141
 21
3.648622047244094
 31
0.0
  0
LINE
  5
3B6B
330
1E
100
AcDbEntity
  8
0
100
AcDbLine
 10
4.940944881889763
 20
3.648622047244094
 30
0.0
 11
4.940944881889763
 21
3.651574803149606
 31
0.0
  0
LINE
  5
3B6C
330
1E
100
AcDbEntity
  8
0
100
AcDbLine
 10
4.941929133858267
 20
3.648622047244094
 30
0.0
 11
4.941929133858267
 21
3.651574803149606
 31
0.0
  0
LINE
  5
3B6D
330
1E
100
AcDbEntity
  8
0
100
AcDbLine
 10
4.955708661417323
 20
3.648622047244094
 30
0.0
 11
4.955708661417323
 21
3.651574803149606
 31
0.0
  0
LINE
  5
3B6E
330
1E
100
AcDbEntity
  8
0
100
AcDbLine
 10
4.955708661417323
 20
3.651574803149606
 30
0.0
 11
4.955708661417323
 21
3.648622047244094
 31
0.0
  0
LINE
  5
3B6F
330
1E
100
AcDbEntity
  8
0
100
AcDbLine
 10
4.975393700787401
 20
3.30511811023622
 30
0.0
 11
4.979330708661417
 21
3.30511811023622
 31
0.0
  0
LINE
  5
3B70
330
1E
100
AcDbEntity
  8
0
100
AcDbLine
 10
4.500984251968503
 20
3.30511811023622
 30
0.0
 11
4.497047244094487
 21
3.30511811023622
 31
0.0
  0
LINE
  5
3B71
330
1E
100
AcDbEntity
  8
0
100
AcDbLine
 10
4.416338582677165
 20
3.514763779527558
 30
0.0
 11
4.416338582677165
 21
4.073818897637795
 31
0.0
  0
LINE
  5
3B72
330
1E
100
AcDbEntity
  8
0
100
AcDbLine
 10
4.481299212598425
 20
4.073818897637795
 30
0.0
 11
4.416338582677165
 21
4.073818897637795
 31
0.0
  0
LINE
  5
3B73
330
1E
100
AcDbEntity
  8
0
100
AcDbLine
 10
5.061023622047244
 20
4.073818897637795
 30
0.0
 11
4.996062992125984
 21
4.073818897637795
 31
0.0
  0
LINE
  5
3B74
330
1E
100
AcDbEntity
  8
0
100
AcDbLine
 10
5.061023622047244
 20
3.514763779527558
 30
0.0
 11
5.061023622047244
 21
4.073818897637795
 31
0.0
  0
LINE
  5
3B75
330
1E
100
AcDbEntity
  8
0
100
AcDbLine
 10
4.452755905511811
 20
3.353346456692913
 30
0.0
 11
4.451771653543307
 21
3.353346456692913
 31
0.0
  0
LINE
  5
3B76
330
1E
100
AcDbEntity
  8
0
100
AcDbLine
 10
4.451771653543307
 20
3.353346456692913
 30
0.0
 11
4.417322834645669
 21
3.353346456692913
 31
0.0
  0
LINE
  5
3B77
330
1E
100
AcDbEntity
  8
0
100
AcDbLine
 10
4.417322834645669
 20
3.353346456692913
 30
0.0
 11
4.416338582677165
 21
3.353346456692913
 31
0.0
  0
LINE
  5
3B78
330
1E
100
AcDbEntity
  8
0
100
AcDbLine
 10
5.060039370078739
 20
3.353346456692913
 30
0.0
 11
5.061023622047244
 21
3.353346456692913
 31
0.0
  0
LINE
  5
3B79
330
1E
100
AcDbEntity
  8
0
100
AcDbLine
 10
5.060039370078739
 20
3.353346456692913
 30
0.0
 11
5.025590551181101
 21
3.353346456692913
 31
0.0
  0
LINE
  5
3B7A
330
1E
100
AcDbEntity
  8
0
100
AcDbLine
 10
5.024606299212598
 20
3.353346456692913
 30
0.0
 11
5.025590551181101
 21
3.353346456692913
 31
0.0
  0
LINE
  5
3B7B
330
1E
100
AcDbEntity
  8
0
100
AcDbLine
 10
4.980314960629921
 20
3.353346456692913
 30
0.0
 11
5.024606299212598
 21
3.353346456692913
 31
0.0
  0
LINE
  5
3B7C
330
1E
100
AcDbEntity
  8
0
100
AcDbLine
 10
4.497047244094487
 20
3.353346456692913
 30
0.0
 11
4.452755905511811
 21
3.353346456692913
 31
0.0
  0
LINE
  5
3B7D
330
1E
100
AcDbEntity
  8
0
100
AcDbLine
 10
4.418307086614173
 20
3.416338582677165
 30
0.0
 11
4.418307086614173
 21
4.070866141732283
 31
0.0
  0
LINE
  5
3B7E
330
1E
100
AcDbEntity
  8
0
100
AcDbLine
 10
4.418307086614173
 20
3.416338582677165
 30
0.0
 11
4.449803149606299
 21
3.416338582677165
 31
0.0
  0
LINE
  5
3B7F
330
1E
100
AcDbEntity
  8
0
100
AcDbLine
 10
4.449803149606299
 20
3.423228346456693
 30
0.0
 11
4.449803149606299
 21
3.416338582677165
 31
0.0
  0
LINE
  5
3B80
330
1E
100
AcDbEntity
  8
0
100
AcDbLine
 10
4.449803149606299
 20
3.423228346456693
 30
0.0
 11
4.449803149606299
 21
4.070866141732283
 31
0.0
  0
LINE
  5
3B81
330
1E
100
AcDbEntity
  8
0
100
AcDbLine
 10
4.449803149606299
 20
4.070866141732283
 30
0.0
 11
4.418307086614173
 21
4.070866141732283
 31
0.0
  0
LINE
  5
3B82
330
1E
100
AcDbEntity
  8
0
100
AcDbLine
 10
4.497047244094487
 20
4.067913385826771
 30
0.0
 11
4.979330708661417
 21
4.067913385826771
 31
0.0
  0
LINE
  5
3B83
330
1E
100
AcDbEntity
  8
0
100
AcDbLine
 10
4.497047244094487
 20
4.067913385826771
 30
0.0
 11
4.492125984251968
 21
4.069881889763779
 31
0.0
  0
LINE
  5
3B84
330
1E
100
AcDbEntity
  8
0
100
AcDbLine
 10
4.492125984251968
 20
4.069881889763779
 30
0.0
 11
4.481299212598425
 21
4.073818897637795
 31
0.0
  0
LINE
  5
3B85
330
1E
100
AcDbEntity
  8
0
100
AcDbLine
 10
4.418307086614173
 20
4.070866141732283
 30
0.0
 11
4.416338582677165
 21
4.073818897637795
 31
0.0
  0
LINE
  5
3B86
330
1E
100
AcDbEntity
  8
0
100
AcDbLine
 10
4.453740157480314
 20
4.063976377952755
 30
0.0
 11
4.449803149606299
 21
4.070866141732283
 31
0.0
  0
LINE
  5
3B87
330
1E
100
AcDbEntity
  8
0
100
AcDbLine
 10
5.023622047244094
 20
4.063976377952755
 30
0.0
 11
4.453740157480314
 21
4.063976377952755
 31
0.0
  0
LINE
  5
3B88
330
1E
100
AcDbEntity
  8
0
100
AcDbLine
 10
5.026574803149606
 20
4.070866141732283
 30
0.0
 11
5.023622047244094
 21
4.063976377952755
 31
0.0
  0
LINE
  5
3B89
330
1E
100
AcDbEntity
  8
0
100
AcDbLine
 10
5.058070866141732
 20
4.070866141732283
 30
0.0
 11
5.026574803149606
 21
4.070866141732283
 31
0.0
  0
LINE
  5
3B8A
330
1E
100
AcDbEntity
  8
0
100
AcDbLine
 10
5.058070866141732
 20
4.070866141732283
 30
0.0
 11
5.061023622047244
 21
4.073818897637795
 31
0.0
  0
LINE
  5
3B8B
330
1E
100
AcDbEntity
  8
0
100
AcDbLine
 10
4.98523622047244
 20
4.069881889763779
 30
0.0
 11
4.996062992125984
 21
4.073818897637795
 31
0.0
  0
LINE
  5
3B8C
330
1E
100
AcDbEntity
  8
0
100
AcDbLine
 10
4.98523622047244
 20
4.069881889763779
 30
0.0
 11
4.979330708661417
 21
4.067913385826771
 31
0.0
  0
LINE
  5
3B8D
330
1E
100
AcDbEntity
  8
0
100
AcDbLine
 10
4.979330708661417
 20
3.353346456692913
 30
0.0
 11
4.497047244094487
 21
3.353346456692913
 31
0.0
  0
LINE
  5
3B8E
330
1E
100
AcDbEntity
  8
0
100
AcDbLine
 10
4.497047244094487
 20
3.353346456692913
 30
0.0
 11
4.501968503937007
 21
3.348425196850393
 31
0.0
  0
LINE
  5
3B8F
330
1E
100
AcDbEntity
  8
0
100
AcDbLine
 10
4.974409448818897
 20
3.348425196850393
 30
0.0
 11
4.501968503937007
 21
3.348425196850393
 31
0.0
  0
LINE
  5
3B90
330
1E
100
AcDbEntity
  8
0
100
AcDbLine
 10
4.979330708661417
 20
3.353346456692913
 30
0.0
 11
4.974409448818897
 21
3.348425196850393
 31
0.0
  0
LINE
  5
3B91
330
1E
100
AcDbEntity
  8
0
100
AcDbLine
 10
4.974409448818897
 20
3.323818897637795
 30
0.0
 11
4.974409448818897
 21
3.348425196850393
 31
0.0
  0
LINE
  5
3B92
330
1E
100
AcDbEntity
  8
0
100
AcDbLine
 10
4.502952755905512
 20
3.323818897637795
 30
0.0
 11
4.501968503937007
 21
3.348425196850393
 31
0.0
  0
LINE
  5
3B93
330
1E
100
AcDbEntity
  8
0
100
AcDbLine
 10
4.974409448818897
 20
3.323818897637795
 30
0.0
 11
4.502952755905512
 21
3.323818897637795
 31
0.0
  0
LINE
  5
3B94
330
1E
100
AcDbEntity
  8
0
100
AcDbLine
 10
4.497047244094487
 20
3.353346456692913
 30
0.0
 11
4.497047244094487
 21
3.30511811023622
 31
0.0
  0
LINE
  5
3B95
330
1E
100
AcDbEntity
  8
0
100
AcDbLine
 10
4.979330708661417
 20
3.30511811023622
 30
0.0
 11
4.980314960629921
 21
3.353346456692913
 31
0.0
  0
LINE
  5
3B96
330
1E
100
AcDbEntity
  8
0
100
AcDbLine
 10
4.501968503937007
 20
3.258858267716535
 30
0.0
 11
4.502952755905512
 21
3.323818897637795
 31
0.0
  0
LINE
  5
3B97
330
1E
100
AcDbEntity
  8
0
100
AcDbLine
 10
4.501968503937007
 20
3.258858267716535
 30
0.0
 11
4.974409448818897
 21
3.258858267716535
 31
0.0
  0
LINE
  5
3B98
330
1E
100
AcDbEntity
  8
0
100
AcDbLine
 10
4.974409448818897
 20
3.258858267716535
 30
0.0
 11
4.974409448818897
 21
3.323818897637795
 31
0.0
  0
LINE
  5
3B99
330
1E
100
AcDbEntity
  8
0
100
AcDbLine
 10
4.975393700787401
 20
3.261811023622047
 30
0.0
 11
4.975393700787401
 21
3.30511811023622
 31
0.0
  0
LINE
  5
3B9A
330
1E
100
AcDbEntity
  8
0
100
AcDbLine
 10
4.501968503937007
 20
3.261811023622047
 30
0.0
 11
4.500984251968503
 21
3.30511811023622
 31
0.0
  0
LINE
  5
3B9B
330
1E
100
AcDbEntity
  8
0
100
AcDbLine
 10
5.025590551181101
 20
3.353346456692913
 30
0.0
 11
5.026574803149606
 21
3.416338582677165
 31
0.0
  0
LINE
  5
3B9C
330
1E
100
AcDbEntity
  8
0
100
AcDbLine
 10
5.026574803149606
 20
3.423228346456693
 30
0.0
 11
5.026574803149606
 21
3.416338582677165
 31
0.0
  0
LINE
  5
3B9D
330
1E
100
AcDbEntity
  8
0
100
AcDbLine
 10
5.024606299212598
 20
3.421259842519685
 30
0.0
 11
5.026574803149606
 21
3.423228346456693
 31
0.0
  0
POLYLINE
  5
3B9E
330
1E
100
AcDbEntity
  8
0
100
AcDb2dPolyline
 66
     1
 10
0.0
 20
0.0
 30
0.0
  0
VERTEX
  5
3E0A
330
3B9E
100
AcDbEntity
  8
0
100
AcDbVertex
100
AcDb2dVertex
 10
5.024606299212598
 20
3.386811023622047
 30
0.0
  0
VERTEX
  5
3E0B
330
3B9E
100
AcDbEntity
  8
0
100
AcDbVertex
100
AcDb2dVertex
 10
5.024606299212598
 20
3.403543307086614
 30
0.0
  0
VERTEX
  5
3E0C
330
3B9E
100
AcDbEntity
  8
0
100
AcDbVertex
100
AcDb2dVertex
 10
5.024606299212598
 20
3.416338582677165
 30
0.0
  0
VERTEX
  5
3E0D
330
3B9E
100
AcDbEntity
  8
0
100
AcDbVertex
100
AcDb2dVertex
 10
5.024606299212598
 20
3.421259842519685
 30
0.0
  0
SEQEND
  5
3E0E
330
3B9E
100
AcDbEntity
  8
0
  0
LINE
  5
3BA4
330
1E
100
AcDbEntity
  8
0
100
AcDbLine
 10
5.024606299212598
 20
3.353346456692913
 30
0.0
 11
5.024606299212598
 21
3.386811023622047
 31
0.0
  0
LINE
  5
3BA5
330
1E
100
AcDbEntity
  8
0
100
AcDbLine
 10
4.980314960629921
 20
3.353346456692913
 30
0.0
 11
4.981299212598425
 21
3.386811023622047
 31
0.0
  0
LINE
  5
3BA6
330
1E
100
AcDbEntity
  8
0
100
AcDbLine
 10
4.981299212598425
 20
3.386811023622047
 30
0.0
 11
5.024606299212598
 21
3.386811023622047
 31
0.0
  0
POLYLINE
  5
3BA7
330
1E
100
AcDbEntity
  8
0
100
AcDb2dPolyline
 66
     1
 10
0.0
 20
0.0
 30
0.0
  0
VERTEX
  5
3E0F
330
3BA7
100
AcDbEntity
  8
0
100
AcDbVertex
100
AcDb2dVertex
 10
4.974409448818897
 20
3.258858267716535
 30
0.0
  0
VERTEX
  5
3E10
330
3BA7
100
AcDbEntity
  8
0
100
AcDbVertex
100
AcDb2dVertex
 10
4.975393700787401
 20
3.258858267716535
 30
0.0
  0
VERTEX
  5
3E11
330
3BA7
100
AcDbEntity
  8
0
100
AcDbVertex
100
AcDb2dVertex
 10
4.975393700787401
 20
3.261811023622047
 30
0.0
  0
SEQEND
  5
3E12
330
3BA7
100
AcDbEntity
  8
0
  0
POLYLINE
  5
3BAC
330
1E
100
AcDbEntity
  8
0
100
AcDb2dPolyline
 66
     1
 10
0.0
 20
0.0
 30
0.0
  0
VERTEX
  5
3E13
330
3BAC
100
AcDbEntity
  8
0
100
AcDbVertex
100
AcDb2dVertex
 10
4.981299212598425
 20
3.386811023622047
 30
0.0
  0
VERTEX
  5
3E14
330
3BAC
100
AcDbEntity
  8
0
100
AcDbVertex
100
AcDb2dVertex
 10
4.980314960629921
 20
3.37007874015748
 30
0.0
  0
VERTEX
  5
3E15
330
3BAC
100
AcDbEntity
  8
0
100
AcDbVertex
100
AcDb2dVertex
 10
4.980314960629921
 20
3.358267716535432
 30
0.0
  0
VERTEX
  5
3E16
330
3BAC
100
AcDbEntity
  8
0
100
AcDbVertex
100
AcDb2dVertex
 10
4.979330708661417
 20
3.353346456692913
 30
0.0
  0
SEQEND
  5
3E17
330
3BAC
100
AcDbEntity
  8
0
  0
LINE
  5
3BB2
330
1E
100
AcDbEntity
  8
0
100
AcDbLine
 10
4.501968503937007
 20
3.261811023622047
 30
0.0
 11
4.501968503937007
 21
3.258858267716535
 31
0.0
  0
POLYLINE
  5
3BB3
330
1E
100
AcDbEntity
  8
0
100
AcDb2dPolyline
 66
     1
 10
0.0
 20
0.0
 30
0.0
  0
VERTEX
  5
3E18
330
3BB3
100
AcDbEntity
  8
0
100
AcDbVertex
100
AcDb2dVertex
 10
4.496062992125984
 20
3.386811023622047
 30
0.0
  0
VERTEX
  5
3E19
330
3BB3
100
AcDbEntity
  8
0
100
AcDbVertex
100
AcDb2dVertex
 10
4.496062992125984
 20
3.37007874015748
 30
0.0
  0
VERTEX
  5
3E1A
330
3BB3
100
AcDbEntity
  8
0
100
AcDbVertex
100
AcDb2dVertex
 10
4.497047244094487
 20
3.358267716535432
 30
0.0
  0
VERTEX
  5
3E1B
330
3BB3
100
AcDbEntity
  8
0
100
AcDbVertex
100
AcDb2dVertex
 10
4.497047244094487
 20
3.353346456692913
 30
0.0
  0
SEQEND
  5
3E1C
330
3BB3
100
AcDbEntity
  8
0
  0
LINE
  5
3BB9
330
1E
100
AcDbEntity
  8
0
100
AcDbLine
 10
4.497047244094487
 20
3.353346456692913
 30
0.0
 11
4.496062992125984
 21
3.386811023622047
 31
0.0
  0
LINE
  5
3BBA
330
1E
100
AcDbEntity
  8
0
100
AcDbLine
 10
4.449803149606299
 20
3.416338582677165
 30
0.0
 11
4.451771653543307
 21
3.353346456692913
 31
0.0
  0
LINE
  5
3BBB
330
1E
100
AcDbEntity
  8
0
100
AcDbLine
 10
4.452755905511811
 20
3.353346456692913
 30
0.0
 11
4.452755905511811
 21
3.386811023622047
 31
0.0
  0
POLYLINE
  5
3BBC
330
1E
100
AcDbEntity
  8
0
100
AcDb2dPolyline
 66
     1
 10
0.0
 20
0.0
 30
0.0
  0
VERTEX
  5
3E1D
330
3BBC
100
AcDbEntity
  8
0
100
AcDbVertex
100
AcDb2dVertex
 10
4.452755905511811
 20
3.386811023622047
 30
0.0
  0
VERTEX
  5
3E1E
330
3BBC
100
AcDbEntity
  8
0
100
AcDbVertex
100
AcDb2dVertex
 10
4.452755905511811
 20
3.403543307086614
 30
0.0
  0
VERTEX
  5
3E1F
330
3BBC
100
AcDbEntity
  8
0
100
AcDbVertex
100
AcDb2dVertex
 10
4.452755905511811
 20
3.416338582677165
 30
0.0
  0
VERTEX
  5
3E20
330
3BBC
100
AcDbEntity
  8
0
100
AcDbVertex
100
AcDb2dVertex
 10
4.451771653543307
 20
3.421259842519685
 30
0.0
  0
SEQEND
  5
3E21
330
3BBC
100
AcDbEntity
  8
0
  0
LINE
  5
3BC2
330
1E
100
AcDbEntity
  8
0
100
AcDbLine
 10
4.451771653543307
 20
3.421259842519685
 30
0.0
 11
4.449803149606299
 21
3.423228346456693
 31
0.0
  0
LINE
  5
3BC3
330
1E
100
AcDbEntity
  8
0
100
AcDbLine
 10
4.496062992125984
 20
3.386811023622047
 30
0.0
 11
4.452755905511811
 21
3.386811023622047
 31
0.0
  0
LINE
  5
3BC4
330
1E
100
AcDbEntity
  8
0
100
AcDbLine
 10
5.024606299212598
 20
3.421259842519685
 30
0.0
 11
4.451771653543307
 21
3.421259842519685
 31
0.0
  0
LINE
  5
3BC5
330
1E
100
AcDbEntity
  8
0
100
AcDbLine
 10
5.026574803149606
 20
3.423228346456693
 30
0.0
 11
5.023622047244094
 21
3.429133858267716
 31
0.0
  0
LINE
  5
3BC6
330
1E
100
AcDbEntity
  8
0
100
AcDbLine
 10
4.453740157480314
 20
3.429133858267716
 30
0.0
 11
5.023622047244094
 21
3.429133858267716
 31
0.0
  0
LINE
  5
3BC7
330
1E
100
AcDbEntity
  8
0
100
AcDbLine
 10
4.453740157480314
 20
3.429133858267716
 30
0.0
 11
4.449803149606299
 21
3.423228346456693
 31
0.0
  0
LINE
  5
3BC8
330
1E
100
AcDbEntity
  8
0
100
AcDbLine
 10
4.979330708661417
 20
4.067913385826771
 30
0.0
 11
4.98523622047244
 21
4.131889763779527
 31
0.0
  0
LINE
  5
3BC9
330
1E
100
AcDbEntity
  8
0
100
AcDbLine
 10
4.492125984251968
 20
4.131889763779527
 30
0.0
 11
4.98523622047244
 21
4.131889763779527
 31
0.0
  0
LINE
  5
3BCA
330
1E
100
AcDbEntity
  8
0
100
AcDbLine
 10
4.497047244094487
 20
4.067913385826771
 30
0.0
 11
4.492125984251968
 21
4.131889763779527
 31
0.0
  0
LINE
  5
3BCB
330
1E
100
AcDbEntity
  8
0
100
AcDbLine
 10
4.98523622047244
 20
4.069881889763779
 30
0.0
 11
4.98523622047244
 21
4.131889763779527
 31
0.0
  0
LINE
  5
3BCC
330
1E
100
AcDbEntity
  8
0
100
AcDbLine
 10
4.492125984251968
 20
4.069881889763779
 30
0.0
 11
4.492125984251968
 21
4.131889763779527
 31
0.0
  0
LINE
  5
3BCD
330
1E
100
AcDbEntity
  8
0
100
AcDbLine
 10
5.026574803149606
 20
3.416338582677165
 30
0.0
 11
5.058070866141732
 21
3.416338582677165
 31
0.0
  0
LINE
  5
3BCE
330
1E
100
AcDbEntity
  8
0
100
AcDbLine
 10
5.058070866141732
 20
3.416338582677165
 30
0.0
 11
5.058070866141732
 21
4.070866141732283
 31
0.0
  0
LINE
  5
3BCF
330
1E
100
AcDbEntity
  8
0
100
AcDbLine
 10
5.026574803149606
 20
3.423228346456693
 30
0.0
 11
5.026574803149606
 21
4.070866141732283
 31
0.0
  0
LINE
  5
3BD0
330
1E
100
AcDbEntity
  8
0
100
AcDbLine
 10
4.453740157480314
 20
3.429133858267716
 30
0.0
 11
4.453740157480314
 21
4.063976377952755
 31
0.0
  0
LINE
  5
3BD1
330
1E
100
AcDbEntity
  8
0
100
AcDbLine
 10
5.023622047244094
 20
4.063976377952755
 30
0.0
 11
5.023622047244094
 21
3.429133858267716
 31
0.0
  0
LINE
  5
3BD2
330
1E
100
AcDbEntity
  8
0
100
AcDbLine
 10
4.55511811023622
 20
3.646653543307086
 30
0.0
 11
4.55511811023622
 21
3.747047244094487
 31
0.0
  0
LINE
  5
3BD3
330
1E
100
AcDbEntity
  8
0
100
AcDbLine
 10
4.554133858267716
 20
3.743110236220472
 30
0.0
 11
4.55511811023622
 21
3.747047244094487
 31
0.0
  0
LINE
  5
3BD4
330
1E
100
AcDbEntity
  8
0
100
AcDbLine
 10
4.554133858267716
 20
3.651574803149606
 30
0.0
 11
4.554133858267716
 21
3.743110236220472
 31
0.0
  0
LINE
  5
3BD5
330
1E
100
AcDbEntity
  8
0
100
AcDbLine
 10
4.55511811023622
 20
3.646653543307086
 30
0.0
 11
4.554133858267716
 21
3.651574803149606
 31
0.0
  0
POLYLINE
  5
3BD6
330
1E
100
AcDbEntity
  8
0
100
AcDb2dPolyline
 66
     1
 10
0.0
 20
0.0
 30
0.0
  0
VERTEX
  5
3E22
330
3BD6
100
AcDbEntity
  8
0
100
AcDbVertex
100
AcDb2dVertex
 10
4.543307086614173
 20
3.651574803149606
 30
0.0
  0
VERTEX
  5
3E23
330
3BD6
100
AcDbEntity
  8
0
100
AcDbVertex
100
AcDb2dVertex
 10
4.5501968503937
 20
3.651574803149606
 30
0.0
  0
VERTEX
  5
3E24
330
3BD6
100
AcDbEntity
  8
0
100
AcDbVertex
100
AcDb2dVertex
 10
4.554133858267716
 20
3.651574803149606
 30
0.0
  0
SEQEND
  5
3E25
330
3BD6
100
AcDbEntity
  8
0
  0
POLYLINE
  5
3BDB
330
1E
100
AcDbEntity
  8
0
100
AcDb2dPolyline
 66
     1
 10
0.0
 20
0.0
 30
0.0
  0
VERTEX
  5
3E26
330
3BDB
100
AcDbEntity
  8
0
100
AcDbVertex
100
AcDb2dVertex
 10
4.554133858267716
 20
3.743110236220472
 30
0.0
  0
VERTEX
  5
3E27
330
3BDB
100
AcDbEntity
  8
0
100
AcDbVertex
100
AcDb2dVertex
 10
4.5501968503937
 20
3.742125984251968
 30
0.0
  0
VERTEX
  5
3E28
330
3BDB
100
AcDbEntity
  8
0
100
AcDbVertex
100
AcDb2dVertex
 10
4.543307086614173
 20
3.742125984251968
 30
0.0
  0
SEQEND
  5
3E29
330
3BDB
100
AcDbEntity
  8
0
  0
LINE
  5
3BE0
330
1E
100
AcDbEntity
  8
0
100
AcDbLine
 10
4.543307086614173
 20
3.651574803149606
 30
0.0
 11
4.543307086614173
 21
3.742125984251968
 31
0.0
  0
LINE
  5
3BE1
330
1E
100
AcDbEntity
  8
0
100
AcDbLine
 10
4.516732283464566
 20
3.651574803149606
 30
0.0
 11
4.543307086614173
 21
3.651574803149606
 31
0.0
  0
LINE
  5
3BE2
330
1E
100
AcDbEntity
  8
0
100
AcDbLine
 10
4.543307086614173
 20
3.742125984251968
 30
0.0
 11
4.516732283464566
 21
3.742125984251968
 31
0.0
  0
LINE
  5
3BE3
330
1E
100
AcDbEntity
  8
0
100
AcDbLine
 10
4.516732283464566
 20
3.651574803149606
 30
0.0
 11
4.516732283464566
 21
3.742125984251968
 31
0.0
  0
POLYLINE
  5
3BE4
330
1E
100
AcDbEntity
  8
0
100
AcDb2dPolyline
 66
     1
 10
0.0
 20
0.0
 30
0.0
  0
VERTEX
  5
3E2A
330
3BE4
100
AcDbEntity
  8
0
100
AcDbVertex
100
AcDb2dVertex
 10
4.505905511811023
 20
3.651574803149606
 30
0.0
  0
VERTEX
  5
3E2B
330
3BE4
100
AcDbEntity
  8
0
100
AcDbVertex
100
AcDb2dVertex
 10
4.508858267716535
 20
3.651574803149606
 30
0.0
  0
VERTEX
  5
3E2C
330
3BE4
100
AcDbEntity
  8
0
100
AcDbVertex
100
AcDb2dVertex
 10
4.516732283464566
 20
3.651574803149606
 30
0.0
  0
SEQEND
  5
3E2D
330
3BE4
100
AcDbEntity
  8
0
  0
POLYLINE
  5
3BE9
330
1E
100
AcDbEntity
  8
0
100
AcDb2dPolyline
 66
     1
 10
0.0
 20
0.0
 30
0.0
  0
VERTEX
  5
3E2E
330
3BE9
100
AcDbEntity
  8
0
100
AcDbVertex
100
AcDb2dVertex
 10
4.516732283464566
 20
3.742125984251968
 30
0.0
  0
VERTEX
  5
3E2F
330
3BE9
100
AcDbEntity
  8
0
100
AcDbVertex
100
AcDb2dVertex
 10
4.508858267716535
 20
3.742125984251968
 30
0.0
  0
VERTEX
  5
3E30
330
3BE9
100
AcDbEntity
  8
0
100
AcDbVertex
100
AcDb2dVertex
 10
4.505905511811023
 20
3.743110236220472
 30
0.0
  0
SEQEND
  5
3E31
330
3BE9
100
AcDbEntity
  8
0
  0
LINE
  5
3BEE
330
1E
100
AcDbEntity
  8
0
100
AcDbLine
 10
4.505905511811023
 20
3.651574803149606
 30
0.0
 11
4.505905511811023
 21
3.743110236220472
 31
0.0
  0
LINE
  5
3BEF
330
1E
100
AcDbEntity
  8
0
100
AcDbLine
 10
4.503937007874015
 20
3.882874015748031
 30
0.0
 11
4.614173228346456
 21
3.882874015748031
 31
0.0
  0
LINE
  5
3BF0
330
1E
100
AcDbEntity
  8
0
100
AcDbLine
 10
4.503937007874015
 20
3.843503937007874
 30
0.0
 11
4.614173228346456
 21
3.843503937007874
 31
0.0
  0
LINE
  5
3BF1
330
1E
100
AcDbEntity
  8
0
100
AcDbLine
 10
4.614173228346456
 20
3.843503937007874
 30
0.0
 11
4.614173228346456
 21
3.882874015748031
 31
0.0
  0
LINE
  5
3BF2
330
1E
100
AcDbEntity
  8
0
100
AcDbLine
 10
4.503937007874015
 20
3.749015748031495
 30
0.0
 11
4.505905511811023
 21
3.743110236220472
 31
0.0
  0
LINE
  5
3BF3
330
1E
100
AcDbEntity
  8
0
100
AcDbLine
 10
4.505905511811023
 20
3.651574803149606
 30
0.0
 11
4.503937007874015
 21
3.645669291338582
 31
0.0
  0
LINE
  5
3BF4
330
1E
100
AcDbEntity
  8
0
100
AcDbLine
 10
4.614173228346456
 20
3.949803149606299
 30
0.0
 11
4.658464566929133
 21
3.949803149606299
 31
0.0
  0
LINE
  5
3BF5
330
1E
100
AcDbEntity
  8
0
100
AcDbLine
 10
4.730314960629921
 20
3.721456692913385
 30
0.0
 11
4.730314960629921
 21
3.645669291338582
 31
0.0
  0
LINE
  5
3BF6
330
1E
100
AcDbEntity
  8
0
100
AcDbLine
 10
4.706692913385826
 20
3.645669291338582
 30
0.0
 11
4.706692913385826
 21
3.721456692913385
 31
0.0
  0
LINE
  5
3BF7
330
1E
100
AcDbEntity
  8
0
100
AcDbLine
 10
4.706692913385826
 20
3.645669291338582
 30
0.0
 11
4.690944881889763
 21
3.645669291338582
 31
0.0
  0
LINE
  5
3BF8
330
1E
100
AcDbEntity
  8
0
100
AcDbLine
 10
4.690944881889763
 20
3.721456692913385
 30
0.0
 11
4.690944881889763
 21
3.645669291338582
 31
0.0
  0
LINE
  5
3BF9
330
1E
100
AcDbEntity
  8
0
100
AcDbLine
 10
4.666338582677165
 20
3.645669291338582
 30
0.0
 11
4.666338582677165
 21
3.721456692913385
 31
0.0
  0
LINE
  5
3BFA
330
1E
100
AcDbEntity
  8
0
100
AcDbLine
 10
4.666338582677165
 20
3.645669291338582
 30
0.0
 11
4.650590551181101
 21
3.645669291338582
 31
0.0
  0
LINE
  5
3BFB
330
1E
100
AcDbEntity
  8
0
100
AcDbLine
 10
4.650590551181101
 20
3.721456692913385
 30
0.0
 11
4.650590551181101
 21
3.645669291338582
 31
0.0
  0
LINE
  5
3BFC
330
1E
100
AcDbEntity
  8
0
100
AcDbLine
 10
4.625984251968503
 20
3.645669291338582
 30
0.0
 11
4.625984251968503
 21
3.721456692913385
 31
0.0
  0
LINE
  5
3BFD
330
1E
100
AcDbEntity
  8
0
100
AcDbLine
 10
4.625984251968503
 20
3.645669291338582
 30
0.0
 11
4.61023622047244
 21
3.645669291338582
 31
0.0
  0
LINE
  5
3BFE
330
1E
100
AcDbEntity
  8
0
100
AcDbLine
 10
4.61023622047244
 20
3.721456692913385
 30
0.0
 11
4.61023622047244
 21
3.645669291338582
 31
0.0
  0
LINE
  5
3BFF
330
1E
100
AcDbEntity
  8
0
100
AcDbLine
 10
4.585629921259842
 20
3.645669291338582
 30
0.0
 11
4.585629921259842
 21
3.721456692913385
 31
0.0
  0
LINE
  5
3C00
330
1E
100
AcDbEntity
  8
0
100
AcDbLine
 10
4.585629921259842
 20
3.645669291338582
 30
0.0
 11
4.570866141732283
 21
3.645669291338582
 31
0.0
  0
POLYLINE
  5
3C01
330
1E
100
AcDbEntity
  8
0
100
AcDb2dPolyline
 66
     1
 10
0.0
 20
0.0
 30
0.0
  0
VERTEX
  5
3E32
330
3C01
100
AcDbEntity
  8
0
100
AcDbVertex
100
AcDb2dVertex
 10
4.570866141732283
 20
3.645669291338582
 30
0.0
  0
VERTEX
  5
3E33
330
3C01
100
AcDbEntity
  8
0
100
AcDbVertex
100
AcDb2dVertex
 10
4.560039370078739
 20
3.645669291338582
 30
0.0
  0
VERTEX
  5
3E34
330
3C01
100
AcDbEntity
  8
0
100
AcDbVertex
100
AcDb2dVertex
 10
4.55511811023622
 20
3.646653543307086
 30
0.0
  0
SEQEND
  5
3E35
330
3C01
100
AcDbEntity
  8
0
  0
LINE
  5
3C06
330
1E
100
AcDbEntity
  8
0
100
AcDbLine
 10
4.570866141732283
 20
3.645669291338582
 30
0.0
 11
4.570866141732283
 21
3.749015748031495
 31
0.0
  0
POLYLINE
  5
3C07
330
1E
100
AcDbEntity
  8
0
100
AcDb2dPolyline
 66
     1
 10
0.0
 20
0.0
 30
0.0
  0
VERTEX
  5
3E36
330
3C07
100
AcDbEntity
  8
0
100
AcDbVertex
100
AcDb2dVertex
 10
4.55511811023622
 20
3.747047244094487
 30
0.0
  0
VERTEX
  5
3E37
330
3C07
100
AcDbEntity
  8
0
100
AcDbVertex
100
AcDb2dVertex
 10
4.560039370078739
 20
3.748031496062992
 30
0.0
  0
VERTEX
  5
3E38
330
3C07
100
AcDbEntity
  8
0
100
AcDbVertex
100
AcDb2dVertex
 10
4.570866141732283
 20
3.749015748031495
 30
0.0
  0
SEQEND
  5
3E39
330
3C07
100
AcDbEntity
  8
0
  0
LINE
  5
3C0C
330
1E
100
AcDbEntity
  8
0
100
AcDbLine
 10
4.503937007874015
 20
3.749015748031495
 30
0.0
 11
4.570866141732283
 21
3.749015748031495
 31
0.0
  0
POLYLINE
  5
3C0D
330
1E
100
AcDbEntity
  8
0
100
AcDb2dPolyline
 66
     1
 10
0.0
 20
0.0
 30
0.0
  0
VERTEX
  5
3E3A
330
3C0D
100
AcDbEntity
  8
0
100
AcDbVertex
100
AcDb2dVertex
 10
4.628937007874015
 20
3.979330708661417
 30
0.0
  0
VERTEX
  5
3E3B
330
3C0D
100
AcDbEntity
  8
0
100
AcDbVertex
100
AcDb2dVertex
 10
4.639763779527559
 20
3.96751968503937
 30
0.0
  0
VERTEX
  5
3E3C
330
3C0D
100
AcDbEntity
  8
0
100
AcDbVertex
100
AcDb2dVertex
 10
4.649606299212598
 20
3.95767716535433
 30
0.0
  0
VERTEX
  5
3E3D
330
3C0D
100
AcDbEntity
  8
0
100
AcDbVertex
100
AcDb2dVertex
 10
4.656496062992125
 20
3.951771653543307
 30
0.0
  0
VERTEX
  5
3E3E
330
3C0D
100
AcDbEntity
  8
0
100
AcDbVertex
100
AcDb2dVertex
 10
4.658464566929133
 20
3.949803149606299
 30
0.0
  0
SEQEND
  5
3E3F
330
3C0D
100
AcDbEntity
  8
0
  0
LINE
  5
3C14
330
1E
100
AcDbEntity
  8
0
100
AcDbLine
 10
4.628937007874015
 20
3.979330708661417
 30
0.0
 11
4.584645669291338
 21
3.979330708661417
 31
0.0
  0
POLYLINE
  5
3C15
330
1E
100
AcDbEntity
  8
0
100
AcDb2dPolyline
 66
     1
 10
0.0
 20
0.0
 30
0.0
  0
VERTEX
  5
3E40
330
3C15
100
AcDbEntity
  8
0
100
AcDbVertex
100
AcDb2dVertex
 10
4.584645669291338
 20
3.979330708661417
 30
0.0
  0
VERTEX
  5
3E41
330
3C15
100
AcDbEntity
  8
0
100
AcDbVertex
100
AcDb2dVertex
 10
4.595472440944881
 20
3.96751968503937
 30
0.0
  0
VERTEX
  5
3E42
330
3C15
100
AcDbEntity
  8
0
100
AcDbVertex
100
AcDb2dVertex
 10
4.605314960629921
 20
3.95767716535433
 30
0.0
  0
VERTEX
  5
3E43
330
3C15
100
AcDbEntity
  8
0
100
AcDbVertex
100
AcDb2dVertex
 10
4.612204724409449
 20
3.951771653543307
 30
0.0
  0
VERTEX
  5
3E44
330
3C15
100
AcDbEntity
  8
0
100
AcDbVertex
100
AcDb2dVertex
 10
4.614173228346456
 20
3.949803149606299
 30
0.0
  0
SEQEND
  5
3E45
330
3C15
100
AcDbEntity
  8
0
  0
LINE
  5
3C1C
330
1E
100
AcDbEntity
  8
0
100
AcDbLine
 10
4.584645669291338
 20
3.979330708661417
 30
0.0
 11
4.584645669291338
 21
3.913385826771653
 31
0.0
  0
POLYLINE
  5
3C1D
330
1E
100
AcDbEntity
  8
0
100
AcDb2dPolyline
 66
     1
 10
0.0
 20
0.0
 30
0.0
  0
VERTEX
  5
3E46
330
3C1D
100
AcDbEntity
  8
0
100
AcDbVertex
100
AcDb2dVertex
 10
4.584645669291338
 20
3.913385826771653
 30
0.0
  0
VERTEX
  5
3E47
330
3C1D
100
AcDbEntity
  8
0
100
AcDbVertex
100
AcDb2dVertex
 10
4.595472440944881
 20
3.901574803149605
 30
0.0
  0
VERTEX
  5
3E48
330
3C1D
100
AcDbEntity
  8
0
100
AcDbVertex
100
AcDb2dVertex
 10
4.605314960629921
 20
3.891732283464566
 30
0.0
  0
VERTEX
  5
3E49
330
3C1D
100
AcDbEntity
  8
0
100
AcDbVertex
100
AcDb2dVertex
 10
4.612204724409449
 20
3.885826771653542
 30
0.0
  0
VERTEX
  5
3E4A
330
3C1D
100
AcDbEntity
  8
0
100
AcDbVertex
100
AcDb2dVertex
 10
4.614173228346456
 20
3.882874015748031
 30
0.0
  0
SEQEND
  5
3E4B
330
3C1D
100
AcDbEntity
  8
0
  0
LINE
  5
3C24
330
1E
100
AcDbEntity
  8
0
100
AcDbLine
 10
4.614173228346456
 20
3.882874015748031
 30
0.0
 11
4.614173228346456
 21
3.949803149606299
 31
0.0
  0
LINE
  5
3C25
330
1E
100
AcDbEntity
  8
0
100
AcDbLine
 10
4.584645669291338
 20
3.913385826771653
 30
0.0
 11
4.474409448818897
 21
3.913385826771653
 31
0.0
  0
POLYLINE
  5
3C26
330
1E
100
AcDbEntity
  8
0
100
AcDb2dPolyline
 66
     1
 10
0.0
 20
0.0
 30
0.0
  0
VERTEX
  5
3E4C
330
3C26
100
AcDbEntity
  8
0
100
AcDbVertex
100
AcDb2dVertex
 10
4.503937007874015
 20
3.882874015748031
 30
0.0
  0
VERTEX
  5
3E4D
330
3C26
100
AcDbEntity
  8
0
100
AcDbVertex
100
AcDb2dVertex
 10
4.501968503937007
 20
3.885826771653542
 30
0.0
  0
VERTEX
  5
3E4E
330
3C26
100
AcDbEntity
  8
0
100
AcDbVertex
100
AcDb2dVertex
 10
4.49507874015748
 20
3.891732283464566
 30
0.0
  0
VERTEX
  5
3E4F
330
3C26
100
AcDbEntity
  8
0
100
AcDbVertex
100
AcDb2dVertex
 10
4.48523622047244
 20
3.901574803149605
 30
0.0
  0
VERTEX
  5
3E50
330
3C26
100
AcDbEntity
  8
0
100
AcDbVertex
100
AcDb2dVertex
 10
4.474409448818897
 20
3.913385826771653
 30
0.0
  0
SEQEND
  5
3E51
330
3C26
100
AcDbEntity
  8
0
  0
POLYLINE
  5
3C2D
330
1E
100
AcDbEntity
  8
0
100
AcDb2dPolyline
 66
     1
 10
0.0
 20
0.0
 30
0.0
  0
VERTEX
  5
3E52
330
3C2D
100
AcDbEntity
  8
0
100
AcDbVertex
100
AcDb2dVertex
 10
4.503937007874015
 20
3.614173228346456
 30
0.0
  0
VERTEX
  5
3E53
330
3C2D
100
AcDbEntity
  8
0
100
AcDbVertex
100
AcDb2dVertex
 10
4.501968503937007
 20
3.612204724409448
 30
0.0
  0
VERTEX
  5
3E54
330
3C2D
100
AcDbEntity
  8
0
100
AcDbVertex
100
AcDb2dVertex
 10
4.49507874015748
 20
3.605314960629921
 30
0.0
  0
VERTEX
  5
3E55
330
3C2D
100
AcDbEntity
  8
0
100
AcDbVertex
100
AcDb2dVertex
 10
4.48523622047244
 20
3.595472440944881
 30
0.0
  0
VERTEX
  5
3E56
330
3C2D
100
AcDbEntity
  8
0
100
AcDbVertex
100
AcDb2dVertex
 10
4.474409448818897
 20
3.584645669291338
 30
0.0
  0
SEQEND
  5
3E57
330
3C2D
100
AcDbEntity
  8
0
  0
LINE
  5
3C34
330
1E
100
AcDbEntity
  8
0
100
AcDbLine
 10
4.503937007874015
 20
3.614173228346456
 30
0.0
 11
4.503937007874015
 21
3.882874015748031
 31
0.0
  0
LINE
  5
3C35
330
1E
100
AcDbEntity
  8
0
100
AcDbLine
 10
4.474409448818897
 20
3.913385826771653
 30
0.0
 11
4.474409448818897
 21
3.584645669291338
 31
0.0
  0
LINE
  5
3C36
330
1E
100
AcDbEntity
  8
0
100
AcDbLine
 10
4.575787401574802
 20
3.768700787401574
 30
0.0
 11
4.575787401574802
 21
3.801181102362204
 31
0.0
  0
LINE
  5
3C37
330
1E
100
AcDbEntity
  8
0
100
AcDbLine
 10
4.575787401574802
 20
3.749015748031495
 30
0.0
 11
4.575787401574802
 21
3.768700787401574
 31
0.0
  0
LINE
  5
3C38
330
1E
100
AcDbEntity
  8
0
100
AcDbLine
 10
4.503937007874015
 20
3.768700787401574
 30
0.0
 11
4.575787401574802
 21
3.768700787401574
 31
0.0
  0
LINE
  5
3C39
330
1E
100
AcDbEntity
  8
0
100
AcDbLine
 10
4.503937007874015
 20
3.801181102362204
 30
0.0
 11
4.575787401574802
 21
3.801181102362204
 31
0.0
  0
LINE
  5
3C3A
330
1E
100
AcDbEntity
  8
0
100
AcDbLine
 10
4.658464566929133
 20
3.949803149606299
 30
0.0
 11
4.658464566929133
 21
4.016732283464566
 31
0.0
  0
LINE
  5
3C3B
330
1E
100
AcDbEntity
  8
0
100
AcDbLine
 10
4.628937007874015
 20
4.025590551181101
 30
0.0
 11
4.628937007874015
 21
3.979330708661417
 31
0.0
  0
POLYLINE
  5
3C3C
330
1E
100
AcDbEntity
  8
0
100
AcDb2dPolyline
 66
     1
 10
0.0
 20
0.0
 30
0.0
  0
VERTEX
  5
3E58
330
3C3C
100
AcDbEntity
  8
0
100
AcDbVertex
100
AcDb2dVertex
 10
4.628937007874015
 20
4.025590551181101
 30
0.0
  0
VERTEX
  5
3E59
330
3C3C
100
AcDbEntity
  8
0
100
AcDbVertex
100
AcDb2dVertex
 10
4.643700787401574
 20
4.024606299212598
 30
0.0
  0
VERTEX
  5
3E5A
330
3C3C
100
AcDbEntity
  8
0
100
AcDbVertex
100
AcDb2dVertex
 10
4.654527559055117
 20
4.021653543307086
 30
0.0
  0
VERTEX
  5
3E5B
330
3C3C
100
AcDbEntity
  8
0
100
AcDbVertex
100
AcDb2dVertex
 10
4.658464566929133
 20
4.016732283464566
 30
0.0
  0
SEQEND
  5
3E5C
330
3C3C
100
AcDbEntity
  8
0
  0
LINE
  5
3C42
330
1E
100
AcDbEntity
  8
0
100
AcDbLine
 10
4.818897637795275
 20
4.003937007874015
 30
0.0
 11
4.658464566929133
 21
4.003937007874015
 31
0.0
  0
POLYLINE
  5
3C43
330
1E
100
AcDbEntity
  8
0
100
AcDb2dPolyline
 66
     1
 10
0.0
 20
0.0
 30
0.0
  0
VERTEX
  5
3E5D
330
3C43
100
AcDbEntity
  8
0
100
AcDbVertex
100
AcDb2dVertex
 10
4.848425196850393
 20
4.025590551181101
 30
0.0
  0
VERTEX
  5
3E5E
330
3C43
100
AcDbEntity
  8
0
100
AcDbVertex
100
AcDb2dVertex
 10
4.833661417322834
 20
4.024606299212598
 30
0.0
  0
VERTEX
  5
3E5F
330
3C43
100
AcDbEntity
  8
0
100
AcDbVertex
100
AcDb2dVertex
 10
4.822834645669291
 20
4.021653543307086
 30
0.0
  0
VERTEX
  5
3E60
330
3C43
100
AcDbEntity
  8
0
100
AcDbVertex
100
AcDb2dVertex
 10
4.818897637795275
 20
4.016732283464566
 30
0.0
  0
SEQEND
  5
3E61
330
3C43
100
AcDbEntity
  8
0
  0
LINE
  5
3C49
330
1E
100
AcDbEntity
  8
0
100
AcDbLine
 10
4.628937007874015
 20
4.025590551181101
 30
0.0
 11
4.848425196850393
 21
4.025590551181101
 31
0.0
  0
LINE
  5
3C4A
330
1E
100
AcDbEntity
  8
0
100
AcDbLine
 10
4.503937007874015
 20
3.614173228346456
 30
0.0
 11
4.973425196850393
 21
3.614173228346456
 31
0.0
  0
LINE
  5
3C4B
330
1E
100
AcDbEntity
  8
0
100
AcDbLine
 10
4.503937007874015
 20
3.614173228346456
 30
0.0
 11
4.973425196850393
 21
3.614173228346456
 31
0.0
  0
LINE
  5
3C4C
330
1E
100
AcDbEntity
  8
0
100
AcDbLine
 10
4.474409448818897
 20
3.584645669291338
 30
0.0
 11
5.002952755905512
 21
3.584645669291338
 31
0.0
  0
POLYLINE
  5
3C4D
330
1E
100
AcDbEntity
  8
0
100
AcDb2dPolyline
 66
     1
 10
0.0
 20
0.0
 30
0.0
  0
VERTEX
  5
3E62
330
3C4D
100
AcDbEntity
  8
0
100
AcDbVertex
100
AcDb2dVertex
 10
5.002952755905512
 20
3.584645669291338
 30
0.0
  0
VERTEX
  5
3E63
330
3C4D
100
AcDbEntity
  8
0
100
AcDbVertex
100
AcDb2dVertex
 10
4.991141732283464
 20
3.595472440944881
 30
0.0
  0
VERTEX
  5
3E64
330
3C4D
100
AcDbEntity
  8
0
100
AcDbVertex
100
AcDb2dVertex
 10
4.981299212598425
 20
3.605314960629921
 30
0.0
  0
VERTEX
  5
3E65
330
3C4D
100
AcDbEntity
  8
0
100
AcDbVertex
100
AcDb2dVertex
 10
4.975393700787401
 20
3.612204724409448
 30
0.0
  0
VERTEX
  5
3E66
330
3C4D
100
AcDbEntity
  8
0
100
AcDbVertex
100
AcDb2dVertex
 10
4.973425196850393
 20
3.614173228346456
 30
0.0
  0
SEQEND
  5
3E67
330
3C4D
100
AcDbEntity
  8
0
  0
LINE
  5
3C54
330
1E
100
AcDbEntity
  8
0
100
AcDbLine
 10
4.848425196850393
 20
4.025590551181101
 30
0.0
 11
4.848425196850393
 21
3.979330708661417
 31
0.0
  0
LINE
  5
3C55
330
1E
100
AcDbEntity
  8
0
100
AcDbLine
 10
4.848425196850393
 20
3.979330708661417
 30
0.0
 11
4.89271653543307
 21
3.979330708661417
 31
0.0
  0
LINE
  5
3C56
330
1E
100
AcDbEntity
  8
0
100
AcDbLine
 10
4.89271653543307
 20
3.979330708661417
 30
0.0
 11
4.89271653543307
 21
3.913385826771653
 31
0.0
  0
LINE
  5
3C57
330
1E
100
AcDbEntity
  8
0
100
AcDbLine
 10
4.89271653543307
 20
3.913385826771653
 30
0.0
 11
5.002952755905512
 21
3.913385826771653
 31
0.0
  0
LINE
  5
3C58
330
1E
100
AcDbEntity
  8
0
100
AcDbLine
 10
5.002952755905512
 20
3.913385826771653
 30
0.0
 11
5.002952755905512
 21
3.584645669291338
 31
0.0
  0
LINE
  5
3C59
330
1E
100
AcDbEntity
  8
0
100
AcDbLine
 10
4.901574803149606
 20
3.768700787401574
 30
0.0
 11
4.575787401574802
 21
3.768700787401574
 31
0.0
  0
LINE
  5
3C5A
330
1E
100
AcDbEntity
  8
0
100
AcDbLine
 10
4.973425196850393
 20
3.801181102362204
 30
0.0
 11
4.901574803149606
 21
3.801181102362204
 31
0.0
  0
LINE
  5
3C5B
330
1E
100
AcDbEntity
  8
0
100
AcDbLine
 10
4.973425196850393
 20
3.813976377952755
 30
0.0
 11
4.503937007874015
 21
3.813976377952755
 31
0.0
  0
LINE
  5
3C5C
330
1E
100
AcDbEntity
  8
0
100
AcDbLine
 10
4.901574803149606
 20
3.749015748031495
 30
0.0
 11
4.575787401574802
 21
3.749015748031495
 31
0.0
  0
LINE
  5
3C5D
330
1E
100
AcDbEntity
  8
0
100
AcDbLine
 10
4.614173228346456
 20
3.907480314960629
 30
0.0
 11
4.862204724409449
 21
3.907480314960629
 31
0.0
  0
LINE
  5
3C5E
330
1E
100
AcDbEntity
  8
0
100
AcDbLine
 10
4.746062992125984
 20
3.645669291338582
 30
0.0
 11
4.730314960629921
 21
3.645669291338582
 31
0.0
  0
LINE
  5
3C5F
330
1E
100
AcDbEntity
  8
0
100
AcDbLine
 10
4.746062992125984
 20
3.721456692913385
 30
0.0
 11
4.746062992125984
 21
3.645669291338582
 31
0.0
  0
LINE
  5
3C60
330
1E
100
AcDbEntity
  8
0
100
AcDbLine
 10
4.746062992125984
 20
3.721456692913385
 30
0.0
 11
4.749015748031496
 21
3.721456692913385
 31
0.0
  0
LINE
  5
3C61
330
1E
100
AcDbEntity
  8
0
100
AcDbLine
 10
4.76771653543307
 20
3.721456692913385
 30
0.0
 11
4.770669291338582
 21
3.721456692913385
 31
0.0
  0
LINE
  5
3C62
330
1E
100
AcDbEntity
  8
0
100
AcDbLine
 10
4.770669291338582
 20
3.645669291338582
 30
0.0
 11
4.770669291338582
 21
3.721456692913385
 31
0.0
  0
LINE
  5
3C63
330
1E
100
AcDbEntity
  8
0
100
AcDbLine
 10
4.786417322834645
 20
3.645669291338582
 30
0.0
 11
4.770669291338582
 21
3.645669291338582
 31
0.0
  0
LINE
  5
3C64
330
1E
100
AcDbEntity
  8
0
100
AcDbLine
 10
4.786417322834645
 20
3.721456692913385
 30
0.0
 11
4.786417322834645
 21
3.645669291338582
 31
0.0
  0
LINE
  5
3C65
330
1E
100
AcDbEntity
  8
0
100
AcDbLine
 10
4.786417322834645
 20
3.721456692913385
 30
0.0
 11
4.789370078740157
 21
3.721456692913385
 31
0.0
  0
LINE
  5
3C66
330
1E
100
AcDbEntity
  8
0
100
AcDbLine
 10
4.807086614173228
 20
3.721456692913385
 30
0.0
 11
4.810039370078739
 21
3.721456692913385
 31
0.0
  0
LINE
  5
3C67
330
1E
100
AcDbEntity
  8
0
100
AcDbLine
 10
4.810039370078739
 20
3.645669291338582
 30
0.0
 11
4.810039370078739
 21
3.721456692913385
 31
0.0
  0
LINE
  5
3C68
330
1E
100
AcDbEntity
  8
0
100
AcDbLine
 10
4.826771653543307
 20
3.645669291338582
 30
0.0
 11
4.810039370078739
 21
3.645669291338582
 31
0.0
  0
LINE
  5
3C69
330
1E
100
AcDbEntity
  8
0
100
AcDbLine
 10
4.826771653543307
 20
3.721456692913385
 30
0.0
 11
4.826771653543307
 21
3.645669291338582
 31
0.0
  0
LINE
  5
3C6A
330
1E
100
AcDbEntity
  8
0
100
AcDbLine
 10
4.826771653543307
 20
3.721456692913385
 30
0.0
 11
4.829724409448818
 21
3.721456692913385
 31
0.0
  0
LINE
  5
3C6B
330
1E
100
AcDbEntity
  8
0
100
AcDbLine
 10
4.847440944881889
 20
3.721456692913385
 30
0.0
 11
4.850393700787401
 21
3.721456692913385
 31
0.0
  0
LINE
  5
3C6C
330
1E
100
AcDbEntity
  8
0
100
AcDbLine
 10
4.850393700787401
 20
3.645669291338582
 30
0.0
 11
4.850393700787401
 21
3.721456692913385
 31
0.0
  0
LINE
  5
3C6D
330
1E
100
AcDbEntity
  8
0
100
AcDbLine
 10
4.866141732283464
 20
3.645669291338582
 30
0.0
 11
4.850393700787401
 21
3.645669291338582
 31
0.0
  0
LINE
  5
3C6E
330
1E
100
AcDbEntity
  8
0
100
AcDbLine
 10
4.866141732283464
 20
3.721456692913385
 30
0.0
 11
4.866141732283464
 21
3.645669291338582
 31
0.0
  0
LINE
  5
3C6F
330
1E
100
AcDbEntity
  8
0
100
AcDbLine
 10
4.866141732283464
 20
3.721456692913385
 30
0.0
 11
4.869094488188975
 21
3.721456692913385
 31
0.0
  0
LINE
  5
3C70
330
1E
100
AcDbEntity
  8
0
100
AcDbLine
 10
4.88779527559055
 20
3.721456692913385
 30
0.0
 11
4.890748031496062
 21
3.721456692913385
 31
0.0
  0
LINE
  5
3C71
330
1E
100
AcDbEntity
  8
0
100
AcDbLine
 10
4.890748031496062
 20
3.645669291338582
 30
0.0
 11
4.890748031496062
 21
3.721456692913385
 31
0.0
  0
LINE
  5
3C72
330
1E
100
AcDbEntity
  8
0
100
AcDbLine
 10
4.906496062992125
 20
3.645669291338582
 30
0.0
 11
4.890748031496062
 21
3.645669291338582
 31
0.0
  0
LINE
  5
3C73
330
1E
100
AcDbEntity
  8
0
100
AcDbLine
 10
4.906496062992125
 20
3.645669291338582
 30
0.0
 11
4.906496062992125
 21
3.749015748031495
 31
0.0
  0
LINE
  5
3C74
330
1E
100
AcDbEntity
  8
0
100
AcDbLine
 10
4.973425196850393
 20
3.749015748031495
 30
0.0
 11
4.906496062992125
 21
3.749015748031495
 31
0.0
  0
LINE
  5
3C75
330
1E
100
AcDbEntity
  8
0
100
AcDbLine
 10
4.973425196850393
 20
3.768700787401574
 30
0.0
 11
4.901574803149606
 21
3.768700787401574
 31
0.0
  0
LINE
  5
3C76
330
1E
100
AcDbEntity
  8
0
100
AcDbLine
 10
4.901574803149606
 20
3.749015748031495
 30
0.0
 11
4.901574803149606
 21
3.768700787401574
 31
0.0
  0
LINE
  5
3C77
330
1E
100
AcDbEntity
  8
0
100
AcDbLine
 10
4.61023622047244
 20
3.721456692913385
 30
0.0
 11
4.607283464566928
 21
3.721456692913385
 31
0.0
  0
LINE
  5
3C78
330
1E
100
AcDbEntity
  8
0
100
AcDbLine
 10
4.589566929133858
 20
3.721456692913385
 30
0.0
 11
4.585629921259842
 21
3.721456692913385
 31
0.0
  0
LINE
  5
3C79
330
1E
100
AcDbEntity
  8
0
100
AcDbLine
 10
4.650590551181101
 20
3.721456692913385
 30
0.0
 11
4.64763779527559
 21
3.721456692913385
 31
0.0
  0
LINE
  5
3C7A
330
1E
100
AcDbEntity
  8
0
100
AcDbLine
 10
4.629921259842519
 20
3.721456692913385
 30
0.0
 11
4.625984251968503
 21
3.721456692913385
 31
0.0
  0
LINE
  5
3C7B
330
1E
100
AcDbEntity
  8
0
100
AcDbLine
 10
4.690944881889763
 20
3.721456692913385
 30
0.0
 11
4.687007874015748
 21
3.721456692913385
 31
0.0
  0
LINE
  5
3C7C
330
1E
100
AcDbEntity
  8
0
100
AcDbLine
 10
4.669291338582676
 20
3.721456692913385
 30
0.0
 11
4.666338582677165
 21
3.721456692913385
 31
0.0
  0
LINE
  5
3C7D
330
1E
100
AcDbEntity
  8
0
100
AcDbLine
 10
4.730314960629921
 20
3.721456692913385
 30
0.0
 11
4.727362204724409
 21
3.721456692913385
 31
0.0
  0
LINE
  5
3C7E
330
1E
100
AcDbEntity
  8
0
100
AcDbLine
 10
4.709645669291338
 20
3.721456692913385
 30
0.0
 11
4.706692913385826
 21
3.721456692913385
 31
0.0
  0
LINE
  5
3C7F
330
1E
100
AcDbEntity
  8
0
100
AcDbLine
 10
4.818897637795275
 20
3.949803149606299
 30
0.0
 11
4.818897637795275
 21
4.016732283464566
 31
0.0
  0
LINE
  5
3C80
330
1E
100
AcDbEntity
  8
0
100
AcDbLine
 10
4.973425196850393
 20
3.645669291338582
 30
0.0
 11
4.970472440944881
 21
3.651574803149606
 31
0.0
  0
POLYLINE
  5
3C81
330
1E
100
AcDbEntity
  8
0
100
AcDb2dPolyline
 66
     1
 10
0.0
 20
0.0
 30
0.0
  0
VERTEX
  5
3E68
330
3C81
100
AcDbEntity
  8
0
100
AcDbVertex
100
AcDb2dVertex
 10
4.960629921259842
 20
3.651574803149606
 30
0.0
  0
VERTEX
  5
3E69
330
3C81
100
AcDbEntity
  8
0
100
AcDbVertex
100
AcDb2dVertex
 10
4.96751968503937
 20
3.651574803149606
 30
0.0
  0
VERTEX
  5
3E6A
330
3C81
100
AcDbEntity
  8
0
100
AcDbVertex
100
AcDb2dVertex
 10
4.970472440944881
 20
3.651574803149606
 30
0.0
  0
SEQEND
  5
3E6B
330
3C81
100
AcDbEntity
  8
0
  0
LINE
  5
3C86
330
1E
100
AcDbEntity
  8
0
100
AcDbLine
 10
4.933070866141732
 20
3.651574803149606
 30
0.0
 11
4.960629921259842
 21
3.651574803149606
 31
0.0
  0
POLYLINE
  5
3C87
330
1E
100
AcDbEntity
  8
0
100
AcDb2dPolyline
 66
     1
 10
0.0
 20
0.0
 30
0.0
  0
VERTEX
  5
3E6C
330
3C87
100
AcDbEntity
  8
0
100
AcDbVertex
100
AcDb2dVertex
 10
4.923228346456692
 20
3.651574803149606
 30
0.0
  0
VERTEX
  5
3E6D
330
3C87
100
AcDbEntity
  8
0
100
AcDbVertex
100
AcDb2dVertex
 10
4.926181102362204
 20
3.651574803149606
 30
0.0
  0
VERTEX
  5
3E6E
330
3C87
100
AcDbEntity
  8
0
100
AcDbVertex
100
AcDb2dVertex
 10
4.933070866141732
 20
3.651574803149606
 30
0.0
  0
SEQEND
  5
3E6F
330
3C87
100
AcDbEntity
  8
0
  0
LINE
  5
3C8C
330
1E
100
AcDbEntity
  8
0
100
AcDbLine
 10
4.923228346456692
 20
3.651574803149606
 30
0.0
 11
4.921259842519685
 21
3.646653543307086
 31
0.0
  0
POLYLINE
  5
3C8D
330
1E
100
AcDbEntity
  8
0
100
AcDb2dPolyline
 66
     1
 10
0.0
 20
0.0
 30
0.0
  0
VERTEX
  5
3E70
330
3C8D
100
AcDbEntity
  8
0
100
AcDbVertex
100
AcDb2dVertex
 10
4.921259842519685
 20
3.646653543307086
 30
0.0
  0
VERTEX
  5
3E71
330
3C8D
100
AcDbEntity
  8
0
100
AcDbVertex
100
AcDb2dVertex
 10
4.917322834645669
 20
3.645669291338582
 30
0.0
  0
VERTEX
  5
3E72
330
3C8D
100
AcDbEntity
  8
0
100
AcDbVertex
100
AcDb2dVertex
 10
4.906496062992125
 20
3.645669291338582
 30
0.0
  0
SEQEND
  5
3E73
330
3C8D
100
AcDbEntity
  8
0
  0
LINE
  5
3C92
330
1E
100
AcDbEntity
  8
0
100
AcDbLine
 10
4.973425196850393
 20
3.882874015748031
 30
0.0
 11
4.862204724409449
 21
3.882874015748031
 31
0.0
  0
POLYLINE
  5
3C93
330
1E
100
AcDbEntity
  8
0
100
AcDb2dPolyline
 66
     1
 10
0.0
 20
0.0
 30
0.0
  0
VERTEX
  5
3E74
330
3C93
100
AcDbEntity
  8
0
100
AcDbVertex
100
AcDb2dVertex
 10
4.848425196850393
 20
3.979330708661417
 30
0.0
  0
VERTEX
  5
3E75
330
3C93
100
AcDbEntity
  8
0
100
AcDbVertex
100
AcDb2dVertex
 10
4.836614173228346
 20
3.96751968503937
 30
0.0
  0
VERTEX
  5
3E76
330
3C93
100
AcDbEntity
  8
0
100
AcDbVertex
100
AcDb2dVertex
 10
4.826771653543307
 20
3.95767716535433
 30
0.0
  0
VERTEX
  5
3E77
330
3C93
100
AcDbEntity
  8
0
100
AcDbVertex
100
AcDb2dVertex
 10
4.820866141732283
 20
3.951771653543307
 30
0.0
  0
VERTEX
  5
3E78
330
3C93
100
AcDbEntity
  8
0
100
AcDbVertex
100
AcDb2dVertex
 10
4.818897637795275
 20
3.949803149606299
 30
0.0
  0
SEQEND
  5
3E79
330
3C93
100
AcDbEntity
  8
0
  0
LINE
  5
3C9A
330
1E
100
AcDbEntity
  8
0
100
AcDbLine
 10
4.862204724409449
 20
3.949803149606299
 30
0.0
 11
4.818897637795275
 21
3.949803149606299
 31
0.0
  0
POLYLINE
  5
3C9B
330
1E
100
AcDbEntity
  8
0
100
AcDb2dPolyline
 66
     1
 10
0.0
 20
0.0
 30
0.0
  0
VERTEX
  5
3E7A
330
3C9B
100
AcDbEntity
  8
0
100
AcDbVertex
100
AcDb2dVertex
 10
4.89271653543307
 20
3.979330708661417
 30
0.0
  0
VERTEX
  5
3E7B
330
3C9B
100
AcDbEntity
  8
0
100
AcDbVertex
100
AcDb2dVertex
 10
4.880905511811023
 20
3.96751968503937
 30
0.0
  0
VERTEX
  5
3E7C
330
3C9B
100
AcDbEntity
  8
0
100
AcDbVertex
100
AcDb2dVertex
 10
4.871062992125984
 20
3.95767716535433
 30
0.0
  0
VERTEX
  5
3E7D
330
3C9B
100
AcDbEntity
  8
0
100
AcDbVertex
100
AcDb2dVertex
 10
4.86515748031496
 20
3.951771653543307
 30
0.0
  0
VERTEX
  5
3E7E
330
3C9B
100
AcDbEntity
  8
0
100
AcDbVertex
100
AcDb2dVertex
 10
4.862204724409449
 20
3.949803149606299
 30
0.0
  0
SEQEND
  5
3E7F
330
3C9B
100
AcDbEntity
  8
0
  0
LINE
  5
3CA2
330
1E
100
AcDbEntity
  8
0
100
AcDbLine
 10
4.862204724409449
 20
3.882874015748031
 30
0.0
 11
4.862204724409449
 21
3.949803149606299
 31
0.0
  0
POLYLINE
  5
3CA3
330
1E
100
AcDbEntity
  8
0
100
AcDb2dPolyline
 66
     1
 10
0.0
 20
0.0
 30
0.0
  0
VERTEX
  5
3E80
330
3CA3
100
AcDbEntity
  8
0
100
AcDbVertex
100
AcDb2dVertex
 10
4.89271653543307
 20
3.913385826771653
 30
0.0
  0
VERTEX
  5
3E81
330
3CA3
100
AcDbEntity
  8
0
100
AcDbVertex
100
AcDb2dVertex
 10
4.880905511811023
 20
3.901574803149605
 30
0.0
  0
VERTEX
  5
3E82
330
3CA3
100
AcDbEntity
  8
0
100
AcDbVertex
100
AcDb2dVertex
 10
4.871062992125984
 20
3.891732283464566
 30
0.0
  0
VERTEX
  5
3E83
330
3CA3
100
AcDbEntity
  8
0
100
AcDbVertex
100
AcDb2dVertex
 10
4.86515748031496
 20
3.885826771653542
 30
0.0
  0
VERTEX
  5
3E84
330
3CA3
100
AcDbEntity
  8
0
100
AcDbVertex
100
AcDb2dVertex
 10
4.862204724409449
 20
3.882874015748031
 30
0.0
  0
SEQEND
  5
3E85
330
3CA3
100
AcDbEntity
  8
0
  0
POLYLINE
  5
3CAA
330
1E
100
AcDbEntity
  8
0
100
AcDb2dPolyline
 66
     1
 10
0.0
 20
0.0
 30
0.0
  0
VERTEX
  5
3E86
330
3CAA
100
AcDbEntity
  8
0
100
AcDbVertex
100
AcDb2dVertex
 10
4.973425196850393
 20
3.882874015748031
 30
0.0
  0
VERTEX
  5
3E87
330
3CAA
100
AcDbEntity
  8
0
100
AcDbVertex
100
AcDb2dVertex
 10
4.975393700787401
 20
3.885826771653542
 30
0.0
  0
VERTEX
  5
3E88
330
3CAA
100
AcDbEntity
  8
0
100
AcDbVertex
100
AcDb2dVertex
 10
4.981299212598425
 20
3.891732283464566
 30
0.0
  0
VERTEX
  5
3E89
330
3CAA
100
AcDbEntity
  8
0
100
AcDbVertex
100
AcDb2dVertex
 10
4.991141732283464
 20
3.901574803149605
 30
0.0
  0
VERTEX
  5
3E8A
330
3CAA
100
AcDbEntity
  8
0
100
AcDbVertex
100
AcDb2dVertex
 10
5.002952755905512
 20
3.913385826771653
 30
0.0
  0
SEQEND
  5
3E8B
330
3CAA
100
AcDbEntity
  8
0
  0
LINE
  5
3CB1
330
1E
100
AcDbEntity
  8
0
100
AcDbLine
 10
4.862204724409449
 20
3.843503937007874
 30
0.0
 11
4.862204724409449
 21
3.882874015748031
 31
0.0
  0
LINE
  5
3CB2
330
1E
100
AcDbEntity
  8
0
100
AcDbLine
 10
4.973425196850393
 20
3.843503937007874
 30
0.0
 11
4.862204724409449
 21
3.843503937007874
 31
0.0
  0
LINE
  5
3CB3
330
1E
100
AcDbEntity
  8
0
100
AcDbLine
 10
4.901574803149606
 20
3.768700787401574
 30
0.0
 11
4.901574803149606
 21
3.801181102362204
 31
0.0
  0
POLYLINE
  5
3CB4
330
1E
100
AcDbEntity
  8
0
100
AcDb2dPolyline
 66
     1
 10
0.0
 20
0.0
 30
0.0
  0
VERTEX
  5
3E8C
330
3CB4
100
AcDbEntity
  8
0
100
AcDbVertex
100
AcDb2dVertex
 10
4.960629921259842
 20
3.742125984251968
 30
0.0
  0
VERTEX
  5
3E8D
330
3CB4
100
AcDbEntity
  8
0
100
AcDbVertex
100
AcDb2dVertex
 10
4.96751968503937
 20
3.742125984251968
 30
0.0
  0
VERTEX
  5
3E8E
330
3CB4
100
AcDbEntity
  8
0
100
AcDbVertex
100
AcDb2dVertex
 10
4.970472440944881
 20
3.743110236220472
 30
0.0
  0
SEQEND
  5
3E8F
330
3CB4
100
AcDbEntity
  8
0
  0
LINE
  5
3CB9
330
1E
100
AcDbEntity
  8
0
100
AcDbLine
 10
4.973425196850393
 20
3.749015748031495
 30
0.0
 11
4.970472440944881
 21
3.743110236220472
 31
0.0
  0
POLYLINE
  5
3CBA
330
1E
100
AcDbEntity
  8
0
100
AcDb2dPolyline
 66
     1
 10
0.0
 20
0.0
 30
0.0
  0
VERTEX
  5
3E90
330
3CBA
100
AcDbEntity
  8
0
100
AcDbVertex
100
AcDb2dVertex
 10
4.921259842519685
 20
3.747047244094487
 30
0.0
  0
VERTEX
  5
3E91
330
3CBA
100
AcDbEntity
  8
0
100
AcDbVertex
100
AcDb2dVertex
 10
4.917322834645669
 20
3.748031496062992
 30
0.0
  0
VERTEX
  5
3E92
330
3CBA
100
AcDbEntity
  8
0
100
AcDbVertex
100
AcDb2dVertex
 10
4.906496062992125
 20
3.749015748031495
 30
0.0
  0
SEQEND
  5
3E93
330
3CBA
100
AcDbEntity
  8
0
  0
LINE
  5
3CBF
330
1E
100
AcDbEntity
  8
0
100
AcDbLine
 10
4.923228346456692
 20
3.743110236220472
 30
0.0
 11
4.921259842519685
 21
3.747047244094487
 31
0.0
  0
POLYLINE
  5
3CC0
330
1E
100
AcDbEntity
  8
0
100
AcDb2dPolyline
 66
     1
 10
0.0
 20
0.0
 30
0.0
  0
VERTEX
  5
3E94
330
3CC0
100
AcDbEntity
  8
0
100
AcDbVertex
100
AcDb2dVertex
 10
4.923228346456692
 20
3.743110236220472
 30
0.0
  0
VERTEX
  5
3E95
330
3CC0
100
AcDbEntity
  8
0
100
AcDbVertex
100
AcDb2dVertex
 10
4.926181102362204
 20
3.742125984251968
 30
0.0
  0
VERTEX
  5
3E96
330
3CC0
100
AcDbEntity
  8
0
100
AcDbVertex
100
AcDb2dVertex
 10
4.933070866141732
 20
3.742125984251968
 30
0.0
  0
SEQEND
  5
3E97
330
3CC0
100
AcDbEntity
  8
0
  0
LINE
  5
3CC5
330
1E
100
AcDbEntity
  8
0
100
AcDbLine
 10
4.933070866141732
 20
3.742125984251968
 30
0.0
 11
4.960629921259842
 21
3.742125984251968
 31
0.0
  0
LINE
  5
3CC6
330
1E
100
AcDbEntity
  8
0
100
AcDbLine
 10
4.970472440944881
 20
3.651574803149606
 30
0.0
 11
4.970472440944881
 21
3.743110236220472
 31
0.0
  0
LINE
  5
3CC7
330
1E
100
AcDbEntity
  8
0
100
AcDbLine
 10
4.960629921259842
 20
3.651574803149606
 30
0.0
 11
4.960629921259842
 21
3.742125984251968
 31
0.0
  0
LINE
  5
3CC8
330
1E
100
AcDbEntity
  8
0
100
AcDbLine
 10
4.933070866141732
 20
3.651574803149606
 30
0.0
 11
4.933070866141732
 21
3.742125984251968
 31
0.0
  0
LINE
  5
3CC9
330
1E
100
AcDbEntity
  8
0
100
AcDbLine
 10
4.923228346456692
 20
3.651574803149606
 30
0.0
 11
4.923228346456692
 21
3.743110236220472
 31
0.0
  0
LINE
  5
3CCA
330
1E
100
AcDbEntity
  8
0
100
AcDbLine
 10
4.921259842519685
 20
3.646653543307086
 30
0.0
 11
4.921259842519685
 21
3.747047244094487
 31
0.0
  0
LINE
  5
3CCB
330
1E
100
AcDbEntity
  8
0
100
AcDbLine
 10
4.973425196850393
 20
3.614173228346456
 30
0.0
 11
4.973425196850393
 21
3.882874015748031
 31
0.0
  0
LINE
  5
3CCC
330
1E
100
AcDbEntity
  8
0
100
AcDbLine
 10
5.058070866141732
 20
3.416338582677165
 30
0.0
 11
5.060039370078739
 21
3.353346456692913
 31
0.0
  0
LINE
  5
3CCD
330
1E
100
AcDbEntity
  8
0
100
AcDbLine
 10
5.061023622047244
 20
3.353346456692913
 30
0.0
 11
5.061023622047244
 21
3.514763779527558
 31
0.0
  0
LINE
  5
3CCE
330
1E
100
AcDbEntity
  8
0
100
AcDbLine
 10
4.417322834645669
 20
3.353346456692913
 30
0.0
 11
4.418307086614173
 21
3.416338582677165
 31
0.0
  0
LINE
  5
3CCF
330
1E
100
AcDbEntity
  8
0
100
AcDbLine
 10
4.416338582677165
 20
3.353346456692913
 30
0.0
 11
4.416338582677165
 21
3.514763779527558
 31
0.0
  0
ENDSEC
  0
SECTION
  2
OBJECTS
  0
DICTIONARY
  5
C
330
0
100
AcDbDictionary
  3
ACAD_GROUP
350
D
  3
ACAD_MLINESTYLE
350
16
  3
ACAD_PLOTSETTINGS
350
18
  3
ACAD_LAYOUT
350
19
1001
ACAD
1000
TREAT_AS_HARD
1070
     0
  0
DICTIONARY
  5
3CD7
330
1E
100
AcDbDictionary
  3
ACAD_LAYOUTSELFREF
350
3CD8
  0
DICTIONARY
  5
3CD5
330
1A
100
AcDbDictionary
  3
ACAD_LAYOUTSELFREF
350
3CD6
  0
DICTIONARY
  5
D
102
{ACAD_REACTORS
330
C
102
}
330
C
100
AcDbDictionary
1001
ACAD
1000
TREAT_AS_HARD
1070
     0
  0
DICTIONARY
  5
16
102
{ACAD_REACTORS
330
C
102
}
330
C
100
AcDbDictionary
  3
STANDARD
350
17
1001
ACAD
1000
TREAT_AS_HARD
1070
     0
  0
DICTIONARY
  5
18
102
{ACAD_REACTORS
330
C
102
}
330
C
100
AcDbDictionary
1001
ACAD
1000
TREAT_AS_HARD
1070
     0
  0
DICTIONARY
  5
19
102
{ACAD_REACTORS
330
C
102
}
330
C
100
AcDbDictionary
1001
ACAD
1000
TREAT_AS_HARD
1070
     0
  0
XRECORD
  5
3CD8
102
{ACAD_REACTORS
330
3CD7
102
}
330
3CD7
100
AcDbXrecord
340
1E
  0
XRECORD
  5
3CD6
102
{ACAD_REACTORS
330
3CD5
102
}
330
3CD5
100
AcDbXrecord
340
1A
  0
MLINESTYLE
  5
17
102
{ACAD_REACTORS
330
16
102
}
330
16
100
AcDbMlineStyle
  2
STANDARD
 70
     0
  3

 62
   256
 51
90.0
 52
90.0
 71
     2
 49
0.5
 62
   256
  6
BYLAYER
 49
-0.5
 62
   256
  6
BYLAYER
  0
ENDSEC
  0
EOF
