999
DXF file: C:\Users\sesa63760\Dev\_Creo\CAD\MCADID0004067_3D-CAD\drw0001_1.dxf
999
Pro/ENGINEER 2019471 by Parametric Technology Corporation
  0
SECTION
  2
HEADER
  9
$ACADVER
  1
AC1024
  9
$DWGCODEPAGE
  3
ANSI_1252
  9
$EXTMAX
 10
72.1146403181
 20
101.9907055927
 30
0.0
  9
$EXTMIN
 10
0.0
 20
0.0
 30
0.0
  9
$LIMMIN
 10
0.0
 20
0.0
  9
$LIMMAX
 10
72.1146403181
 20
101.9907055927
  9
$VIEWCTR
 10
36.057320159
 20
50.9953527964
  9
$VIEWSIZE
 40
101.9907055927
  9
$CLAYER
  8
0
  9
$LTSCALE
 40
6.6482830312
  9
$CELTYPE
  6
BYLAYER
  9
$DIMSCALE
 40
1.0
  9
$DIMASZ
 40
0.8585076228
  9
$DIMEXO
 40
1.0
  9
$DIMDLI
 40
4.5933591852
  9
$DIMEXE
 40
1.0
  9
$DIMCEN
 40
1.0879008597
  9
$DIMLFAC
 40
1.0
  9
$DIMBLK
  1
_FILLED
  9
$DIMALT
 70
0
  9
$DIMALTF
 40
0.0393700787
  9
$DIMTXT
 40
1.201910672
  9
$DIMTOL
 70
1
  9
$DIMLIM
 70
0
  9
$DIMTFAC
 40
1.0
  9
$DIMTP
 40
0.01
  9
$DIMTM
 40
0.01
  9
$DIMGAP
 40
0.625
  9
$DIMDSEP
 70
46
  9
$AUNITS
 70
0
  9
$PDMODE
 70
3
  9
$PDSIZE
 40
0.3125
  9
$HANDSEED
  5
2E2
  9
$TILEMODE
 70
1
  9
$MEASUREMENT
 70
1
  9
$INSUNITS
 70
4
  0
ENDSEC
  0
SECTION
  2
CLASSES
  0
CLASS
  1
ACDBDICTIONARYWDFLT
  2
AcDbDictionaryWithDefault
  3
AutoCAD 2000
 90
0
 91
1
280
0
281
0
  0
CLASS
  1
ACDBPLACEHOLDER
  2
AcDbPlaceHolder
  3
AutoCAD 2000
 90
0
 91
1
280
0
281
0
  0
CLASS
  1
LAYOUT
  2
AcDbLayout
  3
AutoCAD 2000
 90
0
 91
0
280
0
281
0
  0
ENDSEC
  0
SECTION
  2
TABLES
  0
TABLE
  2
VPORT
  5
8
100
AcDbSymbolTable
 70
2
  0
VPORT
  5
1F4
100
AcDbSymbolTableRecord
100
AcDbViewportTableRecord
  2
*ACTIVE
 70
0
 10
0.0
 20
0.0
 11
1.0
 21
1.0
 12
36.057320159
 22
50.9953527964
 13
0.0
 23
0.0
 14
1.0
 24
1.0
 15
0.0
 25
0.0
 16
0.0
 26
0.0
 36
1.0
 17
0.0
 27
0.0
 37
0.0
 40
101.9907055927
 41
0.7070707071
 42
50.0
 43
0.0
 44
0.0
 50
0.0
 51
0.0
 71
0
 72
100
 73
1
 74
1
 75
0
 76
0
 77
0
 78
0
  0
ENDTAB
  0
TABLE
  2
LTYPE
  5
5
100
AcDbSymbolTable
 70
6
  0
LTYPE
  5
14
100
AcDbSymbolTableRecord
100
AcDbLinetypeTableRecord
  2
BYBLOCK
 70
0
  3

 72
65
 73
0
 40
0.0
  0
LTYPE
  5
15
100
AcDbSymbolTableRecord
100
AcDbLinetypeTableRecord
  2
BYLAYER
 70
0
  3

 72
65
 73
0
 40
0.0
  0
LTYPE
  5
16
100
AcDbSymbolTableRecord
100
AcDbLinetypeTableRecord
  2
CONTINUOUS
 70
64
  3
Solid line
 72
65
 73
0
 40
0.0
  0
LTYPE
  5
1F5
100
AcDbSymbolTableRecord
100
AcDbLinetypeTableRecord
  2
CENTER
 70
64
  3
____ _ ____ _ ____ _ ____ _ ____ _ ____ _ ____
 72
65
 73
4
 40
0.6
 49
0.375
 74
0
 49
-0.075
 74
0
 49
0.075
 74
0
 49
-0.075
 74
0
  0
LTYPE
  5
1F6
100
AcDbSymbolTableRecord
100
AcDbLinetypeTableRecord
  2
HIDDEN
 70
64
  3
- - - - - - - - - - - - - - - - - - - -
 72
65
 73
2
 40
0.2
 49
0.1
 74
0
 49
-0.1
 74
0
  0
LTYPE
  5
1F7
100
AcDbSymbolTableRecord
100
AcDbLinetypeTableRecord
  2
PHANTOM
 70
64
  3
_____ _ _ _____ _ _ _____ _ _ _____
 72
65
 73
6
 40
0.8
 49
0.45
 74
0
 49
-0.05
 74
0
 49
0.1
 74
0
 49
-0.05
 74
0
 49
0.1
 74
0
 49
-0.05
 74
0
  0
LTYPE
  5
1F8
100
AcDbSymbolTableRecord
100
AcDbLinetypeTableRecord
  2
DOT
 70
64
  3
. . . . . . . . . . . . . . . . . . . .
 72
65
 73
2
 40
0.2
 49
0.1
 74
0
 49
-0.1
 74
0
  0
LTYPE
  5
1F9
100
AcDbSymbolTableRecord
100
AcDbLinetypeTableRecord
  2
DASHED
 70
64
  3
- - - - - - - - - - - - - - - - - - - -
 72
65
 73
2
 40
0.2
 49
0.1
 74
0
 49
-0.1
 74
0
  0
ENDTAB
  0
TABLE
  2
LAYER
  5
2
100
AcDbSymbolTable
 70
36
  0
LAYER
  5
10
100
AcDbSymbolTableRecord
100
AcDbLayerTableRecord
  2
0
 70
0
 62
7
  6
CONTINUOUS
370
-3
390
F
  0
LAYER
  5
1FA
100
AcDbSymbolTableRecord
100
AcDbLayerTableRecord
  2
DEFAULT_1
 70
0
 62
7
  6
CENTER
370
-3
390
F
  0
LAYER
  5
1FB
100
AcDbSymbolTableRecord
100
AcDbLayerTableRecord
  2
DEFAULT_2
 70
0
 62
7
  6
HIDDEN
370
-3
390
F
  0
LAYER
  5
1FC
100
AcDbSymbolTableRecord
100
AcDbLayerTableRecord
  2
DEFAULT_3
 70
0
 62
7
  6
PHANTOM
370
-3
390
F
  0
LAYER
  5
1FD
100
AcDbSymbolTableRecord
100
AcDbLayerTableRecord
  2
00_COMPONENTS
 70
0
 62
7
  6
CONTINUOUS
370
-3
390
F
  0
LAYER
  5
1FE
100
AcDbSymbolTableRecord
100
AcDbLayerTableRecord
  2
01_1_DEFAULT_DATUMS
 70
0
 62
7
  6
CONTINUOUS
370
-3
390
F
  0
LAYER
  5
1FF
100
AcDbSymbolTableRecord
100
AcDbLayerTableRecord
  2
01_PLANES
 70
0
 62
7
  6
CONTINUOUS
370
-3
390
F
  0
LAYER
  5
200
100
AcDbSymbolTableRecord
100
AcDbLayerTableRecord
  2
02_COORD_SYS
 70
0
 62
7
  6
CONTINUOUS
370
-3
390
F
  0
LAYER
  5
201
100
AcDbSymbolTableRecord
100
AcDbLayerTableRecord
  2
03_AXES
 70
0
 62
7
  6
CONTINUOUS
370
-3
390
F
  0
LAYER
  5
202
100
AcDbSymbolTableRecord
100
AcDbLayerTableRecord
  2
04_POINTS
 70
0
 62
7
  6
CONTINUOUS
370
-3
390
F
  0
LAYER
  5
203
100
AcDbSymbolTableRecord
100
AcDbLayerTableRecord
  2
05_CURVES
 70
0
 62
7
  6
CONTINUOUS
370
-3
390
F
  0
LAYER
  5
204
100
AcDbSymbolTableRecord
100
AcDbLayerTableRecord
  2
06_SURFS
 70
0
 62
7
  6
CONTINUOUS
370
-3
390
F
  0
LAYER
  5
205
100
AcDbSymbolTableRecord
100
AcDbLayerTableRecord
  2
07_COSMETICS
 70
0
 62
7
  6
CONTINUOUS
370
-3
390
F
  0
LAYER
  5
206
100
AcDbSymbolTableRecord
100
AcDbLayerTableRecord
  2
10_NOTES
 70
0
 62
7
  6
CONTINUOUS
370
-3
390
F
  0
LAYER
  5
207
100
AcDbSymbolTableRecord
100
AcDbLayerTableRecord
  2
11_NOTES_PUB
 70
0
 62
7
  6
CONTINUOUS
370
-3
390
F
  0
LAYER
  5
208
100
AcDbSymbolTableRecord
100
AcDbLayerTableRecord
  2
13_REF_GTOL
 70
0
 62
7
  6
CONTINUOUS
370
-3
390
F
  0
LAYER
  5
209
100
AcDbSymbolTableRecord
100
AcDbLayerTableRecord
  2
16_MISC
 70
0
 62
7
  6
CONTINUOUS
370
-3
390
F
  0
LAYER
  5
20A
100
AcDbSymbolTableRecord
100
AcDbLayerTableRecord
  2
17_NO_PRINT
 70
0
 62
7
  6
CONTINUOUS
370
-3
390
F
  0
LAYER
  5
20B
100
AcDbSymbolTableRecord
100
AcDbLayerTableRecord
  2
18_DATUM_CAMS_JOINTS
 70
0
 62
7
  6
CONTINUOUS
370
-3
390
F
  0
LAYER
  5
20C
100
AcDbSymbolTableRecord
100
AcDbLayerTableRecord
  2
19_DATUM_FUNCTIONAL
 70
0
 62
7
  6
CONTINUOUS
370
-3
390
F
  0
LAYER
  5
20D
100
AcDbSymbolTableRecord
100
AcDbLayerTableRecord
  2
20_DATUM_KINEMATIC_SCHEME
 70
0
 62
7
  6
CONTINUOUS
370
-3
390
F
  0
ENDTAB
  0
TABLE
  2
STYLE
  5
3
100
AcDbSymbolTable
 70
1
  0
STYLE
  5
11
100
AcDbSymbolTableRecord
100
AcDbTextStyleTableRecord
  2
STANDARD
 70
0
 40
0.0
 41
1.0
 50
0.0
 71
0
 42
0.2
  3
ARIAL.TTF
  4

  0
STYLE
  5
20E
100
AcDbSymbolTableRecord
100
AcDbTextStyleTableRecord
  2
TEXTSTYLE_1
 70
0
 40
0.0
 41
0.8
 50
0.0
 71
0
 42
0.2
  3
gdt
  4

  0
ENDTAB
  0
TABLE
  2
VIEW
  5
6
100
AcDbSymbolTable
 70
0
  0
ENDTAB
  0
TABLE
  2
UCS
  5
7
100
AcDbSymbolTable
 70
0
  0
ENDTAB
  0
TABLE
  2
APPID
  5
9
100
AcDbSymbolTable
 70
1
  0
APPID
  5
20F
100
AcDbSymbolTableRecord
100
AcDbRegAppTableRecord
  2
ACAD
 70
0
  0
ENDTAB
  0
TABLE
  2
BLOCK_RECORD
  5
1
100
AcDbSymbolTable
 70
0
  0
BLOCK_RECORD
  5
210
100
AcDbSymbolTableRecord
100
AcDbBlockTableRecord
  2
*Model_Space
  0
BLOCK_RECORD
  5
211
100
AcDbSymbolTableRecord
100
AcDbBlockTableRecord
  2
*Paper_Space
  0
BLOCK_RECORD
  5
212
100
AcDbSymbolTableRecord
100
AcDbBlockTableRecord
  2
_FILLED
  0
ENDTAB
  0
TABLE
  2
DIMSTYLE
  5
A
100
AcDbSymbolTable
 70
1
100
AcDbDimStyleTable
 71
0
  0
DIMSTYLE
105
213
100
AcDbSymbolTableRecord
100
AcDbDimStyleTableRecord
  2
STANDARD
 70
0
  3

  4

 40
1.0
 41
0.8585076228
 42
1.0
 43
0.38
 44
1.0
 45
0.0
 46
0.0
 47
0.01
 48
0.01
140
1.201910672
141
0.09
142
0.0
143
25.4
144
1.0
145
0.0
146
1.0
147
0.625
 71
1
 72
0
 73
0
 74
0
 75
0
 76
0
 77
1
 78
8
 79
2
170
0
171
1
172
0
173
0
174
0
175
0
176
0
177
0
178
0
270
2
179
2
271
2
272
2
273
2
274
2
275
0
280
0
281
0
282
0
283
1
284
8
285
0
286
0
287
3
288
0
340
11
278
46
341
212
342
212
343
212
344
212
  0
ENDTAB
  0
ENDSEC
  0
SECTION
  2
BLOCKS
  0
BLOCK
  5
20
100
AcDbEntity
  8
0
100
AcDbBlockBegin
  2
*Model_Space
 70
0
 10
0.0
 20
0.0
 30
0.0
  3
*Model_Space
  1

  0
ENDBLK
  5
21
100
AcDbEntity
  8
0
100
AcDbBlockEnd
  0
BLOCK
  5
1C
100
AcDbEntity
  8
0
100
AcDbBlockBegin
  2
*Paper_Space
 70
0
 10
0.0
 20
0.0
 30
0.0
  3
*Paper_Space
  1

  0
ENDBLK
  5
1D
100
AcDbEntity
  8
0
100
AcDbBlockEnd
  0
BLOCK
  5
214
100
AcDbEntity
  8
0
100
AcDbBlockBegin
  2
_FILLED
 70
64
 10
0.0
 20
0.0
  3
_FILLED
  1

  0
SOLID
  5
215
100
AcDbEntity
  8
0
  6
BYBLOCK
 62
0
100
AcDbTrace
 10
0.0
 20
0.0
 11
-1.0
 21
0.25
 12
-1.0
 22
-0.25
 13
-1.0
 23
-0.25
  0
ENDBLK
  5
216
100
AcDbEntity
  8
0
  6
BYBLOCK
 62
0
100
AcDbBlockEnd
  0
ENDSEC
  0
SECTION
  2
ENTITIES
  0
LINE
  5
217
100
AcDbEntity
  8
0
100
AcDbLine
 62
7
  6
BYLAYER
 10
51.4190092402
 20
35.5884021634
 11
51.5183941114
 21
35.5967046204
  0
LINE
  5
218
100
AcDbEntity
  8
0
100
AcDbLine
 62
7
  6
BYLAYER
 10
46.0387035749
 20
32.6298750766
 11
44.9921811817
 21
33.2340713933
  0
LINE
  5
219
100
AcDbEntity
  8
0
100
AcDbLine
 62
7
  6
BYLAYER
 10
32.6949523355
 20
40.3337191624
 11
29.8034642855
 21
42.0030828004
  0
LINE
  5
21A
100
AcDbEntity
  8
0
100
AcDbLine
 62
7
  6
BYLAYER
 10
44.9934681931
 20
33.4051080243
 11
32.6962133343
 21
40.5033011976
  0
LINE
  5
21B
100
AcDbEntity
  8
0
100
AcDbLine
 62
7
  6
BYLAYER
 10
30.0141095403
 20
58.5378265208
 11
30.818140844
 21
58.7786704665
  0
LINE
  5
21C
100
AcDbEntity
  8
0
100
AcDbLine
 62
7
  6
BYLAYER
 10
29.3582621181
 20
42.6236139143
 11
29.3582621181
 21
49.808835185
  0
LINE
  5
21D
100
AcDbEntity
  8
0
100
AcDbLine
 62
7
  6
BYLAYER
 10
29.3582662793
 20
49.8088351851
 11
29.5204504499
 21
49.4144013592
  0
LINE
  5
21E
100
AcDbEntity
  8
0
100
AcDbLine
 62
7
  6
BYLAYER
 10
33.7316418155
 20
55.9041201505
 11
33.6901528583
 21
55.7852893073
  0
LINE
  5
21F
100
AcDbEntity
  8
0
100
AcDbLine
 62
7
  6
BYLAYER
 10
29.5217569089
 20
50.2047645436
 11
29.3582662793
 21
49.8088351851
  0
LINE
  5
220
100
AcDbEntity
  8
0
100
AcDbLine
 62
7
  6
BYLAYER
 10
42.4156485308
 20
60.9178684472
 11
33.7316226997
 21
55.9041737238
  0
LINE
  5
221
100
AcDbEntity
  8
0
100
AcDbLine
 62
7
  6
BYLAYER
 10
33.816259157
 20
55.8817964979
 11
42.5682413817
 21
60.9347256293
  0
LINE
  5
222
100
AcDbEntity
  8
0
100
AcDbLine
 62
7
  6
BYLAYER
 10
51.090171784
 20
60.7223875444
 11
48.6279680918
 21
59.9340282507
  0
LINE
  5
223
100
AcDbEntity
  8
0
100
AcDbLine
 62
7
  6
BYLAYER
 10
61.5443436583
 20
48.2950464366
 11
61.4439890785
 21
48.2853465516
  0
LINE
  5
224
100
AcDbEntity
  8
0
100
AcDbLine
 62
7
  6
BYLAYER
 10
51.5183941114
 20
35.5967046204
 11
51.3829144195
 21
35.6749220876
  0
LINE
  5
225
100
AcDbEntity
  8
0
100
AcDbLine
 62
7
  6
BYLAYER
 10
29.5204504499
 20
49.4144013592
 11
33.6397056704
 21
47.0362020509
  0
LINE
  5
226
100
AcDbEntity
  8
0
100
AcDbLine
 62
7
  6
BYLAYER
 10
28.4398223278
 20
54.6592087672
 11
28.7015285029
 21
54.2186368064
  0
LINE
  5
227
100
AcDbEntity
  8
0
100
AcDbLine
 62
7
  6
BYLAYER
 10
33.6397056704
 20
47.0362020509
 11
33.6538361878
 21
49.6708401727
  0
LINE
  5
228
100
AcDbEntity
  8
0
100
AcDbLine
 62
7
  6
BYLAYER
 10
33.6901528583
 20
55.7852893073
 11
33.6730944512
 21
52.6015260844
  0
LINE
  5
229
100
AcDbEntity
  8
0
100
AcDbLine
 62
7
  6
BYLAYER
 10
32.6962133343
 20
40.5033011976
 11
32.6949523355
 21
40.3337191624
  0
LINE
  5
22A
100
AcDbEntity
  8
0
100
AcDbLine
 62
7
  6
BYLAYER
 10
46.427575356
 20
59.9652851125
 11
46.1507713964
 21
59.8054732258
  0
LINE
  5
22B
100
AcDbEntity
  8
0
100
AcDbLine
 62
7
  6
BYLAYER
 10
33.6730944512
 20
52.6015260844
 11
29.5217569089
 21
50.2047645436
  0
LINE
  5
22C
100
AcDbEntity
  8
0
100
AcDbLine
 62
7
  6
BYLAYER
 10
53.1478196671
 20
37.3450518109
 11
53.8472348327
 21
36.9412534119
  0
LINE
  5
22D
100
AcDbEntity
  8
0
100
AcDbLine
 62
7
  6
BYLAYER
 10
53.986909717
 20
37.1985707761
 11
53.2887994092
 21
37.6016158321
  0
LINE
  5
22E
100
AcDbEntity
  8
0
100
AcDbLine
 62
7
  6
BYLAYER
 10
33.6538361878
 20
49.6708401727
 11
46.5049852382
 21
42.2513936594
  0
LINE
  5
22F
100
AcDbEntity
  8
0
100
AcDbLine
 62
7
  6
BYLAYER
 10
26.7327913829
 20
55.9169170469
 11
28.5329481273
 21
54.5024351792
  0
LINE
  5
230
100
AcDbEntity
  8
0
100
AcDbLine
 62
7
  6
BYLAYER
 10
30.2531469983
 20
52.1056962158
 11
31.1509469736
 21
51.1453722514
  0
LINE
  5
231
100
AcDbEntity
  8
0
100
AcDbLine
 62
7
  6
BYLAYER
 10
35.9262810385
 20
52.9127904377
 11
35.9279242921
 21
52.8569433804
  0
LINE
  5
232
100
AcDbEntity
  8
0
100
AcDbLine
 62
7
  6
BYLAYER
 10
35.5766024513
 20
54.0492142103
 11
35.5766024513
 21
52.4809613326
  0
LINE
  5
233
100
AcDbEntity
  8
0
100
AcDbLine
 62
7
  6
BYLAYER
 10
35.9262810385
 20
53.3210416463
 11
35.9262810385
 21
52.9127904377
  0
LINE
  5
234
100
AcDbEntity
  8
0
100
AcDbLine
 62
7
  6
BYLAYER
 10
35.5763972026
 20
52.4809613326
 11
34.1182533285
 21
50.9635205047
  0
LINE
  5
235
100
AcDbEntity
  8
0
100
AcDbLine
 62
7
  6
BYLAYER
 10
35.9805105493
 20
52.84430449
 11
35.9064070629
 21
52.7780356733
  0
LINE
  5
236
100
AcDbEntity
  8
0
100
AcDbLine
 62
7
  6
BYLAYER
 10
35.9844019591
 20
52.8428485937
 11
35.9064070629
 21
52.7780356733
  0
LINE
  5
237
100
AcDbEntity
  8
0
100
AcDbLine
 62
7
  6
BYLAYER
 10
35.7389674887
 20
52.6813649672
 11
35.9064070629
 21
52.7780356733
  0
LINE
  5
238
100
AcDbEntity
  8
0
100
AcDbLine
 62
7
  6
BYLAYER
 10
47.9103527963
 20
59.7084756047
 11
48.021372332
 21
59.7725723809
  0
LINE
  5
239
100
AcDbEntity
  8
0
100
AcDbLine
 62
7
  6
BYLAYER
 10
47.5842768218
 20
43.1890840971
 11
34.1182533285
 21
50.9635205047
  0
LINE
  5
23A
100
AcDbEntity
  8
0
100
AcDbLine
 62
7
  6
BYLAYER
 10
47.9859373569
 20
42.9789203614
 11
47.9921083166
 21
42.9753576368
  0
LINE
  5
23B
100
AcDbEntity
  8
0
100
AcDbLine
 62
7
  6
BYLAYER
 10
49.2150876661
 20
42.2777617125
 11
49.0698141506
 21
42.3616335184
  0
LINE
  5
23C
100
AcDbEntity
  8
0
100
AcDbLine
 62
7
  6
BYLAYER
 10
45.5455521134
 20
44.6185456373
 11
47.8028906609
 21
43.3153001026
  0
LINE
  5
23D
100
AcDbEntity
  8
0
100
AcDbLine
 62
7
  6
BYLAYER
 10
9.1930459128
 20
66.0925373193
 11
26.6994408093
 21
55.9854441663
  0
LINE
  5
23E
100
AcDbEntity
  8
0
100
AcDbLine
 62
7
  6
BYLAYER
 10
49.2047206871
 20
43.6754555362
 11
46.7723118435
 21
45.0818607448
  0
LINE
  5
23F
100
AcDbEntity
  8
0
100
AcDbLine
 62
7
  6
BYLAYER
 10
49.029650391
 20
44.0235659352
 11
46.7723118435
 21
45.3268114699
  0
LINE
  5
240
100
AcDbEntity
  8
0
100
AcDbLine
 62
7
  6
BYLAYER
 10
50.7937349794
 20
43.1891887233
 11
50.6484614638
 21
43.2730605292
  0
LINE
  5
241
100
AcDbEntity
  8
0
100
AcDbLine
 62
7
  6
BYLAYER
 10
34.6824927092
 20
51.5507052731
 11
33.6730944512
 21
52.6015260844
  0
LINE
  5
242
100
AcDbEntity
  8
0
100
AcDbLine
 62
7
  6
BYLAYER
 10
47.1365357471
 20
45.5370949835
 11
49.3938742947
 21
44.2338494488
  0
LINE
  5
243
100
AcDbEntity
  8
0
100
AcDbLine
 62
7
  6
BYLAYER
 10
50.7833680003
 20
44.586882547
 11
50.6484614638
 21
44.6647691101
  0
LINE
  5
244
100
AcDbEntity
  8
0
100
AcDbLine
 62
7
  6
BYLAYER
 10
50.7975100771
 20
44.5950474301
 11
48.3632954772
 21
46.000410091
  0
LINE
  5
245
100
AcDbEntity
  8
0
100
AcDbLine
 62
7
  6
BYLAYER
 10
50.6206340248
 20
44.9421152814
 11
48.3632954772
 21
46.2453608161
  0
LINE
  5
246
100
AcDbEntity
  8
0
100
AcDbLine
 62
7
  6
BYLAYER
 10
33.816259157
 20
55.8817964979
 11
35.5766024513
 21
54.0492142103
  0
LINE
  5
247
100
AcDbEntity
  8
0
100
AcDbLine
 62
7
  6
BYLAYER
 10
33.816259157
 20
55.8817964979
 11
33.7316418155
 21
55.9041201505
  0
LINE
  5
248
100
AcDbEntity
  8
0
100
AcDbLine
 62
7
  6
BYLAYER
 10
61.5396627966
 20
40.3382424072
 11
61.3970396482
 21
40.4205840576
  0
LINE
  5
249
100
AcDbEntity
  8
0
100
AcDbLine
 62
7
  6
BYLAYER
 10
11.2929851043
 20
69.7298209763
 11
28.7442114497
 21
59.6545786806
  0
LINE
  5
24A
100
AcDbEntity
  8
0
100
AcDbLine
 62
7
  6
BYLAYER
 10
45.5455521134
 20
44.6185456373
 11
45.4818519162
 21
44.7073387408
  0
LINE
  5
24B
100
AcDbEntity
  8
0
100
AcDbLine
 62
7
  6
BYLAYER
 10
33.9362156698
 20
58.4851026008
 11
35.2269540243
 21
58.1854113136
  0
LINE
  5
24C
100
AcDbEntity
  8
0
100
AcDbLine
 62
7
  6
BYLAYER
 10
28.8754014085
 20
59.6281104284
 11
31.0004736979
 21
58.7764115246
  0
LINE
  5
24D
100
AcDbEntity
  8
0
100
AcDbLine
 62
7
  6
BYLAYER
 10
47.1365357471
 20
45.5370949835
 11
47.0728355499
 21
45.625888087
  0
LINE
  5
24E
100
AcDbEntity
  8
0
100
AcDbLine
 62
7
  6
BYLAYER
 10
45.5455508328
 20
44.6185456373
 11
45.5455508328
 21
44.7961311049
  0
LINE
  5
24F
100
AcDbEntity
  8
0
100
AcDbLine
 62
7
  6
BYLAYER
 10
44.9921811817
 20
33.2340713933
 11
44.9934681931
 21
33.4051080243
  0
LINE
  5
250
100
AcDbEntity
  8
0
100
AcDbLine
 62
7
  6
BYLAYER
 10
32.6949523355
 20
40.3337191624
 11
32.8424624162
 21
40.4188836388
  0
LINE
  5
251
100
AcDbEntity
  8
0
100
AcDbLine
 62
7
  6
BYLAYER
 10
42.4156779722
 20
60.9178302959
 11
42.5682413817
 21
60.9347256293
  0
LINE
  5
252
100
AcDbEntity
  8
0
100
AcDbLine
 62
7
  6
BYLAYER
 10
30.818140844
 20
58.7786704665
 11
31.3305405663
 21
58.7723222897
  0
LINE
  5
253
100
AcDbEntity
  8
0
100
AcDbLine
 62
7
  6
BYLAYER
 10
61.646781418
 20
47.0481320555
 11
61.5949926693
 21
47.0750227703
  0
LINE
  5
254
100
AcDbEntity
  8
0
100
AcDbLine
 62
7
  6
BYLAYER
 10
61.5949926693
 20
47.0750227703
 11
60.9373844867
 21
47.4546844425
  0
LINE
  5
255
100
AcDbEntity
  8
0
100
AcDbLine
 62
7
  6
BYLAYER
 10
51.3761095116
 20
35.6912335722
 11
51.4190092402
 21
35.5884021634
  0
LINE
  5
256
100
AcDbEntity
  8
0
100
AcDbLine
 62
7
  6
BYLAYER
 10
47.9796388607
 20
42.9854695495
 11
47.9797667132
 21
42.9682322512
  0
LINE
  5
257
100
AcDbEntity
  8
0
100
AcDbLine
 62
7
  6
BYLAYER
 10
47.9921083166
 20
42.9753576368
 11
48.0024752957
 21
41.5776638131
  0
LINE
  5
258
100
AcDbEntity
  8
0
100
AcDbLine
 62
7
  6
BYLAYER
 10
46.4647203937
 20
45.3268107306
 11
46.4647203937
 21
45.0818600054
  0
LINE
  5
259
100
AcDbEntity
  8
0
100
AcDbLine
 62
7
  6
BYLAYER
 10
46.7723118435
 20
45.0818607448
 11
46.7723118435
 21
45.3268114699
  0
LINE
  5
25A
100
AcDbEntity
  8
0
100
AcDbLine
 62
7
  6
BYLAYER
 10
46.9720961171
 20
59.3321183395
 11
46.9720961171
 21
59.6978772497
  0
LINE
  5
25B
100
AcDbEntity
  8
0
100
AcDbLine
 62
7
  6
BYLAYER
 10
47.1365344665
 20
45.5370949835
 11
47.1365344665
 21
45.7146804511
  0
LINE
  5
25C
100
AcDbEntity
  8
0
100
AcDbLine
 62
7
  6
BYLAYER
 10
48.0557040274
 20
46.2453600768
 11
48.0557040274
 21
46.0004093516
  0
LINE
  5
25D
100
AcDbEntity
  8
0
100
AcDbLine
 62
7
  6
BYLAYER
 10
45.4818519162
 20
44.7073387408
 11
45.5455508328
 21
44.7961311049
  0
LINE
  5
25E
100
AcDbEntity
  8
0
100
AcDbLine
 62
7
  6
BYLAYER
 10
48.0557040274
 20
46.2453600768
 11
47.1365344665
 21
45.7146804511
  0
LINE
  5
25F
100
AcDbEntity
  8
0
100
AcDbLine
 62
7
  6
BYLAYER
 10
46.4647203937
 20
45.3268107306
 11
45.5455508328
 21
44.7961311049
  0
LINE
  5
260
100
AcDbEntity
  8
0
100
AcDbLine
 62
7
  6
BYLAYER
 10
48.0557040274
 20
46.0004093516
 11
47.1948759652
 21
45.5034130049
  0
LINE
  5
261
100
AcDbEntity
  8
0
100
AcDbLine
 62
7
  6
BYLAYER
 10
45.6038923315
 20
44.5848636587
 11
46.4647203937
 21
45.0818600054
  0
LINE
  5
262
100
AcDbEntity
  8
0
100
AcDbLine
 62
7
  6
BYLAYER
 10
45.690371582
 20
59.9347119268
 11
42.5682413817
 21
60.9347256293
  0
LINE
  5
263
100
AcDbEntity
  8
0
100
AcDbLine
 62
7
  6
BYLAYER
 10
61.4439872679
 20
48.2853434153
 11
61.5866262879
 21
48.2029926017
  0
LINE
  5
264
100
AcDbEntity
  8
0
100
AcDbLine
 62
7
  6
BYLAYER
 10
49.2150876661
 20
42.2777617125
 11
49.2063985908
 21
43.6937353821
  0
LINE
  5
265
100
AcDbEntity
  8
0
100
AcDbLine
 62
7
  6
BYLAYER
 10
49.568821974
 20
43.9029857446
 11
49.5793168527
 21
42.4880482762
  0
LINE
  5
266
100
AcDbEntity
  8
0
100
AcDbLine
 62
7
  6
BYLAYER
 10
48.3632954772
 20
46.000410091
 11
48.3632954772
 21
46.2453608161
  0
LINE
  5
267
100
AcDbEntity
  8
0
100
AcDbLine
 62
7
  6
BYLAYER
 10
49.0698141506
 20
42.3616335184
 11
49.0698141506
 21
43.7533420994
  0
LINE
  5
268
100
AcDbEntity
  8
0
100
AcDbLine
 62
7
  6
BYLAYER
 10
47.0728355499
 20
45.625888087
 11
47.1365344665
 21
45.7146804511
  0
LINE
  5
269
100
AcDbEntity
  8
0
100
AcDbLine
 62
7
  6
BYLAYER
 10
64.5217129793
 20
52.9678590506
 11
50.6206340248
 21
44.9421152814
  0
LINE
  5
26A
100
AcDbEntity
  8
0
100
AcDbLine
 62
7
  6
BYLAYER
 10
49.3938742947
 20
44.2338494488
 11
49.029650391
 21
44.0235659352
  0
LINE
  5
26B
100
AcDbEntity
  8
0
100
AcDbLine
 62
7
  6
BYLAYER
 10
47.8028906609
 20
43.3153001026
 11
47.5842768218
 21
43.1890840971
  0
LINE
  5
26C
100
AcDbEntity
  8
0
100
AcDbLine
 62
7
  6
BYLAYER
 10
50.6484614638
 20
44.6647691101
 11
49.5424279887
 21
44.0262041973
  0
LINE
  5
26D
100
AcDbEntity
  8
0
100
AcDbLine
 62
7
  6
BYLAYER
 10
49.0698141506
 20
43.7533420994
 11
47.9464641652
 21
43.1047795543
  0
LINE
  5
26E
100
AcDbEntity
  8
0
100
AcDbLine
 62
7
  6
BYLAYER
 10
47.710532433
 20
42.832137543
 11
47.9796238256
 21
42.9874966035
  0
LINE
  5
26F
100
AcDbEntity
  8
0
100
AcDbLine
 62
7
  6
BYLAYER
 10
49.2063835557
 20
43.6957624362
 11
49.568806986
 21
43.9050064522
  0
LINE
  5
270
100
AcDbEntity
  8
0
100
AcDbLine
 62
7
  6
BYLAYER
 10
50.7973671894
 20
44.6143117824
 11
64.7464495114
 21
52.6677701433
  0
LINE
  5
271
100
AcDbEntity
  8
0
100
AcDbLine
 62
7
  6
BYLAYER
 10
47.9797667132
 20
42.9682322512
 11
47.9921083166
 21
42.9753576368
  0
LINE
  5
272
100
AcDbEntity
  8
0
100
AcDbLine
 62
7
  6
BYLAYER
 10
50.7833680003
 20
44.586882547
 11
50.7975100771
 21
44.5950474301
  0
LINE
  5
273
100
AcDbEntity
  8
0
100
AcDbLine
 62
7
  6
BYLAYER
 10
50.6484614638
 20
43.2730605292
 11
49.5780779592
 21
42.6550780135
  0
LINE
  5
274
100
AcDbEntity
  8
0
100
AcDbLine
 62
7
  6
BYLAYER
 10
49.0698141506
 20
42.3616335184
 11
48.0012364022
 21
41.7446935504
  0
LINE
  5
275
100
AcDbEntity
  8
0
100
AcDbLine
 62
7
  6
BYLAYER
 10
48.1056195874
 20
59.7904553232
 11
47.8065738164
 21
59.9631055737
  0
LINE
  5
276
100
AcDbEntity
  8
0
100
AcDbLine
 62
7
  6
BYLAYER
 10
50.7937349794
 20
43.1891887233
 11
50.7833680003
 21
44.586882547
  0
LINE
  5
277
100
AcDbEntity
  8
0
100
AcDbLine
 62
7
  6
BYLAYER
 10
50.7975100771
 20
44.5950474301
 11
50.7973822245
 21
44.6122847283
  0
LINE
  5
278
100
AcDbEntity
  8
0
100
AcDbLine
 62
7
  6
BYLAYER
 10
50.6484614638
 20
44.6647691101
 11
50.6484614638
 21
43.2730605292
  0
LINE
  5
279
100
AcDbEntity
  8
0
100
AcDbLine
 62
7
  6
BYLAYER
 10
51.0733097854
 20
34.2979005093
 11
51.0733272463
 21
34.4602215019
  0
LINE
  5
27A
100
AcDbEntity
  8
0
100
AcDbLine
 62
7
  6
BYLAYER
 10
51.4237942931
 20
37.8288548383
 11
51.3761095116
 21
35.6912335722
  0
LINE
  5
27B
100
AcDbEntity
  8
0
100
AcDbLine
 62
7
  6
BYLAYER
 10
48.0024752957
 20
41.5776638131
 11
49.2150876661
 21
42.2777617125
  0
LINE
  5
27C
100
AcDbEntity
  8
0
100
AcDbLine
 62
7
  6
BYLAYER
 10
49.5793168527
 20
42.4880482762
 11
50.7937349794
 21
43.1891887233
  0
LINE
  5
27D
100
AcDbEntity
  8
0
100
AcDbLine
 62
7
  6
BYLAYER
 10
61.4439890785
 20
48.2853465516
 11
60.0297814041
 21
47.4688582438
  0
LINE
  5
27E
100
AcDbEntity
  8
0
100
AcDbLine
 62
7
  6
BYLAYER
 10
51.090171784
 20
60.7223875444
 11
64.5217129793
 21
52.9678590506
  0
LINE
  5
27F
100
AcDbEntity
  8
0
100
AcDbLine
 62
7
  6
BYLAYER
 10
51.6594194294
 20
60.6670754078
 11
64.8669258906
 21
53.0418905019
  0
LINE
  5
280
100
AcDbEntity
  8
0
100
AcDbLine
 62
7
  6
BYLAYER
 10
53.986909717
 20
37.1985707761
 11
53.9080564666
 21
39.2631357114
  0
LINE
  5
281
100
AcDbEntity
  8
0
100
AcDbLine
 62
7
  6
BYLAYER
 10
53.2887994092
 20
37.6016158321
 11
53.2493641186
 21
38.882841777
  0
LINE
  5
282
100
AcDbEntity
  8
0
100
AcDbLine
 62
7
  6
BYLAYER
 10
53.9080564666
 20
39.2631357114
 11
51.4237942931
 21
37.8288548383
  0
LINE
  5
283
100
AcDbEntity
  8
0
100
AcDbLine
 62
7
  6
BYLAYER
 10
51.3903674854
 20
36.3303923774
 11
53.1478196671
 21
37.3450518109
  0
LINE
  5
284
100
AcDbEntity
  8
0
100
AcDbLine
 62
7
  6
BYLAYER
 10
51.5183941114
 20
35.5967046204
 11
53.8472348327
 21
36.9412534119
  0
LINE
  5
285
100
AcDbEntity
  8
0
100
AcDbLine
 62
7
  6
BYLAYER
 10
51.0733272463
 20
34.4602215019
 11
61.538464037
 21
40.5022349792
  0
LINE
  5
286
100
AcDbEntity
  8
0
100
AcDbLine
 62
7
  6
BYLAYER
 10
61.5396627966
 20
40.3406161676
 11
64.4234122921
 21
42.0055397768
  0
LINE
  5
287
100
AcDbEntity
  8
0
100
AcDbLine
 62
7
  6
BYLAYER
 10
51.0732918455
 20
34.2955163914
 11
48.1883081897
 21
32.6298802436
  0
LINE
  5
288
100
AcDbEntity
  8
0
100
AcDbLine
 62
7
  6
BYLAYER
 10
61.5866262879
 20
48.2029926017
 11
61.5443436583
 21
48.2950464366
  0
LINE
  5
289
100
AcDbEntity
  8
0
100
AcDbLine
 62
7
  6
BYLAYER
 10
59.8895770786
 20
47.2232066324
 11
59.89794346
 21
46.095236801
  0
LINE
  5
28A
100
AcDbEntity
  8
0
100
AcDbLine
 62
7
  6
BYLAYER
 10
61.538464037
 20
40.5022349792
 11
61.5396627966
 21
40.3406161676
  0
LINE
  5
28B
100
AcDbEntity
  8
0
100
AcDbLine
 62
7
  6
BYLAYER
 10
61.5949926693
 20
47.0750227703
 11
61.5866262879
 21
48.2029926017
  0
LINE
  5
28C
100
AcDbEntity
  8
0
100
AcDbLine
 62
7
  6
BYLAYER
 10
60.9373844867
 20
47.99286
 11
60.9373844867
 21
47.4546844425
  0
LINE
  5
28D
100
AcDbEntity
  8
0
100
AcDbLine
 62
7
  6
BYLAYER
 10
64.8686095307
 20
53.0383013828
 11
64.8668743477
 21
53.0419202587
  0
LINE
  5
28E
100
AcDbEntity
  8
0
100
AcDbLine
 62
7
  6
BYLAYER
 10
64.8686055099
 20
42.6236919634
 11
64.8686055099
 21
53.0383034919
  0
ARC
  5
28F
100
AcDbEntity
  8
0
100
AcDbCircle
 62
7
  6
BYLAYER
 10
65.0822094068
 20
13.4617748716
 40
49.3318354428
100
AcDbArc
 50
110.3704586027
 51
111.5730081307
  0
ARC
  5
290
100
AcDbEntity
  8
0
100
AcDbCircle
 62
7
  6
BYLAYER
 10
59.9589375091
 20
24.234129044
 40
37.390146052
100
AcDbArc
 50
119.9993671022
 51
120.6339151619
  0
ARC
  5
291
100
AcDbEntity
  8
0
100
AcDbCircle
 62
7
  6
BYLAYER
 10
30.231110111
 20
40.2669603901
 40
18.6057582722
100
AcDbArc
 50
69.3724052764
 51
72.0004247876
  0
ARC
  5
292
100
AcDbEntity
  8
0
100
AcDbCircle
 62
7
  6
BYLAYER
 10
30.8464825296
 20
42.4035422704
 40
16.3765340823
100
AcDbArc
 50
81.8695339714
 51
85.6954750417
  0
ARC
  5
293
100
AcDbEntity
  8
0
100
AcDbCircle
 62
7
  6
BYLAYER
 10
42.5778780458
 20
62.7805901522
 40
16.3056337221
100
AcDbArc
 50
214.2973263699
 51
218.1399096697
  0
ARC
  5
294
100
AcDbEntity
  8
0
100
AcDbCircle
 62
7
  6
BYLAYER
 10
34.9916679345
 20
52.857066912
 40
0.936281169
100
AcDbArc
 50
355.9599854831
 51
359.9924404347
  0
SPLINE
  5
295
100
AcDbEntity
  8
0
100
AcDbSpline
 62
7
  6
BYLAYER
 70
0
 71
3
 72
15
 73
11
 74
0
 42
0.0000001
 43
0.0000001
 44
0.0000000001
 40
0.0
 40
0.0
 40
0.0
 40
0.0
 40
0.114155658
 40
0.2373279333
 40
0.3669777387
 40
0.5000016213
 40
0.633025278
 40
0.7626744253
 40
0.8858456604
 40
1.0
 40
1.0
 40
1.0
 40
1.0
 10
31.0859333473
 20
52.3797738069
 30
0.0
 10
31.0859333473
 20
52.619246813
 30
0.0
 10
31.1297958778
 20
53.1175726771
 30
0.0
 10
31.304652859
 20
53.8693517164
 30
0.0
 10
31.5847636517
 20
54.6308441192
 30
0.0
 10
31.9596599608
 20
55.3734153251
 30
0.0
 10
32.4152931877
 20
56.06937173
 30
0.0
 10
32.9347044279
 20
56.6927000522
 30
0.0
 10
33.4983297694
 20
57.2200172828
 30
0.0
 10
33.907957456
 20
57.5071633834
 30
0.0
 10
34.1153450771
 20
57.6268979675
 30
0.0
  0
SPLINE
  5
296
100
AcDbEntity
  8
0
100
AcDbSpline
 62
7
  6
BYLAYER
 70
0
 71
3
 72
12
 73
8
 74
0
 42
0.0000001
 43
0.0000001
 44
0.0000000001
 40
0.0
 40
0.0
 40
0.0
 40
0.0
 40
0.2848366821
 40
0.544387081
 40
0.7806725728
 40
0.8920067433
 40
1.0
 40
1.0
 40
1.0
 40
1.0
 10
34.1153450771
 20
57.6268979675
 30
0.0
 10
34.2755233625
 20
57.7193763917
 30
0.0
 10
34.5944766604
 20
57.8756239124
 30
0.0
 10
35.0833788083
 20
58.0194719076
 30
0.0
 10
35.480269788
 20
58.0508604995
 30
0.0
 10
35.7750332354
 20
58.0182487105
 30
0.0
 10
35.9137728949
 20
57.9837826696
 30
0.0
 10
35.9804658441
 20
57.9621130867
 30
0.0
  0
SPLINE
  5
297
100
AcDbEntity
  8
0
100
AcDbSpline
 62
7
  6
BYLAYER
 70
0
 71
3
 72
17
 73
13
 74
0
 42
0.0000001
 43
0.0000001
 44
0.0000000001
 40
0.0
 40
0.0
 40
0.0
 40
0.0
 40
0.0426084682
 40
0.0897130372
 40
0.141170625
 40
0.1965968566
 40
0.3170662363
 40
0.4467816092
 40
0.5820644357
 40
0.7203314037
 40
0.8599702092
 40
1.0
 40
1.0
 40
1.0
 40
1.0
 10
9.1930324693
 20
66.092545081
 30
0.0
 10
9.1554594539
 20
66.1142384917
 30
0.0
 10
9.0805599392
 20
66.1673441182
 30
0.0
 10
8.9758445104
 20
66.2663196693
 30
0.0
 10
8.8749313219
 20
66.3867273355
 30
0.0
 10
8.7437099169
 20
66.5777720804
 30
0.0
 10
8.6001442611
 20
66.8552944133
 30
0.0
 10
8.4675041748
 20
67.2257902569
 30
0.0
 10
8.3805199732
 20
67.6284138374
 30
0.0
 10
8.3536679172
 20
68.0502471976
 30
0.0
 10
8.4081963436
 20
68.4755801093
 30
0.0
 10
8.5153607206
 20
68.7440078438
 30
0.0
 10
8.5866527927
 20
68.8674900203
 30
0.0
  0
SPLINE
  5
298
100
AcDbEntity
  8
0
100
AcDbSpline
 62
7
  6
BYLAYER
 70
0
 71
3
 72
20
 73
16
 74
0
 42
0.0000001
 43
0.0000001
 44
0.0000000001
 40
0.0
 40
0.0
 40
0.0
 40
0.0
 40
0.0430868615
 40
0.088638193
 40
0.1377428436
 40
0.1910211494
 40
0.2486682412
 40
0.3105150787
 40
0.3761306041
 40
0.444864883
 40
0.588273192
 40
0.733528888
 40
0.8729282707
 40
0.9383989881
 40
1.0
 40
1.0
 40
1.0
 40
1.0
 10
26.7328019769
 20
55.9169335269
 30
0.0
 10
26.6855408991
 20
55.9540641365
 30
0.0
 10
26.5975855818
 20
56.0429007124
 30
0.0
 10
26.4957731568
 20
56.2074328367
 30
0.0
 10
26.4229671345
 20
56.4017303487
 30
0.0
 10
26.3800620985
 20
56.6216700334
 30
0.0
 10
26.3675887551
 20
56.8630317881
 30
0.0
 10
26.385485196
 20
57.1211678587
 30
0.0
 10
26.4334162749
 20
57.3910988113
 30
0.0
 10
26.5374723998
 20
57.7648013086
 30
0.0
 10
26.7349040155
 20
58.2254514252
 30
0.0
 10
27.0562542682
 20
58.7314830768
 30
0.0
 10
27.3841966044
 20
59.0973586558
 30
0.0
 10
27.6703871847
 20
59.335368038
 30
0.0
 10
27.8183636079
 20
59.4338095465
 30
0.0
 10
27.8927794958
 20
59.476773323
 30
0.0
  0
SPLINE
  5
299
100
AcDbEntity
  8
0
100
AcDbSpline
 62
7
  6
BYLAYER
 70
0
 71
3
 72
9
 73
5
 74
0
 42
0.0000001
 43
0.0000001
 44
0.0000000001
 40
0.0
 40
0.0
 40
0.0
 40
0.0
 40
0.5107940148
 40
1.0
 40
1.0
 40
1.0
 40
1.0
 10
28.7015325372
 20
54.2186415157
 30
0.0
 10
28.7388195689
 20
54.1558955044
 30
0.0
 10
28.8233439519
 20
54.0393733615
 30
0.0
 10
28.9307659815
 20
53.9431523121
 30
0.0
 10
28.9878061336
 20
53.9027417699
 30
0.0
  0
SPLINE
  5
29A
100
AcDbEntity
  8
0
100
AcDbSpline
 62
7
  6
BYLAYER
 70
0
 71
3
 72
17
 73
13
 74
0
 42
0.0000001
 43
0.0000001
 44
0.0000000001
 40
0.0
 40
0.0
 40
0.0
 40
0.0
 40
0.1441356293
 40
0.2925350894
 40
0.4390931503
 40
0.5779812605
 40
0.7044011113
 40
0.8155923366
 40
0.8656354891
 40
0.9124595632
 40
0.9568751622
 40
1.0
 40
1.0
 40
1.0
 40
1.0
 10
33.6705158886
 20
48.9142220105
 30
0.0
 10
33.5381660755
 20
48.8797477758
 30
0.0
 10
33.2634459351
 20
48.8318865679
 30
0.0
 10
32.8456617529
 20
48.820083883
 30
0.0
 10
32.4352073347
 20
48.8669706288
 30
0.0
 10
32.0563809978
 20
48.9698764196
 30
0.0
 10
31.7313305266
 20
49.1228404816
 30
0.0
 10
31.5127674157
 20
49.2919955513
 30
0.0
 10
31.3873559197
 20
49.4454855396
 30
0.0
 10
31.3209587022
 20
49.5628210292
 30
0.0
 10
31.280481388
 20
49.6845987708
 30
0.0
 10
31.2713004156
 20
49.7679203167
 30
0.0
 10
31.2713060067
 20
49.8088401966
 30
0.0
  0
SPLINE
  5
29B
100
AcDbEntity
  8
0
100
AcDbSpline
 62
7
  6
BYLAYER
 70
0
 71
3
 72
9
 73
5
 74
0
 42
0.0000001
 43
0.0000001
 44
0.0000000001
 40
0.0
 40
0.0
 40
0.0
 40
0.0
 40
0.5062015337
 40
1.0
 40
1.0
 40
1.0
 40
1.0
 10
33.1625641904
 20
58.6154378553
 30
0.0
 10
33.236819737
 20
58.6048346074
 30
0.0
 10
33.382109541
 20
58.5715814244
 30
0.0
 10
33.5189297021
 20
58.5121657211
 30
0.0
 10
33.582999289
 20
58.4768235882
 30
0.0
  0
SPLINE
  5
29C
100
AcDbEntity
  8
0
100
AcDbSpline
 62
7
  6
BYLAYER
 70
0
 71
3
 72
9
 73
5
 74
0
 42
0.0000001
 43
0.0000001
 44
0.0000000001
 40
0.0
 40
0.0
 40
0.0
 40
0.0
 40
0.2429674397
 40
1.0
 40
1.0
 40
1.0
 40
1.0
 10
35.7389674887
 20
52.6813649672
 30
0.0
 10
35.7273161756
 20
52.6639963816
 30
0.0
 10
35.6776684787
 20
52.5936533017
 30
0.0
 10
35.6215487949
 20
52.5279490619
 30
0.0
 10
35.5763972026
 20
52.4809613326
 30
0.0
  0
SPLINE
  5
29D
100
AcDbEntity
  8
0
100
AcDbSpline
 62
7
  6
BYLAYER
 70
0
 71
3
 72
9
 73
5
 74
0
 42
0.0000001
 43
0.0000001
 44
0.0000000001
 40
0.0
 40
0.0
 40
0.0
 40
0.0
 40
0.5135313921
 40
1.0
 40
1.0
 40
1.0
 40
1.0
 10
40.9067576802
 20
56.4061272032
 30
0.0
 10
40.0103672495
 20
55.8752559034
 30
0.0
 10
38.3072830478
 20
54.7673850954
 30
0.0
 10
36.7173779747
 20
53.5008007004
 30
0.0
 10
35.9805105493
 20
52.84430449
 30
0.0
  0
SPLINE
  5
29E
100
AcDbEntity
  8
0
100
AcDbSpline
 62
7
  6
BYLAYER
 70
0
 71
3
 72
9
 73
5
 74
0
 42
0.0000001
 43
0.0000001
 44
0.0000000001
 40
0.0
 40
0.0
 40
0.0
 40
0.0
 40
0.5103980227
 40
1.0
 40
1.0
 40
1.0
 40
1.0
 10
46.9435596449
 20
59.3379056256
 30
0.0
 10
45.9464426511
 20
58.94356374
 30
0.0
 10
44.0177763645
 20
58.1058968186
 30
0.0
 10
42.1549945782
 20
57.1294365041
 30
0.0
 10
41.2642221676
 20
56.6151518829
 30
0.0
  0
SPLINE
  5
29F
100
AcDbEntity
  8
0
100
AcDbSpline
 62
7
  6
BYLAYER
 70
0
 71
3
 72
9
 73
5
 74
0
 42
0.0000001
 43
0.0000001
 44
0.0000000001
 40
0.0
 40
0.0
 40
0.0
 40
0.0
 40
0.2434103827
 40
1.0
 40
1.0
 40
1.0
 40
1.0
 10
48.6279680918
 20
59.9340282507
 30
0.0
 10
48.5799460487
 20
59.916973699
 30
0.0
 10
48.3811740442
 20
59.8511232916
 30
0.0
 10
48.1770866354
 20
59.8016173085
 30
0.0
 10
48.021372332
 20
59.7725723809
 30
0.0
  0
SPLINE
  5
2A0
100
AcDbEntity
  8
0
100
AcDbSpline
 62
7
  6
BYLAYER
 70
0
 71
3
 72
11
 73
7
 74
0
 42
0.0000001
 43
0.0000001
 44
0.0000000001
 40
0.0
 40
0.0
 40
0.0
 40
0.0
 40
0.223756107
 40
0.4638588125
 40
0.7225791831
 40
1.0
 40
1.0
 40
1.0
 40
1.0
 10
29.1074090565
 20
53.5925892079
 30
0.0
 10
29.0600602529
 20
53.6619929034
 30
0.0
 10
28.9762841973
 20
53.8160223692
 30
0.0
 10
28.8887495921
 20
54.0739504427
 30
0.0
 10
28.8364253307
 20
54.3615889837
 30
0.0
 10
28.8255792786
 20
54.5631473893
 30
0.0
 10
28.8255792786
 20
54.6673141209
 30
0.0
  0
SPLINE
  5
2A1
100
AcDbEntity
  8
0
100
AcDbSpline
 62
7
  6
BYLAYER
 70
0
 71
3
 72
9
 73
5
 74
0
 42
0.0000001
 43
0.0000001
 44
0.0000000001
 40
0.0
 40
0.0
 40
0.0
 40
0.0
 40
0.4811725711
 40
1.0
 40
1.0
 40
1.0
 40
1.0
 10
47.8028906609
 20
43.3153001026
 30
0.0
 10
47.8285152186
 20
43.2972544094
 30
0.0
 10
47.8762788023
 20
43.2518334524
 30
0.0
 10
47.9130078845
 20
43.1974455508
 30
0.0
 10
47.9289788758
 20
43.1676639282
 30
0.0
  0
SPLINE
  5
2A2
100
AcDbEntity
  8
0
100
AcDbSpline
 62
7
  6
BYLAYER
 70
0
 71
3
 72
9
 73
5
 74
0
 42
0.0000001
 43
0.0000001
 44
0.0000000001
 40
0.0
 40
0.0
 40
0.0
 40
0.0
 40
0.254559399
 40
1.0
 40
1.0
 40
1.0
 40
1.0
 10
47.9289788758
 20
43.1676639282
 30
0.0
 10
47.9328462637
 20
43.1604522855
 30
0.0
 10
47.9473137424
 20
43.131744049
 30
0.0
 10
47.9589253423
 20
43.1015612533
 30
0.0
 10
47.9655236272
 20
43.0785243016
 30
0.0
  0
SPLINE
  5
2A3
100
AcDbEntity
  8
0
100
AcDbSpline
 62
7
  6
BYLAYER
 70
0
 71
3
 72
9
 73
5
 74
0
 42
0.0000001
 43
0.0000001
 44
0.0000000001
 40
0.0
 40
0.0
 40
0.0
 40
0.0
 40
0.2636049697
 40
1.0
 40
1.0
 40
1.0
 40
1.0
 10
47.9655236272
 20
43.0785243016
 30
0.0
 10
47.9678046012
 20
43.0705606126
 30
0.0
 10
47.9755004586
 20
43.0400938102
 30
0.0
 10
47.9794672197
 20
43.008610476
 30
0.0
 10
47.9796388607
 20
42.9854695495
 30
0.0
  0
SPLINE
  5
2A4
100
AcDbEntity
  8
0
100
AcDbSpline
 62
7
  6
BYLAYER
 70
0
 71
3
 72
15
 73
11
 74
0
 42
0.0000001
 43
0.0000001
 44
0.0000000001
 40
0.0
 40
0.0
 40
0.0
 40
0.0
 40
0.1141231812
 40
0.2373468278
 40
0.366971913
 40
0.4999994099
 40
0.6330269884
 40
0.76265231
 40
0.885876356
 40
1.0
 40
1.0
 40
1.0
 40
1.0
 10
48.1883081897
 20
32.6298802436
 30
0.0
 10
48.1147501079
 20
32.5874117188
 30
0.0
 10
47.9538312983
 20
32.5125141429
 30
0.0
 10
47.6918445976
 20
32.4328344396
 30
0.0
 10
47.4081545412
 20
32.3838483419
 30
0.0
 10
47.113507843
 20
32.3672810203
 30
0.0
 10
46.8188608893
 20
32.3838469098
 30
0.0
 10
46.5351700569
 20
32.4328316401
 30
0.0
 10
46.2731821381
 20
32.5125101293
 30
0.0
 10
46.1122622612
 20
32.58740691
 30
0.0
 10
46.0387035749
 20
32.6298750766
 30
0.0
  0
SPLINE
  5
2A5
100
AcDbEntity
  8
0
100
AcDbSpline
 62
7
  6
BYLAYER
 70
0
 71
3
 72
9
 73
5
 74
0
 42
0.0000001
 43
0.0000001
 44
0.0000000001
 40
0.0
 40
0.0
 40
0.0
 40
0.0
 40
0.4811573249
 40
1.0
 40
1.0
 40
1.0
 40
1.0
 10
30.2531614342
 20
52.1057163436
 30
0.0
 10
30.1744321326
 20
52.1899189788
 30
0.0
 10
30.032960394
 20
52.3864190578
 30
0.0
 10
29.9378683713
 20
52.6082047598
 30
0.0
 10
29.8990649645
 20
52.7262968955
 30
0.0
  0
SPLINE
  5
2A6
100
AcDbEntity
  8
0
100
AcDbSpline
 62
7
  6
BYLAYER
 70
0
 71
3
 72
17
 73
13
 74
0
 42
0.0000001
 43
0.0000001
 44
0.0000000001
 40
0.0
 40
0.0
 40
0.0
 40
0.0
 40
0.1015001322
 40
0.1574438008
 40
0.2166090408
 40
0.3431596323
 40
0.4776427038
 40
0.6154138298
 40
0.7514638024
 40
0.880956679
 40
0.9420278497
 40
1.0
 40
1.0
 40
1.0
 40
1.0
 10
29.8990649645
 20
52.7262968955
 30
0.0
 10
29.8318995103
 20
52.9307045128
 30
0.0
 10
29.7754997866
 20
53.2642724799
 30
0.0
 10
29.7709053183
 20
53.7236507489
 30
0.0
 10
29.8154278833
 20
54.2348036599
 30
0.0
 10
29.9641178988
 20
54.9003438848
 30
0.0
 10
30.2683979514
 20
55.6918870706
 30
0.0
 10
30.6866495613
 20
56.4526913984
 30
0.0
 10
31.1965513426
 20
57.1420736829
 30
0.0
 10
31.6851788593
 20
57.6368958251
 30
0.0
 10
32.0998045884
 20
57.9628215073
 30
0.0
 10
32.3118564331
 20
58.1004891767
 30
0.0
 10
32.4182817368
 20
58.1619334876
 30
0.0
  0
SPLINE
  5
2A7
100
AcDbEntity
  8
0
100
AcDbSpline
 62
7
  6
BYLAYER
 70
0
 71
3
 72
11
 73
7
 74
0
 42
0.0000001
 43
0.0000001
 44
0.0000000001
 40
0.0
 40
0.0
 40
0.0
 40
0.0
 40
0.245226931
 40
0.4997873988
 40
0.7544572539
 40
1.0
 40
1.0
 40
1.0
 40
1.0
 10
47.8065738164
 20
59.9631055737
 30
0.0
 10
47.6971776994
 20
59.9954715766
 30
0.0
 10
47.468665795
 20
60.0435443171
 30
0.0
 10
47.1174886605
 20
60.0676119463
 30
0.0
 10
46.7660918409
 20
60.044634482
 30
0.0
 10
46.537230353
 20
59.9972912782
 30
0.0
 10
46.427575356
 20
59.9652851125
 30
0.0
  0
SPLINE
  5
2A8
100
AcDbEntity
  8
0
100
AcDbSpline
 62
7
  6
BYLAYER
 70
0
 71
3
 72
9
 73
5
 74
0
 42
0.0000001
 43
0.0000001
 44
0.0000000001
 40
0.0
 40
0.0
 40
0.0
 40
0.0
 40
0.5125119776
 40
1.0
 40
1.0
 40
1.0
 40
1.0
 10
46.9720961171
 20
59.6978772497
 30
0.0
 10
46.7489643107
 20
59.7065379549
 30
0.0
 10
46.3142138774
 20
59.7534286445
 30
0.0
 10
45.8904425147
 20
59.8634091009
 30
0.0
 10
45.690371582
 20
59.9347119268
 30
0.0
  0
SPLINE
  5
2A9
100
AcDbEntity
  8
0
100
AcDbSpline
 62
7
  6
BYLAYER
 70
0
 71
3
 72
11
 73
7
 74
0
 42
0.0000001
 43
0.0000001
 44
0.0000000001
 40
0.0
 40
0.0
 40
0.0
 40
0.0
 40
0.2177821605
 40
0.4509085882
 40
0.7102951949
 40
1.0
 40
1.0
 40
1.0
 40
1.0
 10
64.8685979253
 20
42.6236919634
 30
0.0
 10
64.8685979091
 20
42.565798198
 30
0.0
 10
64.8472035677
 20
42.4451293572
 30
0.0
 10
64.7557250011
 20
42.2769987425
 30
0.0
 10
64.6111102171
 20
42.1250152197
 30
0.0
 10
64.4901077829
 20
42.0416724462
 30
0.0
 10
64.4234122921
 20
42.0031660165
 30
0.0
  0
SPLINE
  5
2AA
100
AcDbEntity
  8
0
100
AcDbSpline
 62
7
  6
BYLAYER
 70
0
 71
3
 72
9
 73
5
 74
0
 42
0.0000001
 43
0.0000001
 44
0.0000000001
 40
0.0
 40
0.0
 40
0.0
 40
0.0
 40
0.2414863352
 40
1.0
 40
1.0
 40
1.0
 40
1.0
 10
49.4340433371
 20
44.1971814972
 30
0.0
 10
49.440499137
 20
44.1910321976
 30
0.0
 10
49.4662843847
 20
44.1645824493
 30
0.0
 10
49.488542911
 20
44.1347602294
 30
0.0
 10
49.5033053481
 20
44.1109624972
 30
0.0
  0
SPLINE
  5
2AB
100
AcDbEntity
  8
0
100
AcDbSpline
 62
7
  6
BYLAYER
 70
0
 71
3
 72
9
 73
5
 74
0
 42
0.0000001
 43
0.0000001
 44
0.0000000001
 40
0.0
 40
0.0
 40
0.0
 40
0.0
 40
0.525436358
 40
1.0
 40
1.0
 40
1.0
 40
1.0
 10
49.5033053481
 20
44.1109624972
 30
0.0
 10
49.5236179222
 20
44.0782176869
 30
0.0
 10
49.5550475333
 20
44.0111099806
 30
0.0
 10
49.5685638431
 20
43.93778739
 30
0.0
 10
49.568821974
 20
43.9029857446
 30
0.0
  0
SPLINE
  5
2AC
100
AcDbEntity
  8
0
100
AcDbSpline
 62
7
  6
BYLAYER
 70
0
 71
3
 72
9
 73
5
 74
0
 42
0.0000001
 43
0.0000001
 44
0.0000000001
 40
0.0
 40
0.0
 40
0.0
 40
0.0
 40
0.2424739974
 40
1.0
 40
1.0
 40
1.0
 40
1.0
 10
49.3938742947
 20
44.2338494488
 30
0.0
 10
49.3974810894
 20
44.2313094202
 30
0.0
 10
49.4121350716
 20
44.220519363
 30
0.0
 10
49.4258644622
 20
44.2085081569
 30
0.0
 10
49.4358438105
 20
44.1990025953
 30
0.0
  0
SPLINE
  5
2AD
100
AcDbEntity
  8
0
100
AcDbSpline
 62
7
  6
BYLAYER
 70
0
 71
3
 72
10
 73
6
 74
0
 42
0.0000001
 43
0.0000001
 44
0.0000000001
 40
0.0
 40
0.0
 40
0.0
 40
0.0
 40
0.4727694829
 40
0.7297472747
 40
1.0
 40
1.0
 40
1.0
 40
1.0
 10
31.3040273796
 20
51.202434945
 30
0.0
 10
31.2283313604
 20
51.3764613986
 30
0.0
 10
31.1469044285
 20
51.6612750956
 30
0.0
 10
31.0945175455
 20
52.0594476518
 30
0.0
 10
31.0859333473
 20
52.2712904982
 30
0.0
 10
31.0859333473
 20
52.3797738069
 30
0.0
  0
SPLINE
  5
2AE
100
AcDbEntity
  8
0
100
AcDbSpline
 62
7
  6
BYLAYER
 70
0
 71
3
 72
11
 73
7
 74
0
 42
0.0000001
 43
0.0000001
 44
0.0000000001
 40
0.0
 40
0.0
 40
0.0
 40
0.0
 40
0.2897052857
 40
0.5490919933
 40
0.7822182543
 40
1.0
 40
1.0
 40
1.0
 40
1.0
 10
29.8034642855
 20
42.0030828004
 30
0.0
 10
29.736767547
 20
42.0415893092
 30
0.0
 10
29.6157628174
 20
42.1249323696
 30
0.0
 10
29.4711451133
 20
42.2769170259
 30
0.0
 10
29.3796645829
 20
42.4450492616
 30
0.0
 10
29.3582696865
 20
42.5657195132
 30
0.0
 10
29.3582697027
 20
42.6236139142
 30
0.0
  0
SPLINE
  5
2AF
100
AcDbEntity
  8
0
100
AcDbSpline
 62
7
  6
BYLAYER
 70
0
 71
3
 72
11
 73
7
 74
0
 42
0.0000001
 43
0.0000001
 44
0.0000000001
 40
0.0
 40
0.0
 40
0.0
 40
0.0
 40
0.2531305436
 40
0.50554594
 40
0.7555376627
 40
1.0
 40
1.0
 40
1.0
 40
1.0
 10
8.5866527927
 20
68.8674900203
 30
0.0
 10
8.6583146278
 20
68.9916126486
 30
0.0
 10
8.8383223534
 20
69.2196986692
 30
0.0
 10
9.1816950941
 20
69.4803496258
 30
0.0
 10
9.5627613352
 20
69.66808576
 30
0.0
 10
9.830516434
 20
69.7533236093
 30
0.0
 10
9.9649320378
 20
69.7863616004
 30
0.0
  0
SPLINE
  5
2B0
100
AcDbEntity
  8
0
100
AcDbSpline
 62
7
  6
BYLAYER
 70
0
 71
3
 72
13
 73
9
 74
0
 42
0.0000001
 43
0.0000001
 44
0.0000000001
 40
0.0
 40
0.0
 40
0.0
 40
0.0
 40
0.2903575274
 40
0.55997247
 40
0.6839512061
 40
0.799094577
 40
0.9045380324
 40
1.0
 40
1.0
 40
1.0
 40
1.0
 10
9.9649320378
 20
69.7863616004
 30
0.0
 10
10.0923873373
 20
69.8176888193
 30
0.0
 10
10.3423128233
 20
69.8624412823
 30
0.0
 10
10.6523795454
 20
69.8763023635
 30
0.0
 10
10.8818754634
 20
69.8578650115
 30
0.0
 10
11.0355272146
 20
69.830612417
 30
0.0
 10
11.1727151846
 20
69.7895489523
 30
0.0
 10
11.2556288002
 20
69.7513892654
 30
0.0
 10
11.2929985481
 20
69.7298132146
 30
0.0
  0
SPLINE
  5
2B1
100
AcDbEntity
  8
0
100
AcDbSpline
 62
7
  6
BYLAYER
 70
0
 71
3
 72
11
 73
7
 74
0
 42
0.0000001
 43
0.0000001
 44
0.0000000001
 40
0.0
 40
0.0
 40
0.0
 40
0.0
 40
0.2866196499
 40
0.5464075636
 40
0.7817500481
 40
1.0
 40
1.0
 40
1.0
 40
1.0
 10
27.8927794958
 20
59.476773323
 30
0.0
 10
27.9776976599
 20
59.5258005552
 30
0.0
 10
28.1467497764
 20
59.6078264354
 30
0.0
 10
28.4061994831
 20
59.6797141785
 30
0.0
 10
28.652346691
 20
59.6912157712
 30
0.0
 10
28.8060854942
 20
59.6558646601
 30
0.0
 10
28.8753972947
 20
59.6281023134
 30
0.0
  0
SPLINE
  5
2B2
100
AcDbEntity
  8
0
100
AcDbSpline
 62
7
  6
BYLAYER
 70
0
 71
3
 72
11
 73
7
 74
0
 42
0.0000001
 43
0.0000001
 44
0.0000000001
 40
0.0
 40
0.0
 40
0.0
 40
0.0
 40
0.2825029448
 40
0.5420148339
 40
0.7797231121
 40
1.0
 40
1.0
 40
1.0
 40
1.0
 10
32.4182817368
 20
58.1619334876
 30
0.0
 10
32.5476277516
 20
58.2366109983
 30
0.0
 10
32.8053225607
 20
58.3644539634
 30
0.0
 10
33.2002190328
 20
58.489304858
 30
0.0
 10
33.5791445089
 20
58.5356230524
 30
0.0
 10
33.822769741
 20
58.5114216802
 30
0.0
 10
33.9362128314
 20
58.4850961992
 30
0.0
  0
SPLINE
  5
2B3
100
AcDbEntity
  8
0
100
AcDbSpline
 62
7
  6
BYLAYER
 70
0
 71
3
 72
9
 73
5
 74
0
 42
0.0000001
 43
0.0000001
 44
0.0000000001
 40
0.0
 40
0.0
 40
0.0
 40
0.0
 40
0.4895920325
 40
1.0
 40
1.0
 40
1.0
 40
1.0
 10
31.7173056053
 20
58.6954864411
 30
0.0
 10
31.6576508238
 20
58.7204076761
 30
0.0
 10
31.5301784147
 20
58.7585992709
 30
0.0
 10
31.3979330211
 20
58.7714695959
 30
0.0
 10
31.330538508
 20
58.7723164491
 30
0.0
  0
SPLINE
  5
2B4
100
AcDbEntity
  8
0
100
AcDbSpline
 62
7
  6
BYLAYER
 70
0
 71
3
 72
9
 73
5
 74
0
 42
0.0000001
 43
0.0000001
 44
0.0000000001
 40
0.0
 40
0.0
 40
0.0
 40
0.0
 40
0.2590398995
 40
1.0
 40
1.0
 40
1.0
 40
1.0
 10
31.0040622865
 20
58.44057832
 30
0.0
 10
31.0369218486
 20
58.4595496837
 30
0.0
 10
31.1651949968
 20
58.5302636117
 30
0.0
 10
31.2992992235
 20
58.590655963
 30
0.0
 10
31.4013037345
 20
58.6277277933
 30
0.0
  0
SPLINE
  5
2B5
100
AcDbEntity
  8
0
100
AcDbSpline
 62
7
  6
BYLAYER
 70
0
 71
3
 72
9
 73
5
 74
0
 42
0.0000001
 43
0.0000001
 44
0.0000000001
 40
0.0
 40
0.0
 40
0.0
 40
0.0
 40
0.5232613115
 40
1.0
 40
1.0
 40
1.0
 40
1.0
 10
31.4013037345
 20
58.6277277933
 30
0.0
 10
31.5138368928
 20
58.6686260841
 30
0.0
 10
31.7360090694
 20
58.7292569322
 30
0.0
 10
31.96687171
 20
58.7420363493
 30
0.0
 10
32.0756536156
 20
58.7338547002
 30
0.0
  0
SPLINE
  5
2B6
100
AcDbEntity
  8
0
100
AcDbSpline
 62
7
  6
BYLAYER
 70
0
 71
3
 72
9
 73
5
 74
0
 42
0.0000001
 43
0.0000001
 44
0.0000000001
 40
0.0
 40
0.0
 40
0.0
 40
0.0
 40
0.4941074361
 40
1.0
 40
1.0
 40
1.0
 40
1.0
 10
30.0228713928
 20
52.4550684034
 30
0.0
 10
29.9724285224
 20
52.489944372
 30
0.0
 10
29.8757655053
 20
52.5686897965
 30
0.0
 10
29.7922014006
 20
52.6611281602
 30
0.0
 10
29.7534351006
 20
52.7105197678
 30
0.0
  0
SPLINE
  5
2B7
100
AcDbEntity
  8
0
100
AcDbSpline
 62
7
  6
BYLAYER
 70
0
 71
3
 72
15
 73
11
 74
0
 42
0.0000001
 43
0.0000001
 44
0.0000000001
 40
0.0
 40
0.0
 40
0.0
 40
0.0
 40
0.1141475829
 40
0.2373370756
 40
0.3669780685
 40
0.5000016033
 40
0.6330249151
 40
0.7626652568
 40
0.8858537231
 40
1.0
 40
1.0
 40
1.0
 40
1.0
 10
28.8255792786
 20
54.6673141209
 30
0.0
 10
28.8255792786
 20
54.83950927
 30
0.0
 10
28.85714173
 20
55.1978711062
 30
0.0
 10
28.9828514562
 20
55.7384912278
 30
0.0
 10
29.1843265012
 20
56.2860843795
 30
0.0
 10
29.4538860893
 20
56.8200740153
 30
0.0
 10
29.7815518959
 20
57.3205150737
 30
0.0
 10
30.1550402731
 20
57.7687935199
 30
0.0
 10
30.5603719483
 20
58.1479693677
 30
0.0
 10
30.8549383966
 20
58.3544821159
 30
0.0
 10
31.0040622865
 20
58.44057832
 30
0.0
  0
SPLINE
  5
2B8
100
AcDbEntity
  8
0
100
AcDbSpline
 62
7
  6
BYLAYER
 70
0
 71
3
 72
10
 73
6
 74
0
 42
0.0000001
 43
0.0000001
 44
0.0000000001
 40
0.0
 40
0.0
 40
0.0
 40
0.0
 40
0.2300598245
 40
0.5998902369
 40
1.0
 40
1.0
 40
1.0
 40
1.0
 10
59.6127003537
 20
44.2314498385
 30
0.0
 10
59.6514259591
 20
44.2357688177
 30
0.0
 10
59.7517381308
 20
44.253616971
 30
0.0
 10
59.9131538876
 20
44.3072220171
 30
0.0
 10
60.0301714952
 20
44.3657506082
 30
0.0
 10
60.0888598821
 20
44.3996341619
 30
0.0
  0
SPLINE
  5
2B9
100
AcDbEntity
  8
0
100
AcDbSpline
 62
7
  6
BYLAYER
 70
0
 71
3
 72
17
 73
13
 74
0
 42
0.0000001
 43
0.0000001
 44
0.0000000001
 40
0.0
 40
0.0
 40
0.0
 40
0.0
 40
0.0950216485
 40
0.14814595
 40
0.2050582545
 40
0.3291440094
 40
0.4639767847
 40
0.6043355949
 40
0.7442375137
 40
0.8777470246
 40
0.9405878561
 40
1.0
 40
1.0
 40
1.0
 40
1.0
 10
28.4398369062
 20
54.6592257826
 30
0.0
 10
28.3667406837
 20
54.7822682692
 30
0.0
 10
28.2906976088
 20
54.9974409833
 30
0.0
 10
28.2479715689
 20
55.3035320714
 30
0.0
 10
28.2414551909
 20
55.6569772402
 30
0.0
 10
28.3097623972
 20
56.1309012637
 30
0.0
 10
28.4951254288
 20
56.7054452067
 30
0.0
 10
28.7749200756
 20
57.2671174715
 30
0.0
 10
29.1316306796
 20
57.7807002988
 30
0.0
 10
29.481848321
 20
58.1500723896
 30
0.0
 10
29.7823115724
 20
58.3918722633
 30
0.0
 10
29.9366142081
 20
58.493084837
 30
0.0
 10
30.0141095403
 20
58.5378265208
 30
0.0
  0
SPLINE
  5
2BA
100
AcDbEntity
  8
0
100
AcDbSpline
 62
7
  6
BYLAYER
 70
0
 71
3
 72
15
 73
11
 74
0
 42
0.0000001
 43
0.0000001
 44
0.0000000001
 40
0.0
 40
0.0
 40
0.0
 40
0.0
 40
0.1141536803
 40
0.2373245991
 40
0.3669741054
 40
0.4999983967
 40
0.6330229109
 40
0.7626730686
 40
0.8858450136
 40
1.0
 40
1.0
 40
1.0
 40
1.0
 10
33.5500130079
 20
57.8283894898
 30
0.0
 10
33.3500310037
 20
57.712930515
 30
0.0
 10
32.9550293822
 20
57.4360387999
 30
0.0
 10
32.4115269673
 20
56.9275509196
 30
0.0
 10
31.9106581426
 20
56.3264777529
 30
0.0
 10
31.4712903279
 20
55.6553669144
 30
0.0
 10
31.1097781214
 20
54.9393048634
 30
0.0
 10
30.8396696296
 20
54.204998453
 30
0.0
 10
30.6710578887
 20
53.4800613518
 30
0.0
 10
30.6287629176
 20
52.9995294498
 30
0.0
 10
30.6287629176
 20
52.7686078244
 30
0.0
  0
SPLINE
  5
2BB
100
AcDbEntity
  8
0
100
AcDbSpline
 62
7
  6
BYLAYER
 70
0
 71
3
 72
10
 73
6
 74
0
 42
0.0000001
 43
0.0000001
 44
0.0000000001
 40
0.0
 40
0.0
 40
0.0
 40
0.0
 40
0.2257445702
 40
0.593640578
 40
1.0
 40
1.0
 40
1.0
 40
1.0
 10
31.330538508
 20
58.7723164491
 30
0.0
 10
31.2599987167
 20
58.7732028246
 30
0.0
 10
31.0740880681
 20
58.7590172886
 30
0.0
 10
30.7705796516
 20
58.6756661581
 30
0.0
 10
30.5517327078
 20
58.5695850299
 30
0.0
 10
30.4417580158
 20
58.5060914909
 30
0.0
  0
SPLINE
  5
2BC
100
AcDbEntity
  8
0
100
AcDbSpline
 62
7
  6
BYLAYER
 70
0
 71
3
 72
11
 73
7
 74
0
 42
0.0000001
 43
0.0000001
 44
0.0000000001
 40
0.0
 40
0.0
 40
0.0
 40
0.0
 40
0.2372428732
 40
0.4999994739
 40
0.7627563609
 40
1.0
 40
1.0
 40
1.0
 40
1.0
 10
48.0557040274
 20
46.2453600768
 30
0.0
 10
48.0775388493
 20
46.2579663418
 30
0.0
 10
48.1283156376
 20
46.2763596051
 30
0.0
 10
48.2094995105
 20
46.285172814
 30
0.0
 10
48.290683506
 20
46.2763599756
 30
0.0
 10
48.3414604939
 20
46.2579669644
 30
0.0
 10
48.3632954772
 20
46.2453608161
 30
0.0
  0
SPLINE
  5
2BD
100
AcDbEntity
  8
0
100
AcDbSpline
 62
7
  6
BYLAYER
 70
0
 71
3
 72
11
 73
7
 74
0
 42
0.0000001
 43
0.0000001
 44
0.0000000001
 40
0.0
 40
0.0
 40
0.0
 40
0.0
 40
0.2823323514
 40
0.5417908643
 40
0.7796029928
 40
1.0
 40
1.0
 40
1.0
 40
1.0
 10
30.6287629176
 20
52.7686078244
 30
0.0
 10
30.6287629176
 20
52.6046056041
 30
0.0
 10
30.6485402671
 20
52.2893080505
 30
0.0
 10
30.7459980549
 20
51.8449174187
 30
0.0
 10
30.9089149672
 20
51.4583687171
 30
0.0
 10
31.0646405819
 20
51.238933981
 30
0.0
 10
31.1514729787
 20
51.1448566999
 30
0.0
  0
SPLINE
  5
2BE
100
AcDbEntity
  8
0
100
AcDbSpline
 62
7
  6
BYLAYER
 70
0
 71
3
 72
11
 73
7
 74
0
 42
0.0000001
 43
0.0000001
 44
0.0000000001
 40
0.0
 40
0.0
 40
0.0
 40
0.0
 40
0.2177827477
 40
0.4509152641
 40
0.7103063952
 40
1.0
 40
1.0
 40
1.0
 40
1.0
 10
31.2713060067
 20
49.8088401966
 30
0.0
 10
31.2713148538
 20
49.8735900663
 30
0.0
 10
31.295228999
 20
50.0085508381
 30
0.0
 10
31.3975480509
 20
50.1965954218
 30
0.0
 10
31.5592902959
 20
50.3665736779
 30
0.0
 10
31.6946207971
 20
50.4597847024
 30
0.0
 10
31.7692116576
 20
50.5028494987
 30
0.0
  0
SPLINE
  5
2BF
100
AcDbEntity
  8
0
100
AcDbSpline
 62
7
  6
BYLAYER
 70
0
 71
3
 72
11
 73
7
 74
0
 42
0.0000001
 43
0.0000001
 44
0.0000000001
 40
0.0
 40
0.0
 40
0.0
 40
0.0
 40
0.2342364172
 40
0.4935228155
 40
0.7562967782
 40
1.0
 40
1.0
 40
1.0
 40
1.0
 10
49.2063985908
 20
43.6937353821
 30
0.0
 10
49.2061751295
 20
43.7238628085
 30
0.0
 10
49.1960050654
 20
43.7873963644
 30
0.0
 10
49.1585244069
 20
43.8779199663
 30
0.0
 10
49.1030652026
 20
43.9600678143
 30
0.0
 10
49.0552788727
 20
44.0055174787
 30
0.0
 10
49.029650391
 20
44.0235659352
 30
0.0
  0
SPLINE
  5
2C0
100
AcDbEntity
  8
0
100
AcDbSpline
 62
7
  6
BYLAYER
 70
0
 71
3
 72
9
 73
5
 74
0
 42
0.0000001
 43
0.0000001
 44
0.0000000001
 40
0.0
 40
0.0
 40
0.0
 40
0.0
 40
0.5131511786
 40
1.0
 40
1.0
 40
1.0
 40
1.0
 10
40.910667305
 20
56.4110210516
 30
0.0
 10
40.0076309925
 20
55.8896559056
 30
0.0
 10
38.2883436052
 20
54.8012066812
 30
0.0
 10
36.676441939
 20
53.5577317575
 30
0.0
 10
35.9262810385
 20
52.9127904377
 30
0.0
  0
SPLINE
  5
2C1
100
AcDbEntity
  8
0
100
AcDbSpline
 62
7
  6
BYLAYER
 70
0
 71
3
 72
44
 73
40
 74
0
 42
0.0000001
 43
0.0000001
 44
0.0000000001
 40
0.0
 40
0.0
 40
0.0
 40
0.0
 40
0.1263856104
 40
0.2526549412
 40
0.3157372144
 40
0.378778248
 40
0.4417718001
 40
0.5047098272
 40
0.5675816739
 40
0.6303726875
 40
0.6930617447
 40
0.7243585716
 40
0.7556163885
 40
0.786827593
 40
0.8179817279
 40
0.849063684
 40
0.8645708184
 40
0.8800502119
 40
0.8954964069
 40
0.9109018717
 40
0.9262557131
 40
0.9415410975
 40
0.9491499795
 40
0.9567295198
 40
0.9642717922
 40
0.9717645183
 40
0.9791867875
 40
0.9828601734
 40
0.9864974183
 40
0.9900831956
 40
0.9935872247
 40
0.9952890994
 40
0.9961205006
 40
0.9969336554
 40
0.9977222393
 40
0.9984764318
 40
0.9991897716
 40
0.9995603286
 40
1.0
 40
1.0
 40
1.0
 40
1.0
 10
47.710532433
 20
42.832137543
 30
0.0
 10
47.7218086628
 20
42.4013353734
 30
0.0
 10
47.7449157695
 20
41.5401420431
 30
0.0
 10
47.7755177824
 20
40.4639754936
 30
0.0
 10
47.8012779613
 20
39.6037524104
 30
0.0
 10
47.8213202922
 20
38.959213019
 30
0.0
 10
47.8421977246
 20
38.3151921926
 30
0.0
 10
47.8640498536
 20
37.6717808482
 30
0.0
 10
47.8870596888
 20
37.0291007709
 30
0.0
 10
47.9114784507
 20
36.3873220796
 30
0.0
 10
47.9333069266
 20
35.8531889143
 30
0.0
 10
47.9519335639
 20
35.426539015
 30
0.0
 10
47.9665778663
 20
35.1071514281
 30
0.0
 10
47.9820323247
 20
34.7882889893
 30
0.0
 10
47.9984748226
 20
34.4700762621
 30
0.0
 10
48.0132195208
 20
34.2053966644
 30
0.0
 10
48.0258368433
 20
33.9941316782
 30
0.0
 10
48.0357739312
 20
33.8361171882
 30
0.0
 10
48.0462835372
 20
33.6784870621
 30
0.0
 10
48.0574917315
 20
33.5213339667
 30
0.0
 10
48.0695794314
 20
33.3647957499
 30
0.0
 10
48.0806251862
 20
33.2348437891
 30
0.0
 10
48.0902804245
 20
33.1313831173
 30
0.0
 10
48.0980103896
 20
33.0542616893
 30
0.0
 10
48.1063667315
 20
32.9776033493
 30
0.0
 10
48.1155477239
 20
32.901579109
 30
0.0
 10
48.1241722772
 20
32.838780418
 30
0.0
 10
48.1319867589
 20
32.7891540602
 30
0.0
 10
48.1384199097
 20
32.7525572429
 30
0.0
 10
48.145680167
 20
32.7167044429
 30
0.0
 10
48.1528061787
 20
32.6875656942
 30
0.0
 10
48.1589157609
 20
32.667896219
 30
0.0
 10
48.1628766156
 20
32.6571897805
 30
0.0
 10
48.1661380765
 20
32.6495617138
 30
0.0
 10
48.1698352758
 20
32.642397442
 30
0.0
 10
48.1741770357
 20
32.6360821824
 30
0.0
 10
48.1789811023
 20
32.6316436299
 30
0.0
 10
48.1842529789
 20
32.6305945452
 30
0.0
 10
48.1870098497
 20
32.6315044115
 30
0.0
 10
48.1883081897
 20
32.6322540039
 30
0.0
  0
SPLINE
  5
2C2
100
AcDbEntity
  8
0
100
AcDbSpline
 62
7
  6
BYLAYER
 70
0
 71
3
 72
9
 73
5
 74
0
 42
0.0000001
 43
0.0000001
 44
0.0000000001
 40
0.0
 40
0.0
 40
0.0
 40
0.0
 40
0.4868488214
 40
1.0
 40
1.0
 40
1.0
 40
1.0
 10
35.9262810385
 20
53.3210416463
 30
0.0
 10
36.676441939
 20
53.9659829661
 30
0.0
 10
38.2883436052
 20
55.2094578898
 30
0.0
 10
40.0076309925
 20
56.2979071141
 30
0.0
 10
40.910667305
 20
56.8192722601
 30
0.0
  0
SPLINE
  5
2C3
100
AcDbEntity
  8
0
100
AcDbSpline
 62
7
  6
BYLAYER
 70
0
 71
3
 72
11
 73
7
 74
0
 42
0.0000001
 43
0.0000001
 44
0.0000000001
 40
0.0
 40
0.0
 40
0.0
 40
0.0
 40
0.2710978017
 40
0.5254629424
 40
0.7667368111
 40
1.0
 40
1.0
 40
1.0
 40
1.0
 10
35.5766024513
 20
54.0492142103
 30
0.0
 10
35.6281830114
 20
53.9955169451
 30
0.0
 10
35.721369049
 20
53.8845161823
 30
0.0
 10
35.8301225212
 20
53.7030326397
 30
0.0
 10
35.9010941261
 20
53.5146249181
 30
0.0
 10
35.9224520145
 20
53.3849934555
 30
0.0
 10
35.9262810385
 20
53.3210416463
 30
0.0
  0
SPLINE
  5
2C4
100
AcDbEntity
  8
0
100
AcDbSpline
 62
7
  6
BYLAYER
 70
0
 71
3
 72
9
 73
5
 74
0
 42
0.0000001
 43
0.0000001
 44
0.0000000001
 40
0.0
 40
0.0
 40
0.0
 40
0.0
 40
0.4891507893
 40
1.0
 40
1.0
 40
1.0
 40
1.0
 10
40.910667305
 20
56.8192722601
 30
0.0
 10
41.858889394
 20
57.3667252706
 30
0.0
 10
43.8460219944
 20
58.4030988119
 30
0.0
 10
45.9059230604
 20
59.2845703089
 30
0.0
 10
46.9720961171
 20
59.6978772497
 30
0.0
  0
SPLINE
  5
2C5
100
AcDbEntity
  8
0
100
AcDbSpline
 62
7
  6
BYLAYER
 70
0
 71
3
 72
11
 73
7
 74
0
 42
0.0000001
 43
0.0000001
 44
0.0000000001
 40
0.0
 40
0.0
 40
0.0
 40
0.0
 40
0.2220516955
 40
0.4611015573
 40
0.7202624442
 40
1.0
 40
1.0
 40
1.0
 40
1.0
 10
29.7534351006
 20
52.7105197678
 30
0.0
 10
29.690737559
 20
52.7904018397
 30
0.0
 10
29.5791249093
 20
52.9714195701
 30
0.0
 10
29.4625539954
 20
53.2812194187
 30
0.0
 10
29.3928358059
 20
53.6314445126
 30
0.0
 10
29.3785122191
 20
53.8782610067
 30
0.0
 10
29.3785122191
 20
54.0061905388
 30
0.0
  0
SPLINE
  5
2C6
100
AcDbEntity
  8
0
100
AcDbSpline
 62
7
  6
BYLAYER
 70
0
 71
3
 72
11
 73
7
 74
0
 42
0.0000001
 43
0.0000001
 44
0.0000000001
 40
0.0
 40
0.0
 40
0.0
 40
0.0
 40
0.3961614066
 40
0.6899088876
 40
0.887824376
 40
1.0
 40
1.0
 40
1.0
 40
1.0
 10
64.8204377724
 20
52.9678860896
 30
0.0
 10
64.8278466269
 20
52.9764887391
 30
0.0
 10
64.8405253929
 20
52.9916208993
 30
0.0
 10
64.8559770872
 20
53.0119961722
 30
0.0
 10
64.8649503143
 20
53.0265809678
 30
0.0
 10
64.8686024708
 20
53.0350916024
 30
0.0
 10
64.8686026478
 20
53.0383063527
 30
0.0
  0
SPLINE
  5
2C7
100
AcDbEntity
  8
0
100
AcDbSpline
 62
7
  6
BYLAYER
 70
0
 71
3
 72
43
 73
39
 74
0
 42
0.0000001
 43
0.0000001
 44
0.0000000001
 40
0.0
 40
0.0
 40
0.0
 40
0.0
 40
0.1237684185
 40
0.2476456434
 40
0.3096332142
 40
0.371659251
 40
0.4337295129
 40
0.4958514051
 40
0.5580347143
 40
0.6202928589
 40
0.6514557002
 40
0.6826451301
 40
0.7138651808
 40
0.7451210324
 40
0.7764195431
 40
0.8077701084
 40
0.839186233
 40
0.8549249313
 40
0.8706886227
 40
0.8864821077
 40
0.9023119722
 40
0.9181876712
 40
0.9341236754
 40
0.9421212702
 40
0.9501443027
 40
0.9581993703
 40
0.9662965513
 40
0.9744526788
 40
0.9785619031
 40
0.9827003099
 40
0.9868793355
 40
0.988990168
 40
0.9911207319
 40
0.9932782847
 40
0.9954756637
 40
0.9977373214
 40
0.9989004674
 40
1.0
 40
1.0
 40
1.0
 40
1.0
 10
64.7464495114
 20
52.6677701433
 30
0.0
 10
64.7416291209
 20
52.2273323757
 30
0.0
 10
64.7314292085
 20
51.3460755934
 30
0.0
 10
64.7169871049
 20
50.2442542222
 30
0.0
 10
64.7041584976
 20
49.3621592813
 30
0.0
 10
64.6938061797
 20
48.7000091397
 30
0.0
 10
64.682617609
 20
48.0373944682
 30
0.0
 10
64.6704529271
 20
47.3742371209
 30
0.0
 10
64.6571276527
 20
46.7104332256
 30
0.0
 10
64.6448521866
 20
46.1568078063
 30
0.0
 10
64.6341464996
 20
45.7134762918
 30
0.0
 10
64.6256073993
 20
45.3805826631
 30
0.0
 10
64.6164849148
 20
45.0473733376
 30
0.0
 10
64.6066801856
 20
44.713794957
 30
0.0
 10
64.5960627016
 20
44.3797766165
 30
0.0
 10
64.5844535139
 20
44.0452204171
 30
0.0
 10
64.5737487538
 20
43.7660415154
 30
0.0
 10
64.5643693476
 20
43.5423248862
 30
0.0
 10
64.5568476654
 20
43.374177321
 30
0.0
 10
64.5487510579
 20
43.2057315436
 30
0.0
 10
64.5399519407
 20
43.0369216207
 30
0.0
 10
64.5302667133
 20
42.8676519634
 30
0.0
 10
64.521239337
 20
42.7262658164
 30
0.0
 10
64.5132094575
 20
42.6128226779
 30
0.0
 10
64.5066764849
 20
42.5273915407
 30
0.0
 10
64.4995097996
 20
42.4416551526
 30
0.0
 10
64.4915053373
 20
42.3555168139
 30
0.0
 10
64.4838815184
 20
42.2834497414
 30
0.0
 10
64.4768900814
 20
42.2254913863
 30
0.0
 10
64.4710234943
 20
42.1816570416
 30
0.0
 10
64.46544435
 20
42.1449636874
 30
0.0
 10
64.4603312718
 20
42.1154348403
 30
0.0
 10
64.4560366137
 20
42.0930715079
 30
0.0
 10
64.4511126777
 20
42.070510614
 30
0.0
 10
64.4452079131
 20
42.0477388786
 30
0.0
 10
64.4388750977
 20
42.0286281213
 30
0.0
 10
64.4319169529
 20
42.0142355068
 30
0.0
 10
64.4268010467
 20
42.0074962635
 30
0.0
 10
64.4234122921
 20
42.0055397768
 30
0.0
  0
SPLINE
  5
2C8
100
AcDbEntity
  8
0
100
AcDbSpline
 62
7
  6
BYLAYER
 70
0
 71
3
 72
11
 73
7
 74
0
 42
0.0000001
 43
0.0000001
 44
0.0000000001
 40
0.0
 40
0.0
 40
0.0
 40
0.0
 40
0.2372436391
 40
0.5000005261
 40
0.7627571268
 40
1.0
 40
1.0
 40
1.0
 40
1.0
 10
46.7723118435
 20
45.0818607448
 30
0.0
 10
46.7504768602
 20
45.0944668931
 30
0.0
 10
46.6996998723
 20
45.1128599042
 30
0.0
 10
46.6185158768
 20
45.1216727426
 30
0.0
 10
46.5373320038
 20
45.1128595337
 30
0.0
 10
46.4865552156
 20
45.0944662705
 30
0.0
 10
46.4647203937
 20
45.0818600054
 30
0.0
  0
SPLINE
  5
2C9
100
AcDbEntity
  8
0
100
AcDbSpline
 62
7
  6
BYLAYER
 70
0
 71
3
 72
11
 73
7
 74
0
 42
0.0000001
 43
0.0000001
 44
0.0000000001
 40
0.0
 40
0.0
 40
0.0
 40
0.0
 40
0.2410116971
 40
0.4881552773
 40
0.7406870702
 40
1.0
 40
1.0
 40
1.0
 40
1.0
 10
64.8204495264
 20
52.9678738123
 30
0.0
 10
64.7965178539
 20
52.9700254143
 30
0.0
 10
64.7479217722
 20
52.9730484022
 30
0.0
 10
64.6740553219
 20
52.974231926
 30
0.0
 10
64.5984171133
 20
52.971541783
 30
0.0
 10
64.5474739711
 20
52.9682530987
 30
0.0
 10
64.5216250173
 20
52.9678082661
 30
0.0
  0
SPLINE
  5
2CA
100
AcDbEntity
  8
0
100
AcDbSpline
 62
7
  6
BYLAYER
 70
0
 71
3
 72
12
 73
8
 74
0
 42
0.0000001
 43
0.0000001
 44
0.0000000001
 40
0.0
 40
0.0
 40
0.0
 40
0.0
 40
0.2522527168
 40
0.3847944194
 40
0.5145545011
 40
0.7640954311
 40
1.0
 40
1.0
 40
1.0
 40
1.0
 10
64.7468279021
 20
52.6679886059
 30
0.0
 10
64.7471125776
 20
52.6939993315
 30
0.0
 10
64.754082461
 20
52.7334921625
 30
0.0
 10
64.7674910864
 20
52.7847617741
 30
0.0
 10
64.7817173016
 20
52.8356100069
 30
0.0
 10
64.8001256872
 20
52.896314469
 30
0.0
 10
64.8139665033
 20
52.944427123
 30
0.0
 10
64.8204495264
 20
52.9678738123
 30
0.0
  0
SPLINE
  5
2CB
100
AcDbEntity
  8
0
100
AcDbSpline
 62
7
  6
BYLAYER
 70
0
 71
3
 72
11
 73
7
 74
0
 42
0.0000001
 43
0.0000001
 44
0.0000000001
 40
0.0
 40
0.0
 40
0.0
 40
0.0
 40
0.2342364172
 40
0.4935228155
 40
0.7562967782
 40
1.0
 40
1.0
 40
1.0
 40
1.0
 10
50.7973822245
 20
44.6122847283
 30
0.0
 10
50.7971587633
 20
44.6424121547
 30
0.0
 10
50.7869886991
 20
44.7059457106
 30
0.0
 10
50.7495080406
 20
44.7964693125
 30
0.0
 10
50.6940488363
 20
44.8786171605
 30
0.0
 10
50.6462625064
 20
44.9240668249
 30
0.0
 10
50.6206340248
 20
44.9421152814
 30
0.0
  0
SPLINE
  5
2CC
100
AcDbEntity
  8
0
100
AcDbSpline
 62
7
  6
BYLAYER
 70
0
 71
3
 72
11
 73
7
 74
0
 42
0.0000001
 43
0.0000001
 44
0.0000000001
 40
0.0
 40
0.0
 40
0.0
 40
0.0
 40
0.2372436391
 40
0.5000005261
 40
0.7627571268
 40
1.0
 40
1.0
 40
1.0
 40
1.0
 10
48.3632954772
 20
46.000410091
 30
0.0
 10
48.3414604939
 20
46.0130162393
 30
0.0
 10
48.290683506
 20
46.0314092504
 30
0.0
 10
48.2094995105
 20
46.0402220888
 30
0.0
 10
48.1283156376
 20
46.0314088799
 30
0.0
 10
48.0775388493
 20
46.0130156167
 30
0.0
 10
48.0557040274
 20
46.0004093516
 30
0.0
  0
SPLINE
  5
2CD
100
AcDbEntity
  8
0
100
AcDbSpline
 62
7
  6
BYLAYER
 70
0
 71
3
 72
14
 73
10
 74
0
 42
0.0000001
 43
0.0000001
 44
0.0000000001
 40
0.0
 40
0.0
 40
0.0
 40
0.0
 40
0.1122311919
 40
0.2326670242
 40
0.359242223
 40
0.4897783042
 40
0.7521253952
 40
0.8790971998
 40
1.0
 40
1.0
 40
1.0
 40
1.0
 10
31.7692116576
 20
50.5028494987
 30
0.0
 10
31.8413647448
 20
50.5445068544
 30
0.0
 10
31.9977760885
 20
50.6193117515
 30
0.0
 10
32.2514638854
 20
50.7033544605
 30
0.0
 10
32.5263268394
 20
50.7611297811
 30
0.0
 10
32.9103533185
 20
50.800906349
 30
0.0
 10
33.2990545503
 20
50.7836751522
 30
0.0
 10
33.6708414422
 20
50.7086706074
 30
0.0
 10
33.8465614303
 20
50.6522541823
 30
0.0
 10
33.9300544429
 20
50.6193236005
 30
0.0
  0
SPLINE
  5
2CE
100
AcDbEntity
  8
0
100
AcDbSpline
 62
7
  6
BYLAYER
 70
0
 71
3
 72
14
 73
10
 74
0
 42
0.0000001
 43
0.0000001
 44
0.0000000001
 40
0.0
 40
0.0
 40
0.0
 40
0.0
 40
0.2701867765
 40
0.4003706821
 40
0.526668574
 40
0.6488125517
 40
0.7668001925
 40
0.8816585669
 40
1.0
 40
1.0
 40
1.0
 40
1.0
 10
47.4947136361
 20
42.9636146937
 30
0.0
 10
47.5184103564
 20
42.9586953245
 30
0.0
 10
47.5532815614
 20
42.9500708453
 30
0.0
 10
47.5981700313
 20
42.9355026052
 30
0.0
 10
47.6296632893
 20
42.9227842276
 30
0.0
 10
47.6587106899
 20
42.9073886313
 30
0.0
 10
47.6847538135
 20
42.8887985972
 30
0.0
 10
47.7046427499
 20
42.8635905125
 30
0.0
 10
47.7098783786
 20
42.8425168601
 30
0.0
 10
47.7101557492
 20
42.8319200658
 30
0.0
  0
SPLINE
  5
2CF
100
AcDbEntity
  8
0
100
AcDbSpline
 62
7
  6
BYLAYER
 70
0
 71
3
 72
11
 73
7
 74
0
 42
0.0000001
 43
0.0000001
 44
0.0000000001
 40
0.0
 40
0.0
 40
0.0
 40
0.0
 40
0.2243056326
 40
0.4682902277
 40
0.7267914663
 40
1.0
 40
1.0
 40
1.0
 40
1.0
 10
47.5843682361
 20
43.1891368749
 30
0.0
 10
47.5808466034
 20
43.1713283347
 30
0.0
 10
47.5665386491
 20
43.1358690215
 30
0.0
 10
47.5436969997
 20
43.0818224078
 30
0.0
 10
47.5198451341
 20
43.0237039815
 30
0.0
 10
47.5032436579
 20
42.9840142873
 30
0.0
 10
47.4947136361
 20
42.9636146937
 30
0.0
  0
SPLINE
  5
2D0
100
AcDbEntity
  8
0
100
AcDbSpline
 62
7
  6
BYLAYER
 70
0
 71
3
 72
43
 73
39
 74
0
 42
0.0000001
 43
0.0000001
 44
0.0000000001
 40
0.0
 40
0.0
 40
0.0
 40
0.0
 40
0.1264372125
 40
0.2527539976
 40
0.3158581105
 40
0.3789194882
 40
0.4419316532
 40
0.5048862586
 40
0.5677722432
 40
0.6305743969
 40
0.6932707889
 40
0.7245694931
 40
0.7558277153
 40
0.7870375602
 40
0.818188164
 40
0.8492638271
 40
0.864766515
 40
0.8802403918
 40
0.895679782
 40
0.911076857
 40
0.9264202884
 40
0.9416925678
 40
0.9492935569
 40
0.9568640379
 40
0.9643957563
 40
0.971875932
 40
0.9792827891
 40
0.9829469333
 40
0.9865734649
 40
0.9901464296
 40
0.9936343855
 40
0.9953263467
 40
0.9961521731
 40
0.9969592411
 40
0.9977413962
 40
0.9984893248
 40
0.9992006387
 40
1.0
 40
1.0
 40
1.0
 40
1.0
 10
46.5049852382
 20
42.2513936594
 30
0.0
 10
46.4939967589
 20
41.8447905207
 30
0.0
 10
46.4714749293
 20
41.0319863928
 30
0.0
 10
46.4416459396
 20
40.0163004257
 30
0.0
 10
46.4165326507
 20
39.2044469628
 30
0.0
 10
46.3969920441
 20
38.5961714547
 30
0.0
 10
46.3766350491
 20
37.9884039063
 30
0.0
 10
46.3553250938
 20
37.3812335353
 30
0.0
 10
46.3328830131
 20
36.774779874
 30
0.0
 10
46.309062935
 20
36.1692099358
 30
0.0
 10
46.2877652237
 20
35.6652380985
 30
0.0
 10
46.2695880967
 20
35.2627050512
 30
0.0
 10
46.2552956037
 20
34.9613935441
 30
0.0
 10
46.2402102527
 20
34.660597579
 30
0.0
 10
46.2241578282
 20
34.3604396452
 30
0.0
 10
46.2097598015
 20
34.1107974542
 30
0.0
 10
46.1974367925
 20
33.9115543684
 30
0.0
 10
46.1877305668
 20
33.7625485847
 30
0.0
 10
46.1774636122
 20
33.6139208281
 30
0.0
 10
46.1665124973
 20
33.4657624026
 30
0.0
 10
46.1546998492
 20
33.318209203
 30
0.0
 10
46.1439026077
 20
33.1957379928
 30
0.0
 10
46.1344620821
 20
33.0982551313
 30
0.0
 10
46.1269033536
 20
33.0256098707
 30
0.0
 10
46.1187305509
 20
32.9534215693
 30
0.0
 10
46.1097493135
 20
32.881859443
 30
0.0
 10
46.1013091875
 20
32.8227739659
 30
0.0
 10
46.0936585086
 20
32.776113063
 30
0.0
 10
46.0873599945
 20
32.7417331419
 30
0.0
 10
46.0802494763
 20
32.7080911498
 30
0.0
 10
46.0732676268
 20
32.6807908828
 30
0.0
 10
46.0672739174
 20
32.6624122239
 30
0.0
 10
46.063390203
 20
32.6524400252
 30
0.0
 10
46.0601895816
 20
32.6453623184
 30
0.0
 10
46.0565709766
 20
32.6387338106
 30
0.0
 10
46.0522876002
 20
32.6329782356
 30
0.0
 10
46.0465423128
 20
32.6279792831
 30
0.0
 10
46.0409306279
 20
32.628589316
 30
0.0
 10
46.0387035749
 20
32.6298750766
 30
0.0
  0
SPLINE
  5
2D1
100
AcDbEntity
  8
0
100
AcDbSpline
 62
7
  6
BYLAYER
 70
0
 71
3
 72
17
 73
13
 74
0
 42
0.0000001
 43
0.0000001
 44
0.0000000001
 40
0.0
 40
0.0
 40
0.0
 40
0.0
 40
0.0556326853
 40
0.1094774638
 40
0.1635020974
 40
0.2187441853
 40
0.3341321277
 40
0.4564417129
 40
0.5852095045
 40
0.7196497418
 40
0.858547357
 40
1.0
 40
1.0
 40
1.0
 40
1.0
 10
46.5049823826
 20
42.251395308
 30
0.0
 10
46.5057837618
 20
42.274779098
 30
0.0
 10
46.5138508704
 20
42.3208695188
 30
0.0
 10
46.5439517372
 20
42.3834065872
 30
0.0
 10
46.5857919328
 20
42.4381717208
 30
0.0
 10
46.6530451743
 20
42.504799288
 30
0.0
 10
46.7518687012
 20
42.579063427
 30
0.0
 10
46.8826348782
 20
42.6607230089
 30
0.0
 10
47.0244014025
 20
42.7395266818
 30
0.0
 10
47.1749433808
 20
42.8166212335
 30
0.0
 10
47.3323551724
 20
42.891857968
 30
0.0
 10
47.439995938
 20
42.9400199435
 30
0.0
 10
47.4946528391
 20
42.9635102627
 30
0.0
  0
SPLINE
  5
2D2
100
AcDbEntity
  8
0
100
AcDbSpline
 62
7
  6
BYLAYER
 70
0
 71
3
 72
20
 73
16
 74
0
 42
0.0000001
 43
0.0000001
 44
0.0000000001
 40
0.0
 40
0.0
 40
0.0
 40
0.0
 40
0.0623282724
 40
0.1286705086
 40
0.2699943622
 40
0.41691357
 40
0.5611010041
 40
0.6297464512
 40
0.6949142826
 40
0.7559680134
 40
0.8125336623
 40
0.8645724774
 40
0.9124660449
 40
0.9571454596
 40
1.0
 40
1.0
 40
1.0
 40
1.0
 10
60.0888598821
 20
44.3996341619
 30
0.0
 10
60.1533156903
 20
44.436847518
 30
0.0
 10
60.2814242745
 20
44.5224667522
 30
0.0
 10
60.5285854802
 20
44.7302282214
 30
0.0
 10
60.8101067424
 20
45.0500860785
 30
0.0
 10
61.0821579536
 20
45.49148656
 30
0.0
 10
61.244797425
 20
45.8917756762
 30
0.0
 10
61.3255296428
 20
46.2142442196
 30
0.0
 10
61.358877195
 20
46.4450006003
 30
0.0
 10
61.3652181258
 20
46.6637195318
 30
0.0
 10
61.3443265302
 20
46.8659199016
 30
0.0
 10
61.296432707
 20
47.0474660056
 30
0.0
 10
61.2219824748
 20
47.2045752129
 30
0.0
 10
61.1220127221
 20
47.3334611885
 30
0.0
 10
61.0386529142
 20
47.3986833231
 30
0.0
 10
60.9946358335
 20
47.4247829873
 30
0.0
  0
SPLINE
  5
2D3
100
AcDbEntity
  8
0
100
AcDbSpline
 62
7
  6
BYLAYER
 70
0
 71
3
 72
11
 73
7
 74
0
 42
0.0000001
 43
0.0000001
 44
0.0000000001
 40
0.0
 40
0.0
 40
0.0
 40
0.0
 40
0.2372428732
 40
0.4999994739
 40
0.7627563609
 40
1.0
 40
1.0
 40
1.0
 40
1.0
 10
46.4647203937
 20
45.3268107306
 30
0.0
 10
46.4865552156
 20
45.3394169956
 30
0.0
 10
46.5373320038
 20
45.3578102589
 30
0.0
 10
46.6185158768
 20
45.3666234678
 30
0.0
 10
46.6996998723
 20
45.3578106293
 30
0.0
 10
46.7504768602
 20
45.3394176182
 30
0.0
 10
46.7723118435
 20
45.3268114699
 30
0.0
  0
SPLINE
  5
2D4
100
AcDbEntity
  8
0
100
AcDbSpline
 62
7
  6
BYLAYER
 70
0
 71
3
 72
11
 73
7
 74
0
 42
0.0000001
 43
0.0000001
 44
0.0000000001
 40
0.0
 40
0.0
 40
0.0
 40
0.0
 40
0.2202799089
 40
0.4579938592
 40
0.717474584
 40
1.0
 40
1.0
 40
1.0
 40
1.0
 10
35.2269534148
 20
58.1854099579
 30
0.0
 10
35.1016303791
 20
58.2145168969
 30
0.0
 10
34.8324694676
 20
58.2412069557
 30
0.0
 10
34.4138686561
 20
58.1900552087
 30
0.0
 10
33.97759773
 20
58.0521436127
 30
0.0
 10
33.6929199364
 20
57.9108963509
 30
0.0
 10
33.5500130079
 20
57.8283894898
 30
0.0
  0
SPLINE
  5
2D5
100
AcDbEntity
  8
0
100
AcDbSpline
 62
7
  6
BYLAYER
 70
0
 71
3
 72
11
 73
7
 74
0
 42
0.0000001
 43
0.0000001
 44
0.0000000001
 40
0.0
 40
0.0
 40
0.0
 40
0.0
 40
0.2401209451
 40
0.5047170488
 40
0.7667350467
 40
1.0
 40
1.0
 40
1.0
 40
1.0
 10
53.1478196671
 20
37.3450518109
 30
0.0
 10
53.1686899673
 20
37.3575620563
 30
0.0
 10
53.2079009361
 20
37.391696724
 30
0.0
 10
53.2529733325
 20
37.4557152059
 30
0.0
 10
53.2826686248
 20
37.5274024713
 30
0.0
 10
53.2899375169
 20
37.578005392
 30
0.0
 10
53.2887994092
 20
37.6016158321
 30
0.0
  0
SPLINE
  5
2D6
100
AcDbEntity
  8
0
100
AcDbSpline
 62
7
  6
BYLAYER
 70
0
 71
3
 72
9
 73
5
 74
0
 42
0.0000001
 43
0.0000001
 44
0.0000000001
 40
0.0
 40
0.0
 40
0.0
 40
0.0
 40
0.2764531207
 40
1.0
 40
1.0
 40
1.0
 40
1.0
 10
28.4876821742
 20
55.1215140632
 30
0.0
 10
28.4876821742
 20
55.035482591
 30
0.0
 10
28.5028332199
 20
54.7253513714
 30
0.0
 10
28.5865046039
 20
54.4122086531
 30
0.0
 10
28.7015325372
 20
54.2186415157
 30
0.0
  0
SPLINE
  5
2D7
100
AcDbEntity
  8
0
100
AcDbSpline
 62
7
  6
BYLAYER
 70
0
 71
3
 72
15
 73
11
 74
0
 42
0.0000001
 43
0.0000001
 44
0.0000000001
 40
0.0
 40
0.0
 40
0.0
 40
0.0
 40
0.1141441531
 40
0.2373312038
 40
0.3669729364
 40
0.4999983967
 40
0.63302408
 40
0.7626664638
 40
0.8858545409
 40
1.0
 40
1.0
 40
1.0
 40
1.0
 10
30.4417580158
 20
58.5060914909
 30
0.0
 10
30.3079978921
 20
58.4288655084
 30
0.0
 10
30.0437772066
 20
58.2436307559
 30
0.0
 10
29.6801997306
 20
57.9035170634
 30
0.0
 10
29.3451800612
 20
57.5014157526
 30
0.0
 10
29.0512627179
 20
57.052518807
 30
0.0
 10
28.8094671849
 20
56.5735284802
 30
0.0
 10
28.6287482255
 20
56.0823391354
 30
0.0
 10
28.5159901822
 20
55.5974107697
 30
0.0
 10
28.4876821742
 20
55.2759684867
 30
0.0
 10
28.4876821742
 20
55.1215140632
 30
0.0
  0
SPLINE
  5
2D8
100
AcDbEntity
  8
0
100
AcDbSpline
 62
7
  6
BYLAYER
 70
0
 71
3
 72
11
 73
7
 74
0
 42
0.0000001
 43
0.0000001
 44
0.0000000001
 40
0.0
 40
0.0
 40
0.0
 40
0.0
 40
0.2797362118
 40
0.538896669
 40
0.7779469949
 40
1.0
 40
1.0
 40
1.0
 40
1.0
 10
31.8530890612
 20
58.2923071493
 30
0.0
 10
31.963872999
 20
58.3562679038
 30
0.0
 10
32.1847718183
 20
58.4672648056
 30
0.0
 10
32.5229156923
 20
58.5819940761
 30
0.0
 10
32.8494783892
 20
58.6359406829
 30
0.0
 10
33.0620400522
 20
58.629792101
 30
0.0
 10
33.1625641904
 20
58.6154378553
 30
0.0
  0
SPLINE
  5
2D9
100
AcDbEntity
  8
0
100
AcDbSpline
 62
7
  6
BYLAYER
 70
0
 71
3
 72
15
 73
11
 74
0
 42
0.0000001
 43
0.0000001
 44
0.0000000001
 40
0.0
 40
0.0
 40
0.0
 40
0.0
 40
0.1141454591
 40
0.2373335362
 40
0.36697592
 40
0.5000016033
 40
0.6330270636
 40
0.7626687962
 40
0.8858558469
 40
1.0
 40
1.0
 40
1.0
 40
1.0
 10
29.3785122191
 20
54.0061905388
 30
0.0
 10
29.3785122191
 20
54.2017864985
 30
0.0
 10
29.4143605416
 20
54.6088503456
 30
0.0
 10
29.5571535883
 20
55.2229475461
 30
0.0
 10
29.7860100852
 20
55.8449734428
 30
0.0
 10
30.0922119294
 20
56.4515509077
 30
0.0
 10
30.4644191057
 20
57.0200191127
 30
0.0
 10
30.8886769048
 20
57.5292268777
 30
0.0
 10
31.3490993629
 20
57.9599355786
 30
0.0
 10
31.6836996765
 20
58.1945107262
 30
0.0
 10
31.8530890612
 20
58.2923071493
 30
0.0
  0
ELLIPSE
  5
2DA
100
AcDbEntity
  8
0
100
AcDbEllipse
 62
7
  6
BYLAYER
 10
34.1614754549
 20
50.190049667
 30
0.0
 11
0.3296107641
 21
0.9677682012
 31
0.0
 40
0.3989760394
 41
0.7918544892
 42
2.2663633211
  0
ELLIPSE
  5
2DB
100
AcDbEntity
  8
0
100
AcDbEllipse
 62
7
  6
BYLAYER
 10
51.0123774134
 20
59.8791386718
 30
0.0
 11
0.7815624639
 21
0.6774115418
 31
0.0
 40
0.7025697819
 41
0.2384401122
 42
0.9387076065
  0
ELLIPSE
  5
2DC
100
AcDbEntity
  8
0
100
AcDbEllipse
 62
7
  6
BYLAYER
 10
60.030997846
 20
47.3048554632
 30
0.0
 11
0.0986958887
 21
0.1739557822
 31
0.0
 40
0.5822962753
 41
0.7810100152
 42
2.351806342
  0
ELLIPSE
  5
2DD
100
AcDbEntity
  8
0
100
AcDbEllipse
 62
7
  6
BYLAYER
 10
30.8782621181
 20
184.8377168534
 30
0.0
 11
1.0701794971
 21
142.8359817137
 31
0.0
 40
0.0075569566
 41
-3.4651145927
 42
-3.1458803729
  0
ELLIPSE
  5
2DE
100
AcDbEntity
  8
0
100
AcDbEllipse
 62
7
  6
BYLAYER
 10
53.8432448518
 20
37.10656109
 30
0.0
 11
0.1004557221
 21
0.1770575648
 31
0.0
 40
0.5822962753
 41
-2.3414621961
 42
-0.7356849503
  0
ELLIPSE
  5
2DF
100
AcDbEntity
  8
0
100
AcDbEllipse
 62
7
  6
BYLAYER
 10
60.7546282053
 20
45.4849656878
 30
0.0
 11
0.8882629987
 21
1.5656020399
 31
0.0
 40
0.5822962753
 41
1.5107376714
 42
6.2788100143
  0
ENDSEC
  0
SECTION
  2
OBJECTS
  0
DICTIONARY
  5
C
100
AcDbDictionary
280
0
281
1
  3
ACAD_GROUP
350
D
  3
ACAD_MLINESTYLE
350
17
  3
ACAD_LAYOUT
350
1A
  3
ACAD_PLOTSETTINGS
350
19
  3
ACAD_PLOTSTYLENAME
350
E
  0
DICTIONARY
  5
D
102
{ACAD_REACTORS
330
C
102
}
100
AcDbDictionary
280
0
281
1
  0
ACDBDICTIONARYWDFLT
  5
E
102
{ACAD_REACTORS
330
C
102
}
100
AcDbDictionary
281
1
  3
Normal
350
F
100
AcDbDictionaryWithDefault
340
F
  0
DICTIONARY
  5
17
102
{ACAD_REACTORS
330
C
102
}
100
AcDbDictionary
280
0
281
1
  3
Standard
350
18
  0
DICTIONARY
  5
19
102
{ACAD_REACTORS
330
C
102
}
100
AcDbDictionary
281
1
  0
DICTIONARY
  5
1A
102
{ACAD_REACTORS
330
C
102
}
100
AcDbDictionary
281
1
  3
Model
350
2E0
  3
Layout1
350
2E1
  0
ACDBPLACEHOLDER
  5
F
102
{ACAD_REACTORS
330
E
102
}
  0
MLINESTYLE
  5
18
102
{ACAD_REACTORS
330
17
102
}
100
AcDbMlineStyle
  2
STANDARD
 70
0
  3

 62
256
 51
90.0
 52
90.0
 71
2
 49
0.5
 62
256
  6
BYLAYER
 49
-0.5
 62
256
  6
BYLAYER
  0
LAYOUT
  5
2E0
102
{ACAD_REACTORS
330
1A
102
}
100
AcDbPlotSettings
  1

  2
none_device
  4

  6

 40
0.0
 41
0.0
 42
0.0
 43
0.0
 44
210.0
 45
297.0
 46
0.0
 47
0.0
 48
0.0
 49
0.0
140
0.0
141
0.0
142
1.0
143
1.0
 70
1024
 72
1
 73
0
 74
0
  7

 75
0
147
1.0
148
0.0
149
0.0
100
AcDbLayout
  1
Model
 70
0
 71
0
 10
0.0
 20
0.0
 11
210.0
 21
297.0
 12
0.0
 22
0.0
 32
0.0
 14
0.0
 24
0.0
 34
0.0
 15
0.0
 25
0.0
 35
0.0
146
0.0
 13
0.0
 23
0.0
 33
0.0
 16
1.0
 26
0.0
 36
0.0
 17
0.0
 27
1.0
 37
0.0
 76
0
330
210
345
0
346
0
  0
LAYOUT
  5
2E1
102
{ACAD_REACTORS
330
1A
102
}
100
AcDbPlotSettings
  1

  2
none_device
  4

  6

 40
0.0
 41
0.0
 42
0.0
 43
0.0
 44
210.0
 45
297.0
 46
0.0
 47
0.0
 48
0.0
 49
0.0
140
0.0
141
0.0
142
1.0
143
1.0
 70
0
 72
1
 73
0
 74
0
  7

 75
0
147
1.0
148
0.0
149
0.0
100
AcDbLayout
  1
Layout1
 70
0
 71
1
 10
0.0
 20
0.0
 11
210.0
 21
297.0
 12
0.0
 22
0.0
 32
0.0
 14
0.0
 24
0.0
 34
0.0
 15
0.0
 25
0.0
 35
0.0
146
0.0
 13
0.0
 23
0.0
 33
0.0
 16
1.0
 26
0.0
 36
0.0
 17
0.0
 27
1.0
 37
0.0
 76
0
330
211
345
0
346
0
  0
ENDSEC
  0
EOF
