  0
SECTION
  2
HEADER
  9
$ACADVER
  1
AC1015
  9
$ACADMAINTVER
 70
    20
  9
$DWGCODEPAGE
  3
ANSI_1252
  9
$INSBASE
 10
0.0
 20
0.0
 30
0.0
  9
$EXTMIN
 10
-0.5
 20
-0.5
 30
-0.5
  9
$EXTMAX
 10
5.0
 20
5.0
 30
5.0
  9
$LIMMIN
 10
-0.5
 20
-0.5
  9
$LIMMAX
 10
5.0
 20
5.0
  9
$ORTHOMODE
 70
     0
  9
$REGENMODE
 70
     1
  9
$FILLMODE
 70
     1
  9
$QTEXTMODE
 70
     0
  9
$MIRRTEXT
 70
     1
  9
$LTSCALE
 40
1.0
  9
$ATTMODE
 70
     1
  9
$TEXTSIZE
 40
0.0
  9
$TRACEWID
 40
0.05
  9
$TEXTSTYLE
  7
Standard
  9
$CLAYER
  8
0
  9
$CELTYPE
  6
Continuous
  9
$CECOLOR
 62
   256
  9
$CELTSCALE
 40
1.0
  9
$DISPSILH
 70
     0
  9
$DIMSCALE
 40
1.0
  9
$DIMASZ
 40
0.18
  9
$DIMEXO
 40
0.0625
  9
$DIMDLI
 40
0.38
  9
$DIMRND
 40
0.0
  9
$DIMDLE
 40
0.0
  9
$DIMEXE
 40
0.18
  9
$DIMTP
 40
0.0
  9
$DIMTM
 40
0.0
  9
$DIMTXT
 40
0.18
  9
$DIMCEN
 40
0.09
  9
$DIMTSZ
 40
0.0
  9
$DIMTOL
 70
     0
  9
$DIMLIM
 70
     0
  9
$DIMTIH
 70
     1
  9
$DIMTOH
 70
     1
  9
$DIMSE1
 70
     0
  9
$DIMSE2
 70
     0
  9
$DIMTAD
 70
     0
  9
$DIMZIN
 70
     0
  9
$DIMBLK
  1

  9
$DIMASO
 70
     1
  9
$DIMSHO
 70
     1
  9
$DIMPOST
  1

  9
$DIMAPOST
  1

  9
$DIMALT
 70
     0
  9
$DIMALTD
 70
     2
  9
$DIMALTF
 40
25.4
  9
$DIMLFAC
 40
1.0
  9
$DIMTOFL
 70
     0
  9
$DIMTVP
 40
0.0
  9
$DIMTIX
 70
     0
  9
$DIMSOXD
 70
     0
  9
$DIMSAH
 70
     0
  9
$DIMBLK1
  1

  9
$DIMBLK2
  1

  9
$DIMSTYLE
  2
Standard
  9
$DIMCLRD
 70
     0
  9
$DIMCLRE
 70
     0
  9
$DIMCLRT
 70
     0
  9
$DIMTFAC
 40
1.0
  9
$DIMGAP
 40
0.09
  9
$DIMJUST
 70
     0
  9
$DIMSD1
 70
     0
  9
$DIMSD2
 70
     0
  9
$DIMTOLJ
 70
     1
  9
$DIMTZIN
 70
     0
  9
$DIMALTZ
 70
     0
  9
$DIMALTTZ
 70
     0
  9
$DIMUPT
 70
     0
  9
$DIMDEC
 70
     4
  9
$DIMTDEC
 70
     4
  9
$DIMALTU
 70
     2
  9
$DIMALTTD
 70
     2
  9
$DIMTXSTY
  7
Standard
  9
$DIMAUNIT
 70
     0
  9
$DIMADEC
 70
     0
  9
$DIMALTRND
 40
0.0
  9
$DIMAZIN
 70
     0
  9
$DIMDSEP
 70
     0
  9
$DIMATFIT
 70
     3
  9
$DIMFRAC
 70
     0
  9
$DIMLDRBLK
  1

  9
$DIMLUNIT
 70
     2
  9
$DIMLWD
 70
     0
  9
$DIMLWE
 70
     0
  9
$DIMTMOVE
 70
     0
  9
$LUNITS
 70
     2
  9
$LUPREC
 70
     4
  9
$SKETCHINC
 40
0.1
  9
$FILLETRAD
 40
0.0
  9
$AUNITS
 70
     0
  9
$AUPREC
 70
     0
  9
$MENU
  1
acad
  9
$ELEVATION
 40
0.0
  9
$PELEVATION
 40
0.0
  9
$THICKNESS
 40
0.0
  9
$LIMCHECK
 70
     0
  9
$CHAMFERA
 40
0.0
  9
$CHAMFERB
 40
0.0
  9
$CHAMFERC
 40
0.0
  9
$CHAMFERD
 40
0.0
  9
$SKPOLY
 70
     0
  9
$TDCREATE
 40
2455723.447480845
  9
$TDUCREATE
 40
2455723.655814178
  9
$TDUPDATE
 40
2455723.447956968
  9
$TDUUPDATE
 40
2455723.656290301
  9
$TDINDWG
 40
0.0004808333
  9
$TDUSRTIMER
 40
0.0004802894
  9
$USRTIMER
 70
     1
  9
$ANGBASE
 50
0.0
  9
$ANGDIR
 70
     0
  9
$PDMODE
 70
     0
  9
$PDSIZE
 40
0.0
  9
$PLINEWID
 40
0.0
  9
$SPLFRAME
 70
     0
  9
$SPLINETYPE
 70
     6
  9
$SPLINESEGS
 70
     8
  9
$HANDSEED
  5
FA
  9
$SURFTAB1
 70
     6
  9
$SURFTAB2
 70
     6
  9
$SURFTYPE
 70
     6
  9
$SURFU
 70
     6
  9
$SURFV
 70
     6
  9
$UCSBASE
  2

  9
$UCSNAME
  2

  9
$UCSORG
 10
0.0
 20
0.0
 30
0.0
  9
$UCSXDIR
 10
1.0
 20
0.0
 30
0.0
  9
$UCSYDIR
 10
0.0
 20
1.0
 30
0.0
  9
$UCSORTHOREF
  2

  9
$UCSORTHOVIEW
 70
     0
  9
$UCSORGTOP
 10
0.0
 20
0.0
 30
0.0
  9
$UCSORGBOTTOM
 10
0.0
 20
0.0
 30
0.0
  9
$UCSORGLEFT
 10
0.0
 20
0.0
 30
0.0
  9
$UCSORGRIGHT
 10
0.0
 20
0.0
 30
0.0
  9
$UCSORGFRONT
 10
0.0
 20
0.0
 30
0.0
  9
$UCSORGBACK
 10
0.0
 20
0.0
 30
0.0
  9
$PUCSBASE
  2

  9
$PUCSNAME
  2

  9
$PUCSORG
 10
0.0
 20
0.0
 30
0.0
  9
$PUCSXDIR
 10
1.0
 20
0.0
 30
0.0
  9
$PUCSYDIR
 10
0.0
 20
1.0
 30
0.0
  9
$PUCSORTHOREF
  2

  9
$PUCSORTHOVIEW
 70
     0
  9
$PUCSORGTOP
 10
0.0
 20
0.0
 30
0.0
  9
$PUCSORGBOTTOM
 10
0.0
 20
0.0
 30
0.0
  9
$PUCSORGLEFT
 10
0.0
 20
0.0
 30
0.0
  9
$PUCSORGRIGHT
 10
0.0
 20
0.0
 30
0.0
  9
$PUCSORGFRONT
 10
0.0
 20
0.0
 30
0.0
  9
$PUCSORGBACK
 10
0.0
 20
0.0
 30
0.0
  9
$USERI1
 70
     0
  9
$USERI2
 70
     0
  9
$USERI3
 70
     0
  9
$USERI4
 70
     0
  9
$USERI5
 70
     0
  9
$USERR1
 40
0.0
  9
$USERR2
 40
0.0
  9
$USERR3
 40
0.0
  9
$USERR4
 40
0.0
  9
$USERR5
 40
0.0
  9
$WORLDVIEW
 70
     1
  9
$SHADEDGE
 70
     3
  9
$SHADEDIF
 70
    70
  9
$TILEMODE
 70
     0
  9
$MAXACTVP
 70
    64
  9
$PINSBASE
 10
0.0
 20
0.0
 30
0.0
  9
$PLIMCHECK
 70
     0
  9
$PEXTMIN
 10
1.668533354495338
 20
5.074600247171009
 30
-0.0004043445228632
  9
$PEXTMAX
 10
4.679702778206788
 20
5.96037294280293
 30
0.0000152657740013
  9
$PLIMMIN
 10
1.596838772239514
 20
5.002905734903517
  9
$PLIMMAX
 10
4.75139729047428
 20
7.440519119695929
  9
$UNITMODE
 70
     0
  9
$VISRETAIN
 70
     0
  9
$PLINEGEN
 70
     1
  9
$PSLTSCALE
 70
     0
  9
$TREEDEPTH
 70
  3020
  9
$CMLSTYLE
  2
Standard
  9
$CMLJUST
 70
     0
  9
$CMLSCALE
 40
1.0
  9
$PROXYGRAPHICS
 70
     0
  9
$MEASUREMENT
 70
     0
  9
$CELWEIGHT
370
     0
  9
$ENDCAPS
280
     0
  9
$JOINSTYLE
280
     0
  9
$LWDISPLAY
290
     0
  9
$INSUNITS
 70
     0
  9
$HYPERLINKBASE
  1

  9
$STYLESHEET
  1

  9
$XEDIT
290
     1
  9
$CEPSNTYPE
380
     0
  9
$PSTYLEMODE
290
     1
  9
$FINGERPRINTGUID
  2

  9
$VERSIONGUID
  2
{E51749BD-BC56-4DBB-B4B0-B7D75C62181B}
  9
$EXTNAMES
290
     1
  9
$PSVPSCALE
 40
0.0
  9
$OLESTARTUP
290
     0
  0
ENDSEC
  0
SECTION
  2
CLASSES
  0
CLASS
  1
IMAGE
  2
AcDbRasterImage
  3
ISM
 90
    34943
280
     0
281
     1
  0
CLASS
  1
DICTIONARYVAR
  2
AcDbDictionaryVar
  3
ObjectDBX Classes
 90
        0
280
     0
281
     0
  0
CLASS
  1
RASTERVARIABLES
  2
AcDbRasterVariables
  3
ISM
 90
    32768
280
     0
281
     0
  0
CLASS
  1
IMAGEDEF
  2
AcDbRasterImageDef
  3
ISM
 90
    32768
280
     0
281
     0
  0
CLASS
  1
IMAGEDEF_REACTOR
  2
AcDbRasterImageDefReactor
  3
ISM
 90
    32769
280
     0
281
     0
  0
CLASS
  1
IDBUFFER
  2
AcDbIdBuffer
  3
ObjectDBX Classes
 90
    32768
280
     0
281
     0
  0
CLASS
  1
SPATIAL_FILTER
  2
AcDbSpatialFilter
  3
ObjectDBX Classes
 90
    32768
280
     0
281
     0
  0
CLASS
  1
SORTENTSTABLE
  2
AcDbSortentsTable
  3
ObjectDBX Classes
 90
    32768
280
     0
281
     0
  0
CLASS
  1
LAYER_INDEX
  2
AcDbLayerIndex
  3
ObjectDBX Classes
 90
    32768
280
     0
281
     0
  0
CLASS
  1
SPATIAL_INDEX
  2
AcDbSpatialIndex
  3
ObjectDBX Classes
 90
    32768
280
     0
281
     0
  0
CLASS
  1
OBJECT_PTR
  2
CAseDLPNTableRecord
  3
ASE-LPNTableRecord
 90
    32769
280
     0
281
     0
  0
CLASS
  1
LAYOUT
  2
AcDbLayout
  3
ObjectDBX Classes
 90
        0
280
     0
281
     0
  0
CLASS
  1
PLOTSETTINGS
  2
AcDbPlotSettings
  3
ObjectDBX Classes
 90
    32768
280
     0
281
     0
  0
CLASS
  1
ACDBDICTIONARYWDFLT
  2
AcDbDictionaryWithDefault
  3
ObjectDBX Classes
 90
        0
280
     0
281
     0
  0
CLASS
  1
ACDBPLACEHOLDER
  2
AcDbPlaceHolder
  3
ObjectDBX Classes
 90
        0
280
     0
281
     0
  0
CLASS
  1
VBA_PROJECT
  2
AcDbVbaProject
  3
acad
 90
    32768
280
     0
281
     0
  0
CLASS
  1
WIPEOUT
  2
AcDbWipeout
  3
"WipeOut|Product Desc: Object Enabler for WipeOut entity                        |Company: Autodesk, Inc.                        |WEB Address: www.autodesk.com"
 90
    34943
280
     0
281
     1
  0
CLASS
  1
WIPEOUTVARIABLES
  2
AcDbWipeoutVariables
  3
"WipeOut|Product Desc:     WipeOut Dbx Application|Company:          Autodesk, Inc.|WEB Address:      www.autodesk.com"
 90
        0
280
     0
281
     0
  0
CLASS
  1
RTEXT
  2
RText
  3
RText|AutoCAD Express Tool|expresstools@autodesk.com
 90
    35839
280
     0
281
     1
  0
CLASS
  1
ARCALIGNEDTEXT
  2
AcDbArcAlignedText
  3
ATEXT|AutoCAD Express Tool|expresstools@autodesk.com
 90
    32768
280
     0
281
     1
  0
CLASS
  1
MATERIAL
  2
AcDbMaterial
  3
ObjectDBX Classes
 90
     1024
280
     0
281
     0
  0
CLASS
  1
VISUALSTYLE
  2
AcDbVisualStyle
  3
ObjectDBX Classes
 90
     4095
280
     0
281
     0
  0
CLASS
  1
TABLESTYLE
  2
AcDbTableStyle
  3
ObjectDBX Classes
 90
     4095
280
     0
281
     0
  0
ENDSEC
  0
SECTION
  2
TABLES
  0
TABLE
  2
VPORT
  5
7
330
0
100
AcDbSymbolTable
 70
    16
  0
VPORT
  5
B1
330
7
100
AcDbSymbolTableRecord
100
AcDbViewportTableRecord
  2
*ACTIVE
 70
     0
 10
0.0
 20
0.0
 11
1.0
 21
1.0
 12
0.0
 22
0.0
 13
0.0
 23
0.0
 14
1.0
 24
1.0
 15
0.0
 25
0.0
 16
0.718873
 26
-0.5850489999999999
 36
0.375419
 17
0.0
 27
0.0
 37
0.0
 40
46.267976
 41
0.6885640000000001
 42
50.0
 43
22.857141
 44
-22.857141
 50
0.0
 51
0.0
 71
    16
 72
   100
 73
     1
 74
     1
 75
     0
 76
     0
 77
     0
 78
     0
281
     0
 65
     0
110
0.0
120
0.0
130
0.0
111
1.0
121
0.0
131
0.0
112
0.0
122
1.0
132
0.0
 79
     0
146
0.0
  0
VPORT
  5
B2
330
7
100
AcDbSymbolTableRecord
100
AcDbViewportTableRecord
  2
L1
 70
     0
 10
0.0
 20
0.0
 11
1.0
 21
1.0
 12
0.0
 22
0.0
 13
0.0
 23
0.0
 14
1.0
 24
1.0
 15
0.0
 25
0.0
 16
0.718873
 26
-0.5850489999999999
 36
0.375419
 17
0.0
 27
0.0
 37
0.0
 40
46.267976
 41
0.6885640000000001
 42
50.0
 43
22.857141
 44
-22.857141
 50
0.0
 51
0.0
 71
    16
 72
   100
 73
     1
 74
     1
 75
     0
 76
     0
 77
     0
 78
     0
281
     0
 65
     0
110
0.0
120
0.0
130
0.0
111
1.0
121
0.0
131
0.0
112
0.0
122
1.0
132
0.0
 79
     0
146
0.0
  0
VPORT
  5
B3
330
7
100
AcDbSymbolTableRecord
100
AcDbViewportTableRecord
  2
L2
 70
     0
 10
0.0
 20
0.0
 11
0.5
 21
1.0
 12
0.0
 22
0.0
 13
0.0
 23
0.0
 14
1.0
 24
1.0
 15
0.0
 25
0.0
 16
0.0
 26
-1.0
 36
0.0
 17
0.0
 27
0.0
 37
0.0
 40
44.59929999999999
 41
0.6885640000000001
 42
50.0
 43
23.034414
 44
-23.034414
 50
0.0
 51
0.0
 71
    16
 72
   100
 73
     1
 74
     1
 75
     0
 76
     0
 77
     0
 78
     0
281
     0
 65
     0
110
0.0
120
0.0
130
0.0
111
1.0
121
0.0
131
0.0
112
0.0
122
1.0
132
0.0
 79
     0
146
0.0
  0
VPORT
  5
B4
330
7
100
AcDbSymbolTableRecord
100
AcDbViewportTableRecord
  2
L2
 70
     0
 10
0.5
 20
0.0
 11
1.0
 21
1.0
 12
0.0
 22
0.0
 13
0.0
 23
0.0
 14
1.0
 24
1.0
 15
0.0
 25
0.0
 16
1.0
 26
0.0
 36
0.0
 17
0.0
 27
0.0
 37
0.0
 40
44.59929999999999
 41
0.6885640000000001
 42
50.0
 43
22.544309
 44
-22.544309
 50
0.0
 51
0.0
 71
    16
 72
   100
 73
     1
 74
     1
 75
     0
 76
     0
 77
     0
 78
     0
281
     0
 65
     0
110
0.0
120
0.0
130
0.0
111
1.0
121
0.0
131
0.0
112
0.0
122
1.0
132
0.0
 79
     0
146
0.0
  0
VPORT
  5
B5
330
7
100
AcDbSymbolTableRecord
100
AcDbViewportTableRecord
  2
L3
 70
     0
 10
0.0
 20
0.5
 11
1.0
 21
1.0
 12
0.0
 22
0.0
 13
0.0
 23
0.0
 14
1.0
 24
1.0
 15
0.0
 25
0.0
 16
0.0
 26
0.0
 36
1.0
 17
0.0
 27
0.0
 37
0.0
 40
6.624633999999999
 41
0.6885640000000001
 42
50.0
 43
22.29965
 44
-22.29965
 50
0.0
 51
0.0
 71
    16
 72
   100
 73
     1
 74
     1
 75
     0
 76
     0
 77
     0
 78
     0
281
     0
 65
     0
110
0.0
120
0.0
130
0.0
111
1.0
121
0.0
131
0.0
112
0.0
122
1.0
132
0.0
 79
     0
146
0.0
  0
VPORT
  5
B6
330
7
100
AcDbSymbolTableRecord
100
AcDbViewportTableRecord
  2
L3
 70
     0
 10
0.0
 20
0.0
 11
1.0
 21
0.5
 12
0.0
 22
0.0
 13
0.0
 23
0.0
 14
1.0
 24
1.0
 15
0.0
 25
0.0
 16
0.0
 26
-1.0
 36
0.0
 17
0.0
 27
0.0
 37
0.0
 40
44.59929999999999
 41
0.6885640000000001
 42
50.0
 43
23.034414
 44
-23.034414
 50
0.0
 51
0.0
 71
    16
 72
   100
 73
     1
 74
     1
 75
     0
 76
     0
 77
     0
 78
     0
281
     0
 65
     0
110
0.0
120
0.0
130
0.0
111
1.0
121
0.0
131
0.0
112
0.0
122
1.0
132
0.0
 79
     0
146
0.0
  0
VPORT
  5
B7
330
7
100
AcDbSymbolTableRecord
100
AcDbViewportTableRecord
  2
L4
 70
     0
 10
0.0
 20
0.5
 11
0.5
 21
1.0
 12
0.0
 22
0.0
 13
0.0
 23
0.0
 14
1.0
 24
1.0
 15
0.0
 25
0.0
 16
0.0
 26
0.0
 36
1.0
 17
0.0
 27
0.0
 37
0.0
 40
6.624633999999999
 41
0.6885640000000001
 42
50.0
 43
22.29965
 44
-22.29965
 50
0.0
 51
0.0
 71
    16
 72
   100
 73
     1
 74
     1
 75
     0
 76
     0
 77
     0
 78
     0
281
     0
 65
     0
110
0.0
120
0.0
130
0.0
111
1.0
121
0.0
131
0.0
112
0.0
122
1.0
132
0.0
 79
     0
146
0.0
  0
VPORT
  5
B8
330
7
100
AcDbSymbolTableRecord
100
AcDbViewportTableRecord
  2
L4
 70
     0
 10
0.0
 20
0.0
 11
0.5
 21
0.5
 12
0.0
 22
0.0
 13
0.0
 23
0.0
 14
1.0
 24
1.0
 15
0.0
 25
0.0
 16
0.0
 26
-1.0
 36
0.0
 17
0.0
 27
0.0
 37
0.0
 40
44.59929999999999
 41
0.6885640000000001
 42
50.0
 43
23.034414
 44
-23.034414
 50
0.0
 51
0.0
 71
    16
 72
   100
 73
     1
 74
     1
 75
     0
 76
     0
 77
     0
 78
     0
281
     0
 65
     0
110
0.0
120
0.0
130
0.0
111
1.0
121
0.0
131
0.0
112
0.0
122
1.0
132
0.0
 79
     0
146
0.0
  0
VPORT
  5
B9
330
7
100
AcDbSymbolTableRecord
100
AcDbViewportTableRecord
  2
L4
 70
     0
 10
0.5
 20
0.0
 11
1.0
 21
0.5
 12
0.0
 22
0.0
 13
0.0
 23
0.0
 14
1.0
 24
1.0
 15
0.0
 25
0.0
 16
1.0
 26
0.0
 36
0.0
 17
0.0
 27
0.0
 37
0.0
 40
44.59929999999999
 41
0.6885640000000001
 42
50.0
 43
22.544309
 44
-22.544309
 50
0.0
 51
0.0
 71
    16
 72
   100
 73
     1
 74
     1
 75
     0
 76
     0
 77
     0
 78
     0
281
     0
 65
     0
110
0.0
120
0.0
130
0.0
111
1.0
121
0.0
131
0.0
112
0.0
122
1.0
132
0.0
 79
     0
146
0.0
  0
VPORT
  5
BA
330
7
100
AcDbSymbolTableRecord
100
AcDbViewportTableRecord
  2
L4
 70
     0
 10
0.5
 20
0.5
 11
1.0
 21
1.0
 12
0.0
 22
0.0
 13
0.0
 23
0.0
 14
1.0
 24
1.0
 15
0.0
 25
0.0
 16
0.5773500000000001
 26
-0.5773500000000001
 36
0.5773500000000001
 17
0.0
 27
0.0
 37
0.0
 40
43.832054
 41
0.6885640000000001
 42
50.0
 43
22.837903
 44
-22.837903
 50
0.0
 51
0.0
 71
    16
 72
   100
 73
     1
 74
     1
 75
     0
 76
     0
 77
     0
 78
     0
281
     0
 65
     0
110
0.0
120
0.0
130
0.0
111
1.0
121
0.0
131
0.0
112
0.0
122
1.0
132
0.0
 79
     0
146
0.0
  0
VPORT
  5
BB
330
7
100
AcDbSymbolTableRecord
100
AcDbViewportTableRecord
  2
L6
 70
     0
 10
0.0
 20
0.5
 11
0.333333
 21
1.0
 12
0.0
 22
0.0
 13
0.0
 23
0.0
 14
1.0
 24
1.0
 15
0.0
 25
0.0
 16
0.718873
 26
-0.5850489999999999
 36
0.375419
 17
0.0
 27
0.0
 37
0.0
 40
46.267976
 41
0.6885640000000001
 42
50.0
 43
22.857141
 44
-22.857141
 50
0.0
 51
0.0
 71
    16
 72
   100
 73
     1
 74
     1
 75
     0
 76
     0
 77
     0
 78
     0
281
     0
 65
     0
110
0.0
120
0.0
130
0.0
111
1.0
121
0.0
131
0.0
112
0.0
122
1.0
132
0.0
 79
     0
146
0.0
  0
VPORT
  5
BC
330
7
100
AcDbSymbolTableRecord
100
AcDbViewportTableRecord
  2
L6
 70
     0
 10
0.0
 20
0.0
 11
0.333333
 21
0.5
 12
0.0
 22
0.0
 13
0.0
 23
0.0
 14
1.0
 24
1.0
 15
0.0
 25
0.0
 16
-1.0
 26
0.0
 36
0.0
 17
0.0
 27
0.0
 37
0.0
 40
44.59929999999999
 41
0.6885640000000001
 42
50.0
 43
22.544309
 44
-22.544309
 50
0.0
 51
0.0
 71
    16
 72
   100
 73
     1
 74
     1
 75
     0
 76
     0
 77
     0
 78
     0
281
     0
 65
     0
110
0.0
120
0.0
130
0.0
111
1.0
121
0.0
131
0.0
112
0.0
122
1.0
132
0.0
 79
     0
146
0.0
  0
VPORT
  5
BD
330
7
100
AcDbSymbolTableRecord
100
AcDbViewportTableRecord
  2
L6
 70
     0
 10
0.333333
 20
0.5
 11
0.666667
 21
1.0
 12
0.0
 22
0.0
 13
0.0
 23
0.0
 14
1.0
 24
1.0
 15
0.0
 25
0.0
 16
0.0
 26
0.0
 36
1.0
 17
0.0
 27
0.0
 37
0.0
 40
6.624633999999999
 41
0.6885640000000001
 42
50.0
 43
22.29965
 44
-22.29965
 50
0.0
 51
0.0
 71
    16
 72
   100
 73
     1
 74
     1
 75
     0
 76
     0
 77
     0
 78
     0
281
     0
 65
     0
110
0.0
120
0.0
130
0.0
111
1.0
121
0.0
131
0.0
112
0.0
122
1.0
132
0.0
 79
     0
146
0.0
  0
VPORT
  5
BE
330
7
100
AcDbSymbolTableRecord
100
AcDbViewportTableRecord
  2
L6
 70
     0
 10
0.333333
 20
0.0
 11
0.666667
 21
0.5
 12
0.0
 22
0.0
 13
0.0
 23
0.0
 14
1.0
 24
1.0
 15
0.0
 25
0.0
 16
0.0
 26
-1.0
 36
0.0
 17
0.0
 27
0.0
 37
0.0
 40
44.59929999999999
 41
0.6885640000000001
 42
50.0
 43
23.034414
 44
-23.034414
 50
0.0
 51
0.0
 71
    16
 72
   100
 73
     1
 74
     1
 75
     0
 76
     0
 77
     0
 78
     0
281
     0
 65
     0
110
0.0
120
0.0
130
0.0
111
1.0
121
0.0
131
0.0
112
0.0
122
1.0
132
0.0
 79
     0
146
0.0
  0
VPORT
  5
BF
330
7
100
AcDbSymbolTableRecord
100
AcDbViewportTableRecord
  2
L6
 70
     0
 10
0.666667
 20
0.5
 11
1.0
 21
1.0
 12
0.0
 22
0.0
 13
0.0
 23
0.0
 14
1.0
 24
1.0
 15
0.0
 25
0.0
 16
0.5773500000000001
 26
-0.5773500000000001
 36
0.5773500000000001
 17
0.0
 27
0.0
 37
0.0
 40
43.832054
 41
0.6885640000000001
 42
50.0
 43
22.837903
 44
-22.837903
 50
0.0
 51
0.0
 71
    16
 72
   100
 73
     1
 74
     1
 75
     0
 76
     0
 77
     0
 78
     0
281
     0
 65
     0
110
0.0
120
0.0
130
0.0
111
1.0
121
0.0
131
0.0
112
0.0
122
1.0
132
0.0
 79
     0
146
0.0
  0
VPORT
  5
C0
330
7
100
AcDbSymbolTableRecord
100
AcDbViewportTableRecord
  2
L6
 70
     0
 10
0.666667
 20
0.0
 11
1.0
 21
0.5
 12
0.0
 22
0.0
 13
0.0
 23
0.0
 14
1.0
 24
1.0
 15
0.0
 25
0.0
 16
1.0
 26
0.0
 36
0.0
 17
0.0
 27
0.0
 37
0.0
 40
44.59929999999999
 41
0.6885640000000001
 42
50.0
 43
22.544309
 44
-22.544309
 50
0.0
 51
0.0
 71
    16
 72
   100
 73
     1
 74
     1
 75
     0
 76
     0
 77
     0
 78
     0
281
     0
 65
     0
110
0.0
120
0.0
130
0.0
111
1.0
121
0.0
131
0.0
112
0.0
122
1.0
132
0.0
 79
     0
146
0.0
  0
ENDTAB
  0
TABLE
  2
LTYPE
  5
4
330
0
100
AcDbSymbolTable
 70
     7
  0
LTYPE
  5
11
330
4
100
AcDbSymbolTableRecord
100
AcDbLinetypeTableRecord
  2
ByBlock
 70
     0
  3

 72
    65
 73
     0
 40
0.0
  0
LTYPE
  5
12
330
4
100
AcDbSymbolTableRecord
100
AcDbLinetypeTableRecord
  2
ByLayer
 70
     0
  3

 72
    65
 73
     0
 40
0.0
  0
LTYPE
  5
13
330
4
100
AcDbSymbolTableRecord
100
AcDbLinetypeTableRecord
  2
Continuous
 70
     0
  3
Solid line
 72
    65
 73
     0
 40
0.0
  0
LTYPE
  5
24
330
4
100
AcDbSymbolTableRecord
100
AcDbLinetypeTableRecord
  2
DASHED
 70
     0
  3
__ __ __ __ __ __ __ __ __
 72
    65
 73
     2
 40
25.72
 49
12.86
 74
     0
 49
-12.86
 74
     0
  0
LTYPE
  5
25
330
4
100
AcDbSymbolTableRecord
100
AcDbLinetypeTableRecord
  2
HIDDEN
 70
     0
  3
_ _ _ _ _ _ _ _ _ _ _ _ _ _ _
 72
    65
 73
     2
 40
0.5
 49
0.25
 74
     0
 49
-0.25
 74
     0
  0
LTYPE
  5
26
330
4
100
AcDbSymbolTableRecord
100
AcDbLinetypeTableRecord
  2
PHANTOM
 70
     0
  3
____ _ _ ____ _ _ _____ _ _ ____
 72
    65
 73
     6
 40
50.5
 49
18.0
 74
     0
 49
-6.5
 74
     0
 49
6.5
 74
     0
 49
-6.5
 74
     0
 49
6.5
 74
     0
 49
-6.5
 74
     0
  0
LTYPE
  5
27
330
4
100
AcDbSymbolTableRecord
100
AcDbLinetypeTableRecord
  2
CENTER
 70
     0
  3
____ _ ____ _ ____ _ ____
 72
    65
 73
     4
 40
47.5
 49
22.0
 74
     0
 49
-8.5
 74
     0
 49
8.5
 74
     0
 49
-8.5
 74
     0
  0
LTYPE
  5
28
330
4
100
AcDbSymbolTableRecord
100
AcDbLinetypeTableRecord
  2
DOT
 70
     0
  3
.........................
 72
    65
 73
     2
 40
10.0
 49
0.0
 74
     0
 49
-10.0
 74
     0
  0
LTYPE
  5
29
330
4
100
AcDbSymbolTableRecord
100
AcDbLinetypeTableRecord
  2
DASHDOT
 70
     0
  3
_._._._._._._._._._._._._._._._.
 72
    65
 73
     4
 40
70.0
 49
31.0
 74
     0
 49
-13.0
 74
     0
 49
13.0
 74
     0
 49
-13.0
 74
     0
  0
ENDTAB
  0
TABLE
  2
LAYER
  5
2
330
0
100
AcDbSymbolTable
 70
     2
  0
LAYER
  5
14
330
2
100
AcDbSymbolTableRecord
100
AcDbLayerTableRecord
  2
0
 70
     0
 62
     7
  6
Continuous
370
    -3
390
1D
  0
LAYER
  5
34
330
2
100
AcDbSymbolTableRecord
100
AcDbLayerTableRecord
  2
1
 70
     0
 62
     7
  6
Continuous
370
    -3
390
1D
  0
ENDTAB
  0
TABLE
  2
STYLE
  5
3
330
0
100
AcDbSymbolTable
 70
     1
  0
STYLE
  5
17
330
3
100
AcDbSymbolTableRecord
100
AcDbTextStyleTableRecord
  2
Standard
 70
     0
 40
0.0
 41
1.0
 50
0.0
 71
     0
 42
0.0
  3
txt
  4

  0
ENDTAB
  0
TABLE
  2
VIEW
  5
5
330
0
100
AcDbSymbolTable
 70
     8
  0
VIEW
  5
2A
330
5
100
AcDbSymbolTableRecord
100
AcDbViewTableRecord
  2
TOP
 70
     0
 40
6.624633999999999
 10
0.0
 20
0.0
 41
11.542932
 11
0.0
 21
0.0
 31
1.0
 12
0.0
 22
0.0
 32
0.0
 42
50.0
 43
22.29965
 44
-22.29965
 50
0.0
 71
    16
281
     0
 72
     0
  0
VIEW
  5
2B
330
5
100
AcDbSymbolTableRecord
100
AcDbViewTableRecord
  2
FRONT
 70
     0
 40
44.59929999999999
 10
0.0
 20
0.0
 41
11.542932
 11
0.0
 21
-1.0
 31
0.0
 12
0.0
 22
0.0
 32
0.0
 42
50.0
 43
23.034414
 44
-23.034414
 50
0.0
 71
    16
281
     0
 72
     0
  0
VIEW
  5
2C
330
5
100
AcDbSymbolTableRecord
100
AcDbViewTableRecord
  2
RIGHT
 70
     0
 40
44.59929999999999
 10
0.0
 20
0.0
 41
6.624633999999999
 11
1.0
 21
0.0
 31
0.0
 12
0.0
 22
0.0
 32
0.0
 42
50.0
 43
22.544309
 44
-22.544309
 50
0.0
 71
    16
281
     0
 72
     0
  0
VIEW
  5
2D
330
5
100
AcDbSymbolTableRecord
100
AcDbViewTableRecord
  2
BACK
 70
     0
 40
44.59929999999999
 10
0.0
 20
0.0
 41
11.542932
 11
0.0
 21
1.0
 31
0.0
 12
0.0
 22
0.0
 32
0.0
 42
50.0
 43
23.034414
 44
-23.034414
 50
0.0
 71
    16
281
     0
 72
     0
  0
VIEW
  5
2E
330
5
100
AcDbSymbolTableRecord
100
AcDbViewTableRecord
  2
BOTTOM
 70
     0
 40
6.624633999999999
 10
0.0
 20
0.0
 41
11.542932
 11
0.0
 21
0.0
 31
-1.0
 12
0.0
 22
0.0
 32
0.0
 42
50.0
 43
22.29965
 44
-22.29965
 50
180.0
 71
    16
281
     0
 72
     0
  0
VIEW
  5
2F
330
5
100
AcDbSymbolTableRecord
100
AcDbViewTableRecord
  2
LEFT
 70
     0
 40
44.59929999999999
 10
0.0
 20
0.0
 41
6.624633999999999
 11
-1.0
 21
0.0
 31
0.0
 12
0.0
 22
0.0
 32
0.0
 42
50.0
 43
22.544309
 44
-22.544309
 50
0.0
 71
    16
281
     0
 72
     0
  0
VIEW
  5
30
330
5
100
AcDbSymbolTableRecord
100
AcDbViewTableRecord
  2
TFR-ISO
 70
     0
 40
43.832054
 10
0.0
 20
0.0
 41
12.84641
 11
0.5773500000000001
 21
-0.5773500000000001
 31
0.5773500000000001
 12
0.0
 22
0.0
 32
0.0
 42
50.0
 43
22.837903
 44
-22.837903
 50
0.0
 71
    16
281
     0
 72
     0
  0
VIEW
  5
31
330
5
100
AcDbSymbolTableRecord
100
AcDbViewTableRecord
  2
TFR-TRI
 70
     0
 40
46.267976
 10
0.0
 20
0.0
 41
12.424216
 11
0.718873
 21
-0.5850489999999999
 31
0.375419
 12
0.0
 22
0.0
 32
0.0
 42
50.0
 43
22.857141
 44
-22.857141
 50
0.0
 71
    16
281
     0
 72
     0
  0
ENDTAB
  0
TABLE
  2
UCS
  5
6
330
0
100
AcDbSymbolTable
 70
     0
  0
ENDTAB
  0
TABLE
  2
APPID
  5
8
330
0
100
AcDbSymbolTable
 70
     3
  0
APPID
  5
16
330
8
100
AcDbSymbolTableRecord
100
AcDbRegAppTableRecord
  2
ACAD
 70
     0
  0
APPID
  5
DF
330
8
100
AcDbSymbolTableRecord
100
AcDbRegAppTableRecord
  2
ACAD_PSEXT
 70
     0
  0
APPID
  5
E2
330
8
100
AcDbSymbolTableRecord
100
AcDbRegAppTableRecord
  2
DCO15
 70
     0
  0
ENDTAB
  0
TABLE
  2
DIMSTYLE
  5
9
330
0
100
AcDbSymbolTable
 70
     1
100
AcDbDimStyleTable
 71
     0
  0
DIMSTYLE
105
18
330
9
100
AcDbSymbolTableRecord
100
AcDbDimStyleTableRecord
  2
Standard
 70
     0
340
17
  0
ENDTAB
  0
TABLE
  2
BLOCK_RECORD
  5
1
330
0
100
AcDbSymbolTable
 70
     0
  0
BLOCK_RECORD
  5
A
330
1
100
AcDbSymbolTableRecord
100
AcDbBlockTableRecord
  2
*MODEL_SPACE
340
20
  0
BLOCK_RECORD
  5
B
330
1
100
AcDbSymbolTableRecord
100
AcDbBlockTableRecord
  2
*PAPER_SPACE
340
21
  0
ENDTAB
  0
ENDSEC
  0
SECTION
  2
BLOCKS
  0
BLOCK
  5
D
330
A
100
AcDbEntity
  8
0
100
AcDbBlockBegin
  2
*MODEL_SPACE
 70
     0
 10
0.0
 20
0.0
 30
0.0
  3
*MODEL_SPACE
  1

  0
ENDBLK
  5
E
330
A
100
AcDbEntity
  8
0
100
AcDbBlockEnd
  0
BLOCK
  5
F
330
B
100
AcDbEntity
 67
     1
  8
0
100
AcDbBlockBegin
  2
*PAPER_SPACE
 70
     0
 10
0.0
 20
0.0
 30
0.0
  3
*PAPER_SPACE
  1

  0
ENDBLK
  5
10
330
B
100
AcDbEntity
 67
     1
  8
0
100
AcDbBlockEnd
  0
ENDSEC
  0
SECTION
  2
ENTITIES
  0
VIEWPORT
  5
32
102
{ACAD_XDICTIONARY
360
EE
102
}
330
B
100
AcDbEntity
 67
     1
  8
0
100
AcDbViewport
 10
7.594715447154472
 20
4.25
 30
0.0
 40
15.18943089430894
 41
8.5
 68
     1
 69
     1
 12
7.594715447154472
 22
4.25
 13
0.0
 23
0.0
 14
0.0
 24
0.0
 15
0.0
 25
0.0
 16
0.0
 26
0.0
 36
1.0
 17
0.0
 27
0.0
 37
0.0
 42
26.277896
 43
0.0
 44
0.0
 45
8.5
 50
0.0
 51
0.0
 72
   100
 90
    32800
  1

281
     0
 71
     0
 74
     1
110
0.0
120
0.0
130
0.0
111
1.0
121
0.0
131
0.0
112
0.0
122
1.0
132
0.0
 79
     0
146
0.0
  0
LINE
  5
33
330
B
100
AcDbEntity
 67
     1
  8
1
  6
Continuous
 62
    18
100
AcDbLine
 10
1.701081999999999
 20
5.206682999999999
 30
0.0
 11
1.70144
 21
5.206324999999999
 31
0.0
  0
LINE
  5
35
330
B
100
AcDbEntity
 67
     1
  8
1
  6
Continuous
 62
    18
100
AcDbLine
 10
1.701797999999999
 20
5.872758
 30
0.0
 11
1.701495999999999
 21
5.838778999999999
 31
0.0
  0
LINE
  5
36
330
B
100
AcDbEntity
 67
     1
  8
1
  6
Continuous
 62
    18
100
AcDbLine
 10
1.745096
 20
5.136917999999999
 30
0.0
 11
1.745096
 21
5.075276999999999
 31
0.0
  0
LINE
  5
37
330
B
100
AcDbEntity
 67
     1
  8
1
  6
Continuous
 62
    18
100
AcDbLine
 10
2.275183999999999
 20
5.779757
 30
0.0
 11
2.275334999999999
 21
5.779757
 31
0.0
  0
LINE
  5
38
330
B
100
AcDbEntity
 67
     1
  8
1
  6
Continuous
 62
    18
100
AcDbLine
 10
2.310258
 20
5.205967
 30
0.0
 11
2.311688999999999
 21
5.206682999999999
 31
0.0
  0
LINE
  5
39
330
B
100
AcDbEntity
 67
     1
  8
1
  6
Continuous
 62
    18
100
AcDbLine
 10
2.278836
 20
5.838778999999999
 30
0.0
 11
2.278534999999999
 21
5.872758
 31
0.0
  0
LINE
  5
3A
330
B
100
AcDbEntity
 67
     1
  8
1
  6
Continuous
 62
    18
100
AcDbLine
 10
4.358907
 20
5.917976999999999
 30
0.0
 11
4.678905999999999
 21
5.915183999999999
 31
0.0
  0
LINE
  5
3B
330
B
100
AcDbEntity
 67
     1
  8
1
  6
Continuous
 62
    18
100
AcDbLine
 10
2.275183999999999
 20
5.779757
 30
0.0
 11
2.275183999999999
 21
5.144179
 31
0.0
  0
LINE
  5
3C
330
B
100
AcDbEntity
 67
     1
  8
1
  6
Continuous
 62
    18
100
AcDbLine
 10
3.892907
 20
5.790104
 30
0.0
 11
3.910279
 21
5.790104
 31
0.0
  0
LINE
  5
3D
330
B
100
AcDbEntity
 67
     1
  8
1
  6
Continuous
 62
    18
100
AcDbLine
 10
1.668643
 20
5.90763
 30
0.0
 11
1.670074
 21
5.908345999999999
 31
0.0
  0
LINE
  5
3E
330
B
100
AcDbEntity
 67
     1
  8
1
  6
Continuous
 62
    18
100
AcDbLine
 10
1.704270999999999
 20
5.7545
 30
0.0
 11
1.704293999999999
 21
5.750135
 31
0.0
  0
LINE
  5
3F
330
B
100
AcDbEntity
 67
     1
  8
1
  6
Continuous
 62
    18
100
AcDbLine
 10
4.317905999999999
 20
5.216671999999999
 30
0.0
 11
3.990905999999999
 21
5.219526
 31
0.0
  0
LINE
  5
40
330
B
100
AcDbEntity
 67
     1
  8
1
  6
Continuous
 62
    18
100
AcDbLine
 10
2.275183999999999
 20
5.144179
 30
0.0
 11
1.705149
 21
5.144179
 31
0.0
  0
LINE
  5
41
330
B
100
AcDbEntity
 67
     1
  8
1
  6
Continuous
 62
    18
100
AcDbLine
 10
4.101266999999999
 20
5.150889
 30
0.0
 11
4.212905999999999
 21
5.085624
 31
0.0
  0
LINE
  5
42
330
B
100
AcDbEntity
 67
     1
  8
1
  6
Continuous
 62
    18
100
AcDbLine
 10
2.310258
 20
5.908345999999999
 30
0.0
 11
2.278534999999999
 21
5.908345999999999
 31
0.0
  0
LINE
  5
43
330
B
100
AcDbEntity
 67
     1
  8
1
  6
Continuous
 62
    18
100
AcDbLine
 10
1.701797999999999
 20
5.137476
 30
0.0
 11
1.670074
 21
5.137476
 31
0.0
  0
LINE
  5
44
330
B
100
AcDbEntity
 67
     1
  8
1
  6
Continuous
 62
    18
100
AcDbLine
 10
1.701286999999999
 20
5.838570999999999
 30
0.0
 11
1.701081999999999
 21
5.838366
 31
0.0
  0
LINE
  5
45
330
B
100
AcDbEntity
 67
     1
  8
1
  6
Continuous
 62
    18
100
AcDbLine
 10
2.310258
 20
5.205967
 30
0.0
 11
2.310258
 21
5.137476
 31
0.0
  0
LINE
  5
46
330
B
100
AcDbEntity
 67
     1
  8
1
  6
Continuous
 62
    18
100
AcDbLine
 10
1.701797999999999
 20
5.872758
 30
0.0
 11
1.701797999999999
 21
5.908345999999999
 31
0.0
  0
LINE
  5
47
330
B
100
AcDbEntity
 67
     1
  8
1
  6
Continuous
 62
    18
100
AcDbLine
 10
1.745096
 20
5.075276999999999
 30
0.0
 11
2.235236
 21
5.075276999999999
 31
0.0
  0
LINE
  5
48
330
B
100
AcDbEntity
 67
     1
  8
1
  6
Continuous
 62
    18
100
AcDbLine
 10
2.232599
 20
5.907128
 30
0.0
 11
2.277317
 21
5.907128
 31
0.0
  0
LINE
  5
49
330
B
100
AcDbEntity
 67
     1
  8
1
  6
Continuous
 62
    18
100
AcDbLine
 10
2.311688999999999
 20
5.206682999999999
 30
0.0
 11
2.311688999999999
 21
5.138192
 31
0.0
  0
LINE
  5
4A
330
B
100
AcDbEntity
 67
     1
  8
1
  6
Continuous
 62
    18
100
AcDbLine
 10
2.278836
 20
5.838778999999999
 30
0.0
 11
2.279044999999999
 21
5.838570999999999
 31
0.0
  0
LINE
  5
4B
330
B
100
AcDbEntity
 67
     1
  8
1
  6
Continuous
 62
    18
100
AcDbLine
 10
4.276905999999999
 20
5.918693
 30
0.0
 11
4.276905999999999
 21
5.883105999999999
 31
0.0
  0
LINE
  5
4C
330
B
100
AcDbEntity
 67
     1
  8
1
  6
Continuous
 62
    18
100
AcDbLine
 10
2.231338
 20
5.140541999999999
 30
0.0
 11
1.748995
 21
5.140541999999999
 31
0.0
  0
LINE
  5
4D
330
B
100
AcDbEntity
 67
     1
  8
1
  6
Continuous
 62
    18
100
AcDbLine
 10
2.278534999999999
 20
5.205967
 30
0.0
 11
2.278534999999999
 21
5.137476
 31
0.0
  0
LINE
  5
4E
330
B
100
AcDbEntity
 67
     1
  8
1
  6
Continuous
 62
    18
100
AcDbLine
 10
4.137382999999999
 20
5.917474999999999
 30
0.0
 11
4.276905999999999
 21
5.918693
 31
0.0
  0
LINE
  5
4F
330
B
100
AcDbEntity
 67
     1
  8
1
  6
Continuous
 62
    18
100
AcDbLine
 10
1.745096
 20
5.908903999999999
 30
0.0
 11
1.742861999999999
 21
5.908345999999999
 31
0.0
  0
LINE
  5
50
330
B
100
AcDbEntity
 67
     1
  8
1
  6
Continuous
 62
    18
100
AcDbLine
 10
1.704293999999999
 20
5.209177999999999
 30
0.0
 11
1.70144
 21
5.206324999999999
 31
0.0
  0
LINE
  5
51
330
B
100
AcDbEntity
 67
     1
  8
1
  6
Continuous
 62
    18
100
AcDbLine
 10
3.990905999999999
 20
5.760481999999999
 30
0.0
 11
3.993468
 21
5.764847
 31
0.0
  0
LINE
  5
52
330
B
100
AcDbEntity
 67
     1
  8
1
  6
Continuous
 62
    18
100
AcDbLine
 10
2.235236
 20
5.949486
 30
0.0
 11
2.232599
 21
5.907128
 31
0.0
  0
LINE
  5
53
330
B
100
AcDbEntity
 67
     1
  8
1
  6
Continuous
 62
    18
100
AcDbLine
 10
4.276905999999999
 20
5.216313999999999
 30
0.0
 11
4.358907
 21
5.21703
 31
0.0
  0
LINE
  5
54
330
B
100
AcDbEntity
 67
     1
  8
1
  6
Continuous
 62
    18
100
AcDbLine
 10
2.311688999999999
 20
5.90763
 30
0.0
 11
2.311688999999999
 21
5.838366
 31
0.0
  0
LINE
  5
55
330
B
100
AcDbEntity
 67
     1
  8
1
  6
Continuous
 62
    18
100
AcDbLine
 10
2.310258
 20
5.137476
 30
0.0
 11
2.278534999999999
 21
5.137476
 31
0.0
  0
LINE
  5
56
330
B
100
AcDbEntity
 67
     1
  8
1
  6
Continuous
 62
    18
100
AcDbLine
 10
1.670074
 20
5.205967
 30
0.0
 11
1.701797999999999
 21
5.205967
 31
0.0
  0
LINE
  5
57
330
B
100
AcDbEntity
 67
     1
  8
1
  6
Continuous
 62
    18
100
AcDbLine
 10
1.745096
 20
5.949486
 30
0.0
 11
2.235236
 21
5.949486
 31
0.0
  0
LINE
  5
58
330
B
100
AcDbEntity
 67
     1
  8
1
  6
Continuous
 62
    18
100
AcDbLine
 10
2.311688999999999
 20
5.838366
 30
0.0
 11
2.27925
 21
5.838366
 31
0.0
  0
LINE
  5
59
330
B
100
AcDbEntity
 67
     1
  8
1
  6
Continuous
 62
    18
100
AcDbLine
 10
1.742861999999999
 20
5.137476
 30
0.0
 11
1.748995
 21
5.140541999999999
 31
0.0
  0
LINE
  5
5A
330
B
100
AcDbEntity
 67
     1
  8
1
  6
Continuous
 62
    18
100
AcDbLine
 10
1.703015
 20
5.907128
 30
0.0
 11
1.747734
 21
5.907128
 31
0.0
  0
LINE
  5
5B
330
B
100
AcDbEntity
 67
     1
  8
1
  6
Continuous
 62
    18
100
AcDbLine
 10
2.235236
 20
5.136917999999999
 30
0.0
 11
2.235236
 21
5.075276999999999
 31
0.0
  0
LINE
  5
5C
330
B
100
AcDbEntity
 67
     1
  8
1
  6
Continuous
 62
    18
100
AcDbLine
 10
2.277317
 20
5.907128
 30
0.0
 11
2.278534999999999
 21
5.908345999999999
 31
0.0
  0
LINE
  5
5D
330
B
100
AcDbEntity
 67
     1
  8
1
  6
Continuous
 62
    18
100
AcDbLine
 10
4.212905999999999
 20
5.919251
 30
0.0
 11
4.276905999999999
 21
5.918693
 31
0.0
  0
LINE
  5
5E
330
B
100
AcDbEntity
 67
     1
  8
1
  6
Continuous
 62
    18
100
AcDbLine
 10
1.702984
 20
5.836873999999999
 30
0.0
 11
1.701286999999999
 21
5.838570999999999
 31
0.0
  0
LINE
  5
5F
330
B
100
AcDbEntity
 67
     1
  8
1
  6
Continuous
 62
    18
100
AcDbLine
 10
4.311484
 20
5.849126999999999
 30
0.0
 11
4.358907
 21
5.848713
 31
0.0
  0
LINE
  5
60
330
B
100
AcDbEntity
 67
     1
  8
1
  6
Continuous
 62
    18
100
AcDbLine
 10
1.669470999999999
 20
5.838778999999999
 30
0.0
 11
1.668643
 21
5.838366
 31
0.0
  0
LINE
  5
61
330
B
100
AcDbEntity
 67
     1
  8
1
  6
Continuous
 62
    18
100
AcDbLine
 10
2.278893
 20
5.206324999999999
 30
0.0
 11
2.276038999999999
 21
5.209177999999999
 31
0.0
  0
LINE
  5
62
330
B
100
AcDbEntity
 67
     1
  8
1
  6
Continuous
 62
    18
100
AcDbLine
 10
1.745096
 20
5.949486
 30
0.0
 11
1.747734
 21
5.907128
 31
0.0
  0
LINE
  5
63
330
B
100
AcDbEntity
 67
     1
  8
1
  6
Continuous
 62
    18
100
AcDbLine
 10
1.701797999999999
 20
5.137476
 30
0.0
 11
1.701797999999999
 21
5.205967
 31
0.0
  0
LINE
  5
64
330
B
100
AcDbEntity
 67
     1
  8
1
  6
Continuous
 62
    18
100
AcDbLine
 10
4.358907
 20
5.148538999999999
 30
0.0
 11
4.276905999999999
 21
5.147823999999999
 31
0.0
  0
LINE
  5
65
330
B
100
AcDbEntity
 67
     1
  8
1
  6
Continuous
 62
    18
100
AcDbLine
 10
1.670074
 20
5.908345999999999
 30
0.0
 11
1.701797999999999
 21
5.908345999999999
 31
0.0
  0
LINE
  5
66
330
B
100
AcDbEntity
 67
     1
  8
1
  6
Continuous
 62
    18
100
AcDbLine
 10
2.237470999999999
 20
5.137476
 30
0.0
 11
2.235236
 21
5.136917999999999
 31
0.0
  0
LINE
  5
67
330
B
100
AcDbEntity
 67
     1
  8
1
  6
Continuous
 62
    18
100
AcDbLine
 10
4.678905999999999
 20
5.151332
 30
0.0
 11
4.678905999999999
 21
5.213522
 31
0.0
  0
LINE
  5
68
330
B
100
AcDbEntity
 67
     1
  8
1
  6
Continuous
 62
    18
100
AcDbLine
 10
2.310258
 20
5.872758
 30
0.0
 11
2.310861999999999
 21
5.838778999999999
 31
0.0
  0
LINE
  5
69
330
B
100
AcDbEntity
 67
     1
  8
1
  6
Continuous
 62
    18
100
AcDbLine
 10
1.670074
 20
5.205967
 30
0.0
 11
1.668643
 21
5.206682999999999
 31
0.0
  0
LINE
  5
6A
330
B
100
AcDbEntity
 67
     1
  8
1
  6
Continuous
 62
    18
100
AcDbLine
 10
1.701495999999999
 20
5.838778999999999
 30
0.0
 11
1.669470999999999
 21
5.838778999999999
 31
0.0
  0
LINE
  5
6B
330
B
100
AcDbEntity
 67
     1
  8
1
  6
Continuous
 62
    18
100
AcDbLine
 10
2.237470999999999
 20
5.137476
 30
0.0
 11
2.231338
 21
5.140541999999999
 31
0.0
  0
LINE
  5
6C
330
B
100
AcDbEntity
 67
     1
  8
1
  6
Continuous
 62
    18
100
AcDbLine
 10
1.705149
 20
5.779757
 30
0.0
 11
2.275183999999999
 21
5.779757
 31
0.0
  0
LINE
  5
6D
330
B
100
AcDbEntity
 67
     1
  8
1
  6
Continuous
 62
    18
100
AcDbLine
 10
2.27925
 20
5.206682999999999
 30
0.0
 11
2.278893
 21
5.206324999999999
 31
0.0
  0
LINE
  5
6E
330
B
100
AcDbEntity
 67
     1
  8
1
  6
Continuous
 62
    18
100
AcDbLine
 10
2.310258
 20
5.872758
 30
0.0
 11
2.278534999999999
 21
5.872758
 31
0.0
  0
LINE
  5
6F
330
B
100
AcDbEntity
 67
     1
  8
1
  6
Continuous
 62
    18
100
AcDbLine
 10
4.276905999999999
 20
5.918693
 30
0.0
 11
4.358907
 21
5.917976999999999
 31
0.0
  0
LINE
  5
70
330
B
100
AcDbEntity
 67
     1
  8
1
  6
Continuous
 62
    18
100
AcDbLine
 10
1.702984
 20
5.836873999999999
 30
0.0
 11
1.704270999999999
 21
5.7545
 31
0.0
  0
LINE
  5
71
330
B
100
AcDbEntity
 67
     1
  8
1
  6
Continuous
 62
    18
100
AcDbLine
 10
4.678905999999999
 20
5.851916
 30
0.0
 11
4.678905999999999
 21
5.915183999999999
 31
0.0
  0
LINE
  5
72
330
B
100
AcDbEntity
 67
     1
  8
1
  6
Continuous
 62
    18
100
AcDbLine
 10
1.670074
 20
5.872758
 30
0.0
 11
1.670074
 21
5.908345999999999
 31
0.0
  0
LINE
  5
73
330
B
100
AcDbEntity
 67
     1
  8
1
  6
Continuous
 62
    18
100
AcDbLine
 10
2.276038999999999
 20
5.750135
 30
0.0
 11
2.276060999999999
 21
5.7545
 31
0.0
  0
LINE
  5
74
330
B
100
AcDbEntity
 67
     1
  8
1
  6
Continuous
 62
    18
100
AcDbLine
 10
3.892907
 20
5.154526
 30
0.0
 11
4.276905999999999
 21
5.147823999999999
 31
0.0
  0
LINE
  5
75
330
B
100
AcDbEntity
 67
     1
  8
1
  6
Continuous
 62
    18
100
AcDbLine
 10
2.235236
 20
5.908903999999999
 30
0.0
 11
2.235236
 21
5.949486
 31
0.0
  0
LINE
  5
76
330
B
100
AcDbEntity
 67
     1
  8
1
  6
Continuous
 62
    18
100
AcDbLine
 10
1.705149
 20
5.144179
 30
0.0
 11
1.705149
 21
5.779757
 31
0.0
  0
LINE
  5
77
330
B
100
AcDbEntity
 67
     1
  8
1
  6
Continuous
 62
    18
100
AcDbLine
 10
4.276905999999999
 20
5.216313999999999
 30
0.0
 11
4.276905999999999
 21
5.147823999999999
 31
0.0
  0
LINE
  5
78
330
B
100
AcDbEntity
 67
     1
  8
1
  6
Continuous
 62
    18
100
AcDbLine
 10
2.278534999999999
 20
5.908345999999999
 30
0.0
 11
2.237470999999999
 21
5.908345999999999
 31
0.0
  0
LINE
  5
79
330
B
100
AcDbEntity
 67
     1
  8
1
  6
Continuous
 62
    18
100
AcDbLine
 10
1.701797999999999
 20
5.137476
 30
0.0
 11
1.742861999999999
 21
5.137476
 31
0.0
  0
LINE
  5
7A
330
B
100
AcDbEntity
 67
     1
  8
1
  6
Continuous
 62
    18
100
AcDbLine
 10
1.701081999999999
 20
5.838366
 30
0.0
 11
1.668643
 21
5.838366
 31
0.0
  0
LINE
  5
7B
330
B
100
AcDbEntity
 67
     1
  8
1
  6
Continuous
 62
    18
100
AcDbLine
 10
1.701081999999999
 20
5.206682999999999
 30
0.0
 11
1.668643
 21
5.206682999999999
 31
0.0
  0
LINE
  5
7C
330
B
100
AcDbEntity
 67
     1
  8
1
  6
Continuous
 62
    18
100
AcDbLine
 10
1.701797999999999
 20
5.872758
 30
0.0
 11
1.670074
 21
5.872758
 31
0.0
  0
LINE
  5
7D
330
B
100
AcDbEntity
 67
     1
  8
1
  6
Continuous
 62
    18
100
AcDbLine
 10
1.748995
 20
5.140541999999999
 30
0.0
 11
1.745096
 21
5.075276999999999
 31
0.0
  0
LINE
  5
7E
330
B
100
AcDbEntity
 67
     1
  8
1
  6
Continuous
 62
    18
100
AcDbLine
 10
2.275334999999999
 20
5.779757
 30
0.0
 11
2.277317
 21
5.907128
 31
0.0
  0
LINE
  5
7F
330
B
100
AcDbEntity
 67
     1
  8
1
  6
Continuous
 62
    18
100
AcDbLine
 10
1.668643
 20
5.206682999999999
 30
0.0
 11
1.668643
 21
5.138192
 31
0.0
  0
LINE
  5
80
330
B
100
AcDbEntity
 67
     1
  8
1
  6
Continuous
 62
    18
100
AcDbLine
 10
2.310861999999999
 20
5.838778999999999
 30
0.0
 11
2.278836
 21
5.838778999999999
 31
0.0
  0
LINE
  5
81
330
B
100
AcDbEntity
 67
     1
  8
1
  6
Continuous
 62
    18
100
AcDbLine
 10
4.358907
 20
5.917976999999999
 30
0.0
 11
4.358907
 21
5.848713
 31
0.0
  0
LINE
  5
82
330
B
100
AcDbEntity
 67
     1
  8
1
  6
Continuous
 62
    18
100
AcDbLine
 10
2.275183999999999
 20
5.144179
 30
0.0
 11
2.278534999999999
 21
5.137476
 31
0.0
  0
LINE
  5
83
330
B
100
AcDbEntity
 67
     1
  8
1
  6
Continuous
 62
    18
100
AcDbLine
 10
3.910279
 20
5.790104
 30
0.0
 11
4.137382999999999
 21
5.917474999999999
 31
0.0
  0
LINE
  5
84
330
B
100
AcDbEntity
 67
     1
  8
1
  6
Continuous
 62
    18
100
AcDbLine
 10
1.668643
 20
5.90763
 30
0.0
 11
1.668643
 21
5.838366
 31
0.0
  0
LINE
  5
85
330
B
100
AcDbEntity
 67
     1
  8
1
  6
Continuous
 62
    18
100
AcDbLine
 10
1.704293999999999
 20
5.750135
 30
0.0
 11
1.704293999999999
 21
5.209177999999999
 31
0.0
  0
LINE
  5
86
330
B
100
AcDbEntity
 67
     1
  8
1
  6
Continuous
 62
    18
100
AcDbLine
 10
3.990905999999999
 20
5.219526
 30
0.0
 11
3.990905999999999
 21
5.760481999999999
 31
0.0
  0
LINE
  5
87
330
B
100
AcDbEntity
 67
     1
  8
1
  6
Continuous
 62
    18
100
AcDbLine
 10
2.311688999999999
 20
5.138192
 30
0.0
 11
2.310258
 21
5.137476
 31
0.0
  0
LINE
  5
88
330
B
100
AcDbEntity
 67
     1
  8
1
  6
Continuous
 62
    18
100
AcDbLine
 10
4.212905999999999
 20
5.147264999999999
 30
0.0
 11
4.212905999999999
 21
5.085624
 31
0.0
  0
LINE
  5
89
330
B
100
AcDbEntity
 67
     1
  8
1
  6
Continuous
 62
    18
100
AcDbLine
 10
2.310258
 20
5.908345999999999
 30
0.0
 11
2.311688999999999
 21
5.90763
 31
0.0
  0
LINE
  5
8A
330
B
100
AcDbEntity
 67
     1
  8
1
  6
Continuous
 62
    18
100
AcDbLine
 10
1.668643
 20
5.138192
 30
0.0
 11
1.670074
 21
5.137476
 31
0.0
  0
LINE
  5
8B
330
B
100
AcDbEntity
 67
     1
  8
1
  6
Continuous
 62
    18
100
AcDbLine
 10
2.279044999999999
 20
5.838570999999999
 30
0.0
 11
2.27925
 21
5.838366
 31
0.0
  0
LINE
  5
8C
330
B
100
AcDbEntity
 67
     1
  8
1
  6
Continuous
 62
    18
100
AcDbLine
 10
2.278534999999999
 20
5.205967
 30
0.0
 11
2.310258
 21
5.205967
 31
0.0
  0
LINE
  5
8D
330
B
100
AcDbEntity
 67
     1
  8
1
  6
Continuous
 62
    18
100
AcDbLine
 10
1.703015
 20
5.907128
 30
0.0
 11
1.701797999999999
 21
5.908345999999999
 31
0.0
  0
LINE
  5
8E
330
B
100
AcDbEntity
 67
     1
  8
1
  6
Continuous
 62
    18
100
AcDbLine
 10
2.231338
 20
5.140541999999999
 30
0.0
 11
2.235236
 21
5.075276999999999
 31
0.0
  0
LINE
  5
8F
330
B
100
AcDbEntity
 67
     1
  8
1
  6
Continuous
 62
    18
100
AcDbLine
 10
2.235236
 20
5.908903999999999
 30
0.0
 11
2.237470999999999
 21
5.908345999999999
 31
0.0
  0
LINE
  5
90
330
B
100
AcDbEntity
 67
     1
  8
1
  6
Continuous
 62
    18
100
AcDbLine
 10
1.704997
 20
5.779757
 30
0.0
 11
1.703015
 21
5.907128
 31
0.0
  0
LINE
  5
91
330
B
100
AcDbEntity
 67
     1
  8
1
  6
Continuous
 62
    18
100
AcDbLine
 10
4.212905999999999
 20
5.919251
 30
0.0
 11
4.212905999999999
 21
5.959833
 31
0.0
  0
LINE
  5
92
330
B
100
AcDbEntity
 67
     1
  8
1
  6
Continuous
 62
    18
100
AcDbLine
 10
2.277347999999999
 20
5.836873999999999
 30
0.0
 11
2.279044999999999
 21
5.838570999999999
 31
0.0
  0
LINE
  5
93
330
B
100
AcDbEntity
 67
     1
  8
1
  6
Continuous
 62
    18
100
AcDbLine
 10
4.276905999999999
 20
5.883105999999999
 30
0.0
 11
4.311484
 21
5.849126999999999
 31
0.0
  0
LINE
  5
94
330
B
100
AcDbEntity
 67
     1
  8
1
  6
Continuous
 62
    18
100
AcDbLine
 10
2.278893
 20
5.206324999999999
 30
0.0
 11
2.278534999999999
 21
5.205967
 31
0.0
  0
LINE
  5
95
330
B
100
AcDbEntity
 67
     1
  8
1
  6
Continuous
 62
    18
100
AcDbLine
 10
1.747734
 20
5.907128
 30
0.0
 11
1.742861999999999
 21
5.908345999999999
 31
0.0
  0
LINE
  5
96
330
B
100
AcDbEntity
 67
     1
  8
1
  6
Continuous
 62
    18
100
AcDbLine
 10
1.70144
 20
5.206324999999999
 30
0.0
 11
1.701797999999999
 21
5.205967
 31
0.0
  0
LINE
  5
97
330
B
100
AcDbEntity
 67
     1
  8
1
  6
Continuous
 62
    18
100
AcDbLine
 10
4.358907
 20
5.148538999999999
 30
0.0
 11
4.678905999999999
 21
5.151332
 31
0.0
  0
LINE
  5
98
330
B
100
AcDbEntity
 67
     1
  8
1
  6
Continuous
 62
    18
100
AcDbLine
 10
2.232599
 20
5.907128
 30
0.0
 11
2.237470999999999
 21
5.908345999999999
 31
0.0
  0
LINE
  5
99
330
B
100
AcDbEntity
 67
     1
  8
1
  6
Continuous
 62
    18
100
AcDbLine
 10
2.237470999999999
 20
5.137476
 30
0.0
 11
2.278534999999999
 21
5.137476
 31
0.0
  0
LINE
  5
9A
330
B
100
AcDbEntity
 67
     1
  8
1
  6
Continuous
 62
    18
100
AcDbLine
 10
4.358907
 20
5.21703
 30
0.0
 11
4.358907
 21
5.148538999999999
 31
0.0
  0
LINE
  5
9B
330
B
100
AcDbEntity
 67
     1
  8
1
  6
Continuous
 62
    18
100
AcDbLine
 10
2.310258
 20
5.908345999999999
 30
0.0
 11
2.310258
 21
5.872758
 31
0.0
  0
LINE
  5
9C
330
B
100
AcDbEntity
 67
     1
  8
1
  6
Continuous
 62
    18
100
AcDbLine
 10
3.993468
 20
5.764847
 30
0.0
 11
4.140944
 21
5.847221
 31
0.0
  0
LINE
  5
9D
330
B
100
AcDbEntity
 67
     1
  8
1
  6
Continuous
 62
    18
100
AcDbLine
 10
1.670074
 20
5.137476
 30
0.0
 11
1.670074
 21
5.205967
 31
0.0
  0
LINE
  5
9E
330
B
100
AcDbEntity
 67
     1
  8
1
  6
Continuous
 62
    18
100
AcDbLine
 10
1.701495999999999
 20
5.838778999999999
 30
0.0
 11
1.701286999999999
 21
5.838570999999999
 31
0.0
  0
LINE
  5
9F
330
B
100
AcDbEntity
 67
     1
  8
1
  6
Continuous
 62
    18
100
AcDbLine
 10
1.705149
 20
5.779757
 30
0.0
 11
1.704997
 21
5.779757
 31
0.0
  0
LINE
  5
A0
330
B
100
AcDbEntity
 67
     1
  8
1
  6
Continuous
 62
    18
100
AcDbLine
 10
2.311688999999999
 20
5.206682999999999
 30
0.0
 11
2.27925
 21
5.206682999999999
 31
0.0
  0
LINE
  5
A1
330
B
100
AcDbEntity
 67
     1
  8
1
  6
Continuous
 62
    18
100
AcDbLine
 10
2.278534999999999
 20
5.908345999999999
 30
0.0
 11
2.278534999999999
 21
5.872758
 31
0.0
  0
LINE
  5
A2
330
B
100
AcDbEntity
 67
     1
  8
1
  6
Continuous
 62
    18
100
AcDbLine
 10
4.212905999999999
 20
5.959833
 30
0.0
 11
4.137382999999999
 21
5.917474999999999
 31
0.0
  0
LINE
  5
A3
330
B
100
AcDbEntity
 67
     1
  8
1
  6
Continuous
 62
    18
100
AcDbLine
 10
2.276060999999999
 20
5.7545
 30
0.0
 11
2.277347999999999
 21
5.836873999999999
 31
0.0
  0
LINE
  5
A4
330
B
100
AcDbEntity
 67
     1
  8
1
  6
Continuous
 62
    18
100
AcDbLine
 10
4.140944
 20
5.847221
 30
0.0
 11
4.335405999999999
 21
5.848918
 31
0.0
  0
LINE
  5
A5
330
B
100
AcDbEntity
 67
     1
  8
1
  6
Continuous
 62
    18
100
AcDbLine
 10
4.358907
 20
5.849123
 30
0.0
 11
4.678905999999999
 21
5.851916
 31
0.0
  0
LINE
  5
A6
330
B
100
AcDbEntity
 67
     1
  8
1
  6
Continuous
 62
    18
100
AcDbLine
 10
1.669470999999999
 20
5.838778999999999
 30
0.0
 11
1.670074
 21
5.872758
 31
0.0
  0
LINE
  5
A7
330
B
100
AcDbEntity
 67
     1
  8
1
  6
Continuous
 62
    18
100
AcDbLine
 10
2.276038999999999
 20
5.209177999999999
 30
0.0
 11
2.276038999999999
 21
5.750135
 31
0.0
  0
LINE
  5
A8
330
B
100
AcDbEntity
 67
     1
  8
1
  6
Continuous
 62
    18
100
AcDbLine
 10
3.892907
 20
5.790104
 30
0.0
 11
3.892907
 21
5.154526
 31
0.0
  0
LINE
  5
A9
330
B
100
AcDbEntity
 67
     1
  8
1
  6
Continuous
 62
    18
100
AcDbLine
 10
1.745096
 20
5.908903999999999
 30
0.0
 11
1.745096
 21
5.949486
 31
0.0
  0
LINE
  5
AA
330
B
100
AcDbEntity
 67
     1
  8
1
  6
Continuous
 62
    18
100
AcDbLine
 10
1.705149
 20
5.144179
 30
0.0
 11
1.701797999999999
 21
5.137476
 31
0.0
  0
LINE
  5
AB
330
B
100
AcDbEntity
 67
     1
  8
1
  6
Continuous
 62
    18
100
AcDbLine
 10
4.276905999999999
 20
5.147823999999999
 30
0.0
 11
4.212905999999999
 21
5.147264999999999
 31
0.0
  0
LINE
  5
AC
330
B
100
AcDbEntity
 67
     1
  8
1
  6
Continuous
 62
    18
100
AcDbLine
 10
1.742861999999999
 20
5.908345999999999
 30
0.0
 11
1.701797999999999
 21
5.908345999999999
 31
0.0
  0
LINE
  5
AD
330
B
100
AcDbEntity
 67
     1
  8
1
  6
Continuous
 62
    18
100
AcDbLine
 10
1.745096
 20
5.136917999999999
 30
0.0
 11
1.742861999999999
 21
5.137476
 31
0.0
  0
LINE
  5
AE
330
B
100
AcDbEntity
 67
     1
  8
1
  6
Continuous
 62
    18
100
AcDbLine
 10
4.358907
 20
5.216313999999999
 30
0.0
 11
4.678905999999999
 21
5.213522
 31
0.0
  0
LINE
  5
AF
330
B
100
AcDbEntity
 67
     1
  8
1
  6
Continuous
 62
    18
100
AcDbLine
 10
2.310861999999999
 20
5.838778999999999
 30
0.0
 11
2.311688999999999
 21
5.838366
 31
0.0
  0
ENDSEC
  0
SECTION
  2
OBJECTS
  0
DICTIONARY
  5
19
330
0
100
AcDbDictionary
281
     1
  3
ACAD_COLOR
350
DA
  3
ACAD_GROUP
350
1A
  3
ACAD_LAYOUT
350
1E
  3
ACAD_MATERIAL
350
C5
  3
ACAD_MLINESTYLE
350
1B
  3
ACAD_PLOTSETTINGS
350
22
  3
ACAD_PLOTSTYLENAME
350
1F
  3
ACAD_TABLESTYLE
350
DB
  3
ACAD_VISUALSTYLE
350
C9
  3
ACAD_WIPEOUT_VARS
350
23
  3
AcDbVariableDictionary
350
E4
  3
ASE_INDEX_DICTIONARY
350
E1
  3
DWGPROPS
350
E9
  0
DICTIONARY
  5
EE
330
32
100
AcDbDictionary
280
     1
281
     1
  3
ACAD_XREC_ROUNDTRIP
360
EF
  0
DICTIONARY
  5
DA
102
{ACAD_REACTORS
330
19
102
}
330
19
100
AcDbDictionary
281
     1
  0
DICTIONARY
  5
1A
102
{ACAD_REACTORS
330
19
102
}
330
19
100
AcDbDictionary
281
     1
  0
DICTIONARY
  5
1E
102
{ACAD_REACTORS
330
19
102
}
330
19
100
AcDbDictionary
281
     1
  3
DRAWING1
350
B0
  3
Layout1
350
21
  3
Model
350
20
  0
DICTIONARY
  5
C5
102
{ACAD_REACTORS
330
19
102
}
330
19
100
AcDbDictionary
281
     1
  3
ByBlock
350
C7
  3
ByLayer
350
C6
  3
Global
350
C8
  0
DICTIONARY
  5
1B
102
{ACAD_REACTORS
330
19
102
}
330
19
100
AcDbDictionary
281
     1
  3
Standard
350
1C
  0
DICTIONARY
  5
22
102
{ACAD_REACTORS
330
19
102
}
330
19
100
AcDbDictionary
281
     1
  0
ACDBDICTIONARYWDFLT
  5
1F
102
{ACAD_REACTORS
330
19
102
}
330
19
100
AcDbDictionary
281
     1
  3
Normal
350
1D
100
AcDbDictionaryWithDefault
340
1D
  0
DICTIONARY
  5
DB
102
{ACAD_REACTORS
330
19
102
}
330
19
100
AcDbDictionary
281
     1
  3
Standard
350
DC
  0
DICTIONARY
  5
C9
102
{ACAD_REACTORS
330
19
102
}
330
19
100
AcDbDictionary
281
     1
  3
2dWireframe
350
CF
  3
3D Hidden
350
D1
  3
3dWireframe
350
D0
  3
Basic
350
CE
  3
Brighten
350
D5
  3
ColorChange
350
D9
  3
Conceptual
350
D2
  3
Dim
350
D4
  3
Facepattern
350
D8
  3
Flat
350
CA
  3
FlatWithEdges
350
CB
  3
Gouraud
350
CC
  3
GouraudWithEdges
350
CD
  3
Linepattern
350
D7
  3
Realistic
350
D3
  3
Thicken
350
D6
  0
WIPEOUTVARIABLES
  5
23
330
19
100
AcDbWipeoutVariables
 70
     1
  0
DICTIONARY
  5
E4
102
{ACAD_REACTORS
330
19
102
}
330
19
100
AcDbDictionary
281
     1
  3
CTABLESTYLE
350
E5
  3
DIMASSOC
350
E8
  3
INDEXCTL
350
E7
  3
SORTENTS
350
E6
  0
DICTIONARY
  5
E1
102
{ACAD_REACTORS
330
19
102
}
330
19
100
AcDbDictionary
281
     1
  3
ASEBlockHierarchyIndexRecord
350
E3
1001
DCO15
1040
1721108399.482
  0
XRECORD
  5
E9
102
{ACAD_REACTORS
330
19
102
}
330
19
100
AcDbXrecord
280
     1
  1
DWGPROPS COOKIE
  2

  3

  4

  6

  7

  8
bjn
  9

300
=
301
=
302
=
303
=
304
=
305
=
306
=
307
=
308
=
309
=
 40
0.0004808333333333
 41
2455723.447480845
 42
2455723.447956968
  1

 90
        0
  0
XRECORD
  5
EF
102
{ACAD_REACTORS
330
EE
102
}
330
EE
100
AcDbXrecord
280
     1
102
SHADEPLOT
 70
     0
  0
LAYOUT
  5
B0
102
{ACAD_XDICTIONARY
360
F0
102
}
102
{ACAD_REACTORS
330
1E
102
}
330
1E
100
AcDbPlotSettings
  1

  2

  4

  6

 40
20.0
 41
20.0
 42
20.0
 43
20.0
 44
319.4
 45
255.9
 46
0.0
 47
0.0
 48
0.0
 49
0.0
140
319.4
141
255.9
142
1.0
143
1.0
 70
     0
 72
     0
 73
     0
 74
     1
  7

 75
     0
147
1.0
148
0.0
149
0.0
100
AcDbLayout
  1
DRAWING1
 70
     0
 71
     2
 10
0.0
 20
0.0
 11
11.0
 21
8.5
 12
0.0
 22
0.0
 32
0.0
 14
0.0
 24
0.0
 34
0.0
 15
11.0
 25
8.5
 35
0.0
146
0.0
 13
0.0
 23
0.0
 33
0.0
 16
0.0
 26
0.0
 36
0.0
 17
0.0
 27
0.0
 37
0.0
 76
     0
330
B
331
32
  0
LAYOUT
  5
21
102
{ACAD_XDICTIONARY
360
EC
102
}
102
{ACAD_REACTORS
330
1E
102
}
330
1E
100
AcDbPlotSettings
  1

  2
none_device
  4
Letter_(8.50_x_11.00_Inches)
  6

 40
6.349999904632568
 41
6.349999904632568
 42
6.350006103515625
 43
6.350006103515625
 44
215.8999938964844
 45
279.3999938964844
 46
0.0
 47
0.0
 48
0.0
 49
0.0
140
0.0
141
0.0
142
1.0
143
0.2867780533769411
 70
    16
 72
     0
 73
     1
 74
     1
  7

 75
     0
147
3.48701718358343
148
-42.38074720418158
149
-128.8948462781436
100
AcDbLayout
  1
Layout1
 70
     0
 71
     1
 10
1.596838772239514
 20
5.002905734903517
 11
4.75139729047428
 21
7.440519119695929
 12
0.0
 22
0.0
 32
0.0
 14
1.668533354495338
 24
5.074600247171009
 34
-0.0004043445228632
 15
4.679702778206788
 25
5.96037294280293
 35
0.0000152657740013
146
0.0
 13
0.0
 23
0.0
 33
0.0
 16
1.0
 26
0.0
 36
0.0
 17
0.0
 27
1.0
 37
0.0
 76
     0
330
B
331
32
1001
ACAD_PSEXT
1000
None
1000
None
1000
Not applicable
1000
The layout will not be plotted unless a new plotter configuration name is selected.
1070
     0
  0
LAYOUT
  5
20
102
{ACAD_XDICTIONARY
360
EA
102
}
102
{ACAD_REACTORS
330
1E
102
}
330
1E
100
AcDbPlotSettings
  1

  2

  4

  6

 40
0.0
 41
0.0
 42
0.0
 43
0.0
 44
0.0
 45
0.0
 46
0.0
 47
0.0
 48
0.0
 49
0.0
140
0.0
141
0.0
142
1.0
143
1.0
 70
  1024
 72
     0
 73
     0
 74
     0
  7

 75
     0
147
1.0
148
0.0
149
0.0
100
AcDbLayout
  1
Model
 70
     0
 71
     0
 10
0.0
 20
0.0
 11
0.0
 21
0.0
 12
0.0
 22
0.0
 32
0.0
 14
0.0
 24
0.0
 34
0.0
 15
0.0
 25
0.0
 35
0.0
146
0.0
 13
0.0
 23
0.0
 33
0.0
 16
0.0
 26
0.0
 36
0.0
 17
0.0
 27
0.0
 37
0.0
 76
     0
330
A
  0
MATERIAL
  5
C7
102
{ACAD_XDICTIONARY
360
F4
102
}
102
{ACAD_REACTORS
330
C5
102
}
330
C5
100
AcDbMaterial
  1
ByBlock
  0
MATERIAL
  5
C6
102
{ACAD_XDICTIONARY
360
F2
102
}
102
{ACAD_REACTORS
330
C5
102
}
330
C5
100
AcDbMaterial
  1
ByLayer
  0
MATERIAL
  5
C8
102
{ACAD_XDICTIONARY
360
F6
102
}
102
{ACAD_REACTORS
330
C5
102
}
330
C5
100
AcDbMaterial
  1
Global
  0
MLINESTYLE
  5
1C
102
{ACAD_REACTORS
330
1B
102
}
330
1B
100
AcDbMlineStyle
  2
STANDARD
 70
     0
  3

 62
     0
 51
90.0
 52
90.0
 71
     2
 49
0.5
 62
   256
  6
BYLAYER
 49
-0.5
 62
   256
  6
BYLAYER
  0
ACDBPLACEHOLDER
  5
1D
102
{ACAD_REACTORS
330
1F
102
}
330
1F
  0
TABLESTYLE
  5
DC
102
{ACAD_XDICTIONARY
360
F8
102
}
102
{ACAD_REACTORS
330
DB
102
}
330
DB
100
AcDbTableStyle
  3
Standard
 70
     0
 71
     0
 40
0.06
 41
0.06
280
     0
281
     0
  7
Standard
140
0.18
170
     2
 62
     0
 63
     7
283
     0
274
    -2
284
     1
 64
     0
275
    -2
285
     1
 65
     0
276
    -2
286
     1
 66
     0
277
    -2
287
     1
 67
     0
278
    -2
288
     1
 68
     0
279
    -2
289
     1
 69
     0
  7
Standard
140
0.25
170
     5
 62
     0
 63
     7
283
     0
274
    -2
284
     1
 64
     0
275
    -2
285
     1
 65
     0
276
    -2
286
     1
 66
     0
277
    -2
287
     1
 67
     0
278
    -2
288
     1
 68
     0
279
    -2
289
     1
 69
     0
  7
Standard
140
0.18
170
     5
 62
     0
 63
     7
283
     0
274
    -2
284
     1
 64
     0
275
    -2
285
     1
 65
     0
276
    -2
286
     1
 66
     0
277
    -2
287
     1
 67
     0
278
    -2
288
     1
 68
     0
279
    -2
289
     1
 69
     0
  0
VISUALSTYLE
  5
CF
102
{ACAD_REACTORS
330
C9
102
}
330
C9
100
AcDbVisualStyle
  2
2dWireframe
 70
     4
 71
     0
 72
     2
 73
     0
 90
        0
 40
-0.6
 41
-30.0
 62
     5
 63
     7
 74
     1
 91
        4
 64
     7
 65
   257
 75
     1
175
     1
 42
1.0
 92
        0
 66
   257
 43
1.0
 76
     1
 77
     6
 78
     2
 67
     7
 79
     5
170
     0
171
     0
290
     0
174
     0
 93
        1
 44
0.0
173
     0
291
     0
 45
0.0
1001
ACAD
1000
AcDbSavedByObjectVersion
1070
     0
  0
VISUALSTYLE
  5
D1
102
{ACAD_REACTORS
330
C9
102
}
330
C9
100
AcDbVisualStyle
  2
3D Hidden
 70
     6
 71
     1
 72
     2
 73
     2
 90
        0
 40
-0.6
 41
-30.0
 62
     5
 63
     7
 74
     2
 91
        2
 64
     7
 65
   257
 75
     2
175
     1
 42
40.0
 92
        0
 66
   257
 43
1.0
 76
     1
 77
     6
 78
     2
 67
     7
 79
     3
170
     0
171
     0
290
     0
174
     0
 93
        1
 44
0.0
173
     0
291
     0
 45
0.0
1001
ACAD
1000
AcDbSavedByObjectVersion
1070
     0
  0
VISUALSTYLE
  5
D0
102
{ACAD_REACTORS
330
C9
102
}
330
C9
100
AcDbVisualStyle
  2
3dWireframe
 70
     5
 71
     0
 72
     2
 73
     0
 90
        0
 40
-0.6
 41
-30.0
 62
     5
 63
     7
 74
     1
 91
        4
 64
     7
 65
   257
 75
     1
175
     1
 42
1.0
 92
        0
 66
   257
 43
1.0
 76
     1
 77
     6
 78
     2
 67
     7
 79
     5
170
     0
171
     0
290
     0
174
     0
 93
        1
 44
0.0
173
     0
291
     0
 45
0.0
1001
ACAD
1000
AcDbSavedByObjectVersion
1070
     0
  0
VISUALSTYLE
  5
CE
102
{ACAD_REACTORS
330
C9
102
}
330
C9
100
AcDbVisualStyle
  2
Basic
 70
     7
 71
     1
 72
     0
 73
     1
 90
        0
 40
-0.6
 41
-30.0
 62
     5
 63
     7
 74
     0
 91
        4
 64
     7
 65
   257
 75
     1
175
     1
 42
1.0
 92
        8
 66
     7
 43
1.0
 76
     1
 77
     6
 78
     2
 67
     7
 79
     5
170
     0
171
     0
290
     0
174
     0
 93
        1
 44
0.0
173
     0
291
     1
 45
0.0
1001
ACAD
1000
AcDbSavedByObjectVersion
1070
     0
  0
VISUALSTYLE
  5
D5
102
{ACAD_REACTORS
330
C9
102
}
330
C9
100
AcDbVisualStyle
  2
Brighten
 70
    12
 71
     2
 72
     2
 73
     0
 90
        0
 40
-0.6
 41
-30.0
 62
     5
 63
     7
 74
     1
 91
        4
 64
     7
 65
   257
 75
     1
175
     1
 42
1.0
 92
        8
 66
     7
 43
1.0
 76
     1
 77
     6
 78
     2
 67
     7
 79
     5
170
     0
171
     0
290
     0
174
     0
 93
        1
 44
50.0
173
     0
291
     1
 45
0.0
1001
ACAD
1000
AcDbSavedByObjectVersion
1070
     0
  0
VISUALSTYLE
  5
D9
102
{ACAD_REACTORS
330
C9
102
}
330
C9
100
AcDbVisualStyle
  2
ColorChange
 70
    16
 71
     2
 72
     2
 73
     3
 90
        0
 40
-0.6
 41
-30.0
 62
     5
 63
     8
 74
     1
 91
        4
 64
     7
 65
   257
 75
     1
175
     1
 42
1.0
 92
        8
 66
     8
 43
1.0
 76
     1
 77
     6
 78
     2
 67
     7
 79
     5
170
     0
171
     0
290
     0
174
     0
 93
        1
 44
0.0
173
     0
291
     1
 45
0.0
1001
ACAD
1000
AcDbSavedByObjectVersion
1070
     0
  0
VISUALSTYLE
  5
D2
102
{ACAD_REACTORS
330
C9
102
}
330
C9
100
AcDbVisualStyle
  2
Conceptual
 70
     9
 71
     3
 72
     2
 73
     0
 90
        0
 40
-0.6
 41
-30.0
 62
     5
 63
     7
 74
     2
 91
        2
 64
     7
 65
   257
 75
     1
175
     1
 42
40.0
 92
        8
 66
     7
 43
1.0
 76
     1
 77
     6
 78
     2
 67
     7
 79
     3
170
     0
171
     0
290
     0
174
     0
 93
        1
 44
0.0
173
     0
291
     0
 45
0.0
1001
ACAD
1000
AcDbSavedByObjectVersion
1070
     0
  0
VISUALSTYLE
  5
D4
102
{ACAD_REACTORS
330
C9
102
}
330
C9
100
AcDbVisualStyle
  2
Dim
 70
    11
 71
     2
 72
     2
 73
     0
 90
        0
 40
-0.6
 41
-30.0
 62
     5
 63
     7
 74
     1
 91
        4
 64
     7
 65
   257
 75
     1
175
     1
 42
1.0
 92
        8
 66
     7
 43
1.0
 76
     1
 77
     6
 78
     2
 67
     7
 79
     5
170
     0
171
     0
290
     0
174
     0
 93
        1
 44
-50.0
173
     0
291
     1
 45
0.0
1001
ACAD
1000
AcDbSavedByObjectVersion
1070
     0
  0
VISUALSTYLE
  5
D8
102
{ACAD_REACTORS
330
C9
102
}
330
C9
100
AcDbVisualStyle
  2
Facepattern
 70
    15
 71
     2
 72
     2
 73
     0
 90
        0
 40
-0.6
 41
-30.0
 62
     5
 63
     7
 74
     1
 91
        4
 64
     7
 65
   257
 75
     1
175
     1
 42
1.0
 92
        8
 66
     7
 43
1.0
 76
     1
 77
     6
 78
     2
 67
     7
 79
     5
170
     0
171
     0
290
     0
174
     0
 93
        1
 44
0.0
173
     0
291
     1
 45
0.0
1001
ACAD
1000
AcDbSavedByObjectVersion
1070
     0
  0
VISUALSTYLE
  5
CA
102
{ACAD_REACTORS
330
C9
102
}
330
C9
100
AcDbVisualStyle
  2
Flat
 70
     0
 71
     2
 72
     1
 73
     1
 90
        2
 40
-0.6
 41
30.0
 62
     5
 63
     7
 74
     0
 91
        4
 64
     7
 65
   257
 75
     1
175
     1
 42
1.0
 92
        8
 66
     7
 43
1.0
 76
     1
 77
     6
 78
     2
 67
     7
 79
     5
170
     0
171
     0
290
     0
174
     0
 93
       13
 44
0.0
173
     0
291
     1
 45
0.0
1001
ACAD
1000
AcDbSavedByObjectVersion
1070
     0
  0
VISUALSTYLE
  5
CB
102
{ACAD_REACTORS
330
C9
102
}
330
C9
100
AcDbVisualStyle
  2
FlatWithEdges
 70
     1
 71
     2
 72
     1
 73
     1
 90
        2
 40
-0.6
 41
30.0
 62
     5
 63
     7
 74
     1
 91
        4
 64
     7
 65
   257
 75
     1
175
     1
 42
1.0
 92
        0
 66
   257
 43
1.0
 76
     1
 77
     6
 78
     2
 67
     7
 79
     5
170
     0
171
     0
290
     0
174
     0
 93
       13
 44
0.0
173
     0
291
     1
 45
0.0
1001
ACAD
1000
AcDbSavedByObjectVersion
1070
     0
  0
VISUALSTYLE
  5
CC
102
{ACAD_REACTORS
330
C9
102
}
330
C9
100
AcDbVisualStyle
  2
Gouraud
 70
     2
 71
     2
 72
     2
 73
     1
 90
        2
 40
-0.6
 41
30.0
 62
     5
 63
     7
 74
     0
 91
        4
 64
     7
 65
   257
 75
     1
175
     1
 42
1.0
 92
        0
 66
     7
 43
1.0
 76
     1
 77
     6
 78
     2
 67
     7
 79
     5
170
     0
171
     0
290
     0
174
     0
 93
       13
 44
0.0
173
     0
291
     1
 45
0.0
1001
ACAD
1000
AcDbSavedByObjectVersion
1070
     0
  0
VISUALSTYLE
  5
CD
102
{ACAD_REACTORS
330
C9
102
}
330
C9
100
AcDbVisualStyle
  2
GouraudWithEdges
 70
     3
 71
     2
 72
     2
 73
     1
 90
        2
 40
-0.6
 41
30.0
 62
     5
 63
     7
 74
     1
 91
        4
 64
     7
 65
   257
 75
     1
175
     1
 42
1.0
 92
        0
 66
   257
 43
1.0
 76
     1
 77
     6
 78
     2
 67
     7
 79
     5
170
     0
171
     0
290
     0
174
     0
 93
       13
 44
0.0
173
     0
291
     1
 45
0.0
1001
ACAD
1000
AcDbSavedByObjectVersion
1070
     0
  0
VISUALSTYLE
  5
D7
102
{ACAD_REACTORS
330
C9
102
}
330
C9
100
AcDbVisualStyle
  2
Linepattern
 70
    14
 71
     2
 72
     2
 73
     0
 90
        0
 40
-0.6
 41
-30.0
 62
     5
 63
     7
 74
     1
 91
        4
 64
     7
 65
   257
 75
     7
175
     7
 42
1.0
 92
        8
 66
     7
 43
1.0
 76
     1
 77
     6
 78
     2
 67
     7
 79
     5
170
     0
171
     0
290
     0
174
     0
 93
        1
 44
0.0
173
     0
291
     1
 45
0.0
1001
ACAD
1000
AcDbSavedByObjectVersion
1070
     0
  0
VISUALSTYLE
  5
D3
102
{ACAD_REACTORS
330
C9
102
}
330
C9
100
AcDbVisualStyle
  2
Realistic
 70
     8
 71
     2
 72
     2
 73
     0
 90
        0
 40
-0.6
 41
-30.0
 62
     5
 63
     7
 74
     1
 91
        0
 64
     7
 65
   257
 75
     1
175
     1
 42
1.0
 92
        8
 66
     8
 43
1.0
 76
     1
 77
     6
 78
     2
 67
     7
 79
     5
170
     0
171
     0
290
     0
174
     0
 93
       13
 44
0.0
173
     0
291
     0
 45
0.0
1001
ACAD
1000
AcDbSavedByObjectVersion
1070
     0
  0
VISUALSTYLE
  5
D6
102
{ACAD_REACTORS
330
C9
102
}
330
C9
100
AcDbVisualStyle
  2
Thicken
 70
    13
 71
     2
 72
     2
 73
     0
 90
        0
 40
-0.6
 41
-30.0
 62
     5
 63
     7
 74
     1
 91
        4
 64
     7
 65
   257
 75
     1
175
     1
 42
1.0
 92
       12
 66
     7
 43
1.0
 76
     1
 77
     6
 78
     2
 67
     7
 79
     5
170
     0
171
     0
290
     0
174
     0
 93
        1
 44
0.0
173
     0
291
     1
 45
0.0
1001
ACAD
1000
AcDbSavedByObjectVersion
1070
     0
  0
DICTIONARYVAR
  5
E5
102
{ACAD_REACTORS
330
E4
102
}
330
E4
100
DictionaryVariables
280
     0
  1
STANDARD
  0
DICTIONARYVAR
  5
E8
102
{ACAD_REACTORS
330
E4
102
}
330
E4
100
DictionaryVariables
280
     0
  1
1
  0
DICTIONARYVAR
  5
E7
102
{ACAD_REACTORS
330
E4
102
}
330
E4
100
DictionaryVariables
280
     0
  1
0
  0
DICTIONARYVAR
  5
E6
102
{ACAD_REACTORS
330
E4
102
}
330
E4
100
DictionaryVariables
280
     0
  1
127
  0
XRECORD
  5
E3
102
{ACAD_REACTORS
330
E1
102
}
330
E1
100
AcDbXrecord
280
     1
  0
DICTIONARY
  5
F0
330
B0
100
AcDbDictionary
280
     1
281
     1
  3
ACAD_XREC_ROUNDTRIP
360
F1
  0
DICTIONARY
  5
EC
330
21
100
AcDbDictionary
280
     1
281
     1
  3
ACAD_XREC_ROUNDTRIP
360
ED
  0
DICTIONARY
  5
EA
330
20
100
AcDbDictionary
280
     1
281
     1
  3
ACAD_XREC_ROUNDTRIP
360
EB
  0
DICTIONARY
  5
F4
330
C7
100
AcDbDictionary
280
     1
281
     1
  3
ACAD_XREC_ROUNDTRIP
360
F5
  0
DICTIONARY
  5
F2
330
C6
100
AcDbDictionary
280
     1
281
     1
  3
ACAD_XREC_ROUNDTRIP
360
F3
  0
DICTIONARY
  5
F6
330
C8
100
AcDbDictionary
280
     1
281
     1
  3
ACAD_XREC_ROUNDTRIP
360
F7
  0
DICTIONARY
  5
F8
330
DC
100
AcDbDictionary
280
     1
281
     1
  3
ACAD_XREC_ROUNDTRIP
360
F9
  0
XRECORD
  5
F1
102
{ACAD_REACTORS
330
F0
102
}
330
F0
100
AcDbXrecord
280
     1
102
SHADEPLOT
 70
     0
102
SHADEPLOTRESLEVEL
 70
     2
102
SHADEPLOTCUSTOMDPI
 70
   300
  0
XRECORD
  5
ED
102
{ACAD_REACTORS
330
EC
102
}
330
EC
100
AcDbXrecord
280
     1
102
SHADEPLOT
 70
     0
102
SHADEPLOTRESLEVEL
 70
     2
102
SHADEPLOTCUSTOMDPI
 70
   300
  0
XRECORD
  5
EB
102
{ACAD_REACTORS
330
EA
102
}
330
EA
100
AcDbXrecord
280
     1
102
SHADEPLOT
 70
     0
102
SHADEPLOTRESLEVEL
 70
     2
102
SHADEPLOTCUSTOMDPI
 70
   300
  0
XRECORD
  5
F5
102
{ACAD_REACTORS
330
F4
102
}
330
F4
100
AcDbXrecord
280
     1
102
MATERIAL
148
0.0
149
0.0
149
0.0
 93
        0
 94
       63
282
     0
 72
     1
 77
     1
171
     1
175
     1
179
     1
273
     0
  0
XRECORD
  5
F3
102
{ACAD_REACTORS
330
F2
102
}
330
F2
100
AcDbXrecord
280
     1
102
MATERIAL
148
0.0
149
0.0
149
0.0
 93
        0
 94
       63
282
     0
 72
     1
 77
     1
171
     1
175
     1
179
     1
273
     0
  0
XRECORD
  5
F7
102
{ACAD_REACTORS
330
F6
102
}
330
F6
100
AcDbXrecord
280
     1
102
MATERIAL
148
0.0
149
0.0
149
0.0
 93
        0
 94
       63
282
     0
 72
     1
 77
     1
171
     1
175
     1
179
     1
273
     0
  0
XRECORD
  5
F9
102
{ACAD_REACTORS
330
F8
102
}
330
F8
100
AcDbXrecord
280
     1
102
ACAD_ROUNDTRIP_PRE2007_TABLESTYLE
 90
      512
 91
        0
  1

 92
      512
 93
        0
  2

 94
      512
 95
        0
  3

  0
ENDSEC
  0
EOF
