999
DXF file: C:\Users\SESA730405\Desktop\New 2D genarating (3)\New 2D genarating\updateCreo8 with 3dPdf\CAD\GV3S\drw0001_6.dxf
999
Pro/ENGINEER 2021284 by Parametric Technology Corporation
  0
SECTION
  2
HEADER
  9
$ACADVER
  1
AC1024
  9
$DWGCODEPAGE
  3
ANSI_1252
  9
$EXTMAX
 10
105.7944696229
 20
149.6236070381
 30
0.0
  9
$EXTMIN
 10
0.0
 20
0.0
 30
0.0
  9
$LIMMIN
 10
0.0
 20
0.0
  9
$LIMMAX
 10
105.7944696229
 20
149.6236070381
  9
$VIEWCTR
 10
52.8972348115
 20
74.8118035191
  9
$VIEWSIZE
 40
149.6236070381
  9
$CLAYER
  8
0
  9
$LTSCALE
 40
9.7532425329
  9
$CELTYPE
  6
BYLAYER
  9
$DIMSCALE
 40
1.0
  9
$DIMASZ
 40
1.2594579717
  9
$DIMEXO
 40
1.0
  9
$DIMDLI
 40
6.7386039318
  9
$DIMEXE
 40
1.0
  9
$DIMCEN
 40
1.5959851417
  9
$DIMLFAC
 40
1.0
  9
$DIMBLK
  1
_FILLED
  9
$DIMALT
 70
0
  9
$DIMALTF
 40
0.0393700787
  9
$DIMTXT
 40
1.7632411604
  9
$DIMTOL
 70
1
  9
$DIMLIM
 70
0
  9
$DIMTFAC
 40
1.0
  9
$DIMTP
 40
0.01
  9
$DIMTM
 40
0.01
  9
$DIMGAP
 40
0.625
  9
$DIMDSEP
 70
46
  9
$AUNITS
 70
0
  9
$PDMODE
 70
3
  9
$PDSIZE
 40
0.3125
  9
$HANDSEED
  5
268
  9
$TILEMODE
 70
1
  9
$MEASUREMENT
 70
1
  9
$INSUNITS
 70
4
  0
ENDSEC
  0
SECTION
  2
CLASSES
  0
CLASS
  1
ACDBDICTIONARYWDFLT
  2
AcDbDictionaryWithDefault
  3
AutoCAD 2000
 90
0
 91
1
280
0
281
0
  0
CLASS
  1
ACDBPLACEHOLDER
  2
AcDbPlaceHolder
  3
AutoCAD 2000
 90
0
 91
1
280
0
281
0
  0
CLASS
  1
LAYOUT
  2
AcDbLayout
  3
AutoCAD 2000
 90
0
 91
0
280
0
281
0
  0
ENDSEC
  0
SECTION
  2
TABLES
  0
TABLE
  2
VPORT
  5
8
100
AcDbSymbolTable
 70
2
  0
VPORT
  5
1F4
100
AcDbSymbolTableRecord
100
AcDbViewportTableRecord
  2
*ACTIVE
 70
0
 10
0.0
 20
0.0
 11
1.0
 21
1.0
 12
52.8972348115
 22
74.8118035191
 13
0.0
 23
0.0
 14
1.0
 24
1.0
 15
0.0
 25
0.0
 16
0.0
 26
0.0
 36
1.0
 17
0.0
 27
0.0
 37
0.0
 40
149.6236070381
 41
0.7070707071
 42
50.0
 43
0.0
 44
0.0
 50
0.0
 51
0.0
 71
0
 72
100
 73
1
 74
1
 75
0
 76
0
 77
0
 78
0
  0
ENDTAB
  0
TABLE
  2
LTYPE
  5
5
100
AcDbSymbolTable
 70
6
  0
LTYPE
  5
14
100
AcDbSymbolTableRecord
100
AcDbLinetypeTableRecord
  2
BYBLOCK
 70
0
  3

 72
65
 73
0
 40
0.0
  0
LTYPE
  5
15
100
AcDbSymbolTableRecord
100
AcDbLinetypeTableRecord
  2
BYLAYER
 70
0
  3

 72
65
 73
0
 40
0.0
  0
LTYPE
  5
16
100
AcDbSymbolTableRecord
100
AcDbLinetypeTableRecord
  2
CONTINUOUS
 70
64
  3
Solid line
 72
65
 73
0
 40
0.0
  0
LTYPE
  5
1F5
100
AcDbSymbolTableRecord
100
AcDbLinetypeTableRecord
  2
CENTER
 70
64
  3
____ _ ____ _ ____ _ ____ _ ____ _ ____ _ ____
 72
65
 73
4
 40
0.6
 49
0.375
 74
0
 49
-0.075
 74
0
 49
0.075
 74
0
 49
-0.075
 74
0
  0
LTYPE
  5
1F6
100
AcDbSymbolTableRecord
100
AcDbLinetypeTableRecord
  2
HIDDEN
 70
64
  3
- - - - - - - - - - - - - - - - - - - -
 72
65
 73
2
 40
0.2
 49
0.1
 74
0
 49
-0.1
 74
0
  0
LTYPE
  5
1F7
100
AcDbSymbolTableRecord
100
AcDbLinetypeTableRecord
  2
PHANTOM
 70
64
  3
_____ _ _ _____ _ _ _____ _ _ _____
 72
65
 73
6
 40
0.8
 49
0.45
 74
0
 49
-0.05
 74
0
 49
0.1
 74
0
 49
-0.05
 74
0
 49
0.1
 74
0
 49
-0.05
 74
0
  0
LTYPE
  5
1F8
100
AcDbSymbolTableRecord
100
AcDbLinetypeTableRecord
  2
DOT
 70
64
  3
. . . . . . . . . . . . . . . . . . . .
 72
65
 73
2
 40
0.2
 49
0.1
 74
0
 49
-0.1
 74
0
  0
LTYPE
  5
1F9
100
AcDbSymbolTableRecord
100
AcDbLinetypeTableRecord
  2
DASHED
 70
64
  3
- - - - - - - - - - - - - - - - - - - -
 72
65
 73
2
 40
0.2
 49
0.1
 74
0
 49
-0.1
 74
0
  0
ENDTAB
  0
TABLE
  2
LAYER
  5
2
100
AcDbSymbolTable
 70
36
  0
LAYER
  5
10
100
AcDbSymbolTableRecord
100
AcDbLayerTableRecord
  2
0
 70
0
 62
7
  6
CONTINUOUS
370
-3
390
F
  0
LAYER
  5
1FA
100
AcDbSymbolTableRecord
100
AcDbLayerTableRecord
  2
DEFAULT_1
 70
0
 62
7
  6
CENTER
370
-3
390
F
  0
LAYER
  5
1FB
100
AcDbSymbolTableRecord
100
AcDbLayerTableRecord
  2
DEFAULT_2
 70
0
 62
8
  6
HIDDEN
370
-3
390
F
  0
LAYER
  5
1FC
100
AcDbSymbolTableRecord
100
AcDbLayerTableRecord
  2
DEFAULT_3
 70
0
 62
7
  6
PHANTOM
370
-3
390
F
  0
LAYER
  5
1FD
100
AcDbSymbolTableRecord
100
AcDbLayerTableRecord
  2
00_COMPONENTS
 70
0
 62
7
  6
CONTINUOUS
370
-3
390
F
  0
LAYER
  5
1FE
100
AcDbSymbolTableRecord
100
AcDbLayerTableRecord
  2
00_COMPONENTS_1
 70
0
 62
7
  6
CONTINUOUS
370
-3
390
F
  0
LAYER
  5
1FF
100
AcDbSymbolTableRecord
100
AcDbLayerTableRecord
  2
01_1_DEFAULT_DATUMS
 70
0
 62
7
  6
CONTINUOUS
370
-3
390
F
  0
LAYER
  5
200
100
AcDbSymbolTableRecord
100
AcDbLayerTableRecord
  2
01_PLANES
 70
0
 62
7
  6
CONTINUOUS
370
-3
390
F
  0
LAYER
  5
201
100
AcDbSymbolTableRecord
100
AcDbLayerTableRecord
  2
02_COORD_SYS
 70
0
 62
7
  6
CONTINUOUS
370
-3
390
F
  0
LAYER
  5
202
100
AcDbSymbolTableRecord
100
AcDbLayerTableRecord
  2
03_AXES
 70
0
 62
7
  6
CONTINUOUS
370
-3
390
F
  0
LAYER
  5
203
100
AcDbSymbolTableRecord
100
AcDbLayerTableRecord
  2
04_POINTS
 70
0
 62
7
  6
CONTINUOUS
370
-3
390
F
  0
LAYER
  5
204
100
AcDbSymbolTableRecord
100
AcDbLayerTableRecord
  2
05_CURVES
 70
0
 62
7
  6
CONTINUOUS
370
-3
390
F
  0
LAYER
  5
205
100
AcDbSymbolTableRecord
100
AcDbLayerTableRecord
  2
06_SURFS
 70
0
 62
7
  6
CONTINUOUS
370
-3
390
F
  0
LAYER
  5
206
100
AcDbSymbolTableRecord
100
AcDbLayerTableRecord
  2
07_COSMETICS
 70
0
 62
7
  6
CONTINUOUS
370
-3
390
F
  0
LAYER
  5
207
100
AcDbSymbolTableRecord
100
AcDbLayerTableRecord
  2
10_NOTES
 70
0
 62
7
  6
CONTINUOUS
370
-3
390
F
  0
LAYER
  5
208
100
AcDbSymbolTableRecord
100
AcDbLayerTableRecord
  2
11_NOTES_PUB
 70
0
 62
7
  6
CONTINUOUS
370
-3
390
F
  0
LAYER
  5
209
100
AcDbSymbolTableRecord
100
AcDbLayerTableRecord
  2
13_REF_GTOL
 70
0
 62
7
  6
CONTINUOUS
370
-3
390
F
  0
LAYER
  5
20A
100
AcDbSymbolTableRecord
100
AcDbLayerTableRecord
  2
16_MISC
 70
0
 62
7
  6
CONTINUOUS
370
-3
390
F
  0
LAYER
  5
20B
100
AcDbSymbolTableRecord
100
AcDbLayerTableRecord
  2
17_NO_PRINT
 70
0
 62
7
  6
CONTINUOUS
370
-3
390
F
  0
LAYER
  5
20C
100
AcDbSymbolTableRecord
100
AcDbLayerTableRecord
  2
18_DATUM_CAMS_JOINTS
 70
0
 62
7
  6
CONTINUOUS
370
-3
390
F
  0
LAYER
  5
20D
100
AcDbSymbolTableRecord
100
AcDbLayerTableRecord
  2
19_DATUM_FUNCTIONAL
 70
0
 62
7
  6
CONTINUOUS
370
-3
390
F
  0
LAYER
  5
20E
100
AcDbSymbolTableRecord
100
AcDbLayerTableRecord
  2
20_DATUM_KINEMATIC_SCHEME
 70
0
 62
7
  6
CONTINUOUS
370
-3
390
F
  0
ENDTAB
  0
TABLE
  2
STYLE
  5
3
100
AcDbSymbolTable
 70
1
  0
STYLE
  5
11
100
AcDbSymbolTableRecord
100
AcDbTextStyleTableRecord
  2
STANDARD
 70
0
 40
0.0
 41
0.8
 50
0.0
 71
0
 42
0.2
  3
txt
  4

  0
STYLE
  5
20F
100
AcDbSymbolTableRecord
100
AcDbTextStyleTableRecord
  2
TEXTSTYLE_1
 70
0
 40
0.0
 41
0.8
 50
0.0
 71
0
 42
0.2
  3
gdt
  4

  0
ENDTAB
  0
TABLE
  2
VIEW
  5
6
100
AcDbSymbolTable
 70
0
  0
ENDTAB
  0
TABLE
  2
UCS
  5
7
100
AcDbSymbolTable
 70
0
  0
ENDTAB
  0
TABLE
  2
APPID
  5
9
100
AcDbSymbolTable
 70
1
  0
APPID
  5
210
100
AcDbSymbolTableRecord
100
AcDbRegAppTableRecord
  2
ACAD
 70
0
  0
ENDTAB
  0
TABLE
  2
BLOCK_RECORD
  5
1
100
AcDbSymbolTable
 70
0
  0
BLOCK_RECORD
  5
211
100
AcDbSymbolTableRecord
100
AcDbBlockTableRecord
  2
*Model_Space
  0
BLOCK_RECORD
  5
212
100
AcDbSymbolTableRecord
100
AcDbBlockTableRecord
  2
*Paper_Space
  0
BLOCK_RECORD
  5
213
100
AcDbSymbolTableRecord
100
AcDbBlockTableRecord
  2
_FILLED
  0
ENDTAB
  0
TABLE
  2
DIMSTYLE
  5
A
100
AcDbSymbolTable
 70
1
100
AcDbDimStyleTable
 71
0
  0
DIMSTYLE
105
214
100
AcDbSymbolTableRecord
100
AcDbDimStyleTableRecord
  2
STANDARD
 70
0
  3

  4

 40
1.0
 41
1.2594579717
 42
1.0
 43
0.38
 44
1.0
 45
0.0
 46
0.0
 47
0.01
 48
0.01
140
1.7632411604
141
0.09
142
0.0
143
25.4
144
1.0
145
0.0
146
1.0
147
0.625
 71
1
 72
0
 73
0
 74
0
 75
0
 76
0
 77
1
 78
8
 79
2
170
0
171
1
172
0
173
0
174
0
175
0
176
0
177
0
178
0
270
2
179
2
271
2
272
2
273
2
274
2
275
0
280
0
281
0
282
0
283
1
284
8
285
0
286
0
287
3
288
0
340
11
278
46
341
213
342
213
343
213
344
213
  0
ENDTAB
  0
ENDSEC
  0
SECTION
  2
BLOCKS
  0
BLOCK
  5
20
100
AcDbEntity
  8
0
100
AcDbBlockBegin
  2
*Model_Space
 70
0
 10
0.0
 20
0.0
 30
0.0
  3
*Model_Space
  1

  0
ENDBLK
  5
21
100
AcDbEntity
  8
0
100
AcDbBlockEnd
  0
BLOCK
  5
1C
100
AcDbEntity
  8
0
100
AcDbBlockBegin
  2
*Paper_Space
 70
0
 10
0.0
 20
0.0
 30
0.0
  3
*Paper_Space
  1

  0
ENDBLK
  5
1D
100
AcDbEntity
  8
0
100
AcDbBlockEnd
  0
BLOCK
  5
215
100
AcDbEntity
  8
0
100
AcDbBlockBegin
  2
_FILLED
 70
64
 10
0.0
 20
0.0
  3
_FILLED
  1

  0
SOLID
  5
216
100
AcDbEntity
  8
0
  6
BYBLOCK
 62
0
100
AcDbTrace
 10
0.0
 20
0.0
 11
-1.0
 21
0.25
 12
-1.0
 22
-0.25
 13
-1.0
 23
-0.25
  0
ENDBLK
  5
217
100
AcDbEntity
  8
0
  6
BYBLOCK
 62
0
100
AcDbBlockEnd
  0
ENDSEC
  0
SECTION
  2
ENTITIES
  0
LINE
  5
218
100
AcDbEntity
  8
00_COMPONENTS_1
100
AcDbLine
 62
7
  6
CONTINUOUS
 10
66.3800751074
 20
12.3618035191
 11
67.5800751074
 21
12.3618035191
  0
LINE
  5
219
100
AcDbEntity
  8
00_COMPONENTS_1
100
AcDbLine
 62
7
  6
CONTINUOUS
 10
22.3800751074
 20
24.5618035191
 11
84.3800751074
 21
24.5618035191
  0
LINE
  5
21A
100
AcDbEntity
  8
00_COMPONENTS_1
100
AcDbLine
 62
7
  6
CONTINUOUS
 10
84.3800751074
 20
25.9618035191
 11
82.2300751074
 21
25.9618035191
  0
LINE
  5
21B
100
AcDbEntity
  8
00_COMPONENTS_1
100
AcDbLine
 62
7
  6
CONTINUOUS
 10
22.655968728
 20
27.3495331218
 11
22.521338437
 21
27.3495331218
  0
LINE
  5
21C
100
AcDbEntity
  8
00_COMPONENTS_1
100
AcDbLine
 62
7
  6
CONTINUOUS
 10
82.2300751074
 20
27.4618035191
 11
87.3800751074
 21
27.4618035191
  0
LINE
  5
21D
100
AcDbEntity
  8
00_COMPONENTS_1
100
AcDbLine
 62
7
  6
CONTINUOUS
 10
87.3800751074
 20
30.4618035191
 11
82.2300751074
 21
30.4618035191
  0
LINE
  5
21E
100
AcDbEntity
  8
00_COMPONENTS_1
100
AcDbLine
 62
7
  6
CONTINUOUS
 10
23.8800751074
 20
30.4618035191
 11
22.6452463294
 21
30.4618035191
  0
LINE
  5
21F
100
AcDbEntity
  8
00_COMPONENTS_1
100
AcDbLine
 62
7
  6
CONTINUOUS
 10
22.5291880298
 20
30.4618035191
 11
22.3800751074
 21
30.4618035191
  0
LINE
  5
220
100
AcDbEntity
  8
00_COMPONENTS_1
100
AcDbLine
 62
7
  6
CONTINUOUS
 10
84.3800751074
 20
31.9618035191
 11
82.2300751074
 21
31.9618035191
  0
LINE
  5
221
100
AcDbEntity
  8
00_COMPONENTS_1
100
AcDbLine
 62
7
  6
CONTINUOUS
 10
50.6300751074
 20
125.1618035191
 11
51.2300751074
 21
125.7618035191
  0
LINE
  5
222
100
AcDbEntity
  8
00_COMPONENTS_1
100
AcDbLine
 62
7
  6
CONTINUOUS
 10
59.1480242998
 20
125.7618035191
 11
60.8800751074
 21
126.7618035191
  0
LINE
  5
223
100
AcDbEntity
  8
00_COMPONENTS_1
100
AcDbLine
 62
7
  6
CONTINUOUS
 10
23.8800751074
 20
33.5091755749
 11
22.6452463294
 21
33.5091755749
  0
LINE
  5
224
100
AcDbEntity
  8
00_COMPONENTS_1
100
AcDbLine
 62
7
  6
CONTINUOUS
 10
23.8800751074
 20
35.5618035191
 11
22.5830633532
 21
35.5618035191
  0
LINE
  5
225
100
AcDbEntity
  8
00_COMPONENTS_1
100
AcDbLine
 62
7
  6
CONTINUOUS
 10
20.2300751074
 20
119.2618035191
 11
20.2300751074
 21
125.1618035191
  0
LINE
  5
226
100
AcDbEntity
  8
00_COMPONENTS_1
100
AcDbLine
 62
7
  6
CONTINUOUS
 10
20.371338437
 20
125.1618035191
 11
20.371338437
 21
122.3740739171
  0
LINE
  5
227
100
AcDbEntity
  8
00_COMPONENTS_1
100
AcDbLine
 62
7
  6
CONTINUOUS
 10
20.3791880298
 20
116.2144314632
 11
20.3791880298
 21
119.2618035191
  0
LINE
  5
228
100
AcDbEntity
  8
00_COMPONENTS_1
100
AcDbLine
 62
7
  6
CONTINUOUS
 10
20.4952463294
 20
119.2618035191
 11
20.4952463294
 21
116.2144314632
  0
LINE
  5
229
100
AcDbEntity
  8
00_COMPONENTS_1
100
AcDbLine
 62
7
  6
CONTINUOUS
 10
20.50596709
 20
125.1618035191
 11
20.5059703604
 21
122.3740568231
  0
LINE
  5
22A
100
AcDbEntity
  8
00_COMPONENTS_1
100
AcDbLine
 62
7
  6
CONTINUOUS
 10
22.2300751074
 20
125.1618035191
 11
22.2300751074
 21
119.2618035191
  0
LINE
  5
22B
100
AcDbEntity
  8
00_COMPONENTS_1
100
AcDbLine
 62
7
  6
CONTINUOUS
 10
22.3800751074
 20
24.5618035191
 11
22.3800751074
 21
30.4618035191
  0
LINE
  5
22C
100
AcDbEntity
  8
00_COMPONENTS_1
100
AcDbLine
 62
7
  6
CONTINUOUS
 10
22.521338437
 20
27.3495331218
 11
22.521338437
 21
24.5618035191
  0
LINE
  5
22D
100
AcDbEntity
  8
00_COMPONENTS_1
100
AcDbLine
 62
7
  6
CONTINUOUS
 10
22.5291880298
 20
30.4618035191
 11
22.5291880298
 21
33.5091755749
  0
LINE
  5
22E
100
AcDbEntity
  8
00_COMPONENTS_1
100
AcDbLine
 62
7
  6
CONTINUOUS
 10
22.6452463294
 20
33.5091755749
 11
22.6452463294
 21
30.4618035191
  0
LINE
  5
22F
100
AcDbEntity
  8
00_COMPONENTS_1
100
AcDbLine
 62
7
  6
CONTINUOUS
 10
22.655970366
 20
27.3495502482
 11
22.6559670901
 21
24.5618035191
  0
LINE
  5
230
100
AcDbEntity
  8
00_COMPONENTS_1
100
AcDbLine
 62
7
  6
CONTINUOUS
 10
23.8800751074
 20
114.1618035191
 11
23.8800751074
 21
24.5618035191
  0
LINE
  5
231
100
AcDbEntity
  8
00_COMPONENTS_1
100
AcDbLine
 62
7
  6
CONTINUOUS
 10
24.9300751074
 20
114.1618035191
 11
24.9300751074
 21
119.2618035191
  0
LINE
  5
232
100
AcDbEntity
  8
00_COMPONENTS_1
100
AcDbLine
 62
7
  6
CONTINUOUS
 10
63.2800751074
 20
125.3618035191
 11
63.7800751074
 21
125.8618035191
  0
LINE
  5
233
100
AcDbEntity
  8
00_COMPONENTS_1
100
AcDbLine
 62
7
  6
CONTINUOUS
 10
75.2300751074
 20
45.7618035191
 11
82.2300751074
 21
45.7618035191
  0
LINE
  5
234
100
AcDbEntity
  8
00_COMPONENTS_1
100
AcDbLine
 62
7
  6
CONTINUOUS
 10
27.9300751074
 20
119.2618035191
 11
27.9300751074
 21
117.7618035191
  0
LINE
  5
235
100
AcDbEntity
  8
00_COMPONENTS_1
100
AcDbLine
 62
7
  6
CONTINUOUS
 10
29.7212467072
 20
119.2618035191
 11
29.7212467072
 21
117.7618035191
  0
LINE
  5
236
100
AcDbEntity
  8
00_COMPONENTS_1
100
AcDbLine
 62
7
  6
CONTINUOUS
 10
63.7800751074
 20
137.2618035191
 11
63.7800751074
 21
125.1618035191
  0
LINE
  5
237
100
AcDbEntity
  8
00_COMPONENTS_1
100
AcDbLine
 62
7
  6
CONTINUOUS
 10
78.2300751074
 20
125.1618035191
 11
80.2300751074
 21
130.6618035191
  0
LINE
  5
238
100
AcDbEntity
  8
00_COMPONENTS_1
100
AcDbLine
 62
7
  6
CONTINUOUS
 10
64.9800751074
 20
137.2618035191
 11
64.9800751074
 21
125.1618035191
  0
LINE
  5
239
100
AcDbEntity
  8
00_COMPONENTS_1
100
AcDbLine
 62
7
  6
CONTINUOUS
 10
66.3800751074
 20
12.3618035191
 11
66.3800751074
 21
24.5618035191
  0
LINE
  5
23A
100
AcDbEntity
  8
00_COMPONENTS_1
100
AcDbLine
 62
7
  6
CONTINUOUS
 10
67.5800751074
 20
12.3618035191
 11
67.5800751074
 21
24.5618035191
  0
LINE
  5
23B
100
AcDbEntity
  8
00_COMPONENTS_1
100
AcDbLine
 62
7
  6
CONTINUOUS
 10
75.2300751074
 20
117.7618035191
 11
75.2300751074
 21
45.7618035191
  0
LINE
  5
23C
100
AcDbEntity
  8
00_COMPONENTS_1
100
AcDbLine
 62
7
  6
CONTINUOUS
 10
75.2300751074
 20
119.2618035191
 11
75.2300751074
 21
126.7618035191
  0
LINE
  5
23D
100
AcDbEntity
  8
00_COMPONENTS_1
100
AcDbLine
 62
7
  6
CONTINUOUS
 10
80.2300751074
 20
119.2618035191
 11
80.2300751074
 21
125.1618035191
  0
LINE
  5
23E
100
AcDbEntity
  8
00_COMPONENTS_1
100
AcDbLine
 62
7
  6
CONTINUOUS
 10
82.2300751074
 20
45.7618035191
 11
82.2300751074
 21
24.5618035191
  0
LINE
  5
23F
100
AcDbEntity
  8
00_COMPONENTS_1
100
AcDbLine
 62
7
  6
CONTINUOUS
 10
82.2300751074
 20
103.9618035191
 11
82.2300751074
 21
125.1618035191
  0
LINE
  5
240
100
AcDbEntity
  8
00_COMPONENTS_1
100
AcDbLine
 62
7
  6
CONTINUOUS
 10
84.3800751074
 20
24.5618035191
 11
84.3800751074
 21
27.4618035191
  0
LINE
  5
241
100
AcDbEntity
  8
00_COMPONENTS_1
100
AcDbLine
 62
7
  6
CONTINUOUS
 10
84.3800751074
 20
30.4618035191
 11
84.3800751074
 21
31.9618035191
  0
LINE
  5
242
100
AcDbEntity
  8
00_COMPONENTS_1
100
AcDbLine
 62
7
  6
CONTINUOUS
 10
85.2300751074
 20
122.2618035191
 11
85.2300751074
 21
119.2618035191
  0
LINE
  5
243
100
AcDbEntity
  8
00_COMPONENTS_1
100
AcDbLine
 62
7
  6
CONTINUOUS
 10
86.9800751074
 20
130.6618035191
 11
86.9800751074
 21
125.1618035191
  0
LINE
  5
244
100
AcDbEntity
  8
00_COMPONENTS_1
100
AcDbLine
 62
7
  6
CONTINUOUS
 10
87.3800751074
 20
27.4618035191
 11
87.3800751074
 21
30.4618035191
  0
LINE
  5
245
100
AcDbEntity
  8
00_COMPONENTS_1
100
AcDbLine
 62
7
  6
CONTINUOUS
 10
82.2300751074
 20
103.9618035191
 11
75.2300751074
 21
103.9618035191
  0
LINE
  5
246
100
AcDbEntity
  8
00_COMPONENTS_1
100
AcDbLine
 62
7
  6
CONTINUOUS
 10
20.4330633532
 20
114.1618035191
 11
24.9300751074
 21
114.1618035191
  0
LINE
  5
247
100
AcDbEntity
  8
00_COMPONENTS_1
100
AcDbLine
 62
7
  6
CONTINUOUS
 10
20.4952463294
 20
116.2144314632
 11
24.9300751074
 21
116.2144314632
  0
LINE
  5
248
100
AcDbEntity
  8
00_COMPONENTS_1
100
AcDbLine
 62
7
  6
CONTINUOUS
 10
27.9300751074
 20
117.7618035191
 11
82.2300751074
 21
117.7618035191
  0
LINE
  5
249
100
AcDbEntity
  8
00_COMPONENTS_1
100
AcDbLine
 62
7
  6
CONTINUOUS
 10
61.3800751074
 20
126.7618035191
 11
62.7800751074
 21
125.3618035191
  0
LINE
  5
24A
100
AcDbEntity
  8
00_COMPONENTS_1
100
AcDbLine
 62
7
  6
CONTINUOUS
 10
20.2300751074
 20
119.2618035191
 11
20.3791880298
 21
119.2618035191
  0
LINE
  5
24B
100
AcDbEntity
  8
00_COMPONENTS_1
100
AcDbLine
 62
7
  6
CONTINUOUS
 10
20.4952463294
 20
119.2618035191
 11
85.2300751074
 21
119.2618035191
  0
LINE
  5
24C
100
AcDbEntity
  8
00_COMPONENTS_1
100
AcDbLine
 62
7
  6
CONTINUOUS
 10
85.2300751074
 20
122.2618035191
 11
82.2300751074
 21
122.2618035191
  0
LINE
  5
24D
100
AcDbEntity
  8
00_COMPONENTS_1
100
AcDbLine
 62
7
  6
CONTINUOUS
 10
20.371338437
 20
122.3740739171
 11
20.5059703604
 21
122.3740739171
  0
LINE
  5
24E
100
AcDbEntity
  8
00_COMPONENTS_1
100
AcDbLine
 62
7
  6
CONTINUOUS
 10
86.9800751074
 20
125.1618035191
 11
82.2300751074
 21
125.1618035191
  0
LINE
  5
24F
100
AcDbEntity
  8
00_COMPONENTS_1
100
AcDbLine
 62
7
  6
CONTINUOUS
 10
80.2300751074
 20
125.1618035191
 11
20.2300751074
 21
125.1618035191
  0
LINE
  5
250
100
AcDbEntity
  8
00_COMPONENTS_1
100
AcDbLine
 62
7
  6
CONTINUOUS
 10
63.2800751074
 20
125.3618035191
 11
62.7800751074
 21
125.3618035191
  0
LINE
  5
251
100
AcDbEntity
  8
00_COMPONENTS_1
100
AcDbLine
 62
7
  6
CONTINUOUS
 10
59.1480242998
 20
125.7618035191
 11
51.2300751074
 21
125.7618035191
  0
LINE
  5
252
100
AcDbEntity
  8
00_COMPONENTS_1
100
AcDbLine
 62
7
  6
CONTINUOUS
 10
75.2300751074
 20
126.7618035191
 11
64.9800751074
 21
126.7618035191
  0
LINE
  5
253
100
AcDbEntity
  8
00_COMPONENTS_1
100
AcDbLine
 62
7
  6
CONTINUOUS
 10
61.3800751074
 20
126.7618035191
 11
60.8800751074
 21
126.7618035191
  0
LINE
  5
254
100
AcDbEntity
  8
00_COMPONENTS_1
100
AcDbLine
 62
7
  6
CONTINUOUS
 10
80.2300751074
 20
130.6618035191
 11
86.9800751074
 21
130.6618035191
  0
LINE
  5
255
100
AcDbEntity
  8
00_COMPONENTS_1
100
AcDbLine
 62
7
  6
CONTINUOUS
 10
64.9800751074
 20
137.2618035191
 11
63.7800751074
 21
137.2618035191
  0
SPLINE
  5
256
100
AcDbEntity
  8
00_COMPONENTS_1
100
AcDbSpline
 62
7
  6
CONTINUOUS
 70
0
 71
3
 72
14
 73
10
 74
0
 42
0.0000001
 43
0.0000001
 44
0.0000000001
 40
0.0
 40
0.0
 40
0.0
 40
0.0
 40
0.0188100312
 40
0.034500654
 40
0.0552161084
 40
0.1134931112
 40
0.198087024
 40
0.4750820213
 40
1.0
 40
1.0
 40
1.0
 40
1.0
 10
20.4331068704
 20
120.1618119186
 30
0.0
 10
20.4407709944
 20
120.1618128538
 30
0.0
 10
20.4524224924
 20
120.1739827535
 30
0.0
 10
20.4627832489
 20
120.1930440769
 30
0.0
 10
20.4777052283
 20
120.2291162897
 30
0.0
 10
20.4951989869
 20
120.293320798
 30
0.0
 10
20.5280648697
 20
120.4614553765
 30
0.0
 10
20.5663262445
 20
120.8210122867
 30
0.0
 10
20.5777973257
 20
121.1479263351
 30
0.0
 10
20.5777973257
 20
121.3618035195
 30
0.0
  0
SPLINE
  5
257
100
AcDbEntity
  8
00_COMPONENTS_1
100
AcDbSpline
 62
7
  6
CONTINUOUS
 70
0
 71
3
 72
14
 73
10
 74
0
 42
0.0000001
 43
0.0000001
 44
0.0000000001
 40
0.0
 40
0.0
 40
0.0
 40
0.0
 40
0.0188106128
 40
0.0345009295
 40
0.0552164121
 40
0.1134938008
 40
0.1980880174
 40
0.4750838616
 40
1.0
 40
1.0
 40
1.0
 40
1.0
 10
22.5831068697
 20
29.5617958398
 30
0.0
 10
22.5907712325
 20
29.5617944922
 30
0.0
 10
22.6024220131
 20
29.5496239294
 30
0.0
 10
22.6127835576
 20
29.5305629211
 30
0.0
 10
22.6277052582
 20
29.4944904694
 30
0.0
 10
22.6451991239
 20
29.4302857439
 30
0.0
 10
22.6780650111
 20
29.2621504275
 30
0.0
 10
22.7163263592
 20
28.9025937652
 30
0.0
 10
22.7277973256
 20
28.5756800115
 30
0.0
 10
22.7277973256
 20
28.3618035237
 30
0.0
  0
SPLINE
  5
258
100
AcDbEntity
  8
00_COMPONENTS_1
100
AcDbSpline
 62
7
  6
CONTINUOUS
 70
0
 71
3
 72
19
 73
15
 74
0
 42
0.0000001
 43
0.0000001
 44
0.0000000001
 40
0.0
 40
0.0
 40
0.0
 40
0.0
 40
0.0909126945
 40
0.2409323424
 40
0.4877588547
 40
0.7160117946
 40
0.7926728812
 40
0.8523241159
 40
0.8986933585
 40
0.9343247987
 40
0.9611085273
 40
0.9802659185
 40
0.9926990588
 40
1.0
 40
1.0
 40
1.0
 40
1.0
 10
20.3791880298
 20
116.2144314632
 30
0.0
 10
20.3694811288
 20
116.152442135
 30
0.0
 10
20.3532470141
 20
115.9867689891
 30
0.0
 10
20.3363100209
 20
115.6505357593
 30
0.0
 10
20.3312569119
 20
115.2190257887
 30
0.0
 10
20.3381883745
 20
114.8382036314
 30
0.0
 10
20.3512738653
 20
114.5869148774
 30
0.0
 10
20.3607721358
 20
114.4611780624
 30
0.0
 10
20.3709627241
 20
114.3639328846
 30
0.0
 10
20.3819109196
 20
114.289614436
 30
0.0
 10
20.3929717439
 20
114.2344179312
 30
0.0
 10
20.4050726972
 20
114.1957374224
 30
0.0
 10
20.4158504957
 20
114.1714296208
 30
0.0
 10
20.4280245285
 20
114.1618169357
 30
0.0
 10
20.4330633746
 20
114.1618095815
 30
0.0
  0
SPLINE
  5
259
100
AcDbEntity
  8
00_COMPONENTS_1
100
AcDbSpline
 62
7
  6
CONTINUOUS
 70
0
 71
3
 72
9
 73
5
 74
0
 42
0.0000001
 43
0.0000001
 44
0.0000000001
 40
0.0
 40
0.0
 40
0.0
 40
0.0
 40
0.3346434392
 40
1.0
 40
1.0
 40
1.0
 40
1.0
 10
20.5059687252
 20
122.3740665787
 30
0.0
 10
20.5272586191
 20
122.2627865287
 30
0.0
 10
20.5654623784
 20
121.9257463229
 30
0.0
 10
20.5777973257
 20
121.5870694925
 30
0.0
 10
20.5777973257
 20
121.3618035195
 30
0.0
  0
SPLINE
  5
25A
100
AcDbEntity
  8
00_COMPONENTS_1
100
AcDbSpline
 62
7
  6
CONTINUOUS
 70
0
 71
3
 72
19
 73
15
 74
0
 42
0.0000001
 43
0.0000001
 44
0.0000000001
 40
0.0
 40
0.0
 40
0.0
 40
0.0
 40
0.0909145031
 40
0.2409385671
 40
0.4877786807
 40
0.7160109852
 40
0.7926696054
 40
0.8523187383
 40
0.8986926408
 40
0.9343188955
 40
0.9611051647
 40
0.980260353
 40
0.9927016785
 40
1.0
 40
1.0
 40
1.0
 40
1.0
 10
22.5291880298
 20
33.5091755749
 30
0.0
 10
22.5194809095
 20
33.5711663037
 30
0.0
 10
22.5032465531
 20
33.7368442045
 30
0.0
 10
22.4863090461
 20
34.0730920076
 30
0.0
 10
22.4812567211
 20
34.5046014057
 30
0.0
 10
22.4881895283
 20
34.8854178973
 30
0.0
 10
22.5012732142
 20
35.1366901012
 30
0.0
 10
22.5107738542
 20
35.2624270213
 30
0.0
 10
22.5209595004
 20
35.3596713259
 30
0.0
 10
22.5319146279
 20
35.4339902454
 30
0.0
 10
22.5429662449
 20
35.4891851663
 30
0.0
 10
22.555082889
 20
35.5278690292
 30
0.0
 10
22.5658395169
 20
35.552181807
 30
0.0
 10
22.5780263043
 20
35.5618058523
 30
0.0
 10
22.5830633578
 20
35.5617998912
 30
0.0
  0
SPLINE
  5
25B
100
AcDbEntity
  8
00_COMPONENTS_1
100
AcDbSpline
 62
7
  6
CONTINUOUS
 70
0
 71
3
 72
9
 73
5
 74
0
 42
0.0000001
 43
0.0000001
 44
0.0000000001
 40
0.0
 40
0.0
 40
0.0
 40
0.0
 40
0.6653565257
 40
1.0
 40
1.0
 40
1.0
 40
1.0
 10
22.7277973256
 20
28.3618035237
 30
0.0
 10
22.7277973256
 20
28.1365375651
 30
0.0
 10
22.7154623794
 20
27.7978607385
 30
0.0
 10
22.677258622
 20
27.4608205366
 30
0.0
 10
22.655968728
 20
27.3495404758
 30
0.0
  0
SPLINE
  5
25C
100
AcDbEntity
  8
00_COMPONENTS_1
100
AcDbSpline
 62
7
  6
CONTINUOUS
 70
0
 71
3
 72
16
 73
12
 74
0
 42
0.0000001
 43
0.0000001
 44
0.0000000001
 40
0.0
 40
0.0
 40
0.0
 40
0.0
 40
0.0074623023
 40
0.0201950783
 40
0.0666350224
 40
0.1489534896
 40
0.2851978324
 40
0.5128402435
 40
0.7589832267
 40
0.9088318969
 40
1.0
 40
1.0
 40
1.0
 40
1.0
 10
20.4330633746
 20
114.1618095815
 30
0.0
 10
20.4382301664
 20
114.1618020405
 30
0.0
 10
20.4507692674
 20
114.1714368741
 30
0.0
 10
20.471385528
 20
114.2121728955
 30
0.0
 10
20.4973937227
 20
114.3079796755
 30
0.0
 10
20.5265360032
 20
114.4886563301
 30
0.0
 10
20.5556676568
 20
114.7967665219
 30
0.0
 10
20.5702688331
 20
115.2189687084
 30
0.0
 10
20.5604800573
 20
115.6510556319
 30
0.0
 10
20.5321426233
 20
115.9872666098
 30
0.0
 10
20.5081550982
 20
116.1526419177
 30
0.0
 10
20.4952463294
 20
116.2144314632
 30
0.0
  0
SPLINE
  5
25D
100
AcDbEntity
  8
00_COMPONENTS_1
100
AcDbSpline
 62
7
  6
CONTINUOUS
 70
0
 71
3
 72
9
 73
5
 74
0
 42
0.0000001
 43
0.0000001
 44
0.0000000001
 40
0.0
 40
0.0
 40
0.0
 40
0.0
 40
0.2146254189
 40
1.0
 40
1.0
 40
1.0
 40
1.0
 10
22.5213384371
 20
27.3495331218
 30
0.0
 10
22.5197698903
 20
27.3609962902
 30
0.0
 10
22.5129543702
 20
27.4144738594
 30
0.0
 10
22.5078530161
 20
27.4681586516
 30
0.0
 10
22.5043841356
 20
27.5103541254
 30
0.0
  0
SPLINE
  5
25E
100
AcDbEntity
  8
00_COMPONENTS_1
100
AcDbSpline
 62
7
  6
CONTINUOUS
 70
0
 71
3
 72
9
 73
5
 74
0
 42
0.0000001
 43
0.0000001
 44
0.0000000001
 40
0.0
 40
0.0
 40
0.0
 40
0.0
 40
0.2211635476
 40
1.0
 40
1.0
 40
1.0
 40
1.0
 10
22.5043841356
 20
27.5103541254
 30
0.0
 10
22.5032379488
 20
27.5242963457
 30
0.0
 10
22.4983437058
 20
27.5873603206
 30
0.0
 10
22.4945393834
 20
27.6505062437
 30
0.0
 10
22.4920083233
 20
27.6997049122
 30
0.0
  0
SPLINE
  5
25F
100
AcDbEntity
  8
00_COMPONENTS_1
100
AcDbSpline
 62
7
  6
CONTINUOUS
 70
0
 71
3
 72
9
 73
5
 74
0
 42
0.0000001
 43
0.0000001
 44
0.0000000001
 40
0.0
 40
0.0
 40
0.0
 40
0.0
 40
0.215240591
 40
1.0
 40
1.0
 40
1.0
 40
1.0
 10
22.4920083233
 20
27.6997049122
 30
0.0
 10
22.4909029671
 20
27.7211907918
 30
0.0
 10
22.4861704161
 20
27.8210340599
 30
0.0
 10
22.4830190784
 20
27.9209491895
 30
0.0
 10
22.4811938294
 20
27.9993682873
 30
0.0
  0
SPLINE
  5
260
100
AcDbEntity
  8
00_COMPONENTS_1
100
AcDbSpline
 62
7
  6
CONTINUOUS
 70
0
 71
3
 72
15
 73
11
 74
0
 42
0.0000001
 43
0.0000001
 44
0.0000000001
 40
0.0
 40
0.0
 40
0.0
 40
0.0
 40
0.5146959421
 40
0.6884031916
 40
0.8087132945
 40
0.8929706726
 40
0.9494256156
 40
0.9689859179
 40
0.9834930466
 40
1.0
 40
1.0
 40
1.0
 40
1.0
 10
22.4811938294
 20
27.9993682873
 30
0.0
 10
22.474889673
 20
28.2702169649
 30
0.0
 10
22.4753592148
 20
28.6327821115
 30
0.0
 10
22.4926127638
 20
29.058204085
 30
0.0
 10
22.5069632869
 20
29.2567631179
 30
0.0
 10
22.5229818921
 20
29.3934667443
 30
0.0
 10
22.5378327597
 20
29.4762271391
 30
0.0
 10
22.5521141472
 20
29.5224296143
 30
0.0
 10
22.5619430157
 20
29.545815712
 30
0.0
 10
22.5744180557
 20
29.5617973675
 30
0.0
 10
22.5831068697
 20
29.5617958398
 30
0.0
  0
SPLINE
  5
261
100
AcDbEntity
  8
00_COMPONENTS_1
100
AcDbSpline
 62
7
  6
CONTINUOUS
 70
0
 71
3
 72
16
 73
12
 74
0
 42
0.0000001
 43
0.0000001
 44
0.0000000001
 40
0.0
 40
0.0
 40
0.0
 40
0.0
 40
0.0074661607
 40
0.02018992
 40
0.0666289565
 40
0.1489451959
 40
0.2851890844
 40
0.5128405436
 40
0.7589893465
 40
0.9088336717
 40
1.0
 40
1.0
 40
1.0
 40
1.0
 10
22.5830633578
 20
35.5617998912
 30
0.0
 10
22.5882328149
 20
35.5617937735
 30
0.0
 10
22.6007549303
 20
35.5521616443
 30
0.0
 10
22.62141054
 20
35.5114456858
 30
0.0
 10
22.6473760198
 20
35.4156311363
 30
0.0
 10
22.6765448981
 20
35.2349677798
 30
0.0
 10
22.7056610382
 20
34.9268476794
 30
0.0
 10
22.7202714982
 20
34.5046391592
 30
0.0
 10
22.7104796836
 20
34.0725446828
 30
0.0
 10
22.6821418572
 20
33.7363346648
 30
0.0
 10
22.6581548267
 20
33.5709638206
 30
0.0
 10
22.6452463294
 20
33.5091755749
 30
0.0
  0
SPLINE
  5
262
100
AcDbEntity
  8
00_COMPONENTS_1
100
AcDbSpline
 62
7
  6
CONTINUOUS
 70
0
 71
3
 72
9
 73
5
 74
0
 42
0.0000001
 43
0.0000001
 44
0.0000000001
 40
0.0
 40
0.0
 40
0.0
 40
0.0
 40
0.2144877527
 40
1.0
 40
1.0
 40
1.0
 40
1.0
 10
20.371338437
 20
122.374073917
 30
0.0
 10
20.3697629731
 20
122.362560197
 30
0.0
 10
20.3629151758
 20
122.3088120239
 30
0.0
 10
20.357796693
 20
122.2548549342
 30
0.0
 10
20.3543172041
 20
122.2124381276
 30
0.0
  0
SPLINE
  5
263
100
AcDbEntity
  8
00_COMPONENTS_1
100
AcDbSpline
 62
7
  6
CONTINUOUS
 70
0
 71
3
 72
9
 73
5
 74
0
 42
0.0000001
 43
0.0000001
 44
0.0000000001
 40
0.0
 40
0.0
 40
0.0
 40
0.0
 40
0.2210245297
 40
1.0
 40
1.0
 40
1.0
 40
1.0
 10
20.3543172041
 20
122.2124381276
 30
0.0
 10
20.3531662801
 20
122.1984077556
 30
0.0
 10
20.3482502261
 20
122.1349051135
 30
0.0
 10
20.344435042
 20
122.0713199234
 30
0.0
 10
20.3418989667
 20
122.0217702618
 30
0.0
  0
SPLINE
  5
264
100
AcDbEntity
  8
00_COMPONENTS_1
100
AcDbSpline
 62
7
  6
CONTINUOUS
 70
0
 71
3
 72
9
 73
5
 74
0
 42
0.0000001
 43
0.0000001
 44
0.0000000001
 40
0.0
 40
0.0
 40
0.0
 40
0.0
 40
0.2150312083
 40
1.0
 40
1.0
 40
1.0
 40
1.0
 10
20.3418989667
 20
122.0217702618
 30
0.0
 10
20.3407888907
 20
122.0000816766
 30
0.0
 10
20.3360355402
 20
121.8991983214
 30
0.0
 10
20.3328870515
 20
121.7982425014
 30
0.0
 10
20.3310725413
 20
121.7189857189
 30
0.0
  0
SPLINE
  5
265
100
AcDbEntity
  8
00_COMPONENTS_1
100
AcDbSpline
 62
7
  6
CONTINUOUS
 70
0
 71
3
 72
15
 73
11
 74
0
 42
0.0000001
 43
0.0000001
 44
0.0000000001
 40
0.0
 40
0.0
 40
0.0
 40
0.0
 40
0.5153388165
 40
0.6886493817
 40
0.8087973993
 40
0.8929866397
 40
0.9494149466
 40
0.9689718084
 40
0.9834798277
 40
1.0
 40
1.0
 40
1.0
 40
1.0
 10
20.3310725413
 20
121.7189857189
 30
0.0
 10
20.3248845542
 20
121.4486979393
 30
0.0
 10
20.3254209499
 20
121.0872093028
 30
0.0
 10
20.3427444459
 20
120.6631628686
 30
0.0
 10
20.3570835099
 20
120.4655956421
 30
0.0
 10
20.3730810235
 20
120.3294872914
 30
0.0
 10
20.3879113941
 20
120.2470567088
 30
0.0
 10
20.4021682449
 20
120.2010338483
 30
0.0
 10
20.4119838065
 20
120.1777222013
 30
0.0
 10
20.4244400078
 20
120.161810861
 30
0.0
 10
20.4331068704
 20
120.1618119186
 30
0.0
  0
ENDSEC
  0
SECTION
  2
OBJECTS
  0
DICTIONARY
  5
C
100
AcDbDictionary
280
0
281
1
  3
ACAD_GROUP
350
D
  3
ACAD_MLINESTYLE
350
17
  3
ACAD_LAYOUT
350
1A
  3
ACAD_PLOTSETTINGS
350
19
  3
ACAD_PLOTSTYLENAME
350
E
  0
DICTIONARY
  5
D
102
{ACAD_REACTORS
330
C
102
}
100
AcDbDictionary
280
0
281
1
  0
ACDBDICTIONARYWDFLT
  5
E
102
{ACAD_REACTORS
330
C
102
}
100
AcDbDictionary
281
1
  3
Normal
350
F
100
AcDbDictionaryWithDefault
340
F
  0
DICTIONARY
  5
17
102
{ACAD_REACTORS
330
C
102
}
100
AcDbDictionary
280
0
281
1
  3
Standard
350
18
  0
DICTIONARY
  5
19
102
{ACAD_REACTORS
330
C
102
}
100
AcDbDictionary
281
1
  0
DICTIONARY
  5
1A
102
{ACAD_REACTORS
330
C
102
}
100
AcDbDictionary
281
1
  3
Model
350
266
  3
Layout1
350
267
  0
ACDBPLACEHOLDER
  5
F
102
{ACAD_REACTORS
330
E
102
}
  0
MLINESTYLE
  5
18
102
{ACAD_REACTORS
330
17
102
}
100
AcDbMlineStyle
  2
STANDARD
 70
0
  3

 62
256
 51
90.0
 52
90.0
 71
2
 49
0.5
 62
256
  6
BYLAYER
 49
-0.5
 62
256
  6
BYLAYER
  0
LAYOUT
  5
266
102
{ACAD_REACTORS
330
1A
102
}
100
AcDbPlotSettings
  1

  2
none_device
  4

  6

 40
0.0
 41
0.0
 42
0.0
 43
0.0
 44
210.0
 45
297.0
 46
0.0
 47
0.0
 48
0.0
 49
0.0
140
0.0
141
0.0
142
1.0
143
1.0
 70
1024
 72
1
 73
0
 74
0
  7

 75
0
147
1.0
148
0.0
149
0.0
100
AcDbLayout
  1
Model
 70
0
 71
0
 10
0.0
 20
0.0
 11
210.0
 21
297.0
 12
0.0
 22
0.0
 32
0.0
 14
0.0
 24
0.0
 34
0.0
 15
0.0
 25
0.0
 35
0.0
146
0.0
 13
0.0
 23
0.0
 33
0.0
 16
1.0
 26
0.0
 36
0.0
 17
0.0
 27
1.0
 37
0.0
 76
0
330
211
345
0
346
0
  0
LAYOUT
  5
267
102
{ACAD_REACTORS
330
1A
102
}
100
AcDbPlotSettings
  1

  2
none_device
  4

  6

 40
0.0
 41
0.0
 42
0.0
 43
0.0
 44
210.0
 45
297.0
 46
0.0
 47
0.0
 48
0.0
 49
0.0
140
0.0
141
0.0
142
1.0
143
1.0
 70
0
 72
1
 73
0
 74
0
  7

 75
0
147
1.0
148
0.0
149
0.0
100
AcDbLayout
  1
Layout1
 70
0
 71
1
 10
0.0
 20
0.0
 11
210.0
 21
297.0
 12
0.0
 22
0.0
 32
0.0
 14
0.0
 24
0.0
 34
0.0
 15
0.0
 25
0.0
 35
0.0
146
0.0
 13
0.0
 23
0.0
 33
0.0
 16
1.0
 26
0.0
 36
0.0
 17
0.0
 27
1.0
 37
0.0
 76
0
330
212
345
0
346
0
  0
ENDSEC
  0
EOF
