999
DXF file: C:\Users\sesa63760\Dev\_Creo\CAD\MCADID0003655_3D-CAD\drw0001_1.dxf
999
Pro/ENGINEER 2019471 by Parametric Technology Corporation
  0
SECTION
  2
HEADER
  9
$ACADVER
  1
AC1024
  9
$DWGCODEPAGE
  3
ANSI_1252
  9
$EXTMAX
 10
98.2811197555
 20
138.9975836542
 30
0.0
  9
$EXTMIN
 10
0.0
 20
0.0
 30
0.0
  9
$LIMMIN
 10
0.0
 20
0.0
  9
$LIMMAX
 10
98.2811197555
 20
138.9975836542
  9
$VIEWCTR
 10
49.1405598777
 20
69.4987918271
  9
$VIEWSIZE
 40
138.9975836542
  9
$CLAYER
  8
0
  9
$LTSCALE
 40
9.0605832308
  9
$CELTYPE
  6
BYLAYER
  9
$DIMSCALE
 40
1.0
  9
$DIMASZ
 40
1.1700133304
  9
$DIMEXO
 40
1.0
  9
$DIMDLI
 40
6.2600393231
  9
$DIMEXE
 40
1.0
  9
$DIMCEN
 40
1.4826408923
  9
$DIMLFAC
 40
1.0
  9
$DIMBLK
  1
_FILLED
  9
$DIMALT
 70
0
  9
$DIMALTF
 40
0.0393700787
  9
$DIMTXT
 40
1.6380186626
  9
$DIMTOL
 70
1
  9
$DIMLIM
 70
0
  9
$DIMTFAC
 40
1.0
  9
$DIMTP
 40
0.01
  9
$DIMTM
 40
0.01
  9
$DIMGAP
 40
0.625
  9
$DIMDSEP
 70
46
  9
$AUNITS
 70
0
  9
$PDMODE
 70
3
  9
$PDSIZE
 40
0.3125
  9
$HANDSEED
  5
2DB
  9
$TILEMODE
 70
1
  9
$MEASUREMENT
 70
1
  9
$INSUNITS
 70
4
  0
ENDSEC
  0
SECTION
  2
CLASSES
  0
CLASS
  1
ACDBDICTIONARYWDFLT
  2
AcDbDictionaryWithDefault
  3
AutoCAD 2000
 90
0
 91
1
280
0
281
0
  0
CLASS
  1
ACDBPLACEHOLDER
  2
AcDbPlaceHolder
  3
AutoCAD 2000
 90
0
 91
1
280
0
281
0
  0
CLASS
  1
LAYOUT
  2
AcDbLayout
  3
AutoCAD 2000
 90
0
 91
0
280
0
281
0
  0
ENDSEC
  0
SECTION
  2
TABLES
  0
TABLE
  2
VPORT
  5
8
100
AcDbSymbolTable
 70
2
  0
VPORT
  5
1F4
100
AcDbSymbolTableRecord
100
AcDbViewportTableRecord
  2
*ACTIVE
 70
0
 10
0.0
 20
0.0
 11
1.0
 21
1.0
 12
49.1405598777
 22
69.4987918271
 13
0.0
 23
0.0
 14
1.0
 24
1.0
 15
0.0
 25
0.0
 16
0.0
 26
0.0
 36
1.0
 17
0.0
 27
0.0
 37
0.0
 40
138.9975836542
 41
0.7070707071
 42
50.0
 43
0.0
 44
0.0
 50
0.0
 51
0.0
 71
0
 72
100
 73
1
 74
1
 75
0
 76
0
 77
0
 78
0
  0
ENDTAB
  0
TABLE
  2
LTYPE
  5
5
100
AcDbSymbolTable
 70
6
  0
LTYPE
  5
14
100
AcDbSymbolTableRecord
100
AcDbLinetypeTableRecord
  2
BYBLOCK
 70
0
  3

 72
65
 73
0
 40
0.0
  0
LTYPE
  5
15
100
AcDbSymbolTableRecord
100
AcDbLinetypeTableRecord
  2
BYLAYER
 70
0
  3

 72
65
 73
0
 40
0.0
  0
LTYPE
  5
16
100
AcDbSymbolTableRecord
100
AcDbLinetypeTableRecord
  2
CONTINUOUS
 70
64
  3
Solid line
 72
65
 73
0
 40
0.0
  0
LTYPE
  5
1F5
100
AcDbSymbolTableRecord
100
AcDbLinetypeTableRecord
  2
CENTER
 70
64
  3
____ _ ____ _ ____ _ ____ _ ____ _ ____ _ ____
 72
65
 73
4
 40
0.6
 49
0.375
 74
0
 49
-0.075
 74
0
 49
0.075
 74
0
 49
-0.075
 74
0
  0
LTYPE
  5
1F6
100
AcDbSymbolTableRecord
100
AcDbLinetypeTableRecord
  2
HIDDEN
 70
64
  3
- - - - - - - - - - - - - - - - - - - -
 72
65
 73
2
 40
0.2
 49
0.1
 74
0
 49
-0.1
 74
0
  0
LTYPE
  5
1F7
100
AcDbSymbolTableRecord
100
AcDbLinetypeTableRecord
  2
PHANTOM
 70
64
  3
_____ _ _ _____ _ _ _____ _ _ _____
 72
65
 73
6
 40
0.8
 49
0.45
 74
0
 49
-0.05
 74
0
 49
0.1
 74
0
 49
-0.05
 74
0
 49
0.1
 74
0
 49
-0.05
 74
0
  0
LTYPE
  5
1F8
100
AcDbSymbolTableRecord
100
AcDbLinetypeTableRecord
  2
DOT
 70
64
  3
. . . . . . . . . . . . . . . . . . . .
 72
65
 73
2
 40
0.2
 49
0.1
 74
0
 49
-0.1
 74
0
  0
LTYPE
  5
1F9
100
AcDbSymbolTableRecord
100
AcDbLinetypeTableRecord
  2
DASHED
 70
64
  3
- - - - - - - - - - - - - - - - - - - -
 72
65
 73
2
 40
0.2
 49
0.1
 74
0
 49
-0.1
 74
0
  0
ENDTAB
  0
TABLE
  2
LAYER
  5
2
100
AcDbSymbolTable
 70
36
  0
LAYER
  5
10
100
AcDbSymbolTableRecord
100
AcDbLayerTableRecord
  2
0
 70
0
 62
7
  6
CONTINUOUS
370
-3
390
F
  0
LAYER
  5
1FA
100
AcDbSymbolTableRecord
100
AcDbLayerTableRecord
  2
DEFAULT_1
 70
0
 62
7
  6
CENTER
370
-3
390
F
  0
LAYER
  5
1FB
100
AcDbSymbolTableRecord
100
AcDbLayerTableRecord
  2
DEFAULT_2
 70
0
 62
7
  6
HIDDEN
370
-3
390
F
  0
LAYER
  5
1FC
100
AcDbSymbolTableRecord
100
AcDbLayerTableRecord
  2
DEFAULT_3
 70
0
 62
7
  6
PHANTOM
370
-3
390
F
  0
LAYER
  5
1FD
100
AcDbSymbolTableRecord
100
AcDbLayerTableRecord
  2
00_COMPONENTS
 70
0
 62
7
  6
CONTINUOUS
370
-3
390
F
  0
LAYER
  5
1FE
100
AcDbSymbolTableRecord
100
AcDbLayerTableRecord
  2
01_1_DEFAULT_DATUMS
 70
0
 62
7
  6
CONTINUOUS
370
-3
390
F
  0
LAYER
  5
1FF
100
AcDbSymbolTableRecord
100
AcDbLayerTableRecord
  2
01_PLANES
 70
0
 62
7
  6
CONTINUOUS
370
-3
390
F
  0
LAYER
  5
200
100
AcDbSymbolTableRecord
100
AcDbLayerTableRecord
  2
02_COORD_SYS
 70
0
 62
7
  6
CONTINUOUS
370
-3
390
F
  0
LAYER
  5
201
100
AcDbSymbolTableRecord
100
AcDbLayerTableRecord
  2
03_AXES
 70
0
 62
7
  6
CONTINUOUS
370
-3
390
F
  0
LAYER
  5
202
100
AcDbSymbolTableRecord
100
AcDbLayerTableRecord
  2
04_POINTS
 70
0
 62
7
  6
CONTINUOUS
370
-3
390
F
  0
LAYER
  5
203
100
AcDbSymbolTableRecord
100
AcDbLayerTableRecord
  2
05_CURVES
 70
0
 62
7
  6
CONTINUOUS
370
-3
390
F
  0
LAYER
  5
204
100
AcDbSymbolTableRecord
100
AcDbLayerTableRecord
  2
06_SURFS
 70
0
 62
7
  6
CONTINUOUS
370
-3
390
F
  0
LAYER
  5
205
100
AcDbSymbolTableRecord
100
AcDbLayerTableRecord
  2
07_COSMETICS
 70
0
 62
7
  6
CONTINUOUS
370
-3
390
F
  0
LAYER
  5
206
100
AcDbSymbolTableRecord
100
AcDbLayerTableRecord
  2
10_NOTES
 70
0
 62
7
  6
CONTINUOUS
370
-3
390
F
  0
LAYER
  5
207
100
AcDbSymbolTableRecord
100
AcDbLayerTableRecord
  2
11_NOTES_PUB
 70
0
 62
7
  6
CONTINUOUS
370
-3
390
F
  0
LAYER
  5
208
100
AcDbSymbolTableRecord
100
AcDbLayerTableRecord
  2
13_REF_GTOL
 70
0
 62
7
  6
CONTINUOUS
370
-3
390
F
  0
LAYER
  5
209
100
AcDbSymbolTableRecord
100
AcDbLayerTableRecord
  2
16_MISC
 70
0
 62
7
  6
CONTINUOUS
370
-3
390
F
  0
LAYER
  5
20A
100
AcDbSymbolTableRecord
100
AcDbLayerTableRecord
  2
17_NO_PRINT
 70
0
 62
7
  6
CONTINUOUS
370
-3
390
F
  0
LAYER
  5
20B
100
AcDbSymbolTableRecord
100
AcDbLayerTableRecord
  2
18_DATUM_CAMS_JOINTS
 70
0
 62
7
  6
CONTINUOUS
370
-3
390
F
  0
LAYER
  5
20C
100
AcDbSymbolTableRecord
100
AcDbLayerTableRecord
  2
19_DATUM_FUNCTIONAL
 70
0
 62
7
  6
CONTINUOUS
370
-3
390
F
  0
LAYER
  5
20D
100
AcDbSymbolTableRecord
100
AcDbLayerTableRecord
  2
20_DATUM_KINEMATIC_SCHEME
 70
0
 62
7
  6
CONTINUOUS
370
-3
390
F
  0
ENDTAB
  0
TABLE
  2
STYLE
  5
3
100
AcDbSymbolTable
 70
1
  0
STYLE
  5
11
100
AcDbSymbolTableRecord
100
AcDbTextStyleTableRecord
  2
STANDARD
 70
0
 40
0.0
 41
1.0
 50
0.0
 71
0
 42
0.2
  3
ARIAL.TTF
  4

  0
STYLE
  5
20E
100
AcDbSymbolTableRecord
100
AcDbTextStyleTableRecord
  2
TEXTSTYLE_1
 70
0
 40
0.0
 41
0.8
 50
0.0
 71
0
 42
0.2
  3
gdt
  4

  0
ENDTAB
  0
TABLE
  2
VIEW
  5
6
100
AcDbSymbolTable
 70
0
  0
ENDTAB
  0
TABLE
  2
UCS
  5
7
100
AcDbSymbolTable
 70
0
  0
ENDTAB
  0
TABLE
  2
APPID
  5
9
100
AcDbSymbolTable
 70
1
  0
APPID
  5
20F
100
AcDbSymbolTableRecord
100
AcDbRegAppTableRecord
  2
ACAD
 70
0
  0
ENDTAB
  0
TABLE
  2
BLOCK_RECORD
  5
1
100
AcDbSymbolTable
 70
0
  0
BLOCK_RECORD
  5
210
100
AcDbSymbolTableRecord
100
AcDbBlockTableRecord
  2
*Model_Space
  0
BLOCK_RECORD
  5
211
100
AcDbSymbolTableRecord
100
AcDbBlockTableRecord
  2
*Paper_Space
  0
BLOCK_RECORD
  5
212
100
AcDbSymbolTableRecord
100
AcDbBlockTableRecord
  2
_FILLED
  0
ENDTAB
  0
TABLE
  2
DIMSTYLE
  5
A
100
AcDbSymbolTable
 70
1
100
AcDbDimStyleTable
 71
0
  0
DIMSTYLE
105
213
100
AcDbSymbolTableRecord
100
AcDbDimStyleTableRecord
  2
STANDARD
 70
0
  3

  4

 40
1.0
 41
1.1700133304
 42
1.0
 43
0.38
 44
1.0
 45
0.0
 46
0.0
 47
0.01
 48
0.01
140
1.6380186626
141
0.09
142
0.0
143
25.4
144
1.0
145
0.0
146
1.0
147
0.625
 71
1
 72
0
 73
0
 74
0
 75
0
 76
0
 77
1
 78
8
 79
2
170
0
171
1
172
0
173
0
174
0
175
0
176
0
177
0
178
0
270
2
179
2
271
2
272
2
273
2
274
2
275
0
280
0
281
0
282
0
283
1
284
8
285
0
286
0
287
3
288
0
340
11
278
46
341
212
342
212
343
212
344
212
  0
ENDTAB
  0
ENDSEC
  0
SECTION
  2
BLOCKS
  0
BLOCK
  5
20
100
AcDbEntity
  8
0
100
AcDbBlockBegin
  2
*Model_Space
 70
0
 10
0.0
 20
0.0
 30
0.0
  3
*Model_Space
  1

  0
ENDBLK
  5
21
100
AcDbEntity
  8
0
100
AcDbBlockEnd
  0
BLOCK
  5
1C
100
AcDbEntity
  8
0
100
AcDbBlockBegin
  2
*Paper_Space
 70
0
 10
0.0
 20
0.0
 30
0.0
  3
*Paper_Space
  1

  0
ENDBLK
  5
1D
100
AcDbEntity
  8
0
100
AcDbBlockEnd
  0
BLOCK
  5
214
100
AcDbEntity
  8
0
100
AcDbBlockBegin
  2
_FILLED
 70
64
 10
0.0
 20
0.0
  3
_FILLED
  1

  0
SOLID
  5
215
100
AcDbEntity
  8
0
  6
BYBLOCK
 62
0
100
AcDbTrace
 10
0.0
 20
0.0
 11
-1.0
 21
0.25
 12
-1.0
 22
-0.25
 13
-1.0
 23
-0.25
  0
ENDBLK
  5
216
100
AcDbEntity
  8
0
  6
BYBLOCK
 62
0
100
AcDbBlockEnd
  0
ENDSEC
  0
SECTION
  2
ENTITIES
  0
LINE
  5
217
100
AcDbEntity
  8
0
100
AcDbLine
 62
7
  6
BYLAYER
 10
13.6390478565
 20
126.3750166397
 11
15.4068074495
 21
127.3956270243
  0
LINE
  5
218
100
AcDbEntity
  8
0
100
AcDbLine
 62
7
  6
BYLAYER
 10
13.6390478565
 20
126.3750166397
 11
11.4017406428
 21
125.09058129
  0
LINE
  5
219
100
AcDbEntity
  8
0
100
AcDbLine
 62
7
  6
BYLAYER
 10
16.7050635814
 20
115.9091409387
 11
18.4728231744
 21
116.9297513234
  0
LINE
  5
21A
100
AcDbEntity
  8
0
100
AcDbLine
 62
7
  6
BYLAYER
 10
70.0211933816
 20
15.1483428854
 11
73.4802224786
 21
14.0888743789
  0
LINE
  5
21B
100
AcDbEntity
  8
0
100
AcDbLine
 62
7
  6
BYLAYER
 10
66.1462481619
 20
12.0999704544
 11
48.8220598958
 21
22.1018689401
  0
LINE
  5
21C
100
AcDbEntity
  8
0
100
AcDbLine
 62
7
  6
BYLAYER
 10
11.4017406428
 20
117.178774716
 11
11.4017406428
 21
125.09058129
  0
LINE
  5
21D
100
AcDbEntity
  8
0
100
AcDbLine
 62
7
  6
BYLAYER
 10
69.170744044
 20
12.0706497666
 11
67.55477897
 21
13.0036065308
  0
LINE
  5
21E
100
AcDbEntity
  8
0
100
AcDbLine
 62
7
  6
BYLAYER
 10
48.8220598958
 20
23.8187022607
 11
48.0739060422
 21
24.2506393178
  0
LINE
  5
21F
100
AcDbEntity
  8
0
100
AcDbLine
 62
7
  6
BYLAYER
 10
69.1804814886
 20
12.0875158968
 11
67.448062662
 21
13.0877057454
  0
LINE
  5
220
100
AcDbEntity
  8
0
100
AcDbLine
 62
7
  6
BYLAYER
 10
48.8220598958
 20
23.8411901801
 11
47.9671897342
 21
24.3347385324
  0
LINE
  5
221
100
AcDbEntity
  8
0
100
AcDbLine
 62
7
  6
BYLAYER
 10
67.1927780328
 20
13.965614447
 11
65.4603592062
 21
14.9658042955
  0
LINE
  5
222
100
AcDbEntity
  8
0
100
AcDbLine
 62
7
  6
BYLAYER
 10
47.711905105
 20
25.212647234
 11
45.9794862784
 21
26.2128370826
  0
LINE
  5
223
100
AcDbEntity
  8
0
100
AcDbLine
 62
7
  6
BYLAYER
 10
65.4603592062
 20
15.5415402382
 11
47.711905105
 21
25.7883831767
  0
LINE
  5
224
100
AcDbEntity
  8
0
100
AcDbLine
 62
7
  6
BYLAYER
 10
70.6895780317
 20
14.4324654521
 11
69.9883879141
 21
14.8372885969
  0
LINE
  5
225
100
AcDbEntity
  8
0
100
AcDbLine
 62
7
  6
BYLAYER
 10
70.0211933816
 20
15.1483428854
 11
69.9883879141
 21
15.1672827024
  0
LINE
  5
226
100
AcDbEntity
  8
0
100
AcDbLine
 62
7
  6
BYLAYER
 10
48.0740117535
 20
24.2508220036
 11
47.9671897342
 21
24.3347385324
  0
LINE
  5
227
100
AcDbEntity
  8
0
100
AcDbLine
 62
7
  6
BYLAYER
 10
67.5548846813
 20
13.0037892166
 11
67.448062662
 21
13.0877057454
  0
LINE
  5
228
100
AcDbEntity
  8
0
100
AcDbLine
 62
7
  6
BYLAYER
 10
69.1804814886
 20
12.0875158968
 11
69.2873033297
 21
12.0035990604
  0
LINE
  5
229
100
AcDbEntity
  8
0
100
AcDbLine
 62
7
  6
BYLAYER
 10
47.9671897342
 20
24.3347385324
 11
45.9794862784
 21
26.2128370826
  0
LINE
  5
22A
100
AcDbEntity
  8
0
100
AcDbLine
 62
7
  6
BYLAYER
 10
47.711905105
 20
25.212647234
 11
48.8220598958
 21
24.1637080188
  0
LINE
  5
22B
100
AcDbEntity
  8
0
100
AcDbLine
 62
7
  6
BYLAYER
 10
70.7962943397
 20
14.3483662375
 11
70.6895549468
 21
14.4324255102
  0
LINE
  5
22C
100
AcDbEntity
  8
0
100
AcDbLine
 62
7
  6
BYLAYER
 10
67.448062662
 20
13.0877057454
 11
65.4603592062
 21
14.9658042955
  0
LINE
  5
22D
100
AcDbEntity
  8
0
100
AcDbLine
 62
7
  6
BYLAYER
 10
67.1927780328
 20
13.965614447
 11
69.1804814886
 21
12.0875158968
  0
LINE
  5
22E
100
AcDbEntity
  8
0
100
AcDbLine
 62
7
  6
BYLAYER
 10
48.8785413557
 20
99.375398879
 11
47.1107817627
 21
98.3547884943
  0
LINE
  5
22F
100
AcDbEntity
  8
0
100
AcDbLine
 62
7
  6
BYLAYER
 10
45.9794862784
 20
94.1500224385
 11
55.5960984645
 21
99.7021429311
  0
LINE
  5
230
100
AcDbEntity
  8
0
100
AcDbLine
 62
7
  6
BYLAYER
 10
59.4852238906
 20
101.9475171398
 11
63.6005139017
 21
104.323466753
  0
LINE
  5
231
100
AcDbEntity
  8
0
100
AcDbLine
 62
7
  6
BYLAYER
 10
60.4528419566
 20
99.4552019512
 11
60.3610592978
 21
99.4006609984
  0
LINE
  5
232
100
AcDbEntity
  8
0
100
AcDbLine
 62
7
  6
BYLAYER
 10
60.4527700837
 20
99.4553265333
 11
62.2205296768
 21
100.475936918
  0
LINE
  5
233
100
AcDbEntity
  8
0
100
AcDbLine
 62
7
  6
BYLAYER
 10
68.9603908985
 20
103.2702141047
 11
70.7847187985
 21
104.3234840217
  0
LINE
  5
234
100
AcDbEntity
  8
0
100
AcDbLine
 62
7
  6
BYLAYER
 10
11.4017406428
 20
117.178774716
 11
13.6390478565
 21
113.3109779656
  0
LINE
  5
235
100
AcDbEntity
  8
0
100
AcDbLine
 62
7
  6
BYLAYER
 10
46.0794885522
 20
75.0269571123
 11
46.1209082844
 21
75.0846917136
  0
LINE
  5
236
100
AcDbEntity
  8
0
100
AcDbLine
 62
7
  6
BYLAYER
 10
46.1209088954
 20
75.0846906554
 11
45.9794862784
 21
75.0030407568
  0
LINE
  5
237
100
AcDbEntity
  8
0
100
AcDbLine
 62
7
  6
BYLAYER
 10
82.9894478454
 20
95.170717535
 11
84.8137757454
 21
96.223987452
  0
LINE
  5
238
100
AcDbEntity
  8
0
100
AcDbLine
 62
7
  6
BYLAYER
 10
45.9794862784
 20
62.714679379
 11
50.9292543544
 21
59.8569940973
  0
LINE
  5
239
100
AcDbEntity
  8
0
100
AcDbLine
 62
7
  6
BYLAYER
 10
62.2430099567
 20
53.325142025
 11
67.1927780328
 21
50.4674567434
  0
LINE
  5
23A
100
AcDbEntity
  8
0
100
AcDbLine
 62
7
  6
BYLAYER
 10
63.1410323027
 20
53.8436118275
 11
63.1599342082
 21
53.8326990542
  0
LINE
  5
23B
100
AcDbEntity
  8
0
100
AcDbLine
 62
7
  6
BYLAYER
 10
48.7750961597
 20
64.328715862
 11
50.6984346121
 21
63.2183010097
  0
LINE
  5
23C
100
AcDbEntity
  8
0
100
AcDbLine
 62
7
  6
BYLAYER
 10
68.0650494617
 20
53.1919080787
 11
69.9883879141
 21
52.0814932264
  0
LINE
  5
23D
100
AcDbEntity
  8
0
100
AcDbLine
 62
7
  6
BYLAYER
 10
50.7312400796
 20
63.2372411422
 11
48.8079016272
 21
64.3476559945
  0
LINE
  5
23E
100
AcDbEntity
  8
0
100
AcDbLine
 62
7
  6
BYLAYER
 10
68.0978549292
 20
53.2108482112
 11
70.0211933816
 21
52.1004333589
  0
LINE
  5
23F
100
AcDbEntity
  8
0
100
AcDbLine
 62
7
  6
BYLAYER
 10
70.8767890246
 20
52.594408785
 11
65.9459233268
 21
55.4411810205
  0
LINE
  5
240
100
AcDbEntity
  8
0
100
AcDbLine
 62
7
  6
BYLAYER
 10
52.6970286672
 20
63.0902608733
 11
49.6634972702
 21
64.8416314207
  0
LINE
  5
241
100
AcDbEntity
  8
0
100
AcDbLine
 62
7
  6
BYLAYER
 10
45.9794862784
 20
26.2128370826
 11
45.9794862784
 21
62.714679379
  0
LINE
  5
242
100
AcDbEntity
  8
0
100
AcDbLine
 62
7
  6
BYLAYER
 10
45.9794862784
 20
72.5127083845
 11
45.9794862784
 21
75.0030407568
  0
LINE
  5
243
100
AcDbEntity
  8
0
100
AcDbLine
 62
7
  6
BYLAYER
 10
45.9794862784
 20
75.1663412402
 11
45.9794862784
 21
94.1500224385
  0
LINE
  5
244
100
AcDbEntity
  8
0
100
AcDbLine
 62
7
  6
BYLAYER
 10
47.711905105
 20
25.212647234
 11
47.711905105
 21
25.7883831767
  0
LINE
  5
245
100
AcDbEntity
  8
0
100
AcDbLine
 62
7
  6
BYLAYER
 10
48.8079016272
 20
64.3476559945
 11
48.8079016272
 21
64.309776045
  0
LINE
  5
246
100
AcDbEntity
  8
0
100
AcDbLine
 62
7
  6
BYLAYER
 10
48.8220598958
 20
25.1474495093
 11
48.8220598958
 21
22.1018689401
  0
LINE
  5
247
100
AcDbEntity
  8
0
100
AcDbLine
 62
7
  6
BYLAYER
 10
49.6634972702
 20
70.385791764
 11
49.6634972702
 21
64.8416314207
  0
LINE
  5
248
100
AcDbEntity
  8
0
100
AcDbLine
 62
7
  6
BYLAYER
 10
67.1927780328
 20
81.9027998029
 11
76.8093902189
 21
87.4549202955
  0
LINE
  5
249
100
AcDbEntity
  8
0
100
AcDbLine
 62
7
  6
BYLAYER
 10
78.5771498119
 20
88.4755306802
 11
84.8138056561
 21
92.0762441173
  0
LINE
  5
24A
100
AcDbEntity
  8
0
100
AcDbLine
 62
7
  6
BYLAYER
 10
52.2374073459
 20
72.7373390675
 11
52.3081177296
 21
72.7781634829
  0
LINE
  5
24B
100
AcDbEntity
  8
0
100
AcDbLine
 62
7
  6
BYLAYER
 10
84.8138056561
 20
89.626736866
 11
88.4058931492
 21
91.7006171676
  0
LINE
  5
24C
100
AcDbEntity
  8
0
100
AcDbLine
 62
7
  6
BYLAYER
 10
52.6970286672
 20
68.5935960957
 11
60.4752356439
 21
64.102947796
  0
LINE
  5
24D
100
AcDbEntity
  8
0
100
AcDbLine
 62
7
  6
BYLAYER
 10
67.1927780328
 20
60.2654857489
 11
45.9794862784
 21
72.5127083845
  0
LINE
  5
24E
100
AcDbEntity
  8
0
100
AcDbLine
 62
7
  6
BYLAYER
 10
55.3361269513
 20
60.9795011763
 11
55.236126535
 21
61.1527060167
  0
LINE
  5
24F
100
AcDbEntity
  8
0
100
AcDbLine
 62
7
  6
BYLAYER
 10
51.4350427926
 20
66.416276744
 11
51.4350427926
 21
69.3630126181
  0
LINE
  5
250
100
AcDbEntity
  8
0
100
AcDbLine
 62
7
  6
BYLAYER
 10
52.2374073459
 20
72.7373390675
 11
52.2374073459
 21
76.0033487361
  0
LINE
  5
251
100
AcDbEntity
  8
0
100
AcDbLine
 62
7
  6
BYLAYER
 10
52.3081177296
 20
72.7781634829
 11
52.3081177296
 21
75.9625250005
  0
LINE
  5
252
100
AcDbEntity
  8
0
100
AcDbLine
 62
7
  6
BYLAYER
 10
52.6970286672
 20
60.8776482539
 11
52.6970286672
 21
68.5935960957
  0
LINE
  5
253
100
AcDbEntity
  8
0
100
AcDbLine
 62
7
  6
BYLAYER
 10
52.6970286672
 20
68.5935960957
 11
52.7323847645
 21
68.6140088261
  0
LINE
  5
254
100
AcDbEntity
  8
0
100
AcDbLine
 62
7
  6
BYLAYER
 10
52.6970286672
 20
67.1448802793
 11
51.4350427926
 21
66.416276744
  0
LINE
  5
255
100
AcDbEntity
  8
0
100
AcDbLine
 62
7
  6
BYLAYER
 10
49.6634972702
 20
64.8416314207
 11
48.8079016272
 21
64.3476559945
  0
LINE
  5
256
100
AcDbEntity
  8
0
100
AcDbLine
 62
7
  6
BYLAYER
 10
45.9794862784
 20
62.714679379
 11
48.7750961597
 21
64.328715862
  0
LINE
  5
257
100
AcDbEntity
  8
0
100
AcDbLine
 62
7
  6
BYLAYER
 10
45.9794862784
 20
75.0030407568
 11
67.1927780328
 21
62.7558181212
  0
LINE
  5
258
100
AcDbEntity
  8
0
100
AcDbLine
 62
7
  6
BYLAYER
 10
67.1927780328
 20
62.9191186046
 11
45.9794862784
 21
75.1663412402
  0
LINE
  5
259
100
AcDbEntity
  8
0
100
AcDbLine
 62
7
  6
BYLAYER
 10
60.9348569652
 20
67.7159777869
 11
52.2374073459
 21
72.7373390675
  0
LINE
  5
25A
100
AcDbEntity
  8
0
100
AcDbLine
 62
7
  6
BYLAYER
 10
60.9348569652
 20
67.7976259379
 11
52.3081177296
 21
72.7781634829
  0
LINE
  5
25B
100
AcDbEntity
  8
0
100
AcDbLine
 62
7
  6
BYLAYER
 10
55.5896784536
 20
61.3568280936
 11
55.6896788699
 21
61.1836232532
  0
LINE
  5
25C
100
AcDbEntity
  8
0
100
AcDbLine
 62
7
  6
BYLAYER
 10
57.8361373598
 20
62.6538658853
 11
57.9361377761
 21
62.480661045
  0
LINE
  5
25D
100
AcDbEntity
  8
0
100
AcDbLine
 62
7
  6
BYLAYER
 10
50.7312400796
 20
63.2372411422
 11
50.6984346121
 21
63.2183010097
  0
LINE
  5
25E
100
AcDbEntity
  8
0
100
AcDbLine
 62
7
  6
BYLAYER
 10
76.8093902189
 20
76.8403888728
 11
78.5771498119
 21
77.8609992575
  0
LINE
  5
25F
100
AcDbEntity
  8
0
100
AcDbLine
 62
7
  6
BYLAYER
 10
52.697043941
 20
60.8776217987
 11
50.9292543544
 21
59.8569940973
  0
LINE
  5
260
100
AcDbEntity
  8
0
100
AcDbLine
 62
7
  6
BYLAYER
 10
45.9794862784
 20
75.0030407568
 11
46.0794885522
 21
75.0269571123
  0
LINE
  5
261
100
AcDbEntity
  8
0
100
AcDbLine
 62
7
  6
BYLAYER
 10
52.2374073459
 20
76.0033487361
 11
60.9348569652
 21
70.9819874555
  0
LINE
  5
262
100
AcDbEntity
  8
0
100
AcDbLine
 62
7
  6
BYLAYER
 10
60.4752356439
 20
64.102947796
 11
60.4752356439
 21
56.3869999541
  0
LINE
  5
263
100
AcDbEntity
  8
0
100
AcDbLine
 62
7
  6
BYLAYER
 10
60.9348569652
 20
70.9819874555
 11
60.9348569652
 21
67.7159777869
  0
LINE
  5
264
100
AcDbEntity
  8
0
100
AcDbLine
 62
7
  6
BYLAYER
 10
61.3732575171
 20
63.6253114758
 11
61.3732575171
 21
56.9054700296
  0
LINE
  5
265
100
AcDbEntity
  8
0
100
AcDbLine
 62
7
  6
BYLAYER
 10
61.3921598953
 20
56.8945569833
 11
61.3921598953
 21
63.6143984295
  0
LINE
  5
266
100
AcDbEntity
  8
0
100
AcDbLine
 62
7
  6
BYLAYER
 10
64.1781490139
 20
58.5030389496
 11
64.1781490139
 21
62.0059432501
  0
LINE
  5
267
100
AcDbEntity
  8
0
100
AcDbLine
 62
7
  6
BYLAYER
 10
55.236126535
 20
61.1527060167
 11
57.8351773935
 21
62.6533088108
  0
LINE
  5
268
100
AcDbEntity
  8
0
100
AcDbLine
 62
7
  6
BYLAYER
 10
60.4752356439
 20
64.102947796
 11
60.5105917411
 21
64.1233605264
  0
LINE
  5
269
100
AcDbEntity
  8
0
100
AcDbLine
 62
7
  6
BYLAYER
 10
57.9351778105
 20
62.4801039708
 11
55.3361269513
 21
60.9795011763
  0
LINE
  5
26A
100
AcDbEntity
  8
0
100
AcDbLine
 62
7
  6
BYLAYER
 10
88.4058931492
 20
75.1664432207
 11
67.1927780328
 21
62.9191186046
  0
LINE
  5
26B
100
AcDbEntity
  8
0
100
AcDbLine
 62
7
  6
BYLAYER
 10
88.4058931492
 20
75.0031427373
 11
88.3058912891
 21
75.0270476814
  0
LINE
  5
26C
100
AcDbEntity
  8
0
100
AcDbLine
 62
7
  6
BYLAYER
 10
65.4603592062
 20
14.9658042955
 11
65.4603592062
 21
15.5415402382
  0
LINE
  5
26D
100
AcDbEntity
  8
0
100
AcDbLine
 62
7
  6
BYLAYER
 10
66.1462481619
 20
14.3177362703
 11
66.1462481619
 21
12.0999704544
  0
LINE
  5
26E
100
AcDbEntity
  8
0
100
AcDbLine
 62
7
  6
BYLAYER
 10
67.1927780328
 20
81.9027998029
 11
67.1927780328
 21
60.2654857489
  0
LINE
  5
26F
100
AcDbEntity
  8
0
100
AcDbLine
 62
7
  6
BYLAYER
 10
67.1927780328
 20
13.965614447
 11
67.1927780328
 21
50.4674567434
  0
LINE
  5
270
100
AcDbEntity
  8
0
100
AcDbLine
 62
7
  6
BYLAYER
 10
68.0978549292
 20
53.1729682617
 11
68.0978549292
 21
53.2108482112
  0
LINE
  5
271
100
AcDbEntity
  8
0
100
AcDbLine
 62
7
  6
BYLAYER
 10
67.1927780328
 20
62.7558181212
 11
88.4058931492
 21
75.0031427373
  0
LINE
  5
272
100
AcDbEntity
  8
0
100
AcDbLine
 62
7
  6
BYLAYER
 10
70.8767890246
 20
62.3924377906
 11
67.1927780328
 21
60.2654857489
  0
LINE
  5
273
100
AcDbEntity
  8
0
100
AcDbLine
 62
7
  6
BYLAYER
 10
61.3732575171
 20
56.9054700296
 11
60.4752356439
 21
56.3869999541
  0
LINE
  5
274
100
AcDbEntity
  8
0
100
AcDbLine
 62
7
  6
BYLAYER
 10
64.1781490139
 20
58.5030389496
 11
61.3921598953
 21
56.8945569833
  0
LINE
  5
275
100
AcDbEntity
  8
0
100
AcDbLine
 62
7
  6
BYLAYER
 10
69.1052435023
 20
59.0364787115
 11
66.7305232367
 21
57.6654415109
  0
LINE
  5
276
100
AcDbEntity
  8
0
100
AcDbLine
 62
7
  6
BYLAYER
 10
69.1052435023
 20
56.2146124001
 11
69.1052435023
 21
59.8681783618
  0
LINE
  5
277
100
AcDbEntity
  8
0
100
AcDbLine
 62
7
  6
BYLAYER
 10
69.9883879141
 20
14.3630073472
 11
69.9883879141
 21
52.0814932264
  0
LINE
  5
278
100
AcDbEntity
  8
0
100
AcDbLine
 62
7
  6
BYLAYER
 10
70.0211933816
 20
52.1004333589
 11
70.0211933816
 21
15.1483428854
  0
LINE
  5
279
100
AcDbEntity
  8
0
100
AcDbLine
 62
7
  6
BYLAYER
 10
70.8767890246
 20
62.3924377906
 11
70.8767890246
 21
52.594408785
  0
LINE
  5
27A
100
AcDbEntity
  8
0
100
AcDbLine
 62
7
  6
BYLAYER
 10
62.2430099567
 20
53.325142025
 11
63.1410323027
 21
53.8436118275
  0
LINE
  5
27B
100
AcDbEntity
  8
0
100
AcDbLine
 62
7
  6
BYLAYER
 10
63.1599342082
 20
53.8326990542
 11
65.9459233268
 21
55.4411810205
  0
LINE
  5
27C
100
AcDbEntity
  8
0
100
AcDbLine
 62
7
  6
BYLAYER
 10
68.0978549292
 20
53.2108482112
 11
68.0650494617
 21
53.1919080787
  0
LINE
  5
27D
100
AcDbEntity
  8
0
100
AcDbLine
 62
7
  6
BYLAYER
 10
45.9794862784
 20
94.1500224385
 11
67.1927780328
 21
81.9027998029
  0
LINE
  5
27E
100
AcDbEntity
  8
0
100
AcDbLine
 62
7
  6
BYLAYER
 10
46.4035131875
 20
94.3948330273
 11
13.6390478565
 21
113.3109779656
  0
LINE
  5
27F
100
AcDbEntity
  8
0
100
AcDbLine
 62
7
  6
BYLAYER
 10
78.5771498119
 20
77.8609992575
 11
76.8093902189
 21
78.8815926455
  0
LINE
  5
280
100
AcDbEntity
  8
0
100
AcDbLine
 62
7
  6
BYLAYER
 10
47.1107817627
 20
98.3547884943
 11
16.7050635814
 21
115.9091409387
  0
LINE
  5
281
100
AcDbEntity
  8
0
100
AcDbLine
 62
7
  6
BYLAYER
 10
76.8093902189
 20
76.8403888728
 11
76.8093902189
 21
87.4549202955
  0
LINE
  5
282
100
AcDbEntity
  8
0
100
AcDbLine
 62
7
  6
BYLAYER
 10
70.8767890246
 20
52.594408785
 11
70.0211933816
 21
52.1004333589
  0
LINE
  5
283
100
AcDbEntity
  8
0
100
AcDbLine
 62
7
  6
BYLAYER
 10
67.1927780328
 20
50.4674567434
 11
69.9883879141
 21
52.0814932264
  0
LINE
  5
284
100
AcDbEntity
  8
0
100
AcDbLine
 62
7
  6
BYLAYER
 10
88.4058931492
 20
75.0031427373
 11
88.2644708874
 21
75.0847910711
  0
LINE
  5
285
100
AcDbEntity
  8
0
100
AcDbLine
 62
7
  6
BYLAYER
 10
48.8785413557
 20
99.375398879
 11
18.4728231744
 21
116.9297513234
  0
LINE
  5
286
100
AcDbEntity
  8
0
100
AcDbLine
 62
7
  6
BYLAYER
 10
16.7050635814
 20
120.2366037495
 11
47.1107817627
 21
102.6822513051
  0
LINE
  5
287
100
AcDbEntity
  8
0
100
AcDbLine
 62
7
  6
BYLAYER
 10
78.5771498119
 20
77.8609992575
 11
78.5771498119
 21
88.4755306802
  0
LINE
  5
288
100
AcDbEntity
  8
0
100
AcDbLine
 62
7
  6
BYLAYER
 10
55.5960984645
 20
99.7021429311
 11
76.8093902189
 21
87.4549202955
  0
LINE
  5
289
100
AcDbEntity
  8
0
100
AcDbLine
 62
7
  6
BYLAYER
 10
75.2067124262
 20
90.4214095905
 11
78.5771498119
 21
88.4755306802
  0
LINE
  5
28A
100
AcDbEntity
  8
0
100
AcDbLine
 62
7
  6
BYLAYER
 10
13.6390478565
 20
126.3750166397
 11
60.3610592978
 21
99.4006609984
  0
LINE
  5
28B
100
AcDbEntity
  8
0
100
AcDbLine
 62
7
  6
BYLAYER
 10
15.4068074495
 20
127.3956270243
 11
62.1288188908
 21
100.4212713831
  0
LINE
  5
28C
100
AcDbEntity
  8
0
100
AcDbLine
 62
7
  6
BYLAYER
 10
82.9894478454
 20
93.7960646773
 11
82.9894478454
 21
95.170717535
  0
LINE
  5
28D
100
AcDbEntity
  8
0
100
AcDbLine
 62
7
  6
BYLAYER
 10
84.8137757454
 20
94.448504141
 11
84.8137757454
 21
96.223987452
  0
LINE
  5
28E
100
AcDbEntity
  8
0
100
AcDbLine
 62
7
  6
BYLAYER
 10
84.8138056561
 20
89.626736866
 11
84.8138056561
 21
92.0762441173
  0
LINE
  5
28F
100
AcDbEntity
  8
0
100
AcDbLine
 62
7
  6
BYLAYER
 10
86.7572221583
 20
93.3336132316
 11
86.7572221583
 21
91.7006083973
  0
LINE
  5
290
100
AcDbEntity
  8
0
100
AcDbLine
 62
7
  6
BYLAYER
 10
65.4248569926
 20
103.2702056063
 11
63.6005139017
 21
104.323466753
  0
LINE
  5
291
100
AcDbEntity
  8
0
100
AcDbLine
 62
7
  6
BYLAYER
 10
82.9894625653
 20
93.129505264
 11
84.8138056561
 21
92.0762441173
  0
LINE
  5
292
100
AcDbEntity
  8
0
100
AcDbLine
 62
7
  6
BYLAYER
 10
88.3058912891
 20
75.0270476814
 11
88.2644717926
 21
75.0847926389
  0
LINE
  5
293
100
AcDbEntity
  8
0
100
AcDbLine
 62
7
  6
BYLAYER
 10
88.4058931492
 20
91.7006171676
 11
88.4058931492
 21
75.1664432207
  0
LINE
  5
294
100
AcDbEntity
  8
0
100
AcDbLine
 62
7
  6
BYLAYER
 10
88.4058931492
 20
75.0031427373
 11
88.4058931492
 21
22.7061629202
  0
LINE
  5
295
100
AcDbEntity
  8
0
100
AcDbLine
 62
7
  6
BYLAYER
 10
86.7572221583
 20
92.6524562745
 11
88.4058931492
 21
91.7006171676
  0
LINE
  5
296
100
AcDbEntity
  8
0
100
AcDbLine
 62
7
  6
BYLAYER
 10
70.7847187985
 20
104.3234840217
 11
84.8137757454
 21
96.223987452
  0
LINE
  5
297
100
AcDbEntity
  8
0
100
AcDbLine
 62
7
  6
BYLAYER
 10
70.9392000097
 20
14.867165976
 11
70.4379229813
 21
14.5777552763
  0
LINE
  5
298
100
AcDbEntity
  8
0
100
AcDbLine
 62
7
  6
BYLAYER
 10
67.6330906872
 20
12.9583942625
 11
66.1462481619
 21
12.0999704544
  0
LINE
  5
299
100
AcDbEntity
  8
0
100
AcDbLine
 62
7
  6
BYLAYER
 10
73.4802224786
 20
14.0888743789
 11
88.4058931492
 21
22.7061629202
  0
ARC
  5
29A
100
AcDbEntity
  8
0
100
AcDbCircle
 62
7
  6
BYLAYER
 10
50.0819073169
 20
101.4591422579
 40
2.4062576973
100
AcDbArc
 50
239.993480434
 51
242.5434202364
  0
ARC
  5
29B
100
AcDbEntity
  8
0
100
AcDbCircle
 62
7
  6
BYLAYER
 10
67.4755535157
 20
59.8679320156
 40
1.6296900053
100
AcDbArc
 50
0.0086608943
 51
1.8571244583
  0
ARC
  5
29C
100
AcDbEntity
  8
0
100
AcDbCircle
 62
7
  6
BYLAYER
 10
68.2555858844
 20
57.5870784793
 40
1.5270746033
100
AcDbArc
 50
177.0585301805
 51
180.0108864231
  0
ARC
  5
29D
100
AcDbEntity
  8
0
100
AcDbCircle
 62
7
  6
BYLAYER
 10
55.8713500297
 20
63.3850275354
 40
0.8844590935
100
AcDbArc
 50
125.1933274188
 51
130.2887239106
  0
ARC
  5
29E
100
AcDbEntity
  8
0
100
AcDbCircle
 62
7
  6
BYLAYER
 10
55.7246339372
 20
63.3073168868
 40
0.8783140212
100
AcDbArc
 50
109.6287064139
 51
119.9498103046
  0
ARC
  5
29F
100
AcDbEntity
  8
0
100
AcDbCircle
 62
7
  6
BYLAYER
 10
57.4469845107
 20
60.3242259168
 40
0.8770570431
100
AcDbArc
 50
300.0458651103
 51
310.300371995
  0
ARC
  5
2A0
100
AcDbEntity
  8
0
100
AcDbCircle
 62
7
  6
BYLAYER
 10
57.4127413616
 20
82.5104170165
 40
0.8452554796
100
AcDbArc
 50
300.0589711542
 51
310.7362735468
  0
ARC
  5
2A1
100
AcDbEntity
  8
0
100
AcDbCircle
 62
7
  6
BYLAYER
 10
55.7578334053
 20
85.3771075572
 40
0.84464743
100
AcDbArc
 50
109.2644744875
 51
119.9504835665
  0
ARC
  5
2A2
100
AcDbEntity
  8
0
100
AcDbCircle
 62
7
  6
BYLAYER
 10
68.5233063492
 20
103.4745526278
 40
0.669303461
100
AcDbArc
 50
353.0167324478
 51
359.9795360916
  0
ARC
  5
2A3
100
AcDbEntity
  8
0
100
AcDbCircle
 62
7
  6
BYLAYER
 10
65.8615827538
 20
103.4744471315
 40
0.6689593634
100
AcDbArc
 50
180.0114394237
 51
186.9768006127
  0
ARC
  5
2A4
100
AcDbEntity
  8
0
100
AcDbCircle
 62
7
  6
BYLAYER
 10
83.4210912718
 20
93.3335547398
 40
0.663862298
100
AcDbArc
 50
178.0009266708
 51
179.9949520998
  0
SPLINE
  5
2A5
100
AcDbEntity
  8
0
100
AcDbSpline
 62
7
  6
BYLAYER
 70
0
 71
3
 72
18
 73
14
 74
0
 42
0.0000001
 43
0.0000001
 44
0.0000000001
 40
0.0
 40
0.0
 40
0.0
 40
0.0
 40
0.1286603322
 40
0.2702073393
 40
0.4173235992
 40
0.5616284189
 40
0.695263763
 40
0.7562696015
 40
0.8127605311
 40
0.8647130906
 40
0.9125330244
 40
0.957151107
 40
1.0
 40
1.0
 40
1.0
 40
1.0
 10
47.1107817627
 20
102.6822513051
 30
0.0
 10
47.3069556188
 20
102.5689928387
 30
0.0
 10
47.6877428268
 20
102.2759762634
 30
0.0
 10
48.1750742563
 20
101.7215111524
 30
0.0
 10
48.57627676
 20
101.0689515938
 30
0.0
 10
48.8579882098
 20
100.3719581073
 30
0.0
 10
48.9782248863
 20
99.782576532
 30
0.0
 10
48.9895806811
 20
99.33952977
 30
0.0
 10
48.9574461669
 20
99.0418872511
 30
0.0
 10
48.8853754777
 20
98.7750077785
 30
0.0
 10
48.7739582005
 20
98.5445540278
 30
0.0
 10
48.6249600283
 20
98.3560632832
 30
0.0
 10
48.5010947509
 20
98.2612939273
 30
0.0
 10
48.435768057
 20
98.2235626311
 30
0.0
  0
SPLINE
  5
2A6
100
AcDbEntity
  8
0
100
AcDbSpline
 62
7
  6
BYLAYER
 70
0
 71
3
 72
15
 73
11
 74
0
 42
0.0000001
 43
0.0000001
 44
0.0000000001
 40
0.0
 40
0.0
 40
0.0
 40
0.0
 40
0.1128864322
 40
0.2353065975
 40
0.3647158624
 40
0.4979201025
 40
0.6314228797
 40
0.7616676338
 40
0.8854483731
 40
1.0
 40
1.0
 40
1.0
 40
1.0
 10
16.5999866969
 20
120.2447634967
 30
0.0
 10
16.595748101
 20
120.0957406527
 30
0.0
 10
16.6157858541
 20
119.7839840838
 30
0.0
 10
16.716960925
 20
119.3116881591
 30
0.0
 10
16.8865406483
 20
118.8309218589
 30
0.0
 10
17.1179301664
 20
118.3604566664
 30
0.0
 10
17.40214241
 20
117.9185861703
 30
0.0
 10
17.7281039325
 20
117.5223685454
 30
0.0
 10
18.08313942
 20
117.1874607349
 30
0.0
 10
18.3418081668
 20
117.0053911621
 30
0.0
 10
18.4728231744
 20
116.9297513234
 30
0.0
  0
SPLINE
  5
2A7
100
AcDbEntity
  8
0
100
AcDbSpline
 62
7
  6
BYLAYER
 70
0
 71
3
 72
11
 73
7
 74
0
 42
0.0000001
 43
0.0000001
 44
0.0000000001
 40
0.0
 40
0.0
 40
0.0
 40
0.0
 40
0.2177807282
 40
0.4509245028
 40
0.7102608381
 40
1.0
 40
1.0
 40
1.0
 40
1.0
 10
15.380077287
 20
120.3678296127
 30
0.0
 10
15.4674798777
 20
120.4183114731
 30
0.0
 10
15.6683431018
 20
120.4911794357
 30
0.0
 10
16.0019178488
 20
120.4996363215
 30
0.0
 10
16.3574689936
 20
120.4138103246
 30
0.0
 10
16.5887695444
 20
120.3037446241
 30
0.0
 10
16.7050635814
 20
120.2366037495
 30
0.0
  0
SPLINE
  5
2A8
100
AcDbEntity
  8
0
100
AcDbSpline
 62
7
  6
BYLAYER
 70
0
 71
3
 72
15
 73
11
 74
0
 42
0.0000001
 43
0.0000001
 44
0.0000000001
 40
0.0
 40
0.0
 40
0.0
 40
0.0
 40
0.1080093854
 40
0.2180826107
 40
0.3320123971
 40
0.451370801
 40
0.5772831989
 40
0.7104976422
 40
0.851433732
 40
1.0
 40
1.0
 40
1.0
 40
1.0
 10
62.2205323125
 20
100.4759322672
 30
0.0
 10
62.4090800939
 20
100.5847671332
 30
0.0
 10
62.809439571
 20
100.7722143111
 30
0.0
 10
63.4571729281
 20
100.9513941958
 30
0.0
 10
64.1477047741
 20
101.028390557
 30
0.0
 10
64.8735744008
 20
101.003066698
 30
0.0
 10
65.6278808267
 20
100.8765940238
 30
0.0
 10
66.4036245689
 20
100.6504428677
 30
0.0
 10
67.193386166
 20
100.327149823
 30
0.0
 10
67.7111699594
 20
100.0561308626
 30
0.0
 10
67.9705039347
 20
99.9064077093
 30
0.0
  0
SPLINE
  5
2A9
100
AcDbEntity
  8
0
100
AcDbSpline
 62
7
  6
BYLAYER
 70
0
 71
3
 72
15
 73
11
 74
0
 42
0.0000001
 43
0.0000001
 44
0.0000000001
 40
0.0
 40
0.0
 40
0.0
 40
0.0
 40
0.1119713721
 40
0.2318527855
 40
0.3578983087
 40
0.4879614723
 40
0.6196521199
 40
0.7504816526
 40
0.8780111946
 40
1.0
 40
1.0
 40
1.0
 40
1.0
 10
67.9705039347
 20
99.9064077093
 30
0.0
 10
68.4461687795
 20
99.6317886959
 30
0.0
 10
69.3889674632
 20
98.9883698527
 30
0.0
 10
70.708174489
 20
97.8245332864
 30
0.0
 10
71.9509538134
 20
96.4570560097
 30
0.0
 10
73.0825717905
 20
94.9241504829
 30
0.0
 10
74.0716819637
 20
93.2683687922
 30
0.0
 10
74.8907163521
 20
91.5357859209
 30
0.0
 10
75.5167985479
 20
89.7750093437
 30
0.0
 10
75.8018463905
 20
88.5814868045
 30
0.0
 10
75.9048720967
 20
87.9920372994
 30
0.0
  0
SPLINE
  5
2AA
100
AcDbEntity
  8
0
100
AcDbSpline
 62
7
  6
BYLAYER
 70
0
 71
3
 72
18
 73
14
 74
0
 42
0.0000001
 43
0.0000001
 44
0.0000000001
 40
0.0
 40
0.0
 40
0.0
 40
0.0
 40
0.1286603322
 40
0.2702073393
 40
0.4173235992
 40
0.5616284189
 40
0.695263763
 40
0.7562696015
 40
0.8127605311
 40
0.8647130906
 40
0.9125330244
 40
0.957151107
 40
1.0
 40
1.0
 40
1.0
 40
1.0
 10
16.7050635814
 20
115.9091409387
 30
0.0
 10
16.5088897253
 20
116.0223994051
 30
0.0
 10
16.1281025172
 20
116.3154159805
 30
0.0
 10
15.6407710877
 20
116.8698810914
 30
0.0
 10
15.2395685841
 20
117.5224406501
 30
0.0
 10
14.9578571343
 20
118.2194341365
 30
0.0
 10
14.8376204578
 20
118.8088157119
 30
0.0
 10
14.826264663
 20
119.2518624738
 30
0.0
 10
14.8583991771
 20
119.5495049927
 30
0.0
 10
14.9304698664
 20
119.8163844653
 30
0.0
 10
15.0418871436
 20
120.0468382161
 30
0.0
 10
15.1908853158
 20
120.2353289606
 30
0.0
 10
15.3147505932
 20
120.3300983165
 30
0.0
 10
15.380077287
 20
120.3678296127
 30
0.0
  0
SPLINE
  5
2AB
100
AcDbEntity
  8
0
100
AcDbSpline
 62
7
  6
BYLAYER
 70
0
 71
3
 72
9
 73
5
 74
0
 42
0.0000001
 43
0.0000001
 44
0.0000000001
 40
0.0
 40
0.0
 40
0.0
 40
0.0
 40
0.4953654247
 40
1.0
 40
1.0
 40
1.0
 40
1.0
 10
73.5210973785
 20
89.3643257499
 30
0.0
 10
73.3303129974
 20
89.9292634972
 30
0.0
 10
72.8879305202
 20
91.0509992786
 30
0.0
 10
72.3432564977
 20
92.126563036
 30
0.0
 10
72.0444293855
 20
92.655416731
 30
0.0
  0
SPLINE
  5
2AC
100
AcDbEntity
  8
0
100
AcDbSpline
 62
7
  6
BYLAYER
 70
0
 71
3
 72
11
 73
7
 74
0
 42
0.0000001
 43
0.0000001
 44
0.0000000001
 40
0.0
 40
0.0
 40
0.0
 40
0.0
 40
0.2659088159
 40
0.5253341191
 40
0.7718020571
 40
1.0
 40
1.0
 40
1.0
 40
1.0
 10
72.0444293855
 20
92.655416731
 30
0.0
 10
71.6680874953
 20
93.3214533493
 30
0.0
 10
70.8483994606
 20
94.5959249214
 30
0.0
 10
69.4339717365
 20
96.3144561013
 30
0.0
 10
67.89366818
 20
97.7677552511
 30
0.0
 10
66.7713070012
 20
98.5575449462
 30
0.0
 10
66.2027443417
 20
98.8857973247
 30
0.0
  0
SPLINE
  5
2AD
100
AcDbEntity
  8
0
100
AcDbSpline
 62
7
  6
BYLAYER
 70
0
 71
3
 72
11
 73
7
 74
0
 42
0.0000001
 43
0.0000001
 44
0.0000000001
 40
0.0
 40
0.0
 40
0.0
 40
0.0
 40
0.2177807282
 40
0.4509245028
 40
0.7102608381
 40
1.0
 40
1.0
 40
1.0
 40
1.0
 10
48.435768057
 20
98.2235626311
 30
0.0
 10
48.3483654663
 20
98.1730807707
 30
0.0
 10
48.1475022423
 20
98.1002128081
 30
0.0
 10
47.8139274952
 20
98.0917559223
 30
0.0
 10
47.4583763505
 20
98.1775819192
 30
0.0
 10
47.2270757997
 20
98.2876476197
 30
0.0
 10
47.1107817627
 20
98.3547884943
 30
0.0
  0
SPLINE
  5
2AE
100
AcDbEntity
  8
0
100
AcDbSpline
 62
7
  6
BYLAYER
 70
0
 71
3
 72
15
 73
11
 74
0
 42
0.0000001
 43
0.0000001
 44
0.0000000001
 40
0.0
 40
0.0
 40
0.0
 40
0.0
 40
0.148566268
 40
0.2895023578
 40
0.4227168011
 40
0.548629199
 40
0.6679876029
 40
0.7819173893
 40
0.8919906146
 40
1.0
 40
1.0
 40
1.0
 40
1.0
 10
66.2027443417
 20
98.8857973247
 30
0.0
 10
65.9434103663
 20
99.0355204779
 30
0.0
 10
65.425626573
 20
99.3065394383
 30
0.0
 10
64.6358649759
 20
99.629832483
 30
0.0
 10
63.8601212337
 20
99.8559836391
 30
0.0
 10
63.1058148077
 20
99.9824563133
 30
0.0
 10
62.379945181
 20
100.0077801723
 30
0.0
 10
61.6894133351
 20
99.9307838111
 30
0.0
 10
61.0416799779
 20
99.7516039264
 30
0.0
 10
60.6413205009
 20
99.5641567485
 30
0.0
 10
60.4527727195
 20
99.4553218825
 30
0.0
  0
SPLINE
  5
2AF
100
AcDbEntity
  8
0
100
AcDbSpline
 62
7
  6
BYLAYER
 70
0
 71
3
 72
15
 73
11
 74
0
 42
0.0000001
 43
0.0000001
 44
0.0000000001
 40
0.0
 40
0.0
 40
0.0
 40
0.0
 40
0.0918873892
 40
0.1915950172
 40
0.3018976876
 40
0.4237146034
 40
0.556461993
 40
0.6984394963
 40
0.8473521149
 40
1.0
 40
1.0
 40
1.0
 40
1.0
 10
55.4295876007
 20
64.1345914356
 30
0.0
 10
55.5166191405
 20
64.1656675957
 30
0.0
 10
55.7091145065
 20
64.2019776712
 30
0.0
 10
56.0144872782
 20
64.1762559946
 30
0.0
 10
56.3350800316
 20
64.0759372032
 30
0.0
 10
56.6617191391
 20
63.9052904969
 30
0.0
 10
56.9852144254
 20
63.6699604885
 30
0.0
 10
57.2960888241
 20
63.3771221445
 30
0.0
 10
57.5846531553
 20
63.0358552104
 30
0.0
 10
57.7555008312
 20
62.7844953986
 30
0.0
 10
57.8351946426
 20
62.6532789353
 30
0.0
  0
SPLINE
  5
2B0
100
AcDbEntity
  8
0
100
AcDbSpline
 62
7
  6
BYLAYER
 70
0
 71
3
 72
17
 73
13
 74
0
 42
0.0000001
 43
0.0000001
 44
0.0000000001
 40
0.0
 40
0.0
 40
0.0
 40
0.0
 40
0.0428989272
 40
0.0875321301
 40
0.1353567961
 40
0.1873239975
 40
0.3045865695
 40
0.4382505377
 40
0.5825870045
 40
0.7297367723
 40
0.8713177757
 40
1.0
 40
1.0
 40
1.0
 40
1.0
 10
69.2872239193
 20
12.0034615344
 30
0.0
 10
69.3218260093
 20
11.9834757781
 30
0.0
 10
69.3980564439
 20
11.9517244222
 30
0.0
 10
69.523910033
 20
11.9333522267
 30
0.0
 10
69.659004925
 20
11.9433151107
 30
0.0
 10
69.8552883401
 20
11.9955816181
 30
0.0
 10
70.1062245475
 20
12.1327910435
 30
0.0
 10
70.3834450635
 20
12.37834863
 30
0.0
 10
70.6284984701
 20
12.6920278666
 30
0.0
 10
70.8213508931
 20
13.048514214
 30
0.0
 10
70.9465031847
 20
13.418570199
 30
0.0
 10
70.9800331849
 20
13.6706003701
 30
0.0
 10
70.9800331849
 20
13.7904643137
 30
0.0
  0
SPLINE
  5
2B1
100
AcDbEntity
  8
0
100
AcDbSpline
 62
7
  6
BYLAYER
 70
0
 71
3
 72
10
 73
6
 74
0
 42
0.0000001
 43
0.0000001
 44
0.0000000001
 40
0.0
 40
0.0
 40
0.0
 40
0.0
 40
0.5223062537
 40
0.769987823
 40
1.0
 40
1.0
 40
1.0
 40
1.0
 10
68.6987894656
 20
61.1361544107
 30
0.0
 10
68.8188623152
 20
60.945635576
 30
0.0
 10
68.96497737
 20
60.6427547326
 30
0.0
 10
69.0763750849
 20
60.2253745478
 30
0.0
 10
69.1011883708
 20
60.0198671936
 30
0.0
 10
69.104387521
 20
59.9207458054
 30
0.0
  0
SPLINE
  5
2B2
100
AcDbEntity
  8
0
100
AcDbSpline
 62
7
  6
BYLAYER
 70
0
 71
3
 72
11
 73
7
 74
0
 42
0.0000001
 43
0.0000001
 44
0.0000000001
 40
0.0
 40
0.0
 40
0.0
 40
0.0
 40
0.2896413964
 40
0.5491107671
 40
0.7822355978
 40
1.0
 40
1.0
 40
1.0
 40
1.0
 10
69.1052435023
 20
56.2146124001
 30
0.0
 10
69.1052435023
 20
56.1294780627
 30
0.0
 10
69.0923030515
 20
55.9675324018
 30
0.0
 10
69.0267574796
 20
55.7450242686
 30
0.0
 10
68.9163462077
 20
55.564427276
 30
0.0
 10
68.8125761569
 20
55.4773108576
 30
0.0
 10
68.7571567957
 20
55.445284973
 30
0.0
  0
SPLINE
  5
2B3
100
AcDbEntity
  8
0
100
AcDbSpline
 62
7
  6
BYLAYER
 70
0
 71
3
 72
17
 73
13
 74
0
 42
0.0000001
 43
0.0000001
 44
0.0000000001
 40
0.0
 40
0.0
 40
0.0
 40
0.0
 40
0.0432872611
 40
0.0892217601
 40
0.1387833508
 40
0.192517475
 40
0.3124659437
 40
0.4468711276
 40
0.5900521495
 40
0.7347938159
 40
0.873599438
 40
1.0
 40
1.0
 40
1.0
 40
1.0
 10
55.4791596072
 20
86.1744595467
 30
0.0
 10
55.5448792667
 20
86.1974595105
 30
0.0
 10
55.6865577986
 20
86.2284211912
 30
0.0
 10
55.911239029
 20
86.227416603
 30
0.0
 10
56.1480756299
 20
86.1813575486
 30
0.0
 10
56.4861817538
 20
86.0567666107
 30
0.0
 10
56.9101265267
 20
85.7901046666
 30
0.0
 10
57.3740361948
 20
85.3453276795
 30
0.0
 10
57.7793518978
 20
84.7963284282
 30
0.0
 10
58.0956943853
 20
84.1837941391
 30
0.0
 10
58.2997481539
 20
83.5536913083
 30
0.0
 10
58.3539064684
 20
83.1266140241
 30
0.0
 10
58.3539064684
 20
82.9232971487
 30
0.0
  0
SPLINE
  5
2B4
100
AcDbEntity
  8
0
100
AcDbSpline
 62
7
  6
BYLAYER
 70
0
 71
3
 72
17
 73
13
 74
0
 42
0.0000001
 43
0.0000001
 44
0.0000000001
 40
0.0
 40
0.0
 40
0.0
 40
0.0
 40
0.0428584629
 40
0.08748393
 40
0.135317815
 40
0.1872795469
 40
0.3045398917
 40
0.4382057949
 40
0.5825481992
 40
0.7297130515
 40
0.8713063844
 40
1.0
 40
1.0
 40
1.0
 40
1.0
 10
86.7572153402
 20
93.3336132354
 30
0.0
 10
86.7572196499
 20
93.3905463169
 30
0.0
 10
86.7419586529
 20
93.5072496535
 30
0.0
 10
86.6750626729
 20
93.67577794
 30
0.0
 10
86.5664329851
 20
93.8355345108
 30
0.0
 10
86.3619771408
 20
94.0407426408
 30
0.0
 10
86.0135734538
 20
94.2528180739
 30
0.0
 10
85.5126337576
 20
94.4201507226
 30
0.0
 10
84.9504515123
 20
94.4991650453
 30
0.0
 10
84.3726090697
 20
94.4831691472
 30
0.0
 10
83.8262681064
 20
94.3738859159
 30
0.0
 10
83.4910554253
 20
94.2355725066
 30
0.0
 10
83.343002708
 20
94.1500947406
 30
0.0
  0
SPLINE
  5
2B5
100
AcDbEntity
  8
0
100
AcDbSpline
 62
7
  6
BYLAYER
 70
0
 71
3
 72
11
 73
7
 74
0
 42
0.0000001
 43
0.0000001
 44
0.0000000001
 40
0.0
 40
0.0
 40
0.0
 40
0.0
 40
0.2897033281
 40
0.5490895198
 40
0.7822165953
 40
1.0
 40
1.0
 40
1.0
 40
1.0
 10
52.6970286672
 20
60.8776482539
 30
0.0
 10
52.6970286672
 20
60.7509778929
 30
0.0
 10
52.6778235769
 20
60.5100777128
 30
0.0
 10
52.5802618942
 20
60.1790934896
 30
0.0
 10
52.416000422
 20
59.91051851
 30
0.0
 10
52.2617090413
 20
59.7808059503
 30
0.0
 10
52.179242521
 20
59.7331942032
 30
0.0
  0
SPLINE
  5
2B6
100
AcDbEntity
  8
0
100
AcDbSpline
 62
7
  6
BYLAYER
 70
0
 71
3
 72
11
 73
7
 74
0
 42
0.0000001
 43
0.0000001
 44
0.0000000001
 40
0.0
 40
0.0
 40
0.0
 40
0.0
 40
0.2856503388
 40
0.5455063233
 40
0.78142175
 40
1.0
 40
1.0
 40
1.0
 40
1.0
 10
58.4246174409
 20
60.7552575691
 30
0.0
 10
58.4246174409
 20
60.6401636052
 30
0.0
 10
58.4091831215
 20
60.4198414017
 30
0.0
 10
58.3324721683
 20
60.1124884769
 30
0.0
 10
58.2039118786
 20
59.8521316501
 30
0.0
 10
58.0814498362
 20
59.7122626586
 30
0.0
 10
58.014260385
 20
59.6553259698
 30
0.0
  0
SPLINE
  5
2B7
100
AcDbEntity
  8
0
100
AcDbSpline
 62
7
  6
BYLAYER
 70
0
 71
3
 72
11
 73
7
 74
0
 42
0.0000001
 43
0.0000001
 44
0.0000000001
 40
0.0
 40
0.0
 40
0.0
 40
0.0
 40
0.2662549875
 40
0.5252950029
 40
0.771405613
 40
1.0
 40
1.0
 40
1.0
 40
1.0
 10
57.9351581175
 20
62.480138079
 30
0.0
 10
58.0123632693
 20
62.3392836481
 30
0.0
 10
58.1499190019
 20
62.0529929366
 30
0.0
 10
58.3045421445
 20
61.6130005064
 30
0.0
 10
58.4005842299
 20
61.1797854105
 30
0.0
 10
58.4246174409
 20
60.8931634433
 30
0.0
 10
58.4246174409
 20
60.7552575691
 30
0.0
  0
SPLINE
  5
2B8
100
AcDbEntity
  8
0
100
AcDbSpline
 62
7
  6
BYLAYER
 70
0
 71
3
 72
17
 73
13
 74
0
 42
0.0000001
 43
0.0000001
 44
0.0000000001
 40
0.0
 40
0.0
 40
0.0
 40
0.0
 40
0.0428584629
 40
0.08748393
 40
0.135317815
 40
0.1872795469
 40
0.3045398917
 40
0.4382057949
 40
0.5825481992
 40
0.7297130515
 40
0.8713063844
 40
1.0
 40
1.0
 40
1.0
 40
1.0
 10
69.1926097675
 20
103.4743135777
 30
0.0
 10
69.1926140773
 20
103.5312466591
 30
0.0
 10
69.1773530802
 20
103.6479499958
 30
0.0
 10
69.1104571002
 20
103.8164782823
 30
0.0
 10
69.0018274124
 20
103.9762348531
 30
0.0
 10
68.7973715682
 20
104.1814429831
 30
0.0
 10
68.4489678811
 20
104.3935184162
 30
0.0
 10
67.948028185
 20
104.5608510649
 30
0.0
 10
67.3858459397
 20
104.6398653876
 30
0.0
 10
66.808003497
 20
104.6238694894
 30
0.0
 10
66.2616625338
 20
104.5145862581
 30
0.0
 10
65.9264498527
 20
104.3762728488
 30
0.0
 10
65.7783971353
 20
104.2907950829
 30
0.0
  0
SPLINE
  5
2B9
100
AcDbEntity
  8
0
100
AcDbSpline
 62
7
  6
BYLAYER
 70
0
 71
3
 72
11
 73
7
 74
0
 42
0.0000001
 43
0.0000001
 44
0.0000000001
 40
0.0
 40
0.0
 40
0.0
 40
0.0
 40
0.2854376555
 40
0.5453063503
 40
0.7813446306
 40
1.0
 40
1.0
 40
1.0
 40
1.0
 10
58.3539064684
 20
82.9232971487
 30
0.0
 10
58.3539064684
 20
82.8133337131
 30
0.0
 10
58.3392381196
 20
82.6027623254
 30
0.0
 10
58.2664456475
 20
82.3088167346
 30
0.0
 10
58.1444444201
 20
82.0593895865
 30
0.0
 10
58.0281873774
 20
81.9248922879
 30
0.0
 10
57.9643366969
 20
81.8699488973
 30
0.0
  0
SPLINE
  5
2BA
100
AcDbEntity
  8
0
100
AcDbSpline
 62
7
  6
BYLAYER
 70
0
 71
3
 72
15
 73
11
 74
0
 42
0.0000001
 43
0.0000001
 44
0.0000000001
 40
0.0
 40
0.0
 40
0.0
 40
0.0
 40
0.1141231812
 40
0.2373468278
 40
0.366971913
 40
0.4999994099
 40
0.6330269884
 40
0.76265231
 40
0.885876356
 40
1.0
 40
1.0
 40
1.0
 40
1.0
 10
68.9603908985
 20
103.2702141047
 30
0.0
 10
68.8394072114
 20
103.2003645573
 30
0.0
 10
68.5747381167
 20
103.0771777549
 30
0.0
 10
68.1438389379
 20
102.9461256112
 30
0.0
 10
67.6772434503
 20
102.8655563716
 30
0.0
 10
67.1926271703
 20
102.8383074874
 30
0.0
 10
66.7080104703
 20
102.8655540161
 30
0.0
 10
66.2414137064
 20
102.9461210068
 30
0.0
 10
65.8105125242
 20
103.0771711535
 30
0.0
 10
65.545841674
 20
103.2003566481
 30
0.0
 10
65.4248569926
 20
103.2702056063
 30
0.0
  0
SPLINE
  5
2BB
100
AcDbEntity
  8
0
100
AcDbSpline
 62
7
  6
BYLAYER
 70
0
 71
3
 72
9
 73
5
 74
0
 42
0.0000001
 43
0.0000001
 44
0.0000000001
 40
0.0
 40
0.0
 40
0.0
 40
0.0
 40
0.2584882758
 40
1.0
 40
1.0
 40
1.0
 40
1.0
 10
82.9894625653
 20
93.129505264
 30
0.0
 10
82.9640429703
 20
93.144180942
 30
0.0
 10
82.8667944328
 20
93.2028046945
 30
0.0
 10
82.7740062916
 20
93.2689813664
 30
0.0
 10
82.7090447974
 20
93.3225506157
 30
0.0
  0
SPLINE
  5
2BC
100
AcDbEntity
  8
0
100
AcDbSpline
 62
7
  6
BYLAYER
 70
0
 71
3
 72
11
 73
7
 74
0
 42
0.0000001
 43
0.0000001
 44
0.0000000001
 40
0.0
 40
0.0
 40
0.0
 40
0.0
 40
0.2790774717
 40
0.534787674
 40
0.7723944391
 40
1.0
 40
1.0
 40
1.0
 40
1.0
 10
82.7090447974
 20
93.3225506157
 30
0.0
 10
82.63923731
 20
93.3801160203
 30
0.0
 10
82.5134472365
 20
93.5008924786
 30
0.0
 10
82.3677525012
 20
93.7067365422
 30
0.0
 10
82.2778172342
 20
93.9248229443
 30
0.0
 10
82.2572346123
 20
94.0763223711
 30
0.0
 10
82.257234633
 20
94.1501156487
 30
0.0
  0
SPLINE
  5
2BD
100
AcDbEntity
  8
0
100
AcDbSpline
 62
7
  6
BYLAYER
 70
0
 71
3
 72
11
 73
7
 74
0
 42
0.0000001
 43
0.0000001
 44
0.0000000001
 40
0.0
 40
0.0
 40
0.0
 40
0.0
 40
0.2897031353
 40
0.5490914015
 40
0.7822201129
 40
1.0
 40
1.0
 40
1.0
 40
1.0
 10
65.7783971353
 20
104.2907950829
 30
0.0
 10
65.6906402197
 20
104.2401289064
 30
0.0
 10
65.5314261418
 20
104.1304673887
 30
0.0
 10
65.3411395167
 20
103.9304912974
 30
0.0
 10
65.2207729347
 20
103.7092634217
 30
0.0
 10
65.1926291701
 20
103.5504889524
 30
0.0
 10
65.1926234037
 20
103.47431357
 30
0.0
  0
SPLINE
  5
2BE
100
AcDbEntity
  8
0
100
AcDbSpline
 62
7
  6
BYLAYER
 70
0
 71
3
 72
11
 73
7
 74
0
 42
0.0000001
 43
0.0000001
 44
0.0000000001
 40
0.0
 40
0.0
 40
0.0
 40
0.0
 40
0.2890108499
 40
0.5485708388
 40
0.7822386746
 40
1.0
 40
1.0
 40
1.0
 40
1.0
 10
83.343002708
 20
94.1500947406
 30
0.0
 10
83.2573614876
 20
94.1006500541
 30
0.0
 10
83.1016207627
 20
93.993798298
 30
0.0
 10
82.913991972
 20
93.7998125435
 30
0.0
 10
82.7924054191
 20
93.5855543775
 30
0.0
 10
82.7602314575
 20
93.4311777662
 30
0.0
 10
82.7576330062
 20
93.3567124695
 30
0.0
  0
SPLINE
  5
2BF
100
AcDbEntity
  8
0
100
AcDbSpline
 62
7
  6
BYLAYER
 70
0
 71
3
 72
11
 73
7
 74
0
 42
0.0000001
 43
0.0000001
 44
0.0000000001
 40
0.0
 40
0.0
 40
0.0
 40
0.0
 40
0.282859773
 40
0.542377881
 40
0.7799705239
 40
1.0
 40
1.0
 40
1.0
 40
1.0
 10
70.9800331849
 20
13.7904643137
 30
0.0
 10
70.9800331849
 20
13.8471024301
 30
0.0
 10
70.9730809097
 20
13.9559119641
 30
0.0
 10
70.9388287578
 20
14.1090609094
 30
0.0
 10
70.8815005967
 20
14.2417453164
 30
0.0
 10
70.8267541898
 20
14.3165346717
 30
0.0
 10
70.7962943397
 20
14.3483662375
 30
0.0
  0
SPLINE
  5
2C0
100
AcDbEntity
  8
0
100
AcDbSpline
 62
7
  6
BYLAYER
 70
0
 71
3
 72
17
 73
13
 74
0
 42
0.0000001
 43
0.0000001
 44
0.0000000001
 40
0.0
 40
0.0
 40
0.0
 40
0.0
 40
0.042857965
 40
0.0874854797
 40
0.1353180708
 40
0.1872814984
 40
0.3045423159
 40
0.4382097446
 40
0.5825520305
 40
0.7297107839
 40
0.8713099826
 40
1.0
 40
1.0
 40
1.0
 40
1.0
 10
68.7571567957
 20
55.445284973
 30
0.0
 10
68.7157355215
 20
55.4213483394
 30
0.0
 10
68.6243975454
 20
55.3834054037
 30
0.0
 10
68.4736467424
 20
55.3612949402
 30
0.0
 10
68.3117470869
 20
55.3732251839
 30
0.0
 10
68.076505565
 20
55.4357771261
 30
0.0
 10
67.7757851586
 20
55.6002117174
 30
0.0
 10
67.4435386449
 20
55.8944473086
 30
0.0
 10
67.1498461059
 20
56.270359725
 30
0.0
 10
66.918698118
 20
56.6975830739
 30
0.0
 10
66.7687021262
 20
57.1410840878
 30
0.0
 10
66.7285113087
 20
57.4431381186
 30
0.0
 10
66.7285113087
 20
57.5867883291
 30
0.0
  0
SPLINE
  5
2C1
100
AcDbEntity
  8
0
100
AcDbSpline
 62
7
  6
BYLAYER
 70
0
 71
3
 72
11
 73
7
 74
0
 42
0.0000001
 43
0.0000001
 44
0.0000000001
 40
0.0
 40
0.0
 40
0.0
 40
0.0
 40
0.2648303135
 40
0.5249017986
 40
0.7722536018
 40
1.0
 40
1.0
 40
1.0
 40
1.0
 10
84.5603391254
 20
92.1845524163
 30
0.0
 10
84.7071262665
 20
92.1761602669
 30
0.0
 10
84.9994480933
 20
92.1781630446
 30
0.0
 10
85.4255390126
 20
92.2355072372
 30
0.0
 10
85.8201629817
 20
92.3446310329
 30
0.0
 10
86.0619422088
 20
92.4539125919
 30
0.0
 10
86.1714416086
 20
92.5171317225
 30
0.0
  0
SPLINE
  5
2C2
100
AcDbEntity
  8
0
100
AcDbSpline
 62
7
  6
BYLAYER
 70
0
 71
3
 72
11
 73
7
 74
0
 42
0.0000001
 43
0.0000001
 44
0.0000000001
 40
0.0
 40
0.0
 40
0.0
 40
0.0
 40
0.217850015
 40
0.450960711
 40
0.710270488
 40
1.0
 40
1.0
 40
1.0
 40
1.0
 10
70.6895672646
 20
14.432446841
 30
0.0
 10
70.6433015504
 20
14.4591752033
 30
0.0
 10
70.5370001727
 20
14.4977684102
 30
0.0
 10
70.3604659497
 20
14.5021830111
 30
0.0
 10
70.172323193
 20
14.4567924055
 30
0.0
 10
70.049928768
 20
14.3985377637
 30
0.0
 10
69.9883879141
 20
14.3630073472
 30
0.0
  0
SPLINE
  5
2C3
100
AcDbEntity
  8
0
100
AcDbSpline
 62
7
  6
BYLAYER
 70
0
 71
3
 72
11
 73
7
 74
0
 42
0.0000001
 43
0.0000001
 44
0.0000000001
 40
0.0
 40
0.0
 40
0.0
 40
0.0
 40
0.2177827477
 40
0.4509152641
 40
0.7103063952
 40
1.0
 40
1.0
 40
1.0
 40
1.0
 10
86.7572129626
 20
91.7006084201
 30
0.0
 10
86.7572025542
 20
91.6244321028
 30
0.0
 10
86.7290682658
 20
91.4656547243
 30
0.0
 10
86.6086929107
 20
91.2444258022
 30
0.0
 10
86.4184079165
 20
91.0444513833
 30
0.0
 10
86.2591955622
 20
90.9347913546
 30
0.0
 10
86.1714416086
 20
90.8841268883
 30
0.0
  0
SPLINE
  5
2C4
100
AcDbEntity
  8
0
100
AcDbSpline
 62
7
  6
BYLAYER
 70
0
 71
3
 72
11
 73
7
 74
0
 42
0.0000001
 43
0.0000001
 44
0.0000000001
 40
0.0
 40
0.0
 40
0.0
 40
0.0
 40
0.2185782374
 40
0.4544936844
 40
0.7143497204
 40
1.0
 40
1.0
 40
1.0
 40
1.0
 10
55.2994236932
 20
64.0596890459
 30
0.0
 10
55.232234398
 20
64.0027523303
 30
0.0
 10
55.1097726556
 20
63.8628833561
 30
0.0
 10
54.9812126776
 20
63.6025267114
 30
0.0
 10
54.9045019488
 20
63.2951740907
 30
0.0
 10
54.8890676376
 20
63.074852137
 30
0.0
 10
54.8890676376
 20
62.9597583233
 30
0.0
  0
SPLINE
  5
2C5
100
AcDbEntity
  8
0
100
AcDbSpline
 62
7
  6
BYLAYER
 70
0
 71
3
 72
11
 73
7
 74
0
 42
0.0000001
 43
0.0000001
 44
0.0000000001
 40
0.0
 40
0.0
 40
0.0
 40
0.0
 40
0.2177843137
 40
0.4509117637
 40
0.7102976701
 40
1.0
 40
1.0
 40
1.0
 40
1.0
 10
52.179242521
 20
59.7331942032
 30
0.0
 10
52.0967778612
 20
59.6855835303
 30
0.0
 10
51.9073024848
 20
59.6168213644
 30
0.0
 10
51.5925871135
 20
59.6088528319
 30
0.0
 10
51.2571742846
 20
59.6898490506
 30
0.0
 10
51.0389514145
 20
59.7936619029
 30
0.0
 10
50.9292543544
 20
59.8569940973
 30
0.0
  0
SPLINE
  5
2C6
100
AcDbEntity
  8
0
100
AcDbSpline
 62
7
  6
BYLAYER
 70
0
 71
3
 72
11
 73
7
 74
0
 42
0.0000001
 43
0.0000001
 44
0.0000000001
 40
0.0
 40
0.0
 40
0.0
 40
0.0
 40
0.2285945474
 40
0.4747050702
 40
0.7337449759
 40
1.0
 40
1.0
 40
1.0
 40
1.0
 10
54.8890676376
 20
62.9597583233
 30
0.0
 10
54.8890676376
 20
62.8218551608
 30
0.0
 10
54.9130996969
 20
62.5352389574
 30
0.0
 10
55.0091388732
 20
62.1020325187
 30
0.0
 10
55.1637555607
 20
61.6620481442
 30
0.0
 10
55.3013056106
 20
61.3757617974
 30
0.0
 10
55.3785092008
 20
61.2349102156
 30
0.0
  0
SPLINE
  5
2C7
100
AcDbEntity
  8
0
100
AcDbSpline
 62
7
  6
BYLAYER
 70
0
 71
3
 72
17
 73
13
 74
0
 42
0.0000001
 43
0.0000001
 44
0.0000000001
 40
0.0
 40
0.0
 40
0.0
 40
0.0
 40
0.0428592926
 40
0.087485474
 40
0.1353198781
 40
0.1872819044
 40
0.3045421965
 40
0.4382074305
 40
0.582548911
 40
0.7297129633
 40
0.8713059682
 40
1.0
 40
1.0
 40
1.0
 40
1.0
 10
57.8361222947
 20
81.7788396719
 30
0.0
 10
57.7744918081
 20
81.7432512967
 30
0.0
 10
57.6386163762
 20
81.6868310152
 30
0.0
 10
57.4143660428
 20
81.6539154223
 30
0.0
 10
57.1735281106
 20
81.6716597806
 30
0.0
 10
56.8235962523
 20
81.7647301296
 30
0.0
 10
56.3762626608
 20
82.009334856
 30
0.0
 10
55.8820301205
 20
82.4470289608
 30
0.0
 10
55.4451299554
 20
83.0062199958
 30
0.0
 10
55.101294907
 20
83.6417469972
 30
0.0
 10
54.878135587
 20
84.3014800041
 30
0.0
 10
54.8183578427
 20
84.7508047835
 30
0.0
 10
54.8183578427
 20
84.9645009213
 30
0.0
  0
SPLINE
  5
2C8
100
AcDbEntity
  8
0
100
AcDbSpline
 62
7
  6
BYLAYER
 70
0
 71
3
 72
11
 73
7
 74
0
 42
0.0000001
 43
0.0000001
 44
0.0000000001
 40
0.0
 40
0.0
 40
0.0
 40
0.0
 40
0.2186596974
 40
0.454706457
 40
0.7145769382
 40
1.0
 40
1.0
 40
1.0
 40
1.0
 10
55.3492195475
 20
86.0993816307
 30
0.0
 10
55.2853866615
 20
86.0444343692
 30
0.0
 10
55.1691660276
 20
85.9099352384
 30
0.0
 10
55.0472076146
 20
85.6605285335
 30
0.0
 10
54.9744422973
 20
85.3666256503
 30
0.0
 10
54.9597786101
 20
85.15609108
 30
0.0
 10
54.9597786101
 20
85.0461497521
 30
0.0
  0
SPLINE
  5
2C9
100
AcDbEntity
  8
0
100
AcDbSpline
 62
7
  6
BYLAYER
 70
0
 71
3
 72
15
 73
11
 74
0
 42
0.0000001
 43
0.0000001
 44
0.0000000001
 40
0.0
 40
0.0
 40
0.0
 40
0.0
 40
0.1141232777
 40
0.2373467942
 40
0.366971625
 40
0.4999988494
 40
0.6330262332
 40
0.7626515288
 40
0.885875802
 40
1.0
 40
1.0
 40
1.0
 40
1.0
 10
62.2430099567
 20
53.325142025
 30
0.0
 10
62.1220254329
 20
53.3949908735
 30
0.0
 10
61.8830057105
 20
53.5626053533
 30
0.0
 10
61.554058897
 20
53.8702467704
 30
0.0
 10
61.2509844345
 20
54.234044433
 30
0.0
 10
60.9850774535
 20
54.6401096716
 30
0.0
 10
60.7663657728
 20
55.0734239338
 30
0.0
 10
60.6028420143
 20
55.5177936463
 30
0.0
 10
60.5008867752
 20
55.9564925451
 30
0.0
 10
60.4752356439
 20
56.2472987323
 30
0.0
 10
60.4752356439
 20
56.3869999541
 30
0.0
  0
SPLINE
  5
2CA
100
AcDbEntity
  8
0
100
AcDbSpline
 62
7
  6
BYLAYER
 70
0
 71
3
 72
11
 73
7
 74
0
 42
0.0000001
 43
0.0000001
 44
0.0000000001
 40
0.0
 40
0.0
 40
0.0
 40
0.0
 40
0.2897016594
 40
0.5490895814
 40
0.7822189142
 40
1.0
 40
1.0
 40
1.0
 40
1.0
 10
54.8183578427
 20
84.9645009213
 30
0.0
 10
54.8183578427
 20
85.0911708362
 30
0.0
 10
54.8375627299
 20
85.3320714044
 30
0.0
 10
54.9351194663
 20
85.6630586012
 30
0.0
 10
55.0993845781
 20
85.9316357607
 30
0.0
 10
55.2536798033
 20
86.0613407929
 30
0.0
 10
55.3361420164
 20
86.1089583982
 30
0.0
  0
SPLINE
  5
2CB
100
AcDbEntity
  8
0
100
AcDbSpline
 62
7
  6
BYLAYER
 70
0
 71
3
 72
11
 73
7
 74
0
 42
0.0000001
 43
0.0000001
 44
0.0000000001
 40
0.0
 40
0.0
 40
0.0
 40
0.0
 40
0.2662549874
 40
0.5252950029
 40
0.7714056131
 40
1.0
 40
1.0
 40
1.0
 40
1.0
 10
55.2371062062
 20
61.1532289584
 30
0.0
 10
55.1599010532
 20
61.2940833914
 30
0.0
 10
55.0223453169
 20
61.5803741063
 30
0.0
 10
54.8677221698
 20
62.0203665425
 30
0.0
 10
54.771680082
 20
62.4535816448
 30
0.0
 10
54.7476468702
 20
62.7402036164
 30
0.0
 10
54.7476468702
 20
62.8781094926
 30
0.0
  0
SPLINE
  5
2CC
100
AcDbEntity
  8
0
100
AcDbSpline
 62
7
  6
BYLAYER
 70
0
 71
3
 72
15
 73
11
 74
0
 42
0.0000001
 43
0.0000001
 44
0.0000000001
 40
0.0
 40
0.0
 40
0.0
 40
0.0
 40
0.0912700396
 40
0.188708743
 40
0.2966568708
 40
0.4170529586
 40
0.5497553205
 40
0.6930419265
 40
0.8443292655
 40
1.0
 40
1.0
 40
1.0
 40
1.0
 10
57.8861209122
 20
59.5650235211
 30
0.0
 10
57.8024888733
 20
59.516744414
 30
0.0
 10
57.6111245013
 20
59.4462666427
 30
0.0
 10
57.2933296736
 20
59.4346491897
 30
0.0
 10
56.9540659454
 20
59.5110939262
 30
0.0
 10
56.6045220062
 20
59.6704151816
 30
0.0
 10
56.2557063383
 20
59.9061298212
 30
0.0
 10
55.9190686028
 20
60.209797705
 30
0.0
 10
55.6065559329
 20
60.5707249088
 30
0.0
 10
55.4225690125
 20
60.8393128086
 30
0.0
 10
55.3370696538
 20
60.9800881493
 30
0.0
  0
SPLINE
  5
2CD
100
AcDbEntity
  8
0
100
AcDbSpline
 62
7
  6
BYLAYER
 70
0
 71
3
 72
11
 73
7
 74
0
 42
0.0000001
 43
0.0000001
 44
0.0000000001
 40
0.0
 40
0.0
 40
0.0
 40
0.0
 40
0.2897125972
 40
0.5490875129
 40
0.7822171909
 40
1.0
 40
1.0
 40
1.0
 40
1.0
 10
54.7476468702
 20
62.8781094926
 30
0.0
 10
54.7476468702
 20
63.009851066
 30
0.0
 10
54.7676142404
 20
63.2603869037
 30
0.0
 10
54.8690812976
 20
63.6046124444
 30
0.0
 10
55.0399200327
 20
63.8839187101
 30
0.0
 10
55.2003758696
 20
64.0188316575
 30
0.0
 10
55.2861433989
 20
64.0683435405
 30
0.0
  0
SPLINE
  5
2CE
100
AcDbEntity
  8
0
100
AcDbSpline
 62
7
  6
BYLAYER
 70
0
 71
3
 72
11
 73
7
 74
0
 42
0.0000001
 43
0.0000001
 44
0.0000000001
 40
0.0
 40
0.0
 40
0.0
 40
0.0
 40
0.2177821605
 40
0.4509085882
 40
0.7102951949
 40
1.0
 40
1.0
 40
1.0
 40
1.0
 10
82.257234633
 20
94.1501156487
 30
0.0
 10
82.2572346596
 20
94.2453356575
 30
0.0
 10
82.2924227211
 20
94.4438041457
 30
0.0
 10
82.4428808899
 20
94.7203347619
 30
0.0
 10
82.6807341529
 20
94.9703076613
 30
0.0
 10
82.8797513144
 20
95.1073845913
 30
0.0
 10
82.9894478454
 20
95.170717535
 30
0.0
  0
SPLINE
  5
2CF
100
AcDbEntity
  8
0
100
AcDbSpline
 62
7
  6
BYLAYER
 70
0
 71
3
 72
15
 73
11
 74
0
 42
0.0000001
 43
0.0000001
 44
0.0000000001
 40
0.0
 40
0.0
 40
0.0
 40
0.0
 40
0.1526480557
 40
0.3015606482
 40
0.4435380322
 40
0.5762852848
 40
0.6981020839
 40
0.8084047112
 40
0.9081124216
 40
1.0
 40
1.0
 40
1.0
 40
1.0
 10
55.4785096171
 20
61.0617053752
 30
0.0
 10
55.5582025893
 20
60.9304902936
 30
0.0
 10
55.7290508516
 20
60.6791348294
 30
0.0
 10
56.017615178
 20
60.3378748066
 30
0.0
 10
56.3284871962
 20
60.0450416368
 30
0.0
 10
56.6519800124
 20
59.8097167482
 30
0.0
 10
56.9786161329
 20
59.6390742745
 30
0.0
 10
57.2992056423
 20
59.5387585418
 30
0.0
 10
57.6045751952
 20
59.5130386372
 30
0.0
 10
57.7970684134
 20
59.5493490139
 30
0.0
 10
57.8840990644
 20
59.5804250277
 30
0.0
  0
SPLINE
  5
2D0
100
AcDbEntity
  8
0
100
AcDbSpline
 62
7
  6
BYLAYER
 70
0
 71
3
 72
15
 73
11
 74
0
 42
0.0000001
 43
0.0000001
 44
0.0000000001
 40
0.0
 40
0.0
 40
0.0
 40
0.0
 40
0.1141241598
 40
0.2373483675
 40
0.3669736385
 40
0.5000010132
 40
0.6330282465
 40
0.7626531028
 40
0.8858766831
 40
1.0
 40
1.0
 40
1.0
 40
1.0
 10
64.1781490139
 20
58.5030389496
 30
0.0
 10
64.1781490139
 20
58.3633377746
 30
0.0
 10
64.2038000902
 20
58.0725317108
 30
0.0
 10
64.3057553
 20
57.6338329657
 30
0.0
 10
64.4692789636
 20
57.1894633506
 30
0.0
 10
64.6879905795
 20
56.7561490888
 30
0.0
 10
64.9538975312
 20
56.3500837951
 30
0.0
 10
65.2569720249
 20
55.986285999
 30
0.0
 10
65.5859189623
 20
55.6786444826
 30
0.0
 10
65.8249387695
 20
55.511029907
 30
0.0
 10
65.9459233268
 20
55.4411810205
 30
0.0
  0
SPLINE
  5
2D1
100
AcDbEntity
  8
0
100
AcDbSpline
 62
7
  6
BYLAYER
 70
0
 71
3
 72
10
 73
6
 74
0
 42
0.0000001
 43
0.0000001
 44
0.0000000001
 40
0.0
 40
0.0
 40
0.0
 40
0.0
 40
0.2286735153
 40
0.4751233607
 40
1.0
 40
1.0
 40
1.0
 40
1.0
 10
86.1714416086
 20
90.8841268883
 30
0.0
 10
86.0784088023
 20
90.8304146931
 30
0.0
 10
85.8754231752
 20
90.735118012
 30
0.0
 10
85.4261926264
 20
90.5947658598
 30
0.0
 10
85.0623052324
 20
90.5506186424
 30
0.0
 10
84.8157674676
 20
90.546426939
 30
0.0
  0
SPLINE
  5
2D2
100
AcDbEntity
  8
0
100
AcDbSpline
 62
7
  6
BYLAYER
 70
0
 71
3
 72
15
 73
11
 74
0
 42
0.0000001
 43
0.0000001
 44
0.0000000001
 40
0.0
 40
0.0
 40
0.0
 40
0.0
 40
0.1145394402
 40
0.2380058377
 40
0.3677030748
 40
0.5006676886
 40
0.6335397533
 40
0.7629691427
 40
0.8860070536
 40
1.0
 40
1.0
 40
1.0
 40
1.0
 10
63.141032404
 20
53.8436701104
 30
0.0
 10
63.0209741155
 20
53.9144665779
 30
0.0
 10
62.7840560187
 20
54.0833760671
 30
0.0
 10
62.4581964147
 20
54.3916583156
 30
0.0
 10
62.1583184879
 20
54.7548301792
 30
0.0
 10
61.8954887044
 20
55.1592352888
 30
0.0
 10
61.6794655685
 20
55.5900993656
 30
0.0
 10
61.5180467052
 20
56.031537377
 30
0.0
 10
61.4174469415
 20
56.4671519467
 30
0.0
 10
61.3921598953
 20
56.7558443247
 30
0.0
 10
61.3921598953
 20
56.8945569833
 30
0.0
  0
SPLINE
  5
2D3
100
AcDbEntity
  8
0
100
AcDbSpline
 62
7
  6
BYLAYER
 70
0
 71
3
 72
15
 73
11
 74
0
 42
0.0000001
 43
0.0000001
 44
0.0000000001
 40
0.0
 40
0.0
 40
0.0
 40
0.0
 40
0.1141249575
 40
0.2373499642
 40
0.3669762125
 40
0.5000044489
 40
0.6330322648
 40
0.7626597031
 40
0.8858808057
 40
1.0
 40
1.0
 40
1.0
 40
1.0
 10
61.3732575171
 20
56.9054700296
 30
0.0
 10
61.3732575171
 20
56.7657691625
 30
0.0
 10
61.3989084413
 20
56.4749638166
 30
0.0
 10
61.5008633357
 20
56.0362659825
 30
0.0
 10
61.6643862824
 20
55.5918974134
 30
0.0
 10
61.8830958601
 20
55.1585835023
 30
0.0
 10
62.1490072952
 20
54.7525209355
 30
0.0
 10
62.4520678037
 20
54.3887168859
 30
0.0
 10
62.7810175335
 20
54.0810864678
 30
0.0
 10
63.0200533215
 20
53.9135158174
 30
0.0
 10
63.141032404
 20
53.8436701104
 30
0.0
  0
SPLINE
  5
2D4
100
AcDbEntity
  8
0
100
AcDbSpline
 62
7
  6
BYLAYER
 70
0
 71
3
 72
11
 73
7
 74
0
 42
0.0000001
 43
0.0000001
 44
0.0000000001
 40
0.0
 40
0.0
 40
0.0
 40
0.0
 40
0.2897031353
 40
0.5490914015
 40
0.7822201129
 40
1.0
 40
1.0
 40
1.0
 40
1.0
 10
86.1714416086
 20
92.5171317225
 30
0.0
 10
86.2591985242
 20
92.567797899
 30
0.0
 10
86.4184126021
 20
92.6774594167
 30
0.0
 10
86.6086992272
 20
92.877435508
 30
0.0
 10
86.7290658092
 20
93.0986633837
 30
0.0
 10
86.7572095738
 20
93.257437853
 30
0.0
 10
86.7572153402
 20
93.3336132354
 30
0.0
  0
SPLINE
  5
2D5
100
AcDbEntity
  8
0
100
AcDbSpline
 62
7
  6
BYLAYER
 70
0
 71
3
 72
11
 73
7
 74
0
 42
0.0000001
 43
0.0000001
 44
0.0000000001
 40
0.0
 40
0.0
 40
0.0
 40
0.0
 40
0.2849073876
 40
0.5447916814
 40
0.781128306
 40
1.0
 40
1.0
 40
1.0
 40
1.0
 10
65.5100076621
 20
60.1310797123
 30
0.0
 10
65.5100076621
 20
60.2267539705
 30
0.0
 10
65.5226025305
 20
60.4101105895
 30
0.0
 10
65.584849047
 20
60.6664875054
 30
0.0
 10
65.6892016667
 20
60.8849564896
 30
0.0
 10
65.7887211018
 20
61.0038346276
 30
0.0
 10
65.8435213312
 20
61.0528144904
 30
0.0
  0
SPLINE
  5
2D6
100
AcDbEntity
  8
0
100
AcDbSpline
 62
7
  6
BYLAYER
 70
0
 71
3
 72
12
 73
8
 74
0
 42
0.0000001
 43
0.0000001
 44
0.0000000001
 40
0.0
 40
0.0
 40
0.0
 40
0.0
 40
0.2494391725
 40
0.5118828344
 40
0.7678903161
 40
0.8879731963
 40
1.0
 40
1.0
 40
1.0
 40
1.0
 10
66.7305232367
 20
57.6654415109
 30
0.0
 10
66.550350091
 20
57.816190512
 30
0.0
 10
66.2182701572
 20
58.1719070691
 30
0.0
 10
65.8347804473
 20
58.7893940044
 30
0.0
 10
65.6176713795
 20
59.3553421691
 30
0.0
 10
65.5265697929
 20
59.8067912734
 30
0.0
 10
65.5100076621
 20
60.0255734749
 30
0.0
 10
65.5100076621
 20
60.1310797123
 30
0.0
  0
SPLINE
  5
2D7
100
AcDbEntity
  8
0
100
AcDbSpline
 62
7
  6
BYLAYER
 70
0
 71
3
 72
17
 73
13
 74
0
 42
0.0000001
 43
0.0000001
 44
0.0000000001
 40
0.0
 40
0.0
 40
0.0
 40
0.0
 40
0.1264064558
 40
0.2652137888
 40
0.4099564701
 40
0.553139683
 40
0.6875471708
 40
0.8074923054
 40
0.8612228025
 40
0.9107807999
 40
0.9567124296
 40
1.0
 40
1.0
 40
1.0
 40
1.0
 10
54.9597786101
 20
85.0461497521
 30
0.0
 10
54.9597786101
 20
84.8428057245
 30
0.0
 10
55.0139493812
 20
84.4156789038
 30
0.0
 10
55.2180457419
 20
83.7855144574
 30
0.0
 10
55.5344437919
 20
83.1729319324
 30
0.0
 10
55.9398341872
 20
82.6239018816
 30
0.0
 10
56.40382539
 20
82.1791247188
 30
0.0
 10
56.8278417418
 20
81.9125024711
 30
0.0
 10
57.1659893938
 20
81.7879802576
 30
0.0
 10
57.4028447954
 20
81.7419875237
 30
0.0
 10
57.6275374207
 20
81.7410681521
 30
0.0
 10
57.7692105097
 20
81.7720969933
 30
0.0
 10
57.8349257427
 20
81.7951294096
 30
0.0
  0
SPLINE
  5
2D8
100
AcDbEntity
  8
0
100
AcDbSpline
 62
7
  6
BYLAYER
 70
0
 71
3
 72
15
 73
11
 74
0
 42
0.0000001
 43
0.0000001
 44
0.0000000001
 40
0.0
 40
0.0
 40
0.0
 40
0.0
 40
0.1116873393
 40
0.2333910131
 40
0.3625574037
 40
0.495932286
 40
0.6298826728
 40
0.7606922391
 40
0.8850742294
 40
1.0
 40
1.0
 40
1.0
 40
1.0
 10
52.6976515728
 20
64.317821758
 30
0.0
 10
52.6128237507
 20
64.3606806516
 30
0.0
 10
52.4441281307
 20
64.4676543051
 30
0.0
 10
52.211120715
 20
64.671279597
 30
0.0
 10
51.994768788
 20
64.9176161233
 30
0.0
 10
51.8038612331
 20
65.1967504047
 30
0.0
 10
51.6460901566
 20
65.4974315643
 30
0.0
 10
51.5277316345
 20
65.8076134471
 30
0.0
 10
51.4537714912
 20
66.1146524553
 30
0.0
 10
51.4350427926
 20
66.3184807805
 30
0.0
 10
51.4350427926
 20
66.416276744
 30
0.0
  0
ENDSEC
  0
SECTION
  2
OBJECTS
  0
DICTIONARY
  5
C
100
AcDbDictionary
280
0
281
1
  3
ACAD_GROUP
350
D
  3
ACAD_MLINESTYLE
350
17
  3
ACAD_LAYOUT
350
1A
  3
ACAD_PLOTSETTINGS
350
19
  3
ACAD_PLOTSTYLENAME
350
E
  0
DICTIONARY
  5
D
102
{ACAD_REACTORS
330
C
102
}
100
AcDbDictionary
280
0
281
1
  0
ACDBDICTIONARYWDFLT
  5
E
102
{ACAD_REACTORS
330
C
102
}
100
AcDbDictionary
281
1
  3
Normal
350
F
100
AcDbDictionaryWithDefault
340
F
  0
DICTIONARY
  5
17
102
{ACAD_REACTORS
330
C
102
}
100
AcDbDictionary
280
0
281
1
  3
Standard
350
18
  0
DICTIONARY
  5
19
102
{ACAD_REACTORS
330
C
102
}
100
AcDbDictionary
281
1
  0
DICTIONARY
  5
1A
102
{ACAD_REACTORS
330
C
102
}
100
AcDbDictionary
281
1
  3
Model
350
2D9
  3
Layout1
350
2DA
  0
ACDBPLACEHOLDER
  5
F
102
{ACAD_REACTORS
330
E
102
}
  0
MLINESTYLE
  5
18
102
{ACAD_REACTORS
330
17
102
}
100
AcDbMlineStyle
  2
STANDARD
 70
0
  3

 62
256
 51
90.0
 52
90.0
 71
2
 49
0.5
 62
256
  6
BYLAYER
 49
-0.5
 62
256
  6
BYLAYER
  0
LAYOUT
  5
2D9
102
{ACAD_REACTORS
330
1A
102
}
100
AcDbPlotSettings
  1

  2
none_device
  4

  6

 40
0.0
 41
0.0
 42
0.0
 43
0.0
 44
210.0
 45
297.0
 46
0.0
 47
0.0
 48
0.0
 49
0.0
140
0.0
141
0.0
142
1.0
143
1.0
 70
1024
 72
1
 73
0
 74
0
  7

 75
0
147
1.0
148
0.0
149
0.0
100
AcDbLayout
  1
Model
 70
0
 71
0
 10
0.0
 20
0.0
 11
210.0
 21
297.0
 12
0.0
 22
0.0
 32
0.0
 14
0.0
 24
0.0
 34
0.0
 15
0.0
 25
0.0
 35
0.0
146
0.0
 13
0.0
 23
0.0
 33
0.0
 16
1.0
 26
0.0
 36
0.0
 17
0.0
 27
1.0
 37
0.0
 76
0
330
210
345
0
346
0
  0
LAYOUT
  5
2DA
102
{ACAD_REACTORS
330
1A
102
}
100
AcDbPlotSettings
  1

  2
none_device
  4

  6

 40
0.0
 41
0.0
 42
0.0
 43
0.0
 44
210.0
 45
297.0
 46
0.0
 47
0.0
 48
0.0
 49
0.0
140
0.0
141
0.0
142
1.0
143
1.0
 70
0
 72
1
 73
0
 74
0
  7

 75
0
147
1.0
148
0.0
149
0.0
100
AcDbLayout
  1
Layout1
 70
0
 71
1
 10
0.0
 20
0.0
 11
210.0
 21
297.0
 12
0.0
 22
0.0
 32
0.0
 14
0.0
 24
0.0
 34
0.0
 15
0.0
 25
0.0
 35
0.0
146
0.0
 13
0.0
 23
0.0
 33
0.0
 16
1.0
 26
0.0
 36
0.0
 17
0.0
 27
1.0
 37
0.0
 76
0
330
211
345
0
346
0
  0
ENDSEC
  0
EOF
