999
DXF file: C:\Users\sesa63760\Dev\_Creo\CAD\MCADID0002807_3D-CAD\drw0001_5.dxf
999
Pro/ENGINEER 2019471 by Parametric Technology Corporation
  0
SECTION
  2
HEADER
  9
$ACADVER
  1
AC1024
  9
$DWGCODEPAGE
  3
ANSI_1252
  9
$EXTMAX
 10
42.7740982418
 20
60.4947960848
 30
0.0
  9
$EXTMIN
 10
0.0
 20
0.0
 30
0.0
  9
$LIMMIN
 10
0.0
 20
0.0
  9
$LIMMAX
 10
42.7740982418
 20
60.4947960848
  9
$VIEWCTR
 10
21.3870491209
 20
30.2473980424
  9
$VIEWSIZE
 40
60.4947960848
  9
$CLAYER
  8
0
  9
$LTSCALE
 40
3.9433644855
  9
$CELTYPE
  6
BYLAYER
  9
$DIMSCALE
 40
1.0
  9
$DIMASZ
 40
0.5092154553
  9
$DIMEXO
 40
1.0
  9
$DIMDLI
 40
2.7245063718
  9
$DIMEXE
 40
1.0
  9
$DIMCEN
 40
0.6452778249
  9
$DIMLFAC
 40
1.0
  9
$DIMBLK
  1
_FILLED
  9
$DIMALT
 70
0
  9
$DIMALTF
 40
0.0393700787
  9
$DIMTXT
 40
0.7129016374
  9
$DIMTOL
 70
1
  9
$DIMLIM
 70
0
  9
$DIMTFAC
 40
1.0
  9
$DIMTP
 40
0.01
  9
$DIMTM
 40
0.01
  9
$DIMGAP
 40
0.625
  9
$DIMDSEP
 70
46
  9
$AUNITS
 70
0
  9
$PDMODE
 70
3
  9
$PDSIZE
 40
0.3125
  9
$HANDSEED
  5
244
  9
$TILEMODE
 70
1
  9
$MEASUREMENT
 70
1
  9
$INSUNITS
 70
4
  0
ENDSEC
  0
SECTION
  2
CLASSES
  0
CLASS
  1
ACDBDICTIONARYWDFLT
  2
AcDbDictionaryWithDefault
  3
AutoCAD 2000
 90
0
 91
1
280
0
281
0
  0
CLASS
  1
ACDBPLACEHOLDER
  2
AcDbPlaceHolder
  3
AutoCAD 2000
 90
0
 91
1
280
0
281
0
  0
CLASS
  1
LAYOUT
  2
AcDbLayout
  3
AutoCAD 2000
 90
0
 91
0
280
0
281
0
  0
ENDSEC
  0
SECTION
  2
TABLES
  0
TABLE
  2
VPORT
  5
8
100
AcDbSymbolTable
 70
2
  0
VPORT
  5
1F4
100
AcDbSymbolTableRecord
100
AcDbViewportTableRecord
  2
*ACTIVE
 70
0
 10
0.0
 20
0.0
 11
1.0
 21
1.0
 12
21.3870491209
 22
30.2473980424
 13
0.0
 23
0.0
 14
1.0
 24
1.0
 15
0.0
 25
0.0
 16
0.0
 26
0.0
 36
1.0
 17
0.0
 27
0.0
 37
0.0
 40
60.4947960848
 41
0.7070707071
 42
50.0
 43
0.0
 44
0.0
 50
0.0
 51
0.0
 71
0
 72
100
 73
1
 74
1
 75
0
 76
0
 77
0
 78
0
  0
ENDTAB
  0
TABLE
  2
LTYPE
  5
5
100
AcDbSymbolTable
 70
6
  0
LTYPE
  5
14
100
AcDbSymbolTableRecord
100
AcDbLinetypeTableRecord
  2
BYBLOCK
 70
0
  3

 72
65
 73
0
 40
0.0
  0
LTYPE
  5
15
100
AcDbSymbolTableRecord
100
AcDbLinetypeTableRecord
  2
BYLAYER
 70
0
  3

 72
65
 73
0
 40
0.0
  0
LTYPE
  5
16
100
AcDbSymbolTableRecord
100
AcDbLinetypeTableRecord
  2
CONTINUOUS
 70
64
  3
Solid line
 72
65
 73
0
 40
0.0
  0
LTYPE
  5
1F5
100
AcDbSymbolTableRecord
100
AcDbLinetypeTableRecord
  2
CENTER
 70
64
  3
____ _ ____ _ ____ _ ____ _ ____ _ ____ _ ____
 72
65
 73
4
 40
0.6
 49
0.375
 74
0
 49
-0.075
 74
0
 49
0.075
 74
0
 49
-0.075
 74
0
  0
LTYPE
  5
1F6
100
AcDbSymbolTableRecord
100
AcDbLinetypeTableRecord
  2
HIDDEN
 70
64
  3
- - - - - - - - - - - - - - - - - - - -
 72
65
 73
2
 40
0.2
 49
0.1
 74
0
 49
-0.1
 74
0
  0
LTYPE
  5
1F7
100
AcDbSymbolTableRecord
100
AcDbLinetypeTableRecord
  2
PHANTOM
 70
64
  3
_____ _ _ _____ _ _ _____ _ _ _____
 72
65
 73
6
 40
0.8
 49
0.45
 74
0
 49
-0.05
 74
0
 49
0.1
 74
0
 49
-0.05
 74
0
 49
0.1
 74
0
 49
-0.05
 74
0
  0
LTYPE
  5
1F8
100
AcDbSymbolTableRecord
100
AcDbLinetypeTableRecord
  2
DOT
 70
64
  3
. . . . . . . . . . . . . . . . . . . .
 72
65
 73
2
 40
0.2
 49
0.1
 74
0
 49
-0.1
 74
0
  0
LTYPE
  5
1F9
100
AcDbSymbolTableRecord
100
AcDbLinetypeTableRecord
  2
DASHED
 70
64
  3
- - - - - - - - - - - - - - - - - - - -
 72
65
 73
2
 40
0.2
 49
0.1
 74
0
 49
-0.1
 74
0
  0
ENDTAB
  0
TABLE
  2
LAYER
  5
2
100
AcDbSymbolTable
 70
36
  0
LAYER
  5
10
100
AcDbSymbolTableRecord
100
AcDbLayerTableRecord
  2
0
 70
0
 62
7
  6
CONTINUOUS
370
-3
390
F
  0
LAYER
  5
1FA
100
AcDbSymbolTableRecord
100
AcDbLayerTableRecord
  2
DEFAULT_1
 70
0
 62
7
  6
CENTER
370
-3
390
F
  0
LAYER
  5
1FB
100
AcDbSymbolTableRecord
100
AcDbLayerTableRecord
  2
DEFAULT_2
 70
0
 62
7
  6
HIDDEN
370
-3
390
F
  0
LAYER
  5
1FC
100
AcDbSymbolTableRecord
100
AcDbLayerTableRecord
  2
DEFAULT_3
 70
0
 62
7
  6
PHANTOM
370
-3
390
F
  0
LAYER
  5
1FD
100
AcDbSymbolTableRecord
100
AcDbLayerTableRecord
  2
00_COMPONENTS
 70
0
 62
7
  6
CONTINUOUS
370
-3
390
F
  0
LAYER
  5
1FE
100
AcDbSymbolTableRecord
100
AcDbLayerTableRecord
  2
01_1_DEFAULT_DATUMS
 70
0
 62
7
  6
CONTINUOUS
370
-3
390
F
  0
LAYER
  5
1FF
100
AcDbSymbolTableRecord
100
AcDbLayerTableRecord
  2
01_PLANES
 70
0
 62
7
  6
CONTINUOUS
370
-3
390
F
  0
LAYER
  5
200
100
AcDbSymbolTableRecord
100
AcDbLayerTableRecord
  2
02_COORD_SYS
 70
0
 62
7
  6
CONTINUOUS
370
-3
390
F
  0
LAYER
  5
201
100
AcDbSymbolTableRecord
100
AcDbLayerTableRecord
  2
03_AXES
 70
0
 62
7
  6
CONTINUOUS
370
-3
390
F
  0
LAYER
  5
202
100
AcDbSymbolTableRecord
100
AcDbLayerTableRecord
  2
04_POINTS
 70
0
 62
7
  6
CONTINUOUS
370
-3
390
F
  0
LAYER
  5
203
100
AcDbSymbolTableRecord
100
AcDbLayerTableRecord
  2
05_CURVES
 70
0
 62
7
  6
CONTINUOUS
370
-3
390
F
  0
LAYER
  5
204
100
AcDbSymbolTableRecord
100
AcDbLayerTableRecord
  2
06_SURFS
 70
0
 62
7
  6
CONTINUOUS
370
-3
390
F
  0
LAYER
  5
205
100
AcDbSymbolTableRecord
100
AcDbLayerTableRecord
  2
07_COSMETICS
 70
0
 62
7
  6
CONTINUOUS
370
-3
390
F
  0
LAYER
  5
206
100
AcDbSymbolTableRecord
100
AcDbLayerTableRecord
  2
10_NOTES
 70
0
 62
7
  6
CONTINUOUS
370
-3
390
F
  0
LAYER
  5
207
100
AcDbSymbolTableRecord
100
AcDbLayerTableRecord
  2
11_NOTES_PUB
 70
0
 62
7
  6
CONTINUOUS
370
-3
390
F
  0
LAYER
  5
208
100
AcDbSymbolTableRecord
100
AcDbLayerTableRecord
  2
13_REF_GTOL
 70
0
 62
7
  6
CONTINUOUS
370
-3
390
F
  0
LAYER
  5
209
100
AcDbSymbolTableRecord
100
AcDbLayerTableRecord
  2
16_MISC
 70
0
 62
7
  6
CONTINUOUS
370
-3
390
F
  0
LAYER
  5
20A
100
AcDbSymbolTableRecord
100
AcDbLayerTableRecord
  2
17_NO_PRINT
 70
0
 62
7
  6
CONTINUOUS
370
-3
390
F
  0
LAYER
  5
20B
100
AcDbSymbolTableRecord
100
AcDbLayerTableRecord
  2
18_DATUM_CAMS_JOINTS
 70
0
 62
7
  6
CONTINUOUS
370
-3
390
F
  0
LAYER
  5
20C
100
AcDbSymbolTableRecord
100
AcDbLayerTableRecord
  2
19_DATUM_FUNCTIONAL
 70
0
 62
7
  6
CONTINUOUS
370
-3
390
F
  0
LAYER
  5
20D
100
AcDbSymbolTableRecord
100
AcDbLayerTableRecord
  2
20_DATUM_KINEMATIC_SCHEME
 70
0
 62
7
  6
CONTINUOUS
370
-3
390
F
  0
ENDTAB
  0
TABLE
  2
STYLE
  5
3
100
AcDbSymbolTable
 70
1
  0
STYLE
  5
11
100
AcDbSymbolTableRecord
100
AcDbTextStyleTableRecord
  2
STANDARD
 70
0
 40
0.0
 41
1.0
 50
0.0
 71
0
 42
0.2
  3
ARIAL.TTF
  4

  0
STYLE
  5
20E
100
AcDbSymbolTableRecord
100
AcDbTextStyleTableRecord
  2
TEXTSTYLE_1
 70
0
 40
0.0
 41
0.8
 50
0.0
 71
0
 42
0.2
  3
gdt
  4

  0
ENDTAB
  0
TABLE
  2
VIEW
  5
6
100
AcDbSymbolTable
 70
0
  0
ENDTAB
  0
TABLE
  2
UCS
  5
7
100
AcDbSymbolTable
 70
0
  0
ENDTAB
  0
TABLE
  2
APPID
  5
9
100
AcDbSymbolTable
 70
1
  0
APPID
  5
20F
100
AcDbSymbolTableRecord
100
AcDbRegAppTableRecord
  2
ACAD
 70
0
  0
ENDTAB
  0
TABLE
  2
BLOCK_RECORD
  5
1
100
AcDbSymbolTable
 70
0
  0
BLOCK_RECORD
  5
210
100
AcDbSymbolTableRecord
100
AcDbBlockTableRecord
  2
*Model_Space
  0
BLOCK_RECORD
  5
211
100
AcDbSymbolTableRecord
100
AcDbBlockTableRecord
  2
*Paper_Space
  0
BLOCK_RECORD
  5
212
100
AcDbSymbolTableRecord
100
AcDbBlockTableRecord
  2
_FILLED
  0
ENDTAB
  0
TABLE
  2
DIMSTYLE
  5
A
100
AcDbSymbolTable
 70
1
100
AcDbDimStyleTable
 71
0
  0
DIMSTYLE
105
213
100
AcDbSymbolTableRecord
100
AcDbDimStyleTableRecord
  2
STANDARD
 70
0
  3

  4

 40
1.0
 41
0.5092154553
 42
1.0
 43
0.38
 44
1.0
 45
0.0
 46
0.0
 47
0.01
 48
0.01
140
0.7129016374
141
0.09
142
0.0
143
25.4
144
1.0
145
0.0
146
1.0
147
0.625
 71
1
 72
0
 73
0
 74
0
 75
0
 76
0
 77
1
 78
8
 79
2
170
0
171
1
172
0
173
0
174
0
175
0
176
0
177
0
178
0
270
2
179
2
271
2
272
2
273
2
274
2
275
0
280
0
281
0
282
0
283
1
284
8
285
0
286
0
287
3
288
0
340
11
278
46
341
212
342
212
343
212
344
212
  0
ENDTAB
  0
ENDSEC
  0
SECTION
  2
BLOCKS
  0
BLOCK
  5
20
100
AcDbEntity
  8
0
100
AcDbBlockBegin
  2
*Model_Space
 70
0
 10
0.0
 20
0.0
 30
0.0
  3
*Model_Space
  1

  0
ENDBLK
  5
21
100
AcDbEntity
  8
0
100
AcDbBlockEnd
  0
BLOCK
  5
1C
100
AcDbEntity
  8
0
100
AcDbBlockBegin
  2
*Paper_Space
 70
0
 10
0.0
 20
0.0
 30
0.0
  3
*Paper_Space
  1

  0
ENDBLK
  5
1D
100
AcDbEntity
  8
0
100
AcDbBlockEnd
  0
BLOCK
  5
214
100
AcDbEntity
  8
0
100
AcDbBlockBegin
  2
_FILLED
 70
64
 10
0.0
 20
0.0
  3
_FILLED
  1

  0
SOLID
  5
215
100
AcDbEntity
  8
0
  6
BYBLOCK
 62
0
100
AcDbTrace
 10
0.0
 20
0.0
 11
-1.0
 21
0.25
 12
-1.0
 22
-0.25
 13
-1.0
 23
-0.25
  0
ENDBLK
  5
216
100
AcDbEntity
  8
0
  6
BYBLOCK
 62
0
100
AcDbBlockEnd
  0
ENDSEC
  0
SECTION
  2
ENTITIES
  0
LINE
  5
217
100
AcDbEntity
  8
0
100
AcDbLine
 62
7
  6
BYLAYER
 10
6.6294094253
 20
24.1714430804
 11
6.6294094253
 21
36.9714431304
  0
LINE
  5
218
100
AcDbEntity
  8
0
100
AcDbLine
 62
7
  6
BYLAYER
 10
9.1294094253
 20
34.9714430804
 11
9.1294094252
 21
39.4714430804
  0
LINE
  5
219
100
AcDbEntity
  8
0
100
AcDbLine
 62
7
  6
BYLAYER
 10
11.8814094253
 20
24.1714430804
 11
11.8814094253
 21
32.4714430804
  0
LINE
  5
21A
100
AcDbEntity
  8
0
100
AcDbLine
 62
7
  6
BYLAYER
 10
38.9727456571
 20
21.1714430804
 11
4.9860731934
 21
21.1714430804
  0
LINE
  5
21B
100
AcDbEntity
  8
0
100
AcDbLine
 62
7
  6
BYLAYER
 10
37.3294094253
 20
24.1714430804
 11
6.6294094253
 21
24.1714430804
  0
LINE
  5
21C
100
AcDbEntity
  8
0
100
AcDbLine
 62
7
  6
BYLAYER
 10
21.9794099456
 20
36.3723412108
 11
21.9794091564
 21
35.5195296168
  0
LINE
  5
21D
100
AcDbEntity
  8
0
100
AcDbLine
 62
7
  6
BYLAYER
 10
6.6294094253
 20
32.4714430804
 11
37.3294094253
 21
32.4714430804
  0
LINE
  5
21E
100
AcDbEntity
  8
0
100
AcDbLine
 62
7
  6
BYLAYER
 10
9.1294093772
 20
34.9714430804
 11
34.8294094733
 21
34.9714430804
  0
LINE
  5
21F
100
AcDbEntity
  8
0
100
AcDbLine
 62
7
  6
BYLAYER
 10
15.2232331462
 20
35.3668495264
 11
28.7355919867
 21
35.3668482805
  0
LINE
  5
220
100
AcDbEntity
  8
0
100
AcDbLine
 62
7
  6
BYLAYER
 10
27.179409425
 20
35.5196643374
 11
16.7794094254
 21
35.5196643374
  0
LINE
  5
221
100
AcDbEntity
  8
0
100
AcDbLine
 62
7
  6
BYLAYER
 10
15.223191439
 20
35.3668412552
 11
13.2294094253
 21
34.9714430804
  0
LINE
  5
222
100
AcDbEntity
  8
0
100
AcDbLine
 62
7
  6
BYLAYER
 10
16.7794094253
 20
35.5196643374
 11
15.223191439
 21
35.3668412553
  0
LINE
  5
223
100
AcDbEntity
  8
0
100
AcDbLine
 62
7
  6
BYLAYER
 10
34.8294094253
 20
35.824289109
 11
29.5557202306
 21
35.824286985
  0
LINE
  5
224
100
AcDbEntity
  8
0
100
AcDbLine
 62
7
  6
BYLAYER
 10
14.4030984533
 20
35.8242869866
 11
9.1294094253
 21
35.8242891092
  0
LINE
  5
225
100
AcDbEntity
  8
0
100
AcDbLine
 62
7
  6
BYLAYER
 10
27.1794094253
 20
35.5196643374
 11
28.7356274114
 21
35.3668412552
  0
LINE
  5
226
100
AcDbEntity
  8
0
100
AcDbLine
 62
7
  6
BYLAYER
 10
28.7356274114
 20
35.3668412552
 11
30.7294094253
 21
34.9714430804
  0
LINE
  5
227
100
AcDbEntity
  8
0
100
AcDbLine
 62
7
  6
BYLAYER
 10
9.1294094252
 20
38.1921723894
 11
34.8294094253
 21
38.1921724038
  0
LINE
  5
228
100
AcDbEntity
  8
0
100
AcDbLine
 62
7
  6
BYLAYER
 10
34.8294094253
 20
39.4714430804
 11
9.1294094253
 21
39.4714430804
  0
LINE
  5
229
100
AcDbEntity
  8
0
100
AcDbLine
 62
7
  6
BYLAYER
 10
32.0774094307
 20
24.1714430804
 11
32.0774094307
 21
32.4714430804
  0
LINE
  5
22A
100
AcDbEntity
  8
0
100
AcDbLine
 62
7
  6
BYLAYER
 10
34.8294094253
 20
39.4714430804
 11
34.8294094253
 21
34.9714430804
  0
LINE
  5
22B
100
AcDbEntity
  8
0
100
AcDbLine
 62
7
  6
BYLAYER
 10
37.3294094253
 20
24.1714430804
 11
37.3294094253
 21
36.9714431304
  0
ARC
  5
22C
100
AcDbEntity
  8
0
100
AcDbCircle
 62
7
  6
BYLAYER
 10
3.0694094253
 20
24.1714430804
 40
3.56
100
AcDbArc
 50
302.5740178225
 51
360.0
  0
ARC
  5
22D
100
AcDbEntity
  8
0
100
AcDbCircle
 62
7
  6
BYLAYER
 10
40.8894094253
 20
24.1714430804
 40
3.56
100
AcDbArc
 50
180.0
 51
237.4259821775
  0
ARC
  5
22E
100
AcDbEntity
  8
0
100
AcDbCircle
 62
7
  6
BYLAYER
 10
34.8294094253
 20
36.9714430804
 40
2.5
100
AcDbArc
 50
0.0000011446
 51
90.0000000001
  0
ARC
  5
22F
100
AcDbEntity
  8
0
100
AcDbCircle
 62
7
  6
BYLAYER
 10
34.8294094253
 20
32.4714430804
 40
2.5
100
AcDbArc
 50
0.0000043861
 51
90.0
  0
ARC
  5
230
100
AcDbEntity
  8
0
100
AcDbCircle
 62
7
  6
BYLAYER
 10
9.1294094253
 20
32.4714430804
 40
2.5
100
AcDbArc
 50
90.0
 51
179.9999956123
  0
ARC
  5
231
100
AcDbEntity
  8
0
100
AcDbCircle
 62
7
  6
BYLAYER
 10
9.1294094252
 20
36.9714430804
 40
2.5
100
AcDbArc
 50
89.9999999998
 51
179.9999988553
  0
SPLINE
  5
232
100
AcDbEntity
  8
0
100
AcDbSpline
 62
7
  6
BYLAYER
 70
0
 71
3
 72
13
 73
9
 74
0
 42
0.0000001
 43
0.0000001
 44
0.0000000001
 40
0.0
 40
0.0
 40
0.0
 40
0.0
 40
0.2932597337
 40
0.5684688191
 40
0.6939995763
 40
0.8088664708
 40
0.9113981008
 40
1.0
 40
1.0
 40
1.0
 40
1.0
 10
11.8814094253
 20
24.1714430804
 30
0.0
 10
11.8814094253
 20
23.8771527131
 30
0.0
 10
11.8727037133
 20
23.3066519187
 30
0.0
 10
11.8396976789
 20
22.610832394
 30
0.0
 10
11.7995023981
 20
22.094941294
 30
0.0
 10
11.7647807747
 20
21.7525221577
 30
0.0
 10
11.7251551582
 20
21.4479720243
 30
0.0
 10
11.6935687276
 20
21.2587104865
 30
0.0
 10
11.676540175
 20
21.1714430804
 30
0.0
  0
SPLINE
  5
233
100
AcDbEntity
  8
0
100
AcDbSpline
 62
7
  6
BYLAYER
 70
0
 71
3
 72
13
 73
9
 74
0
 42
0.0000001
 43
0.0000001
 44
0.0000000001
 40
0.0
 40
0.0
 40
0.0
 40
0.0
 40
0.2932597337
 40
0.5684688191
 40
0.6939995763
 40
0.8088664708
 40
0.9113981008
 40
1.0
 40
1.0
 40
1.0
 40
1.0
 10
32.0774094253
 20
24.1714430804
 30
0.0
 10
32.0774094253
 20
23.8771527131
 30
0.0
 10
32.0861151372
 20
23.3066519187
 30
0.0
 10
32.1191211716
 20
22.610832394
 30
0.0
 10
32.1593164524
 20
22.094941294
 30
0.0
 10
32.1940380758
 20
21.7525221577
 30
0.0
 10
32.2336636923
 20
21.4479720243
 30
0.0
 10
32.2652501229
 20
21.2587104865
 30
0.0
 10
32.2822786755
 20
21.1714430804
 30
0.0
  0
SPLINE
  5
234
100
AcDbEntity
  8
0
100
AcDbSpline
 62
7
  6
BYLAYER
 70
0
 71
3
 72
18
 73
14
 74
0
 42
0.0000001
 43
0.0000001
 44
0.0000000001
 40
0.0
 40
0.0
 40
0.0
 40
0.0
 40
0.1553587172
 40
0.3067694108
 40
0.4505309993
 40
0.5837035508
 40
0.7043538384
 40
0.7598879958
 40
0.812328719
 40
0.8620010227
 40
0.9094026059
 40
0.9551654367
 40
1.0
 40
1.0
 40
1.0
 40
1.0
 10
34.8294094253
 20
38.1921724468
 30
0.0
 10
34.9922269873
 20
38.1921724468
 30
0.0
 10
35.3140297991
 20
38.1742189372
 30
0.0
 10
35.7804150368
 20
38.0941999426
 30
0.0
 10
36.2114093546
 20
37.9640141129
 30
0.0
 10
36.5909637387
 20
37.7885523036
 30
0.0
 10
36.8603340991
 20
37.6042834378
 30
0.0
 10
37.0343519611
 20
37.4389144483
 30
0.0
 10
37.1401975075
 20
37.3114935702
 30
0.0
 10
37.2238999929
 20
37.1784389262
 30
0.0
 10
37.2844849992
 20
37.0408975042
 30
0.0
 10
37.3211283954
 20
36.9003522324
 30
0.0
 10
37.3294094182
 20
36.8052185717
 30
0.0
 10
37.3294094253
 20
36.75823148
 30
0.0
  0
SPLINE
  5
235
100
AcDbEntity
  8
0
100
AcDbSpline
 62
7
  6
BYLAYER
 70
0
 71
3
 72
18
 73
14
 74
0
 42
0.0000001
 43
0.0000001
 44
0.0000000001
 40
0.0
 40
0.0
 40
0.0
 40
0.0
 40
0.0448322185
 40
0.0905880695
 40
0.137980774
 40
0.1876456244
 40
0.2400816285
 40
0.2956094986
 40
0.4162552517
 40
0.5494352982
 40
0.6932105878
 40
0.8446396578
 40
1.0
 40
1.0
 40
1.0
 40
1.0
 10
37.3294094253
 20
34.3903492409
 30
0.0
 10
37.3294094182
 20
34.4373338846
 30
0.0
 10
37.3211347285
 20
34.5324578945
 30
0.0
 10
37.284501434
 20
34.6729868404
 30
0.0
 10
37.2239216555
 20
34.8105032074
 30
0.0
 10
37.1402460035
 20
34.9435483776
 30
0.0
 10
37.034414426
 20
35.0709557432
 30
0.0
 10
36.8604318652
 20
35.236337778
 30
0.0
 10
36.5910639349
 20
35.4206078547
 30
0.0
 10
36.2115040237
 20
35.5960965969
 30
0.0
 10
35.7804721007
 20
35.7263054334
 30
0.0
 10
35.3140526616
 20
35.8063357313
 30
0.0
 10
34.9922287225
 20
35.8242902077
 30
0.0
 10
34.8294094253
 20
35.8242902077
 30
0.0
  0
SPLINE
  5
236
100
AcDbEntity
  8
0
100
AcDbSpline
 62
7
  6
BYLAYER
 70
0
 71
3
 72
24
 73
20
 74
0
 42
0.0000001
 43
0.0000001
 44
0.0000000001
 40
0.0
 40
0.0
 40
0.0
 40
0.0
 40
0.0060866783
 40
0.0130180759
 40
0.02136988
 40
0.0314690394
 40
0.0434932696
 40
0.0575318211
 40
0.0736187639
 40
0.0917621843
 40
0.134174659
 40
0.1845488723
 40
0.2424882232
 40
0.3075175958
 40
0.37904276
 40
0.4564266704
 40
0.6257788485
 40
0.809306126
 40
1.0
 40
1.0
 40
1.0
 40
1.0
 10
31.7657427905
 20
34.9714430804
 30
0.0
 10
31.7709318675
 20
34.971443078
 30
0.0
 10
31.7821001779
 20
34.96905803
 30
0.0
 10
31.7977225138
 20
34.9592194545
 30
0.0
 10
31.8129088853
 20
34.9436204364
 30
0.0
 10
31.8278625561
 20
34.9222828205
 30
0.0
 10
31.8426438633
 20
34.8951769739
 30
0.0
 10
31.8572442025
 20
34.8623115859
 30
0.0
 10
31.8716480259
 20
34.8237435523
 30
0.0
 10
31.891589462
 20
34.7615009231
 30
0.0
 10
31.9151557799
 20
34.6698389726
 30
0.0
 10
31.9409194396
 20
34.5439180859
 30
0.0
 10
31.9651249446
 20
34.3981047375
 30
0.0
 10
31.9874903663
 20
34.2337900857
 30
0.0
 10
32.0078084001
 20
34.0525215336
 30
0.0
 10
32.0325906474
 20
33.7823138735
 30
0.0
 10
32.0563994528
 20
33.4162067478
 30
0.0
 10
32.0735640076
 20
32.9530657129
 30
0.0
 10
32.0774094491
 20
32.6340153647
 30
0.0
 10
32.0774094491
 20
32.4714430804
 30
0.0
  0
SPLINE
  5
237
100
AcDbEntity
  8
0
100
AcDbSpline
 62
7
  6
BYLAYER
 70
0
 71
3
 72
24
 73
20
 74
0
 42
0.0000001
 43
0.0000001
 44
0.0000000001
 40
0.0
 40
0.0
 40
0.0
 40
0.0
 40
0.006086678
 40
0.0130180749
 40
0.0213698783
 40
0.0314690368
 40
0.0434932662
 40
0.057531817
 40
0.0736187591
 40
0.0917621789
 40
0.1341746525
 40
0.1845488653
 40
0.2424882158
 40
0.3075175883
 40
0.3790427527
 40
0.4564266636
 40
0.6257788435
 40
0.8093061233
 40
1.0
 40
1.0
 40
1.0
 40
1.0
 10
12.1930760819
 20
34.9714430804
 30
0.0
 10
12.1878870052
 20
34.9714430791
 30
0.0
 10
12.1767186951
 20
34.9690580334
 30
0.0
 10
12.161096359
 20
34.9592194606
 30
0.0
 10
12.1459099877
 20
34.943620445
 30
0.0
 10
12.130956317
 20
34.9222828314
 30
0.0
 10
12.1161750099
 20
34.8951769869
 30
0.0
 10
12.1015746709
 20
34.8623116009
 30
0.0
 10
12.0871708476
 20
34.823743569
 30
0.0
 10
12.0672294116
 20
34.7615009417
 30
0.0
 10
12.0436630939
 20
34.669838993
 30
0.0
 10
12.0178994344
 20
34.5439181077
 30
0.0
 10
11.9936939295
 20
34.3981047599
 30
0.0
 10
11.9713285079
 20
34.2337901079
 30
0.0
 10
11.9510104741
 20
34.0525215549
 30
0.0
 10
11.9262282269
 20
33.7823138922
 30
0.0
 10
11.9024194215
 20
33.4162067619
 30
0.0
 10
11.8852548667
 20
32.9530657204
 30
0.0
 10
11.8814094253
 20
32.6340153673
 30
0.0
 10
11.8814094253
 20
32.4714430804
 30
0.0
  0
SPLINE
  5
238
100
AcDbEntity
  8
0
100
AcDbSpline
 62
7
  6
BYLAYER
 70
0
 71
3
 72
18
 73
14
 74
0
 42
0.0000001
 43
0.0000001
 44
0.0000000001
 40
0.0
 40
0.0
 40
0.0
 40
0.0
 40
0.1553603423
 40
0.3067894126
 40
0.4505647022
 40
0.5837447489
 40
0.704390502
 40
0.7599183722
 40
0.8123543764
 40
0.8620192268
 40
0.9094119311
 40
0.9551677816
 40
1.0
 40
1.0
 40
1.0
 40
1.0
 10
9.1294094253
 20
35.8242902083
 30
0.0
 10
8.9665901279
 20
35.8242902083
 30
0.0
 10
8.6447661883
 20
35.8063357318
 30
0.0
 10
8.1783467487
 20
35.7263054338
 30
0.0
 10
7.7473148253
 20
35.596096597
 30
0.0
 10
7.367754914
 20
35.4206078543
 30
0.0
 10
7.0983869835
 20
35.2363377774
 30
0.0
 10
6.924404423
 20
35.0709557421
 30
0.0
 10
6.8185728456
 20
34.9435483762
 30
0.0
 10
6.7348971943
 20
34.8105032057
 30
0.0
 10
6.6743174156
 20
34.6729868396
 30
0.0
 10
6.6376841215
 20
34.5324578944
 30
0.0
 10
6.6294094323
 20
34.4373338851
 30
0.0
 10
6.6294094253
 20
34.3903492416
 30
0.0
  0
SPLINE
  5
239
100
AcDbEntity
  8
0
100
AcDbSpline
 62
7
  6
BYLAYER
 70
0
 71
3
 72
18
 73
14
 74
0
 42
0.0000001
 43
0.0000001
 44
0.0000000001
 40
0.0
 40
0.0
 40
0.0
 40
0.0
 40
0.0448323811
 40
0.0905870478
 40
0.1379744965
 40
0.1876316142
 40
0.2400608358
 40
0.2955809099
 40
0.4162133413
 40
0.5493918673
 40
0.6931728647
 40
0.8446244854
 40
1.0
 40
1.0
 40
1.0
 40
1.0
 10
6.6294094253
 20
36.7582314228
 30
0.0
 10
6.6294094323
 20
36.8052162353
 30
0.0
 10
6.6376850021
 20
36.9003391019
 30
0.0
 10
6.6743158036
 20
37.0408616799
 30
0.0
 10
6.7348855442
 20
37.178365971
 30
0.0
 10
6.8185459298
 20
37.3113964832
 30
0.0
 10
6.9243624234
 20
37.4387854894
 30
0.0
 10
7.0983069439
 20
37.6041644976
 30
0.0
 10
7.3676497027
 20
37.7884317217
 30
0.0
 10
7.747194563
 20
37.9639280188
 30
0.0
 10
8.17824651
 20
38.0941693839
 30
0.0
 10
8.6447112911
 20
38.1742078665
 30
0.0
 10
8.9665742322
 20
38.1921723895
 30
0.0
 10
9.1294094253
 20
38.1921723895
 30
0.0
  0
SPLINE
  5
23A
100
AcDbEntity
  8
0
100
AcDbSpline
 62
7
  6
BYLAYER
 70
0
 71
3
 72
11
 73
7
 74
0
 42
0.0000001
 43
0.0000001
 44
0.0000000001
 40
0.0
 40
0.0
 40
0.0
 40
0.0
 40
0.249600817
 40
0.4996623508
 40
0.7498277839
 40
1.0
 40
1.0
 40
1.0
 40
1.0
 10
16.8828957331
 20
36.1814825425
 30
0.0
 10
17.3040340146
 20
36.2357705288
 30
0.0
 10
18.1510291936
 20
36.3151356088
 30
0.0
 10
19.4260123756
 20
36.3651193669
 30
0.0
 10
20.7026471979
 20
36.3739276379
 30
0.0
 10
21.5538145947
 20
36.3723491263
 30
0.0
 10
21.9794095993
 20
36.3723414153
 30
0.0
  0
SPLINE
  5
23B
100
AcDbEntity
  8
0
100
AcDbSpline
 62
7
  6
BYLAYER
 70
0
 71
3
 72
10
 73
6
 74
0
 42
0.0000001
 43
0.0000001
 44
0.0000000001
 40
0.0
 40
0.0
 40
0.0
 40
0.0
 40
0.2003689044
 40
0.4360334603
 40
1.0
 40
1.0
 40
1.0
 40
1.0
 10
14.4877271634
 20
35.2136549606
 30
0.0
 10
14.4805088039
 20
35.2541960808
 30
0.0
 10
14.4660483068
 20
35.3426420384
 30
0.0
 10
14.4365389057
 20
35.5460327099
 30
0.0
 10
14.4163945218
 20
35.7091499056
 30
0.0
 10
14.4030983622
 20
35.8242880479
 30
0.0
  0
SPLINE
  5
23C
100
AcDbEntity
  8
0
100
AcDbSpline
 62
7
  6
BYLAYER
 70
0
 71
3
 72
9
 73
5
 74
0
 42
0.0000001
 43
0.0000001
 44
0.0000000001
 40
0.0
 40
0.0
 40
0.0
 40
0.0
 40
0.5002277715
 40
1.0
 40
1.0
 40
1.0
 40
1.0
 10
16.8828957331
 20
36.1814825425
 30
0.0
 10
16.4685590913
 20
36.1280739515
 30
0.0
 10
15.6412157111
 20
36.0138621425
 30
0.0
 10
14.8154711261
 20
35.8887724863
 30
0.0
 10
14.4030984533
 20
35.8242869866
 30
0.0
  0
SPLINE
  5
23D
100
AcDbEntity
  8
0
100
AcDbSpline
 62
7
  6
BYLAYER
 70
0
 71
3
 72
11
 73
7
 74
0
 42
0.0000001
 43
0.0000001
 44
0.0000000001
 40
0.0
 40
0.0
 40
0.0
 40
0.0
 40
0.2985720291
 40
0.5709734516
 40
0.8074182344
 40
1.0
 40
1.0
 40
1.0
 40
1.0
 10
16.8828977805
 20
36.1814830196
 30
0.0
 10
16.8958940568
 20
36.1138321765
 30
0.0
 10
16.9218152073
 20
35.9846623893
 30
0.0
 10
16.9622418046
 20
35.8027881286
 30
0.0
 10
17.0018735533
 20
35.6458616685
 30
0.0
 10
17.0298728903
 20
35.5508535042
 30
0.0
 10
17.0440530346
 20
35.5087435975
 30
0.0
  0
SPLINE
  5
23E
100
AcDbEntity
  8
0
100
AcDbSpline
 62
7
  6
BYLAYER
 70
0
 71
3
 72
11
 73
7
 74
0
 42
0.0000001
 43
0.0000001
 44
0.0000000001
 40
0.0
 40
0.0
 40
0.0
 40
0.0
 40
0.2496009346
 40
0.4996625881
 40
0.7498278732
 40
1.0
 40
1.0
 40
1.0
 40
1.0
 10
27.0759229748
 20
36.1814825607
 30
0.0
 10
26.6547845588
 20
36.2357705559
 30
0.0
 10
25.8077906769
 20
36.3151580834
 30
0.0
 10
24.5328050217
 20
36.3650880363
 30
0.0
 10
23.25617143
 20
36.3739173077
 30
0.0
 10
22.4050043861
 20
36.372351916
 30
0.0
 10
21.9794095993
 20
36.3723414153
 30
0.0
  0
SPLINE
  5
23F
100
AcDbEntity
  8
0
100
AcDbSpline
 62
7
  6
BYLAYER
 70
0
 71
3
 72
11
 73
7
 74
0
 42
0.0000001
 43
0.0000001
 44
0.0000000001
 40
0.0
 40
0.0
 40
0.0
 40
0.0
 40
0.298589682
 40
0.5709994751
 40
0.8074393596
 40
1.0
 40
1.0
 40
1.0
 40
1.0
 10
27.0759225422
 20
36.181480846
 30
0.0
 10
27.0629236946
 20
36.1138174297
 30
0.0
 10
27.0369975695
 20
35.9846254286
 30
0.0
 10
26.9965631168
 20
35.8027236331
 30
0.0
 10
26.9569243742
 20
35.6457819161
 30
0.0
 10
26.9289198663
 20
35.5507683317
 30
0.0
 10
26.9147368217
 20
35.508658584
 30
0.0
  0
SPLINE
  5
240
100
AcDbEntity
  8
0
100
AcDbSpline
 62
7
  6
BYLAYER
 70
0
 71
3
 72
9
 73
5
 74
0
 42
0.0000001
 43
0.0000001
 44
0.0000000001
 40
0.0
 40
0.0
 40
0.0
 40
0.0
 40
0.4997722218
 40
1.0
 40
1.0
 40
1.0
 40
1.0
 10
29.5557202306
 20
35.824286985
 30
0.0
 10
29.143347569
 20
35.888772498
 30
0.0
 10
28.317602987
 20
36.013862124
 30
0.0
 10
27.4902596233
 20
36.1280740049
 30
0.0
 10
27.0759229748
 20
36.1814825607
 30
0.0
  0
SPLINE
  5
241
100
AcDbEntity
  8
0
100
AcDbSpline
 62
7
  6
BYLAYER
 70
0
 71
3
 72
10
 73
6
 74
0
 42
0.0000001
 43
0.0000001
 44
0.0000000001
 40
0.0
 40
0.0
 40
0.0
 40
0.0
 40
0.2003686587
 40
0.4360328518
 40
1.0
 40
1.0
 40
1.0
 40
1.0
 10
29.4710878267
 20
35.2136553796
 30
0.0
 10
29.4783066706
 20
35.2541963585
 30
0.0
 10
29.4927644923
 20
35.342642651
 30
0.0
 10
29.5222705546
 20
35.5460337146
 30
0.0
 10
29.5424241468
 20
35.7091497912
 30
0.0
 10
29.5557203225
 20
35.824288047
 30
0.0
  0
ENDSEC
  0
SECTION
  2
OBJECTS
  0
DICTIONARY
  5
C
100
AcDbDictionary
280
0
281
1
  3
ACAD_GROUP
350
D
  3
ACAD_MLINESTYLE
350
17
  3
ACAD_LAYOUT
350
1A
  3
ACAD_PLOTSETTINGS
350
19
  3
ACAD_PLOTSTYLENAME
350
E
  0
DICTIONARY
  5
D
102
{ACAD_REACTORS
330
C
102
}
100
AcDbDictionary
280
0
281
1
  0
ACDBDICTIONARYWDFLT
  5
E
102
{ACAD_REACTORS
330
C
102
}
100
AcDbDictionary
281
1
  3
Normal
350
F
100
AcDbDictionaryWithDefault
340
F
  0
DICTIONARY
  5
17
102
{ACAD_REACTORS
330
C
102
}
100
AcDbDictionary
280
0
281
1
  3
Standard
350
18
  0
DICTIONARY
  5
19
102
{ACAD_REACTORS
330
C
102
}
100
AcDbDictionary
281
1
  0
DICTIONARY
  5
1A
102
{ACAD_REACTORS
330
C
102
}
100
AcDbDictionary
281
1
  3
Model
350
242
  3
Layout1
350
243
  0
ACDBPLACEHOLDER
  5
F
102
{ACAD_REACTORS
330
E
102
}
  0
MLINESTYLE
  5
18
102
{ACAD_REACTORS
330
17
102
}
100
AcDbMlineStyle
  2
STANDARD
 70
0
  3

 62
256
 51
90.0
 52
90.0
 71
2
 49
0.5
 62
256
  6
BYLAYER
 49
-0.5
 62
256
  6
BYLAYER
  0
LAYOUT
  5
242
102
{ACAD_REACTORS
330
1A
102
}
100
AcDbPlotSettings
  1

  2
none_device
  4

  6

 40
0.0
 41
0.0
 42
0.0
 43
0.0
 44
210.0
 45
297.0
 46
0.0
 47
0.0
 48
0.0
 49
0.0
140
0.0
141
0.0
142
1.0
143
1.0
 70
1024
 72
1
 73
0
 74
0
  7

 75
0
147
1.0
148
0.0
149
0.0
100
AcDbLayout
  1
Model
 70
0
 71
0
 10
0.0
 20
0.0
 11
210.0
 21
297.0
 12
0.0
 22
0.0
 32
0.0
 14
0.0
 24
0.0
 34
0.0
 15
0.0
 25
0.0
 35
0.0
146
0.0
 13
0.0
 23
0.0
 33
0.0
 16
1.0
 26
0.0
 36
0.0
 17
0.0
 27
1.0
 37
0.0
 76
0
330
210
345
0
346
0
  0
LAYOUT
  5
243
102
{ACAD_REACTORS
330
1A
102
}
100
AcDbPlotSettings
  1

  2
none_device
  4

  6

 40
0.0
 41
0.0
 42
0.0
 43
0.0
 44
210.0
 45
297.0
 46
0.0
 47
0.0
 48
0.0
 49
0.0
140
0.0
141
0.0
142
1.0
143
1.0
 70
0
 72
1
 73
0
 74
0
  7

 75
0
147
1.0
148
0.0
149
0.0
100
AcDbLayout
  1
Layout1
 70
0
 71
1
 10
0.0
 20
0.0
 11
210.0
 21
297.0
 12
0.0
 22
0.0
 32
0.0
 14
0.0
 24
0.0
 34
0.0
 15
0.0
 25
0.0
 35
0.0
146
0.0
 13
0.0
 23
0.0
 33
0.0
 16
1.0
 26
0.0
 36
0.0
 17
0.0
 27
1.0
 37
0.0
 76
0
330
211
345
0
346
0
  0
ENDSEC
  0
EOF
