999
DXF file: C:\Users\sesa63760\Dev\_Creo\CAD\MCADID0004727_3D-CAD\drw0001_1.dxf
999
Pro/ENGINEER 2019471 by Parametric Technology Corporation
  0
SECTION
  2
HEADER
  9
$ACADVER
  1
AC1024
  9
$DWGCODEPAGE
  3
ANSI_1252
  9
$EXTMAX
 10
407.9147327838
 20
576.9079792227
 30
0.0
  9
$EXTMIN
 10
0.0
 20
0.0
 30
0.0
  9
$LIMMIN
 10
0.0
 20
0.0
  9
$LIMMAX
 10
407.9147327838
 20
576.9079792227
  9
$VIEWCTR
 10
203.9573663919
 20
288.4539896114
  9
$VIEWSIZE
 40
576.9079792227
  9
$CLAYER
  8
0
  9
$LTSCALE
 40
37.6058534604
  9
$CELTYPE
  6
BYLAYER
  9
$DIMSCALE
 40
1.0
  9
$DIMASZ
 40
4.8561277712
  9
$DIMEXO
 40
1.0
  9
$DIMDLI
 40
25.9822260272
  9
$DIMEXE
 40
1.0
  9
$DIMCEN
 40
6.1536851117
  9
$DIMLFAC
 40
1.0
  9
$DIMBLK
  1
_FILLED
  9
$DIMALT
 70
0
  9
$DIMALTF
 40
0.0393700787
  9
$DIMTXT
 40
6.7985788797
  9
$DIMTOL
 70
1
  9
$DIMLIM
 70
0
  9
$DIMTFAC
 40
1.0
  9
$DIMTP
 40
0.01
  9
$DIMTM
 40
0.01
  9
$DIMGAP
 40
0.625
  9
$DIMDSEP
 70
46
  9
$AUNITS
 70
0
  9
$PDMODE
 70
3
  9
$PDSIZE
 40
0.3125
  9
$HANDSEED
  5
38A
  9
$TILEMODE
 70
1
  9
$MEASUREMENT
 70
1
  9
$INSUNITS
 70
4
  0
ENDSEC
  0
SECTION
  2
CLASSES
  0
CLASS
  1
ACDBDICTIONARYWDFLT
  2
AcDbDictionaryWithDefault
  3
AutoCAD 2000
 90
0
 91
1
280
0
281
0
  0
CLASS
  1
ACDBPLACEHOLDER
  2
AcDbPlaceHolder
  3
AutoCAD 2000
 90
0
 91
1
280
0
281
0
  0
CLASS
  1
LAYOUT
  2
AcDbLayout
  3
AutoCAD 2000
 90
0
 91
0
280
0
281
0
  0
ENDSEC
  0
SECTION
  2
TABLES
  0
TABLE
  2
VPORT
  5
8
100
AcDbSymbolTable
 70
2
  0
VPORT
  5
1F4
100
AcDbSymbolTableRecord
100
AcDbViewportTableRecord
  2
*ACTIVE
 70
0
 10
0.0
 20
0.0
 11
1.0
 21
1.0
 12
203.9573663919
 22
288.4539896114
 13
0.0
 23
0.0
 14
1.0
 24
1.0
 15
0.0
 25
0.0
 16
0.0
 26
0.0
 36
1.0
 17
0.0
 27
0.0
 37
0.0
 40
576.9079792227
 41
0.7070707071
 42
50.0
 43
0.0
 44
0.0
 50
0.0
 51
0.0
 71
0
 72
100
 73
1
 74
1
 75
0
 76
0
 77
0
 78
0
  0
ENDTAB
  0
TABLE
  2
LTYPE
  5
5
100
AcDbSymbolTable
 70
6
  0
LTYPE
  5
14
100
AcDbSymbolTableRecord
100
AcDbLinetypeTableRecord
  2
BYBLOCK
 70
0
  3

 72
65
 73
0
 40
0.0
  0
LTYPE
  5
15
100
AcDbSymbolTableRecord
100
AcDbLinetypeTableRecord
  2
BYLAYER
 70
0
  3

 72
65
 73
0
 40
0.0
  0
LTYPE
  5
16
100
AcDbSymbolTableRecord
100
AcDbLinetypeTableRecord
  2
CONTINUOUS
 70
64
  3
Solid line
 72
65
 73
0
 40
0.0
  0
LTYPE
  5
1F5
100
AcDbSymbolTableRecord
100
AcDbLinetypeTableRecord
  2
CENTER
 70
64
  3
____ _ ____ _ ____ _ ____ _ ____ _ ____ _ ____
 72
65
 73
4
 40
0.6
 49
0.375
 74
0
 49
-0.075
 74
0
 49
0.075
 74
0
 49
-0.075
 74
0
  0
LTYPE
  5
1F6
100
AcDbSymbolTableRecord
100
AcDbLinetypeTableRecord
  2
HIDDEN
 70
64
  3
- - - - - - - - - - - - - - - - - - - -
 72
65
 73
2
 40
0.2
 49
0.1
 74
0
 49
-0.1
 74
0
  0
LTYPE
  5
1F7
100
AcDbSymbolTableRecord
100
AcDbLinetypeTableRecord
  2
PHANTOM
 70
64
  3
_____ _ _ _____ _ _ _____ _ _ _____
 72
65
 73
6
 40
0.8
 49
0.45
 74
0
 49
-0.05
 74
0
 49
0.1
 74
0
 49
-0.05
 74
0
 49
0.1
 74
0
 49
-0.05
 74
0
  0
LTYPE
  5
1F8
100
AcDbSymbolTableRecord
100
AcDbLinetypeTableRecord
  2
DOT
 70
64
  3
. . . . . . . . . . . . . . . . . . . .
 72
65
 73
2
 40
0.2
 49
0.1
 74
0
 49
-0.1
 74
0
  0
LTYPE
  5
1F9
100
AcDbSymbolTableRecord
100
AcDbLinetypeTableRecord
  2
DASHED
 70
64
  3
- - - - - - - - - - - - - - - - - - - -
 72
65
 73
2
 40
0.2
 49
0.1
 74
0
 49
-0.1
 74
0
  0
ENDTAB
  0
TABLE
  2
LAYER
  5
2
100
AcDbSymbolTable
 70
36
  0
LAYER
  5
10
100
AcDbSymbolTableRecord
100
AcDbLayerTableRecord
  2
0
 70
0
 62
7
  6
CONTINUOUS
370
-3
390
F
  0
LAYER
  5
1FA
100
AcDbSymbolTableRecord
100
AcDbLayerTableRecord
  2
DEFAULT_1
 70
0
 62
7
  6
CENTER
370
-3
390
F
  0
LAYER
  5
1FB
100
AcDbSymbolTableRecord
100
AcDbLayerTableRecord
  2
DEFAULT_2
 70
0
 62
7
  6
HIDDEN
370
-3
390
F
  0
LAYER
  5
1FC
100
AcDbSymbolTableRecord
100
AcDbLayerTableRecord
  2
DEFAULT_3
 70
0
 62
7
  6
PHANTOM
370
-3
390
F
  0
LAYER
  5
1FD
100
AcDbSymbolTableRecord
100
AcDbLayerTableRecord
  2
00_COMPONENTS
 70
0
 62
7
  6
CONTINUOUS
370
-3
390
F
  0
LAYER
  5
1FE
100
AcDbSymbolTableRecord
100
AcDbLayerTableRecord
  2
01_1_DEFAULT_DATUMS
 70
0
 62
7
  6
CONTINUOUS
370
-3
390
F
  0
LAYER
  5
1FF
100
AcDbSymbolTableRecord
100
AcDbLayerTableRecord
  2
01_PLANES
 70
0
 62
7
  6
CONTINUOUS
370
-3
390
F
  0
LAYER
  5
200
100
AcDbSymbolTableRecord
100
AcDbLayerTableRecord
  2
02_COORD_SYS
 70
0
 62
7
  6
CONTINUOUS
370
-3
390
F
  0
LAYER
  5
201
100
AcDbSymbolTableRecord
100
AcDbLayerTableRecord
  2
03_AXES
 70
0
 62
7
  6
CONTINUOUS
370
-3
390
F
  0
LAYER
  5
202
100
AcDbSymbolTableRecord
100
AcDbLayerTableRecord
  2
04_POINTS
 70
0
 62
7
  6
CONTINUOUS
370
-3
390
F
  0
LAYER
  5
203
100
AcDbSymbolTableRecord
100
AcDbLayerTableRecord
  2
05_CURVES
 70
0
 62
7
  6
CONTINUOUS
370
-3
390
F
  0
LAYER
  5
204
100
AcDbSymbolTableRecord
100
AcDbLayerTableRecord
  2
06_SURFS
 70
0
 62
7
  6
CONTINUOUS
370
-3
390
F
  0
LAYER
  5
205
100
AcDbSymbolTableRecord
100
AcDbLayerTableRecord
  2
07_COSMETICS
 70
0
 62
7
  6
CONTINUOUS
370
-3
390
F
  0
LAYER
  5
206
100
AcDbSymbolTableRecord
100
AcDbLayerTableRecord
  2
10_NOTES
 70
0
 62
7
  6
CONTINUOUS
370
-3
390
F
  0
LAYER
  5
207
100
AcDbSymbolTableRecord
100
AcDbLayerTableRecord
  2
11_NOTES_PUB
 70
0
 62
7
  6
CONTINUOUS
370
-3
390
F
  0
LAYER
  5
208
100
AcDbSymbolTableRecord
100
AcDbLayerTableRecord
  2
13_REF_GTOL
 70
0
 62
7
  6
CONTINUOUS
370
-3
390
F
  0
LAYER
  5
209
100
AcDbSymbolTableRecord
100
AcDbLayerTableRecord
  2
16_MISC
 70
0
 62
7
  6
CONTINUOUS
370
-3
390
F
  0
LAYER
  5
20A
100
AcDbSymbolTableRecord
100
AcDbLayerTableRecord
  2
17_NO_PRINT
 70
0
 62
7
  6
CONTINUOUS
370
-3
390
F
  0
LAYER
  5
20B
100
AcDbSymbolTableRecord
100
AcDbLayerTableRecord
  2
18_DATUM_CAMS_JOINTS
 70
0
 62
7
  6
CONTINUOUS
370
-3
390
F
  0
LAYER
  5
20C
100
AcDbSymbolTableRecord
100
AcDbLayerTableRecord
  2
19_DATUM_FUNCTIONAL
 70
0
 62
7
  6
CONTINUOUS
370
-3
390
F
  0
LAYER
  5
20D
100
AcDbSymbolTableRecord
100
AcDbLayerTableRecord
  2
20_DATUM_KINEMATIC_SCHEME
 70
0
 62
7
  6
CONTINUOUS
370
-3
390
F
  0
ENDTAB
  0
TABLE
  2
STYLE
  5
3
100
AcDbSymbolTable
 70
1
  0
STYLE
  5
11
100
AcDbSymbolTableRecord
100
AcDbTextStyleTableRecord
  2
STANDARD
 70
0
 40
0.0
 41
1.0
 50
0.0
 71
0
 42
0.2
  3
ARIAL.TTF
  4

  0
STYLE
  5
20E
100
AcDbSymbolTableRecord
100
AcDbTextStyleTableRecord
  2
TEXTSTYLE_1
 70
0
 40
0.0
 41
0.8
 50
0.0
 71
0
 42
0.2
  3
gdt
  4

  0
ENDTAB
  0
TABLE
  2
VIEW
  5
6
100
AcDbSymbolTable
 70
0
  0
ENDTAB
  0
TABLE
  2
UCS
  5
7
100
AcDbSymbolTable
 70
0
  0
ENDTAB
  0
TABLE
  2
APPID
  5
9
100
AcDbSymbolTable
 70
1
  0
APPID
  5
20F
100
AcDbSymbolTableRecord
100
AcDbRegAppTableRecord
  2
ACAD
 70
0
  0
ENDTAB
  0
TABLE
  2
BLOCK_RECORD
  5
1
100
AcDbSymbolTable
 70
0
  0
BLOCK_RECORD
  5
210
100
AcDbSymbolTableRecord
100
AcDbBlockTableRecord
  2
*Model_Space
  0
BLOCK_RECORD
  5
211
100
AcDbSymbolTableRecord
100
AcDbBlockTableRecord
  2
*Paper_Space
  0
BLOCK_RECORD
  5
212
100
AcDbSymbolTableRecord
100
AcDbBlockTableRecord
  2
_FILLED
  0
ENDTAB
  0
TABLE
  2
DIMSTYLE
  5
A
100
AcDbSymbolTable
 70
1
100
AcDbDimStyleTable
 71
0
  0
DIMSTYLE
105
213
100
AcDbSymbolTableRecord
100
AcDbDimStyleTableRecord
  2
STANDARD
 70
0
  3

  4

 40
1.0
 41
4.8561277712
 42
1.0
 43
0.38
 44
1.0
 45
0.0
 46
0.0
 47
0.01
 48
0.01
140
6.7985788797
141
0.09
142
0.0
143
25.4
144
1.0
145
0.0
146
1.0
147
0.625
 71
1
 72
0
 73
0
 74
0
 75
0
 76
0
 77
1
 78
8
 79
2
170
0
171
1
172
0
173
0
174
0
175
0
176
0
177
0
178
0
270
2
179
2
271
2
272
2
273
2
274
2
275
0
280
0
281
0
282
0
283
1
284
8
285
0
286
0
287
3
288
0
340
11
278
46
341
212
342
212
343
212
344
212
  0
ENDTAB
  0
ENDSEC
  0
SECTION
  2
BLOCKS
  0
BLOCK
  5
20
100
AcDbEntity
  8
0
100
AcDbBlockBegin
  2
*Model_Space
 70
0
 10
0.0
 20
0.0
 30
0.0
  3
*Model_Space
  1

  0
ENDBLK
  5
21
100
AcDbEntity
  8
0
100
AcDbBlockEnd
  0
BLOCK
  5
1C
100
AcDbEntity
  8
0
100
AcDbBlockBegin
  2
*Paper_Space
 70
0
 10
0.0
 20
0.0
 30
0.0
  3
*Paper_Space
  1

  0
ENDBLK
  5
1D
100
AcDbEntity
  8
0
100
AcDbBlockEnd
  0
BLOCK
  5
214
100
AcDbEntity
  8
0
100
AcDbBlockBegin
  2
_FILLED
 70
64
 10
0.0
 20
0.0
  3
_FILLED
  1

  0
SOLID
  5
215
100
AcDbEntity
  8
0
  6
BYBLOCK
 62
0
100
AcDbTrace
 10
0.0
 20
0.0
 11
-1.0
 21
0.25
 12
-1.0
 22
-0.25
 13
-1.0
 23
-0.25
  0
ENDBLK
  5
216
100
AcDbEntity
  8
0
  6
BYBLOCK
 62
0
100
AcDbBlockEnd
  0
ENDSEC
  0
SECTION
  2
ENTITIES
  0
LINE
  5
217
100
AcDbEntity
  8
0
100
AcDbLine
 62
7
  6
BYLAYER
 10
57.6875004411
 20
389.0900225677
 11
57.852259843
 21
389.3753889504
  0
LINE
  5
218
100
AcDbEntity
  8
0
100
AcDbLine
 62
7
  6
BYLAYER
 10
63.741950946
 20
399.5764447103
 11
63.9067103479
 21
399.8618110931
  0
LINE
  5
219
100
AcDbEntity
  8
0
100
AcDbLine
 62
7
  6
BYLAYER
 10
66.179439931
 20
399.1169405346
 11
66.1287705132
 21
399.02918015
  0
LINE
  5
21A
100
AcDbEntity
  8
0
100
AcDbLine
 62
7
  6
BYLAYER
 10
59.5195942787
 20
387.5819626106
 11
59.4689073209
 21
387.4941718465
  0
LINE
  5
21B
100
AcDbEntity
  8
0
100
AcDbLine
 62
7
  6
BYLAYER
 10
60.5688829192
 20
386.8590367038
 11
60.6196027193
 21
386.9468843516
  0
LINE
  5
21C
100
AcDbEntity
  8
0
100
AcDbLine
 62
7
  6
BYLAYER
 10
67.2287789538
 20
398.3941018909
 11
67.2794155292
 21
398.4818053917
  0
LINE
  5
21D
100
AcDbEntity
  8
0
100
AcDbLine
 62
7
  6
BYLAYER
 10
63.7919815342
 20
385.9461666124
 11
64.471431487
 21
387.1229867094
  0
LINE
  5
21E
100
AcDbEntity
  8
0
100
AcDbLine
 62
7
  6
BYLAYER
 10
69.0022226844
 20
394.9704022755
 11
69.6816726372
 21
396.1472223724
  0
LINE
  5
21F
100
AcDbEntity
  8
0
100
AcDbLine
 62
7
  6
BYLAYER
 10
360.2188535693
 20
178.4973101742
 11
360.5688311191
 21
178.5319613931
  0
LINE
  5
220
100
AcDbEntity
  8
0
100
AcDbLine
 62
7
  6
BYLAYER
 10
347.5011587423
 20
195.8607264327
 11
347.4320803262
 21
195.8521786245
  0
LINE
  5
221
100
AcDbEntity
  8
0
100
AcDbLine
 62
7
  6
BYLAYER
 10
59.4163380413
 20
387.5866229602
 11
59.4689073209
 21
387.4941718465
  0
LINE
  5
222
100
AcDbEntity
  8
0
100
AcDbLine
 62
7
  6
BYLAYER
 10
333.5744302082
 20
201.5955987442
 11
336.3611479862
 21
200.8359967961
  0
LINE
  5
223
100
AcDbEntity
  8
0
100
AcDbLine
 62
7
  6
BYLAYER
 10
356.190331533
 20
174.6221966749
 11
351.9476731821
 21
177.071641202
  0
LINE
  5
224
100
AcDbEntity
  8
0
100
AcDbLine
 62
7
  6
BYLAYER
 10
358.4866577392
 20
173.7005850169
 11
356.3653285638
 21
174.9253072805
  0
LINE
  5
225
100
AcDbEntity
  8
0
100
AcDbLine
 62
7
  6
BYLAYER
 10
350.1012345412
 20
178.77274064
 11
348.8991480084
 21
179.4667499226
  0
LINE
  5
226
100
AcDbEntity
  8
0
100
AcDbLine
 62
7
  6
BYLAYER
 10
340.8866248428
 20
184.0926776767
 11
339.8647021949
 21
184.6826716452
  0
LINE
  5
227
100
AcDbEntity
  8
0
100
AcDbLine
 62
7
  6
BYLAYER
 10
340.9821055531
 20
184.2580588596
 11
347.8410698871
 21
180.2981235407
  0
LINE
  5
228
100
AcDbEntity
  8
0
100
AcDbLine
 62
7
  6
BYLAYER
 10
338.7802566145
 20
185.9795956891
 11
349.0167072016
 21
180.0697108488
  0
LINE
  5
229
100
AcDbEntity
  8
0
100
AcDbLine
 62
7
  6
BYLAYER
 10
343.2417449123
 20
183.7842995695
 11
349.1814666035
 21
180.3550772316
  0
LINE
  5
22A
100
AcDbEntity
  8
0
100
AcDbLine
 62
7
  6
BYLAYER
 10
339.0828536231
 20
186.8661029277
 11
337.4161601558
 21
187.8283470809
  0
LINE
  5
22B
100
AcDbEntity
  8
0
100
AcDbLine
 62
7
  6
BYLAYER
 10
331.5558066289
 20
191.5581554239
 11
337.0077174862
 21
188.4105644308
  0
LINE
  5
22C
100
AcDbEntity
  8
0
100
AcDbLine
 62
7
  6
BYLAYER
 10
343.0524912732
 20
185.4626541985
 11
339.3401818405
 21
187.6059069624
  0
LINE
  5
22D
100
AcDbEntity
  8
0
100
AcDbLine
 62
7
  6
BYLAYER
 10
357.8764848839
 20
177.5169425333
 11
360.6937420138
 21
175.8904351675
  0
LINE
  5
22E
100
AcDbEntity
  8
0
100
AcDbLine
 62
7
  6
BYLAYER
 10
359.9089306919
 20
177.1752802502
 11
357.8764978635
 21
178.348679345
  0
LINE
  5
22F
100
AcDbEntity
  8
0
100
AcDbLine
 62
7
  6
BYLAYER
 10
357.8765034476
 20
178.7065120718
 11
360.2188357305
 21
177.3541964912
  0
LINE
  5
230
100
AcDbEntity
  8
0
100
AcDbLine
 62
7
  6
BYLAYER
 10
328.4503598997
 20
196.4109844905
 11
224.3394051201
 21
256.5181124532
  0
LINE
  5
231
100
AcDbEntity
  8
0
100
AcDbLine
 62
7
  6
BYLAYER
 10
358.0449367842
 20
179.3945572707
 11
359.9089485307
 21
178.3183939332
  0
LINE
  5
232
100
AcDbEntity
  8
0
100
AcDbLine
 62
7
  6
BYLAYER
 10
223.9163205008
 20
257.6572628017
 11
189.4421352046
 21
277.5604926914
  0
LINE
  5
233
100
AcDbEntity
  8
0
100
AcDbLine
 62
7
  6
BYLAYER
 10
224.110355376
 20
258.6999688478
 11
189.4421532245
 21
278.7152118869
  0
LINE
  5
234
100
AcDbEntity
  8
0
100
AcDbLine
 62
7
  6
BYLAYER
 10
224.6830414465
 20
259.6972339792
 11
190.0171611919
 21
279.7111365009
  0
LINE
  5
235
100
AcDbEntity
  8
0
100
AcDbLine
 62
7
  6
BYLAYER
 10
225.4907982483
 20
260.3855443379
 11
191.0171570283
 21
280.2884601121
  0
LINE
  5
236
100
AcDbEntity
  8
0
100
AcDbLine
 62
7
  6
BYLAYER
 10
226.6894376825
 20
260.5884130492
 11
330.7984124229
 21
200.4824282368
  0
LINE
  5
237
100
AcDbEntity
  8
0
100
AcDbLine
 62
7
  6
BYLAYER
 10
361.8764320227
 20
184.4451762828
 11
364.6936741457
 21
182.818677581
  0
LINE
  5
238
100
AcDbEntity
  8
0
100
AcDbLine
 62
7
  6
BYLAYER
 10
343.8709582738
 20
195.4533349978
 11
347.5834197729
 21
193.3102193526
  0
LINE
  5
239
100
AcDbEntity
  8
0
100
AcDbLine
 62
7
  6
BYLAYER
 10
336.5557217938
 20
200.2184584407
 11
342.0114943756
 21
197.0686379305
  0
LINE
  5
23A
100
AcDbEntity
  8
0
100
AcDbLine
 62
7
  6
BYLAYER
 10
344.382938045
 20
196.0459234627
 11
342.7162335944
 21
197.0081739569
  0
LINE
  5
23B
100
AcDbEntity
  8
0
100
AcDbLine
 62
7
  6
BYLAYER
 10
355.0711577065
 20
190.5561329915
 11
349.1314360153
 21
193.9853553295
  0
LINE
  5
23C
100
AcDbEntity
  8
0
100
AcDbLine
 62
7
  6
BYLAYER
 10
86.8008712891
 20
384.8922771342
 11
84.7496379755
 21
386.9258043621
  0
LINE
  5
23D
100
AcDbEntity
  8
0
100
AcDbLine
 62
7
  6
BYLAYER
 10
355.2359171084
 20
190.8414993743
 11
344.9994061976
 21
196.7514169671
  0
LINE
  5
23E
100
AcDbEntity
  8
0
100
AcDbLine
 62
7
  6
BYLAYER
 10
354.4502461216
 20
191.7453410801
 11
347.5912817877
 21
195.7052763989
  0
LINE
  5
23F
100
AcDbEntity
  8
0
100
AcDbLine
 62
7
  6
BYLAYER
 10
356.9013287643
 20
190.5506317262
 11
355.6992422315
 21
191.2446410089
  0
LINE
  5
240
100
AcDbEntity
  8
0
100
AcDbLine
 62
7
  6
BYLAYER
 10
347.6867131812
 20
195.8705721605
 11
346.664796418
 21
196.4605627314
  0
LINE
  5
241
100
AcDbEntity
  8
0
100
AcDbLine
 62
7
  6
BYLAYER
 10
365.48653897
 20
185.8250092406
 11
363.3652097946
 21
187.0497315041
  0
LINE
  5
242
100
AcDbEntity
  8
0
100
AcDbLine
 62
7
  6
BYLAYER
 10
363.5402068254
 20
187.3528421097
 11
359.2975484745
 21
189.8022866368
  0
LINE
  5
243
100
AcDbEntity
  8
0
100
AcDbLine
 62
7
  6
BYLAYER
 10
54.3001902918
 20
389.6819941209
 11
56.9872072473
 21
388.1306792537
  0
LINE
  5
244
100
AcDbEntity
  8
0
100
AcDbLine
 62
7
  6
BYLAYER
 10
58.7720277806
 20
387.7930523588
 11
59.9741143134
 21
387.0990430761
  0
LINE
  5
245
100
AcDbEntity
  8
0
100
AcDbLine
 62
7
  6
BYLAYER
 10
67.5401883724
 20
382.7308670028
 11
69.0085601269
 21
381.8831213536
  0
LINE
  5
246
100
AcDbEntity
  8
0
100
AcDbLine
 62
7
  6
BYLAYER
 10
59.6231459172
 20
387.5221759397
 11
66.4821102511
 21
383.5622406208
  0
LINE
  5
247
100
AcDbEntity
  8
0
100
AcDbLine
 62
7
  6
BYLAYER
 10
57.6875004411
 20
389.0900225676
 11
67.9240340092
 21
383.1800918948
  0
LINE
  5
248
100
AcDbEntity
  8
0
100
AcDbLine
 62
7
  6
BYLAYER
 10
52.8366072598
 20
392.1435466767
 11
49.1434798031
 21
394.2757265716
  0
LINE
  5
249
100
AcDbEntity
  8
0
100
AcDbLine
 62
7
  6
BYLAYER
 10
57.852259843
 20
389.3753889504
 11
63.7919815342
 21
385.9461666125
  0
LINE
  5
24A
100
AcDbEntity
  8
0
100
AcDbLine
 62
7
  6
BYLAYER
 10
70.0427747391
 20
383.0180717879
 11
72.9571229508
 21
381.3355101279
  0
LINE
  5
24B
100
AcDbEntity
  8
0
100
AcDbLine
 62
7
  6
BYLAYER
 10
78.1781711725
 20
378.6676129239
 11
73.1072020877
 21
381.5952720575
  0
LINE
  5
24C
100
AcDbEntity
  8
0
100
AcDbLine
 62
7
  6
BYLAYER
 10
69.0525269057
 20
384.4781478964
 11
64.471431487
 21
387.1229867094
  0
LINE
  5
24D
100
AcDbEntity
  8
0
100
AcDbLine
 62
7
  6
BYLAYER
 10
188.9089178235
 20
317.6253678252
 11
82.8424590515
 21
378.8614810032
  0
LINE
  5
24E
100
AcDbEntity
  8
0
100
AcDbLine
 62
7
  6
BYLAYER
 10
85.3424936923
 20
383.1915880202
 11
191.4089524644
 21
321.9554748422
  0
LINE
  5
24F
100
AcDbEntity
  8
0
100
AcDbLine
 62
7
  6
BYLAYER
 10
69.0022226844
 20
394.9704022755
 11
73.5832356072
 21
392.3256150381
  0
LINE
  5
250
100
AcDbEntity
  8
0
100
AcDbLine
 62
7
  6
BYLAYER
 10
83.1776860662
 20
387.3281470321
 11
78.1071172525
 21
390.2555750744
  0
LINE
  5
251
100
AcDbEntity
  8
0
100
AcDbLine
 62
7
  6
BYLAYER
 10
75.3428481777
 20
392.1978986639
 11
78.2571963894
 21
390.515337004
  0
LINE
  5
252
100
AcDbEntity
  8
0
100
AcDbLine
 62
7
  6
BYLAYER
 10
69.6816726372
 20
396.1472223724
 11
63.741950946
 21
399.5764447103
  0
LINE
  5
253
100
AcDbEntity
  8
0
100
AcDbLine
 62
7
  6
BYLAYER
 10
58.8339025331
 20
402.5374130555
 11
55.1435629411
 21
404.6679834124
  0
LINE
  5
254
100
AcDbEntity
  8
0
100
AcDbLine
 62
7
  6
BYLAYER
 10
74.1431609004
 20
393.9519262729
 11
63.9067103479
 21
399.8618110931
  0
LINE
  5
255
100
AcDbEntity
  8
0
100
AcDbLine
 62
7
  6
BYLAYER
 10
73.0912864857
 20
395.0094581602
 11
66.2323221512
 21
398.9693934793
  0
LINE
  5
256
100
AcDbEntity
  8
0
100
AcDbLine
 62
7
  6
BYLAYER
 10
65.5721220037
 20
399.5709434451
 11
66.7742085365
 21
398.8769341624
  0
LINE
  5
257
100
AcDbEntity
  8
0
100
AcDbLine
 62
7
  6
BYLAYER
 10
74.3402825956
 20
394.508758089
 11
75.8086543501
 21
393.6610124398
  0
LINE
  5
258
100
AcDbEntity
  8
0
100
AcDbLine
 62
7
  6
BYLAYER
 10
61.7000647358
 20
402.4992425859
 11
64.3870816913
 21
400.9479277187
  0
LINE
  5
259
100
AcDbEntity
  8
0
100
AcDbLine
 62
7
  6
BYLAYER
 10
328.8724852561
 20
193.4514069506
 11
330.9237185697
 21
191.4178797227
  0
LINE
  5
25A
100
AcDbEntity
  8
0
100
AcDbLine
 62
7
  6
BYLAYER
 10
82.098926337
 20
376.7480853406
 11
79.312208559
 21
377.5076872888
  0
LINE
  5
25B
100
AcDbEntity
  8
0
100
AcDbLine
 62
7
  6
BYLAYER
 10
340.7752976772
 20
184.3225058801
 11
340.8278669569
 21
184.2300547664
  0
LINE
  5
25C
100
AcDbEntity
  8
0
100
AcDbLine
 62
7
  6
BYLAYER
 10
360.5688311191
 20
178.5319613931
 11
360.7138173359
 21
178.211513941
  0
LINE
  5
25D
100
AcDbEntity
  8
0
100
AcDbLine
 62
7
  6
BYLAYER
 10
66.179439931
 20
399.1169405346
 11
66.0730651442
 21
399.1161994975
  0
LINE
  5
25E
100
AcDbEntity
  8
0
100
AcDbLine
 62
7
  6
BYLAYER
 10
347.538399567
 20
195.8528234545
 11
347.5115397981
 21
195.8063018295
  0
LINE
  5
25F
100
AcDbEntity
  8
0
100
AcDbLine
 62
7
  6
BYLAYER
 10
340.8785539147
 20
184.3178455305
 11
340.8278669569
 21
184.2300547664
  0
LINE
  5
260
100
AcDbEntity
  8
0
100
AcDbLine
 62
7
  6
BYLAYER
 10
341.9278425551
 20
183.5949196237
 11
341.9785623553
 21
183.6827672715
  0
LINE
  5
261
100
AcDbEntity
  8
0
100
AcDbLine
 62
7
  6
BYLAYER
 10
348.5877385898
 20
195.1299848108
 11
348.6383751652
 21
195.2176883116
  0
LINE
  5
262
100
AcDbEntity
  8
0
100
AcDbLine
 62
7
  6
BYLAYER
 10
360.2188535693
 20
178.4973101742
 11
359.9089485307
 21
178.3183939332
  0
LINE
  5
263
100
AcDbEntity
  8
0
100
AcDbLine
 62
7
  6
BYLAYER
 10
355.2359171084
 20
190.8414993743
 11
355.0711577065
 21
190.5561329915
  0
LINE
  5
264
100
AcDbEntity
  8
0
100
AcDbLine
 62
7
  6
BYLAYER
 10
349.1814666035
 20
180.3550772316
 11
349.0167072016
 21
180.0697108488
  0
LINE
  5
265
100
AcDbEntity
  8
0
100
AcDbLine
 62
7
  6
BYLAYER
 10
359.9089306919
 20
177.1752802502
 11
360.2188357305
 21
177.3541964912
  0
ARC
  5
266
100
AcDbEntity
  8
0
100
AcDbCircle
 62
7
  6
BYLAYER
 10
-70.2798964349
 20
442.0943557474
 40
155.3480583232
100
AcDbArc
 50
340.9842383705
 51
341.3297032927
  0
ARC
  5
267
100
AcDbEntity
  8
0
100
AcDbCircle
 62
7
  6
BYLAYER
 10
-44.2428874724
 20
482.7171849414
 40
153.0754977397
100
AcDbArc
 50
318.6527514523
 51
319.0034245913
  0
ARC
  5
268
100
AcDbEntity
  8
0
100
AcDbCircle
 62
7
  6
BYLAYER
 10
-34.5843939154
 20
473.4375656865
 40
136.5810725204
100
AcDbArc
 50
318.6364585393
 51
319.358009115
  0
ARC
  5
269
100
AcDbEntity
  8
0
100
AcDbCircle
 62
7
  6
BYLAYER
 10
-55.2708749264
 20
437.5985470161
 40
136.5760600226
100
AcDbArc
 50
340.6410588155
 51
341.362630869
  0
ARC
  5
26A
100
AcDbEntity
  8
0
100
AcDbCircle
 62
7
  6
BYLAYER
 10
65.3480085635
 20
391.8472809406
 40
12.7575251481
100
AcDbArc
 50
149.9951328937
 51
154.0487630446
  0
ARC
  5
26B
100
AcDbEntity
  8
0
100
AcDbCircle
 62
7
  6
BYLAYER
 10
64.5260744703
 20
392.3212900873
 40
12.0676080426
100
AcDbArc
 50
149.9945315631
 51
154.0830684375
  0
ARC
  5
26C
100
AcDbEntity
  8
0
100
AcDbCircle
 62
7
  6
BYLAYER
 10
64.3509231927
 20
392.4083023958
 40
11.8720418259
100
AcDbArc
 50
154.0913134398
 51
154.560634999
  0
ARC
  5
26D
100
AcDbEntity
  8
0
100
AcDbCircle
 62
7
  6
BYLAYER
 10
56.5788638177
 20
396.6005636374
 40
8.7161839348
100
AcDbArc
 50
163.1489457187
 51
165.6745664704
  0
ARC
  5
26E
100
AcDbEntity
  8
0
100
AcDbCircle
 62
7
  6
BYLAYER
 10
65.685637752
 20
391.653491896
 40
7.9665175052
100
AcDbArc
 50
149.8282828564
 51
150.1710868491
  0
ARC
  5
26F
100
AcDbEntity
  8
0
100
AcDbCircle
 62
7
  6
BYLAYER
 10
51.1817040659
 20
396.6602977205
 40
3.2417901795
100
AcDbArc
 50
197.9231145391
 51
201.9737182414
  0
ARC
  5
270
100
AcDbEntity
  8
0
100
AcDbCircle
 62
7
  6
BYLAYER
 10
60.2855525985
 20
390.1019394433
 40
2.7835338892
100
AcDbArc
 50
213.7284458819
 51
214.1141317937
  0
ARC
  5
271
100
AcDbEntity
  8
0
100
AcDbCircle
 62
7
  6
BYLAYER
 10
63.0671817574
 20
398.7047316224
 40
2.6044816979
100
AcDbArc
 50
44.7462223102
 51
47.8905773901
  0
ARC
  5
272
100
AcDbEntity
  8
0
100
AcDbCircle
 62
7
  6
BYLAYER
 10
60.4174293898
 20
400.2346698969
 40
2.6043591839
100
AcDbArc
 50
72.1046062244
 51
75.2494599502
  0
ARC
  5
273
100
AcDbEntity
  8
0
100
AcDbCircle
 62
7
  6
BYLAYER
 10
58.2696602311
 20
390.3931252834
 40
2.6022712461
100
AcDbArc
 50
252.3065044696
 51
254.916343174
  0
ARC
  5
274
100
AcDbEntity
  8
0
100
AcDbCircle
 62
7
  6
BYLAYER
 10
58.2432287435
 20
390.3133665694
 40
2.5182524272
100
AcDbArc
 50
241.257187127
 51
252.3279031954
  0
ARC
  5
275
100
AcDbEntity
  8
0
100
AcDbCircle
 62
7
  6
BYLAYER
 10
60.4462041742
 20
400.3218917558
 40
2.5125153443
100
AcDbArc
 50
61.0148539567
 51
72.1178575316
  0
ARC
  5
276
100
AcDbEntity
  8
0
100
AcDbCircle
 62
7
  6
BYLAYER
 10
63.1294971659
 20
398.7745146579
 40
2.5109266173
100
AcDbArc
 50
47.8777245385
 51
59.9453809852
  0
ARC
  5
277
100
AcDbEntity
  8
0
100
AcDbCircle
 62
7
  6
BYLAYER
 10
60.4635519366
 20
400.3574361653
 40
2.4730174577
100
AcDbArc
 50
60.0011981853
 51
60.9673741613
  0
ARC
  5
278
100
AcDbEntity
  8
0
100
AcDbCircle
 62
7
  6
BYLAYER
 10
58.2229790247
 20
390.2718205258
 40
2.4720887329
100
AcDbArc
 50
240.008360573
 51
241.205643181
  0
ARC
  5
279
100
AcDbEntity
  8
0
100
AcDbCircle
 62
7
  6
BYLAYER
 10
65.5841191577
 20
396.7557983084
 40
2.4350358181
100
AcDbArc
 50
74.8827615713
 51
75.8488165111
  0
ARC
  5
27A
100
AcDbEntity
  8
0
100
AcDbCircle
 62
7
  6
BYLAYER
 10
58.8389024269
 20
390.3319804591
 40
2.4330288974
100
AcDbArc
 50
225.2794544957
 51
233.2655488097
  0
ARC
  5
27B
100
AcDbEntity
  8
0
100
AcDbCircle
 62
7
  6
BYLAYER
 10
65.5901693742
 20
396.7781343776
 40
2.4118948402
100
AcDbArc
 50
73.6370954915
 51
74.8831347546
  0
ARC
  5
27C
100
AcDbEntity
  8
0
100
AcDbCircle
 62
7
  6
BYLAYER
 10
61.1876115621
 20
389.161489153
 40
2.3945545033
100
AcDbArc
 50
224.1305346322
 51
229.3112782683
  0
ARC
  5
27D
100
AcDbEntity
  8
0
100
AcDbCircle
 62
7
  6
BYLAYER
 10
58.7809358292
 20
390.2563969673
 40
2.3377851636
100
AcDbArc
 50
233.2961438966
 51
239.980713326
  0
ARC
  5
27E
100
AcDbEntity
  8
0
100
AcDbCircle
 62
7
  6
BYLAYER
 10
65.6122840897
 20
396.8495676853
 40
2.3371249184
100
AcDbArc
 50
65.400242534
 51
73.6639345859
  0
ARC
  5
27F
100
AcDbEntity
  8
0
100
AcDbCircle
 62
7
  6
BYLAYER
 10
61.1349719677
 20
389.1008388959
 40
2.3142473676
100
AcDbArc
 50
229.3205316605
 51
234.6206448391
  0
ARC
  5
280
100
AcDbEntity
  8
0
100
AcDbCircle
 62
7
  6
BYLAYER
 10
61.1117313179
 20
389.0688161761
 40
2.2746820689
100
AcDbArc
 50
234.6309267059
 51
239.9919730434
  0
ARC
  5
281
100
AcDbEntity
  8
0
100
AcDbCircle
 62
7
  6
BYLAYER
 10
65.6369827671
 20
396.9069613339
 40
2.2746594021
100
AcDbArc
 50
60.003022852
 51
65.3641047734
  0
ARC
  5
282
100
AcDbEntity
  8
0
100
AcDbCircle
 62
7
  6
BYLAYER
 10
54.1413120197
 20
402.9320112756
 40
2.0045214315
100
AcDbArc
 50
60.0003232605
 51
64.3234283142
  0
ARC
  5
283
100
AcDbEntity
  8
0
100
AcDbCircle
 62
7
  6
BYLAYER
 10
77.3785704526
 20
388.9939390899
 40
1.7568822243
100
AcDbArc
 50
56.1981908376
 51
59.9930397531
  0
ARC
  5
284
100
AcDbEntity
  8
0
100
AcDbCircle
 62
7
  6
BYLAYER
 10
73.8355089188
 20
382.8570373824
 40
1.7568742399
100
AcDbArc
 50
236.1981908375
 51
243.784067642
  0
ARC
  5
285
100
AcDbEntity
  8
0
100
AcDbCircle
 62
7
  6
BYLAYER
 10
66.8173042216
 20
399.9856017577
 40
1.1725542034
100
AcDbArc
 50
237.4331467759
 51
240.0730423252
  0
ARC
  5
286
100
AcDbEntity
  8
0
100
AcDbCircle
 62
7
  6
BYLAYER
 10
66.6707801937
 20
399.754506371
 40
0.8989244353
100
AcDbArc
 50
236.085280356
 51
237.375169231
  0
ARC
  5
287
100
AcDbEntity
  8
0
100
AcDbCircle
 62
7
  6
BYLAYER
 10
447.5078551801
 20
106.4992950224
 40
136.5775516998
100
AcDbArc
 50
138.6381494398
 51
139.3597144598
  0
ARC
  5
288
100
AcDbEntity
  8
0
100
AcDbCircle
 62
7
  6
BYLAYER
 10
468.1943167736
 20
142.3329729617
 40
136.576083713
100
AcDbArc
 50
160.6410614081
 51
161.3626333424
  0
ARC
  5
289
100
AcDbEntity
  8
0
100
AcDbCircle
 62
7
  6
BYLAYER
 10
367.2092178447
 20
176.74753932
 40
12.7235732883
100
AcDbArc
 50
149.999364585
 51
151.3854979304
  0
ARC
  5
28A
100
AcDbEntity
  8
0
100
AcDbCircle
 62
7
  6
BYLAYER
 10
361.7568062805
 20
179.8948309477
 40
12.1390901618
100
AcDbArc
 50
149.9581714153
 51
150.1531680224
  0
ARC
  5
28B
100
AcDbEntity
  8
0
100
AcDbCircle
 62
7
  6
BYLAYER
 10
368.8931517589
 20
175.7753769944
 40
12.0164247141
100
AcDbArc
 50
149.691490874
 51
149.9994916938
  0
ARC
  5
28C
100
AcDbEntity
  8
0
100
AcDbCircle
 62
7
  6
BYLAYER
 10
355.7158170915
 20
183.3831265542
 40
10.9162580379
100
AcDbArc
 50
329.5614957468
 51
330.4411448266
  0
ARC
  5
28D
100
AcDbEntity
  8
0
100
AcDbCircle
 62
7
  6
BYLAYER
 10
366.6555105058
 20
177.0669140691
 40
6.8842506764
100
AcDbArc
 50
146.1903286303
 51
149.9970386917
  0
ARC
  5
28E
100
AcDbEntity
  8
0
100
AcDbCircle
 62
7
  6
BYLAYER
 10
358.75851368
 20
181.6265068575
 40
6.85336153
100
AcDbArc
 50
329.5245002932
 51
329.9994122218
  0
ARC
  5
28F
100
AcDbEntity
  8
0
100
AcDbCircle
 62
7
  6
BYLAYER
 10
366.6177551869
 20
177.0926484081
 40
6.8385606393
100
AcDbArc
 50
144.5378907601
 51
146.1934621734
  0
ARC
  5
290
100
AcDbEntity
  8
0
100
AcDbCircle
 62
7
  6
BYLAYER
 10
227.8128471834
 20
257.2263176206
 40
4.0108928778
100
AcDbArc
 50
141.6391211673
 51
158.4235179152
  0
ARC
  5
291
100
AcDbEntity
  8
0
100
AcDbCircle
 62
7
  6
BYLAYER
 10
227.5455524482
 20
257.4365617608
 40
3.6708224234
100
AcDbArc
 50
137.1507779296
 51
141.6230386032
  0
ARC
  5
292
100
AcDbEntity
  8
0
100
AcDbCircle
 62
7
  6
BYLAYER
 10
353.1715197409
 20
180.4723810162
 40
3.29229411
100
AcDbArc
 50
204.3158623462
 51
208.2966107187
  0
ARC
  5
293
100
AcDbEntity
  8
0
100
AcDbCircle
 62
7
  6
BYLAYER
 10
358.0523883476
 20
187.6406399323
 40
2.4945258523
100
AcDbArc
 50
60.0570320576
 51
72.1967857024
  0
ARC
  5
294
100
AcDbEntity
  8
0
100
AcDbCircle
 62
7
  6
BYLAYER
 10
353.193965718
 20
179.2264231253
 40
2.4891464942
100
AcDbArc
 50
228.5113237274
 51
239.9555738221
  0
ARC
  5
295
100
AcDbEntity
  8
0
100
AcDbCircle
 62
7
  6
BYLAYER
 10
362.3120315962
 20
185.2256048631
 40
2.4562327067
100
AcDbArc
 50
59.1397501093
 51
59.9997126142
  0
ARC
  5
296
100
AcDbEntity
  8
0
100
AcDbCircle
 62
7
  6
BYLAYER
 10
357.4178232212
 20
176.7487400249
 40
2.4552975602
100
AcDbArc
 50
239.3273042361
 51
240.0054269699
  0
ARC
  5
297
100
AcDbEntity
  8
0
100
AcDbCircle
 62
7
  6
BYLAYER
 10
346.9463369249
 20
193.5041309483
 40
2.4221673478
100
AcDbArc
 50
73.6396071929
 51
75.8515494865
  0
ARC
  5
298
100
AcDbEntity
  8
0
100
AcDbCircle
 62
7
  6
BYLAYER
 10
350.1126452571
 20
181.5291959995
 40
2.3945545032
100
AcDbArc
 50
224.1305346322
 51
229.3112782683
  0
ARC
  5
299
100
AcDbEntity
  8
0
100
AcDbCircle
 62
7
  6
BYLAYER
 10
342.546571198
 20
185.8973720728
 40
2.3945545032
100
AcDbArc
 50
224.1305346322
 51
229.3112782684
  0
ARC
  5
29A
100
AcDbEntity
  8
0
100
AcDbCircle
 62
7
  6
BYLAYER
 10
350.0600056628
 20
181.4685457424
 40
2.3142473676
100
AcDbArc
 50
229.3205316605
 51
234.6206448391
  0
ARC
  5
29B
100
AcDbEntity
  8
0
100
AcDbCircle
 62
7
  6
BYLAYER
 10
342.4939316038
 20
185.8367218159
 40
2.3142473677
100
AcDbArc
 50
229.3205316607
 51
234.620644839
  0
ARC
  5
29C
100
AcDbEntity
  8
0
100
AcDbCircle
 62
7
  6
BYLAYER
 10
350.036765013
 20
181.4365230226
 40
2.2746820689
100
AcDbArc
 50
234.6309267059
 51
239.9919730434
  0
ARC
  5
29D
100
AcDbEntity
  8
0
100
AcDbCircle
 62
7
  6
BYLAYER
 10
342.4706909536
 20
185.8046990955
 40
2.2746820682
100
AcDbArc
 50
234.6309267052
 51
239.9919730441
  0
ARC
  5
29E
100
AcDbEntity
  8
0
100
AcDbCircle
 62
7
  6
BYLAYER
 10
341.8378435271
 20
195.4866367445
 40
1.7568849134
100
AcDbArc
 50
60.0019728216
 51
63.8012921833
  0
ARC
  5
29F
100
AcDbEntity
  8
0
100
AcDbCircle
 62
7
  6
BYLAYER
 10
338.2947794891
 20
189.3497364158
 40
1.7568714925
100
AcDbArc
 50
236.2154230291
 51
239.9930863214
  0
ARC
  5
2A0
100
AcDbEntity
  8
0
100
AcDbCircle
 62
7
  6
BYLAYER
 10
332.3952752582
 20
193.0107500187
 40
1.6776891107
100
AcDbArc
 50
231.9944012365
 51
239.9759620373
  0
ARC
  5
2A1
100
AcDbEntity
  8
0
100
AcDbCircle
 62
7
  6
BYLAYER
 10
364.4280482358
 20
181.129647616
 40
1.1218851658
100
AcDbArc
 50
167.8094679712
 51
173.2573476597
  0
ARC
  5
2A2
100
AcDbEntity
  8
0
100
AcDbCircle
 62
7
  6
BYLAYER
 10
363.1780309153
 20
178.9645941075
 40
1.1218851657
100
AcDbArc
 50
167.8094679712
 51
173.2573476598
  0
ARC
  5
2A3
100
AcDbEntity
  8
0
100
AcDbCircle
 62
7
  6
BYLAYER
 10
361.9280586446
 20
179.686338588
 40
1.1218851657
100
AcDbArc
 50
167.8094679711
 51
173.2573476597
  0
ARC
  5
2A4
100
AcDbEntity
  8
0
100
AcDbCircle
 62
7
  6
BYLAYER
 10
364.428003186
 20
178.2428496271
 40
1.1218851658
100
AcDbArc
 50
167.8094679712
 51
173.2573476597
  0
ARC
  5
2A5
100
AcDbEntity
  8
0
100
AcDbCircle
 62
7
  6
BYLAYER
 10
361.9280135949
 20
176.799540599
 40
1.1218851658
100
AcDbArc
 50
167.8094679713
 51
173.2573476597
  0
ARC
  5
2A6
100
AcDbEntity
  8
0
100
AcDbCircle
 62
7
  6
BYLAYER
 10
362.0235401035
 20
176.9651250292
 40
1.1218153862
100
AcDbArc
 50
126.7457475367
 51
132.1929859144
  0
ARC
  5
2A7
100
AcDbEntity
  8
0
100
AcDbCircle
 62
7
  6
BYLAYER
 10
364.5235296946
 20
178.4084340573
 40
1.1218153862
100
AcDbArc
 50
126.7457475366
 51
132.1929859145
  0
ARC
  5
2A8
100
AcDbEntity
  8
0
100
AcDbCircle
 62
7
  6
BYLAYER
 10
362.0235851533
 20
179.8519230181
 40
1.1218153862
100
AcDbArc
 50
126.7457475367
 51
132.1929859143
  0
ARC
  5
2A9
100
AcDbEntity
  8
0
100
AcDbCircle
 62
7
  6
BYLAYER
 10
363.2735574239
 20
179.1301785377
 40
1.1218153862
100
AcDbArc
 50
126.7457475366
 51
132.1929859145
  0
ARC
  5
2AA
100
AcDbEntity
  8
0
100
AcDbCircle
 62
7
  6
BYLAYER
 10
364.5235747444
 20
181.2952320462
 40
1.1218153862
100
AcDbArc
 50
126.7457475367
 51
132.1929859145
  0
ARC
  5
2AB
100
AcDbEntity
  8
0
100
AcDbCircle
 62
7
  6
BYLAYER
 10
347.8048537572
 20
196.1760051565
 40
0.5122446005
100
AcDbArc
 50
230.6531506794
 51
233.1889836675
  0
SPLINE
  5
2AC
100
AcDbEntity
  8
0
100
AcDbSpline
 62
7
  6
BYLAYER
 70
0
 71
3
 72
19
 73
15
 74
0
 42
0.0000001
 43
0.0000001
 44
0.0000000001
 40
0.0
 40
0.0
 40
0.0
 40
0.0
 40
0.0453953767
 40
0.0940829486
 40
0.1481582472
 40
0.2086058251
 40
0.3468402368
 40
0.4999818206
 40
0.6531252565
 40
0.7913716362
 40
0.8518272153
 40
0.9059105752
 40
0.9546033303
 40
1.0
 40
1.0
 40
1.0
 40
1.0
 10
188.9089178235
 20
317.6253678252
 30
0.0
 10
188.9913160728
 20
317.5777903844
 30
0.0
 10
189.1808827435
 20
317.5091814556
 30
0.0
 10
189.4955191066
 20
317.5009424678
 30
0.0
 10
189.8311454751
 20
317.5819751108
 30
0.0
 10
190.3119108607
 20
317.8112574421
 30
0.0
 10
190.8845129452
 20
318.2937116132
 30
0.0
 10
191.439174384
 20
319.0511091837
 30
0.0
 10
191.8178203588
 20
319.9101633805
 30
0.0
 10
191.9493914235
 20
320.6473139604
 30
0.0
 10
191.9076155897
 20
321.1783722018
 30
0.0
 10
191.8099969123
 20
321.509602146
 30
0.0
 10
191.6455498314
 20
321.7780053142
 30
0.0
 10
191.4913530607
 20
321.9078960462
 30
0.0
 10
191.4089524644
 20
321.9554748422
 30
0.0
  0
SPLINE
  5
2AD
100
AcDbEntity
  8
0
100
AcDbSpline
 62
7
  6
BYLAYER
 70
0
 71
3
 72
11
 73
7
 74
0
 42
0.0000001
 43
0.0000001
 44
0.0000000001
 40
0.0
 40
0.0
 40
0.0
 40
0.0
 40
0.293571036
 40
0.5575940382
 40
0.7912383078
 40
1.0
 40
1.0
 40
1.0
 40
1.0
 10
87.3694574631
 20
382.0458250308
 30
0.0
 10
87.4212570693
 20
382.3353299204
 30
0.0
 10
87.4803518721
 20
382.8937044897
 30
0.0
 10
87.4197694055
 20
383.689408012
 30
0.0
 10
87.2059564785
 20
384.3718100804
 30
0.0
 10
86.949360907
 20
384.7449815298
 30
0.0
 10
86.8008249496
 20
384.8922107758
 30
0.0
  0
SPLINE
  5
2AE
100
AcDbEntity
  8
0
100
AcDbSpline
 62
7
  6
BYLAYER
 70
0
 71
3
 72
13
 73
9
 74
0
 42
0.0000001
 43
0.0000001
 44
0.0000000001
 40
0.0
 40
0.0
 40
0.0
 40
0.0
 40
0.3064804135
 40
0.5829887876
 40
0.7038400065
 40
0.8119237772
 40
0.9091423726
 40
1.0
 40
1.0
 40
1.0
 40
1.0
 10
78.8676533384
 20
384.0432150094
 30
0.0
 10
79.2214885109
 20
384.6560641829
 30
0.0
 10
80.0239514254
 20
385.7516574534
 30
0.0
 10
81.2863961898
 20
386.8137575468
 30
0.0
 10
82.3465825403
 20
387.3169351365
 30
0.0
 10
83.0859478978
 20
387.4931306325
 30
0.0
 10
83.7789040618
 20
387.4730106035
 30
0.0
 10
84.1954677214
 20
387.3191479987
 30
0.0
 10
84.3765534347
 20
387.2132254892
 30
0.0
  0
SPLINE
  5
2AF
100
AcDbEntity
  8
0
100
AcDbSpline
 62
7
  6
BYLAYER
 70
0
 71
3
 72
8
 73
4
 74
0
 42
0.0000001
 43
0.0000001
 44
0.0000000001
 40
0.0
 40
0.0
 40
0.0
 40
0.0
 40
1.0
 40
1.0
 40
1.0
 40
1.0
 10
84.3765534347
 20
387.2132254892
 30
0.0
 10
84.5120612581
 20
387.1339628657
 30
0.0
 10
84.6381497846
 20
387.0363190323
 30
0.0
 10
84.7496180117
 20
386.9257759728
 30
0.0
  0
SPLINE
  5
2B0
100
AcDbEntity
  8
0
100
AcDbSpline
 62
7
  6
BYLAYER
 70
0
 71
3
 72
9
 73
5
 74
0
 42
0.0000001
 43
0.0000001
 44
0.0000000001
 40
0.0
 40
0.0
 40
0.0
 40
0.0
 40
0.2463739349
 40
1.0
 40
1.0
 40
1.0
 40
1.0
 10
73.0594003447
 20
381.2808830194
 30
0.0
 10
73.1011188232
 20
381.2603375016
 30
0.0
 10
73.2736875408
 20
381.1836119243
 30
0.0
 10
73.4581635056
 20
381.1343316305
 30
0.0
 10
73.5987071828
 20
381.112382025
 30
0.0
  0
SPLINE
  5
2B1
100
AcDbEntity
  8
0
100
AcDbSpline
 62
7
  6
BYLAYER
 70
0
 71
3
 72
9
 73
5
 74
0
 42
0.0000001
 43
0.0000001
 44
0.0000000001
 40
0.0
 40
0.0
 40
0.0
 40
0.0
 40
0.2551086613
 40
1.0
 40
1.0
 40
1.0
 40
1.0
 10
78.7681472621
 20
390.0749887281
 30
0.0
 10
78.7381179693
 20
390.1120595978
 30
0.0
 10
78.6153488376
 20
390.2531758751
 30
0.0
 10
78.4717216737
 20
390.3763607292
 30
0.0
 10
78.3559624293
 20
390.4538500713
 30
0.0
  0
SPLINE
  5
2B2
100
AcDbEntity
  8
0
100
AcDbSpline
 62
7
  6
BYLAYER
 70
0
 71
3
 72
11
 73
7
 74
0
 42
0.0000001
 43
0.0000001
 44
0.0000000001
 40
0.0
 40
0.0
 40
0.0
 40
0.0
 40
0.2078437031
 40
0.4490471187
 40
0.7171327085
 40
1.0
 40
1.0
 40
1.0
 40
1.0
 10
57.852259843
 20
389.3753889504
 30
0.0
 10
57.6918749908
 20
389.7924511934
 30
0.0
 10
57.5193004984
 20
390.7609676016
 30
0.0
 10
57.6424467557
 20
392.3084345712
 30
0.0
 10
58.1068641808
 20
393.9565622477
 30
0.0
 10
58.6180780903
 20
395.0318805003
 30
0.0
 10
58.9221469886
 20
395.5585335509
 30
0.0
  0
SPLINE
  5
2B3
100
AcDbEntity
  8
0
100
AcDbSpline
 62
7
  6
BYLAYER
 70
0
 71
3
 72
9
 73
5
 74
0
 42
0.0000001
 43
0.0000001
 44
0.0000000001
 40
0.0
 40
0.0
 40
0.0
 40
0.0
 40
0.245220011
 40
1.0
 40
1.0
 40
1.0
 40
1.0
 10
58.7720277806
 20
387.7930523588
 30
0.0
 10
58.6945934077
 20
387.8377636156
 30
0.0
 10
58.3895825957
 20
388.0385944573
 30
0.0
 10
58.1353590891
 20
388.3129539128
 30
0.0
 10
57.9810035707
 20
388.5408133463
 30
0.0
  0
SPLINE
  5
2B4
100
AcDbEntity
  8
0
100
AcDbSpline
 62
7
  6
BYLAYER
 70
0
 71
3
 72
9
 73
5
 74
0
 42
0.0000001
 43
0.0000001
 44
0.0000000001
 40
0.0
 40
0.0
 40
0.0
 40
0.0
 40
0.2436211357
 40
1.0
 40
1.0
 40
1.0
 40
1.0
 10
57.9705471596
 20
388.5563616451
 30
0.0
 10
57.943283953
 20
388.5971968713
 30
0.0
 10
57.8358023655
 20
388.7677509442
 30
0.0
 10
57.7459611871
 20
388.9492357549
 30
0.0
 10
57.6875004411
 20
389.0900225677
 30
0.0
  0
SPLINE
  5
2B5
100
AcDbEntity
  8
0
100
AcDbSpline
 62
7
  6
BYLAYER
 70
0
 71
3
 72
9
 73
5
 74
0
 42
0.0000001
 43
0.0000001
 44
0.0000000001
 40
0.0
 40
0.0
 40
0.0
 40
0.0
 40
0.5189316327
 40
1.0
 40
1.0
 40
1.0
 40
1.0
 10
63.9067103479
 20
399.8618110931
 30
0.0
 10
64.2006904927
 20
399.9002334347
 30
0.0
 10
64.7818427315
 20
399.9021603951
 30
0.0
 10
65.3341026448
 20
399.7083778207
 30
0.0
 10
65.5721220037
 20
399.5709434451
 30
0.0
  0
SPLINE
  5
2B6
100
AcDbEntity
  8
0
100
AcDbSpline
 62
7
  6
BYLAYER
 70
0
 71
3
 72
11
 73
7
 74
0
 42
0.0000001
 43
0.0000001
 44
0.0000000001
 40
0.0
 40
0.0
 40
0.0
 40
0.0
 40
0.2828715115
 40
0.5509579358
 40
0.7921594396
 40
1.0
 40
1.0
 40
1.0
 40
1.0
 10
58.9221469886
 20
395.5585335509
 30
0.0
 10
59.2262141942
 20
396.0851836696
 30
0.0
 10
59.9018677776
 20
397.0655455648
 30
0.0
 10
61.0969839881
 20
398.291763705
 30
0.0
 10
62.3755483712
 20
399.1720867584
 30
0.0
 10
63.3005836279
 20
399.5068394811
 30
0.0
 10
63.741950946
 20
399.5764447103
 30
0.0
  0
SPLINE
  5
2B7
100
AcDbEntity
  8
0
100
AcDbSpline
 62
7
  6
BYLAYER
 70
0
 71
3
 72
9
 73
5
 74
0
 42
0.0000001
 43
0.0000001
 44
0.0000000001
 40
0.0
 40
0.0
 40
0.0
 40
0.0
 40
0.4659927687
 40
1.0
 40
1.0
 40
1.0
 40
1.0
 10
67.2794155292
 20
398.4818053917
 30
0.0
 10
67.355735011
 20
398.4031794366
 30
0.0
 10
67.5341807929
 20
398.249423899
 30
0.0
 10
67.7235407428
 20
398.1083436071
 30
0.0
 10
67.8322866581
 20
398.045560544
 30
0.0
  0
SPLINE
  5
2B8
100
AcDbEntity
  8
0
100
AcDbSpline
 62
7
  6
BYLAYER
 70
0
 71
3
 72
9
 73
5
 74
0
 42
0.0000001
 43
0.0000001
 44
0.0000000001
 40
0.0
 40
0.0
 40
0.0
 40
0.0
 40
0.2531116696
 40
1.0
 40
1.0
 40
1.0
 40
1.0
 10
67.2794155292
 20
398.4818053917
 30
0.0
 10
67.2416578858
 20
398.5207041199
 30
0.0
 10
67.0874563414
 20
398.6694124476
 30
0.0
 10
66.9127387738
 20
398.7969456406
 30
0.0
 10
66.7742085365
 20
398.8769341624
 30
0.0
  0
SPLINE
  5
2B9
100
AcDbEntity
  8
0
100
AcDbSpline
 62
7
  6
BYLAYER
 70
0
 71
3
 72
9
 73
5
 74
0
 42
0.0000001
 43
0.0000001
 44
0.0000000001
 40
0.0
 40
0.0
 40
0.0
 40
0.0
 40
0.2411891523
 40
1.0
 40
1.0
 40
1.0
 40
1.0
 10
57.592473515
 20
387.8805103528
 30
0.0
 10
57.6761723211
 20
387.857946161
 30
0.0
 10
58.0277742167
 20
387.7815218719
 30
0.0
 10
58.3927803329
 20
387.7737449714
 30
0.0
 10
58.6643282617
 20
387.7990877361
 30
0.0
  0
SPLINE
  5
2BA
100
AcDbEntity
  8
0
100
AcDbSpline
 62
7
  6
BYLAYER
 70
0
 71
3
 72
9
 73
5
 74
0
 42
0.0000001
 43
0.0000001
 44
0.0000000001
 40
0.0
 40
0.0
 40
0.0
 40
0.0
 40
0.7476184245
 40
1.0
 40
1.0
 40
1.0
 40
1.0
 10
54.3002172365
 20
389.6820409439
 30
0.0
 10
54.1690592642
 20
389.757732966
 30
0.0
 10
54.002523448
 20
389.8757242536
 30
0.0
 10
53.8524261486
 20
390.0117892941
 30
0.0
 10
53.8155661507
 20
390.0472103873
 30
0.0
  0
SPLINE
  5
2BB
100
AcDbEntity
  8
0
100
AcDbSpline
 62
7
  6
BYLAYER
 70
0
 71
3
 72
13
 73
9
 74
0
 42
0.0000001
 43
0.0000001
 44
0.0000000001
 40
0.0
 40
0.0
 40
0.0
 40
0.0
 40
0.0935877879
 40
0.1948079169
 40
0.3058732844
 40
0.427569963
 40
0.6998623017
 40
1.0
 40
1.0
 40
1.0
 40
1.0
 10
53.8155661507
 20
390.0472103873
 30
0.0
 10
53.639955233
 20
390.2159659766
 30
0.0
 10
53.3230663307
 20
390.6203106702
 30
0.0
 10
52.9940510657
 20
391.3517061253
 30
0.0
 10
52.8004566369
 20
392.2040291076
 30
0.0
 10
52.7243107381
 20
393.5209184378
 30
0.0
 10
53.0041960965
 20
395.3252085493
 30
0.0
 10
53.5351314053
 20
396.7276995748
 30
0.0
 10
53.8768654011
 20
397.4300510821
 30
0.0
  0
SPLINE
  5
2BC
100
AcDbEntity
  8
0
100
AcDbSpline
 62
7
  6
BYLAYER
 70
0
 71
3
 72
9
 73
5
 74
0
 42
0.0000001
 43
0.0000001
 44
0.0000000001
 40
0.0
 40
0.0
 40
0.0
 40
0.0
 40
0.2531099328
 40
1.0
 40
1.0
 40
1.0
 40
1.0
 10
73.7455139901
 20
394.7487644612
 30
0.0
 10
73.7980781397
 20
394.7355106635
 30
0.0
 10
74.0039571823
 20
394.6763058214
 30
0.0
 10
74.2017533887
 20
394.5887460157
 30
0.0
 10
74.3402825956
 20
394.508758089
 30
0.0
  0
SPLINE
  5
2BD
100
AcDbEntity
  8
0
100
AcDbSpline
 62
7
  6
BYLAYER
 70
0
 71
3
 72
9
 73
5
 74
0
 42
0.0000001
 43
0.0000001
 44
0.0000000001
 40
0.0
 40
0.0
 40
0.0
 40
0.0
 40
0.534019742
 40
1.0
 40
1.0
 40
1.0
 40
1.0
 10
73.0912864857
 20
395.0094581602
 30
0.0
 10
73.2000346227
 20
394.9466738143
 30
0.0
 10
73.4168945213
 20
394.8532282181
 30
0.0
 10
73.6392675387
 20
394.7755539933
 30
0.0
 10
73.7455139901
 20
394.7487644612
 30
0.0
  0
SPLINE
  5
2BE
100
AcDbEntity
  8
0
100
AcDbSpline
 62
7
  6
BYLAYER
 70
0
 71
3
 72
9
 73
5
 74
0
 42
0.0000001
 43
0.0000001
 44
0.0000000001
 40
0.0
 40
0.0
 40
0.0
 40
0.0
 40
0.1640081854
 40
1.0
 40
1.0
 40
1.0
 40
1.0
 10
66.0731180819
 20
399.1162815628
 30
0.0
 10
66.0715948144
 20
399.1136471083
 30
0.0
 10
66.0686484072
 20
399.0941799556
 30
0.0
 10
66.0845073142
 20
399.0787556826
 30
0.0
 10
66.0952656267
 20
399.0675811437
 30
0.0
  0
SPLINE
  5
2BF
100
AcDbEntity
  8
0
100
AcDbSpline
 62
7
  6
BYLAYER
 70
0
 71
3
 72
9
 73
5
 74
0
 42
0.0000001
 43
0.0000001
 44
0.0000000001
 40
0.0
 40
0.0
 40
0.0
 40
0.0
 40
0.204812122
 40
1.0
 40
1.0
 40
1.0
 40
1.0
 10
66.0952656267
 20
399.0675811437
 30
0.0
 10
66.0997517806
 20
399.0629214258
 30
0.0
 10
66.1227057367
 20
399.0411855437
 30
0.0
 10
66.1483807827
 20
399.0225344244
 30
0.0
 10
66.1692178207
 20
399.0085168763
 30
0.0
  0
SPLINE
  5
2C0
100
AcDbEntity
  8
0
100
AcDbSpline
 62
7
  6
BYLAYER
 70
0
 71
3
 72
14
 73
10
 74
0
 42
0.0000001
 43
0.0000001
 44
0.0000000001
 40
0.0
 40
0.0
 40
0.0
 40
0.0
 40
0.0923612978
 40
0.1872103326
 40
0.2917171712
 40
0.4098462082
 40
0.5423055336
 40
0.6873285363
 40
1.0
 40
1.0
 40
1.0
 40
1.0
 10
79.3122210285
 20
377.5077142021
 30
0.0
 10
79.0924541809
 20
377.5675838156
 30
0.0
 10
78.6641044061
 20
377.7720758729
 30
0.0
 10
78.1679309668
 20
378.3136228956
 30
0.0
 10
77.8480960962
 20
379.0403578686
 30
0.0
 10
77.7066714573
 20
379.9117362407
 30
0.0
 10
77.7427008195
 20
380.8919895693
 30
0.0
 10
78.0291925541
 20
382.3231412969
 30
0.0
 10
78.4821022632
 20
383.3754332959
 30
0.0
 10
78.8676533384
 20
384.0432150094
 30
0.0
  0
SPLINE
  5
2C1
100
AcDbEntity
  8
0
100
AcDbSpline
 62
7
  6
BYLAYER
 70
0
 71
3
 72
11
 73
7
 74
0
 42
0.0000001
 43
0.0000001
 44
0.0000000001
 40
0.0
 40
0.0
 40
0.0
 40
0.0
 40
0.2087317355
 40
0.4423654234
 40
0.7064026957
 40
1.0
 40
1.0
 40
1.0
 40
1.0
 10
82.0989600237
 20
376.7481573578
 30
0.0
 10
82.300858932
 20
376.6930989554
 30
0.0
 10
82.7526601511
 20
376.6575214529
 30
0.0
 10
83.4510174757
 20
376.813864326
 30
0.0
 10
84.1708759765
 20
377.159781469
 30
0.0
 10
84.6251561738
 20
377.4905982143
 30
0.0
 10
84.850091935
 20
377.6804659011
 30
0.0
  0
SPLINE
  5
2C2
100
AcDbEntity
  8
0
100
AcDbSpline
 62
7
  6
BYLAYER
 70
0
 71
3
 72
9
 73
5
 74
0
 42
0.0000001
 43
0.0000001
 44
0.0000000001
 40
0.0
 40
0.0
 40
0.0
 40
0.0
 40
0.5189363433
 40
1.0
 40
1.0
 40
1.0
 40
1.0
 10
76.893181973
 20
392.3640415486
 30
0.0
 10
76.7794797021
 20
392.6378625694
 30
0.0
 10
76.4906055518
 20
393.1421515769
 30
0.0
 10
76.0466767398
 20
393.5235763142
 30
0.0
 10
75.8086543501
 20
393.6610124398
 30
0.0
  0
SPLINE
  5
2C3
100
AcDbEntity
  8
0
100
AcDbSpline
 62
7
  6
BYLAYER
 70
0
 71
3
 72
9
 73
5
 74
0
 42
0.0000001
 43
0.0000001
 44
0.0000000001
 40
0.0
 40
0.0
 40
0.0
 40
0.0
 40
0.4810681046
 40
1.0
 40
1.0
 40
1.0
 40
1.0
 10
69.0085601269
 20
381.8831213536
 30
0.0
 10
69.246579544
 20
381.7456869444
 30
0.0
 10
69.7988388981
 20
381.5519006667
 30
0.0
 10
70.3799920057
 20
381.5538312875
 30
0.0
 10
70.6739725156
 20
381.5922538013
 30
0.0
  0
SPLINE
  5
2C4
100
AcDbEntity
  8
0
100
AcDbSpline
 62
7
  6
BYLAYER
 70
0
 71
3
 72
9
 73
5
 74
0
 42
0.0000001
 43
0.0000001
 44
0.0000000001
 40
0.0
 40
0.0
 40
0.0
 40
0.0
 40
0.7468883304
 40
1.0
 40
1.0
 40
1.0
 40
1.0
 10
67.5401883724
 20
382.7308670028
 30
0.0
 10
67.4016581352
 20
382.8108555245
 30
0.0
 10
67.2269405677
 20
382.9383887174
 30
0.0
 10
67.0727390234
 20
383.087097045
 30
0.0
 10
67.03498138
 20
383.1259957731
 30
0.0
  0
SPLINE
  5
2C5
100
AcDbEntity
  8
0
100
AcDbSpline
 62
7
  6
BYLAYER
 70
0
 71
3
 72
9
 73
5
 74
0
 42
0.0000001
 43
0.0000001
 44
0.0000000001
 40
0.0
 40
0.0
 40
0.0
 40
0.0
 40
0.4659489235
 40
1.0
 40
1.0
 40
1.0
 40
1.0
 10
60.5688829192
 20
386.8590367038
 30
0.0
 10
60.6751222115
 20
386.8322489769
 30
0.0
 10
60.8974949409
 20
386.7545743366
 30
0.0
 10
61.1143559206
 20
386.6611310261
 30
0.0
 10
61.2231104237
 20
386.5983430049
 30
0.0
  0
SPLINE
  5
2C6
100
AcDbEntity
  8
0
100
AcDbSpline
 62
7
  6
BYLAYER
 70
0
 71
3
 72
9
 73
5
 74
0
 42
0.0000001
 43
0.0000001
 44
0.0000000001
 40
0.0
 40
0.0
 40
0.0
 40
0.0
 40
0.7468900672
 40
1.0
 40
1.0
 40
1.0
 40
1.0
 10
59.9741143134
 20
387.0990430761
 30
0.0
 10
60.1126435203
 20
387.0190551494
 30
0.0
 10
60.3104397268
 20
386.9314953436
 30
0.0
 10
60.5163187696
 20
386.8722905015
 30
0.0
 10
60.5688829192
 20
386.8590367038
 30
0.0
  0
SPLINE
  5
2C7
100
AcDbEntity
  8
0
100
AcDbSpline
 62
7
  6
BYLAYER
 70
0
 71
3
 72
9
 73
5
 74
0
 42
0.0000001
 43
0.0000001
 44
0.0000000001
 40
0.0
 40
0.0
 40
0.0
 40
0.0
 40
0.6447055523
 40
1.0
 40
1.0
 40
1.0
 40
1.0
 10
59.6231459172
 20
387.5221759397
 30
0.0
 10
59.5844295141
 20
387.5445283597
 30
0.0
 10
59.5241992123
 20
387.574414995
 30
0.0
 10
59.454307482
 20
387.5999954356
 30
0.0
 10
59.4301533773
 20
387.5951411515
 30
0.0
  0
SPLINE
  5
2C8
100
AcDbEntity
  8
0
100
AcDbSpline
 62
7
  6
BYLAYER
 70
0
 71
3
 72
8
 73
4
 74
0
 42
0.0000001
 43
0.0000001
 44
0.0000000001
 40
0.0
 40
0.0
 40
0.0
 40
0.0
 40
1.0
 40
1.0
 40
1.0
 40
1.0
 10
59.4301533773
 20
387.5951411515
 30
0.0
 10
59.4248398903
 20
387.5940732926
 30
0.0
 10
59.4190368037
 20
387.5912811259
 30
0.0
 10
59.4163254819
 20
387.5865883441
 30
0.0
  0
SPLINE
  5
2C9
100
AcDbEntity
  8
0
100
AcDbSpline
 62
7
  6
BYLAYER
 70
0
 71
3
 72
9
 73
5
 74
0
 42
0.0000001
 43
0.0000001
 44
0.0000000001
 40
0.0
 40
0.0
 40
0.0
 40
0.0
 40
0.4659507664
 40
1.0
 40
1.0
 40
1.0
 40
1.0
 10
67.03498138
 20
383.1259957731
 30
0.0
 10
66.9586688307
 20
383.2046145862
 30
0.0
 10
66.7802187598
 20
383.3583646197
 30
0.0
 10
66.5908646436
 20
383.4994526635
 30
0.0
 10
66.4821102511
 20
383.5622406208
 30
0.0
  0
SPLINE
  5
2CA
100
AcDbEntity
  8
0
100
AcDbSpline
 62
7
  6
BYLAYER
 70
0
 71
3
 72
9
 73
5
 74
0
 42
0.0000001
 43
0.0000001
 44
0.0000000001
 40
0.0
 40
0.0
 40
0.0
 40
0.0
 40
0.2478639217
 40
1.0
 40
1.0
 40
1.0
 40
1.0
 10
57.6113618072
 20
388.2322092097
 30
0.0
 10
57.6596278787
 20
388.2043399749
 30
0.0
 10
57.8583643327
 20
388.0989395625
 30
0.0
 10
58.0722809023
 20
388.0225977093
 30
0.0
 10
58.2364750682
 20
387.9820610807
 30
0.0
  0
SPLINE
  5
2CB
100
AcDbEntity
  8
0
100
AcDbSpline
 62
7
  6
BYLAYER
 70
0
 71
3
 72
9
 73
5
 74
0
 42
0.0000001
 43
0.0000001
 44
0.0000000001
 40
0.0
 40
0.0
 40
0.0
 40
0.0
 40
0.2534754309
 40
1.0
 40
1.0
 40
1.0
 40
1.0
 10
65.1389742876
 20
399.941876926
 30
0.0
 10
65.0995802893
 20
399.9827893468
 30
0.0
 10
64.9388256752
 20
400.138948356
 30
0.0
 10
64.7563162454
 20
400.2728669534
 30
0.0
 10
64.6114588016
 20
400.3565088573
 30
0.0
  0
SPLINE
  5
2CC
100
AcDbEntity
  8
0
100
AcDbSpline
 62
7
  6
BYLAYER
 70
0
 71
3
 72
9
 73
5
 74
0
 42
0.0000001
 43
0.0000001
 44
0.0000000001
 40
0.0
 40
0.0
 40
0.0
 40
0.0
 40
0.2582543671
 40
1.0
 40
1.0
 40
1.0
 40
1.0
 10
65.4211317565
 20
399.846429729
 30
0.0
 10
65.3863797185
 20
399.9115719623
 30
0.0
 10
65.2436028554
 20
400.1592738086
 30
0.0
 10
65.0662688691
 20
400.3876124877
 30
0.0
 10
64.9169674608
 20
400.5382031291
 30
0.0
  0
SPLINE
  5
2CD
100
AcDbEntity
  8
0
100
AcDbSpline
 62
7
  6
BYLAYER
 70
0
 71
3
 72
13
 73
9
 74
0
 42
0.0000001
 43
0.0000001
 44
0.0000000001
 40
0.0
 40
0.0
 40
0.0
 40
0.0
 40
0.2981494191
 40
0.5724633086
 40
0.6952780123
 40
0.8068743761
 40
0.9077259451
 40
1.0
 40
1.0
 40
1.0
 40
1.0
 10
54.3002095926
 20
398.2269820154
 30
0.0
 10
54.7297156573
 20
398.9708945973
 30
0.0
 10
55.6979452243
 20
400.3211862204
 30
0.0
 10
57.1996355082
 20
401.680229246
 30
0.0
 10
58.4749789265
 20
402.4134636449
 30
0.0
 10
59.3865155364
 20
402.7497351845
 30
0.0
 10
60.261804755
 20
402.8806810201
 30
0.0
 10
60.8234470137
 20
402.8209208149
 30
0.0
 10
61.0805280507
 20
402.7531986191
 30
0.0
  0
SPLINE
  5
2CE
100
AcDbEntity
  8
0
100
AcDbSpline
 62
7
  6
BYLAYER
 70
0
 71
3
 72
11
 73
7
 74
0
 42
0.0000001
 43
0.0000001
 44
0.0000000001
 40
0.0
 40
0.0
 40
0.0
 40
0.0
 40
0.2103540297
 40
0.4505893553
 40
0.7166241502
 40
1.0
 40
1.0
 40
1.0
 40
1.0
 10
52.910096114
 20
391.733751148
 30
0.0
 10
52.7643216411
 20
392.1248667545
 30
0.0
 10
52.5907592087
 20
393.0154111981
 30
0.0
 10
52.6459741721
 20
394.444765559
 30
0.0
 10
52.9884791459
 20
395.9811561149
 30
0.0
 10
53.3884544216
 20
397.0002312205
 30
0.0
 10
53.6299900275
 20
397.5080052483
 30
0.0
  0
SPLINE
  5
2CF
100
AcDbEntity
  8
0
100
AcDbSpline
 62
7
  6
BYLAYER
 70
0
 71
3
 72
11
 73
7
 74
0
 42
0.0000001
 43
0.0000001
 44
0.0000000001
 40
0.0
 40
0.0
 40
0.0
 40
0.0
 40
0.2842240722
 40
0.5530013786
 40
0.7937108266
 40
1.0
 40
1.0
 40
1.0
 40
1.0
 10
54.0757952697
 20
398.356091534
 30
0.0
 10
54.4102934843
 20
398.9354957441
 30
0.0
 10
55.1547687617
 20
400.0118897729
 30
0.0
 10
56.4736755384
 20
401.3502711042
 30
0.0
 10
57.8825331059
 20
402.2966666468
 30
0.0
 10
58.9004568393
 20
402.6397084299
 30
0.0
 10
59.3823053528
 20
402.6997822123
 30
0.0
  0
SPLINE
  5
2D0
100
AcDbEntity
  8
0
100
AcDbSpline
 62
7
  6
BYLAYER
 70
0
 71
3
 72
9
 73
5
 74
0
 42
0.0000001
 43
0.0000001
 44
0.0000000001
 40
0.0
 40
0.0
 40
0.0
 40
0.0
 40
0.2569675543
 40
1.0
 40
1.0
 40
1.0
 40
1.0
 10
54.2648990928
 20
404.9392525514
 30
0.0
 10
54.3309186557
 20
404.9333533648
 30
0.0
 10
54.5867430272
 20
404.8999600381
 30
0.0
 10
54.8371207496
 20
404.8216426435
 30
0.0
 10
55.0098523071
 20
404.7385947745
 30
0.0
  0
SPLINE
  5
2D1
100
AcDbEntity
  8
0
100
AcDbSpline
 62
7
  6
BYLAYER
 70
0
 71
3
 72
9
 73
5
 74
0
 42
0.0000001
 43
0.0000001
 44
0.0000000001
 40
0.0
 40
0.0
 40
0.0
 40
0.0
 40
0.7470521436
 40
1.0
 40
1.0
 40
1.0
 40
1.0
 10
49.1434798031
 20
394.2757265716
 30
0.0
 10
49.030187279
 20
394.3411426259
 30
0.0
 10
48.8867764989
 20
394.4442450585
 30
0.0
 10
48.7586040215
 20
394.5636179797
 30
0.0
 10
48.7271343787
 20
394.5947912253
 30
0.0
  0
SPLINE
  5
2D2
100
AcDbEntity
  8
0
100
AcDbSpline
 62
7
  6
BYLAYER
 70
0
 71
3
 72
9
 73
5
 74
0
 42
0.0000001
 43
0.0000001
 44
0.0000000001
 40
0.0
 40
0.0
 40
0.0
 40
0.0
 40
0.2396320692
 40
1.0
 40
1.0
 40
1.0
 40
1.0
 10
48.7271343787
 20
394.5947912253
 30
0.0
 10
48.6692769963
 20
394.6521036772
 30
0.0
 10
48.4413818637
 20
394.9049455566
 30
0.0
 10
48.2722366136
 20
395.2076973988
 30
0.0
 10
48.1754118205
 20
395.4472806131
 30
0.0
  0
SPLINE
  5
2D3
100
AcDbEntity
  8
0
100
AcDbSpline
 62
7
  6
BYLAYER
 70
0
 71
3
 72
9
 73
5
 74
0
 42
0.0000001
 43
0.0000001
 44
0.0000000001
 40
0.0
 40
0.0
 40
0.0
 40
0.0
 40
0.4610729125
 40
1.0
 40
1.0
 40
1.0
 40
1.0
 10
48.0972368903
 20
395.6626676236
 30
0.0
 10
47.9492361362
 20
396.1194238166
 30
0.0
 10
47.8332645424
 20
397.1760425953
 30
0.0
 10
47.994946259
 20
398.2134160788
 30
0.0
 10
48.1337009639
 20
398.7572014743
 30
0.0
  0
SPLINE
  5
2D4
100
AcDbEntity
  8
0
100
AcDbSpline
 62
7
  6
BYLAYER
 70
0
 71
3
 72
11
 73
7
 74
0
 42
0.0000001
 43
0.0000001
 44
0.0000000001
 40
0.0
 40
0.0
 40
0.0
 40
0.0
 40
0.2724946278
 40
0.5452806452
 40
0.7933287724
 40
1.0
 40
1.0
 40
1.0
 40
1.0
 10
48.2369391252
 20
399.1272521444
 30
0.0
 10
48.4533205004
 20
399.8421230361
 30
0.0
 10
49.0624854581
 20
401.2229539003
 30
0.0
 10
50.3491148101
 20
402.9971105215
 30
0.0
 10
51.867241609
 20
404.3163701587
 30
0.0
 10
53.0457357929
 20
404.8290718512
 30
0.0
 10
53.6056871009
 20
404.9148332666
 30
0.0
  0
SPLINE
  5
2D5
100
AcDbEntity
  8
0
100
AcDbSpline
 62
7
  6
BYLAYER
 70
0
 71
3
 72
9
 73
5
 74
0
 42
0.0000001
 43
0.0000001
 44
0.0000000001
 40
0.0
 40
0.0
 40
0.0
 40
0.0
 40
0.259030469
 40
1.0
 40
1.0
 40
1.0
 40
1.0
 10
53.6056871009
 20
404.9148332666
 30
0.0
 10
53.6620631535
 20
404.9234677496
 30
0.0
 10
53.8805249682
 20
404.9509109107
 30
0.0
 10
54.1023995308
 20
404.9537727206
 30
0.0
 10
54.2648990928
 20
404.9392525514
 30
0.0
  0
SPLINE
  5
2D6
100
AcDbEntity
  8
0
100
AcDbSpline
 62
7
  6
BYLAYER
 70
0
 71
3
 72
19
 73
15
 74
0
 42
0.0000001
 43
0.0000001
 44
0.0000000001
 40
0.0
 40
0.0
 40
0.0
 40
0.0
 40
0.0969500571
 40
0.153465046
 40
0.2155553562
 40
0.2827187801
 40
0.3540014924
 40
0.5034121314
 40
0.6520926886
 40
0.7882883519
 40
0.8490914455
 40
0.9042843023
 40
0.9541804658
 40
1.0
 40
1.0
 40
1.0
 40
1.0
 10
47.9786862693
 20
395.9679339299
 30
0.0
 10
47.7132383597
 20
396.2563131593
 30
0.0
 10
47.4385035253
 20
396.8483887587
 30
0.0
 10
47.313034262
 20
397.7109910471
 30
0.0
 10
47.3248358938
 20
398.4656634418
 30
0.0
 10
47.449591965
 20
399.2687605272
 30
0.0
 10
47.7648287046
 20
400.3913327395
 30
0.0
 10
48.4019114543
 20
401.7550390694
 30
0.0
 10
49.4479200979
 20
403.1780002127
 30
0.0
 10
50.5085985201
 20
404.1131033459
 30
0.0
 10
51.4044537502
 20
404.6078925571
 30
0.0
 10
52.0420828642
 20
404.8286398862
 30
0.0
 10
52.6526575235
 20
404.9045513861
 30
0.0
 10
53.0419891566
 20
404.851179943
 30
0.0
 10
53.2195570577
 20
404.7984225422
 30
0.0
  0
SPLINE
  5
2D7
100
AcDbEntity
  8
0
100
AcDbSpline
 62
7
  6
BYLAYER
 70
0
 71
3
 72
14
 73
10
 74
0
 42
0.0000001
 43
0.0000001
 44
0.0000000001
 40
0.0
 40
0.0
 40
0.0
 40
0.0
 40
0.0923598206
 40
0.1872069649
 40
0.2917134316
 40
0.4098452229
 40
0.5423105286
 40
0.6873216461
 40
1.0
 40
1.0
 40
1.0
 40
1.0
 10
86.8008249496
 20
384.8922107758
 30
0.0
 10
86.660943538
 20
385.0308616125
 30
0.0
 10
86.3226899747
 20
385.2632873734
 30
0.0
 10
85.7026281709
 20
385.4007373852
 30
0.0
 10
85.0201321856
 20
385.3260697861
 30
0.0
 10
84.3064406362
 20
385.0552116586
 30
0.0
 10
83.5879808768
 20
384.6043986652
 30
0.0
 10
82.6400842141
 20
383.7711525886
 30
0.0
 10
82.0478953452
 20
382.977037859
 30
0.0
 10
81.7145031077
 20
382.3995962334
 30
0.0
  0
SPLINE
  5
2D8
100
AcDbEntity
  8
0
100
AcDbSpline
 62
7
  6
BYLAYER
 70
0
 71
3
 72
9
 73
5
 74
0
 42
0.0000001
 43
0.0000001
 44
0.0000000001
 40
0.0
 40
0.0
 40
0.0
 40
0.0
 40
0.4810681232
 40
1.0
 40
1.0
 40
1.0
 40
1.0
 10
75.8086543501
 20
393.6610124398
 30
0.0
 10
75.5706349234
 20
393.7984468546
 30
0.0
 10
75.0183755571
 20
393.9922332651
 30
0.0
 10
74.4372224935
 20
393.9903022611
 30
0.0
 10
74.1432419616
 20
393.9518799921
 30
0.0
  0
SPLINE
  5
2D9
100
AcDbEntity
  8
0
100
AcDbSpline
 62
7
  6
BYLAYER
 70
0
 71
3
 72
9
 73
5
 74
0
 42
0.0000001
 43
0.0000001
 44
0.0000000001
 40
0.0
 40
0.0
 40
0.0
 40
0.0
 40
0.5298011167
 40
1.0
 40
1.0
 40
1.0
 40
1.0
 10
73.5832386905
 20
392.3256122711
 30
0.0
 10
73.88847439
 20
392.4156272873
 30
0.0
 10
74.4965487642
 20
392.5084935706
 30
0.0
 10
75.0982618807
 20
392.3391248447
 30
0.0
 10
75.3428481777
 20
392.1978986639
 30
0.0
  0
SPLINE
  5
2DA
100
AcDbEntity
  8
0
100
AcDbSpline
 62
7
  6
BYLAYER
 70
0
 71
3
 72
9
 73
5
 74
0
 42
0.0000001
 43
0.0000001
 44
0.0000000001
 40
0.0
 40
0.0
 40
0.0
 40
0.0
 40
0.5189363424
 40
1.0
 40
1.0
 40
1.0
 40
1.0
 10
67.924032504
 20
383.1800922449
 30
0.0
 10
68.0377347849
 20
382.9062712288
 30
0.0
 10
68.3266089193
 20
382.4019822143
 30
0.0
 10
68.7705377367
 20
382.0205574795
 30
0.0
 10
69.0085601269
 20
381.8831213536
 30
0.0
  0
SPLINE
  5
2DB
100
AcDbEntity
  8
0
100
AcDbSpline
 62
7
  6
BYLAYER
 70
0
 71
3
 72
9
 73
5
 74
0
 42
0.0000001
 43
0.0000001
 44
0.0000000001
 40
0.0
 40
0.0
 40
0.0
 40
0.0
 40
0.4701943407
 40
1.0
 40
1.0
 40
1.0
 40
1.0
 10
70.0427747391
 20
383.0180717879
 30
0.0
 10
69.7981845347
 20
383.1593002248
 30
0.0
 10
69.3506789737
 20
383.5957646195
 30
0.0
 10
69.1270961073
 20
384.168831488
 30
0.0
 10
69.0524466386
 20
384.4781952246
 30
0.0
  0
SPLINE
  5
2DC
100
AcDbEntity
  8
0
100
AcDbSpline
 62
7
  6
BYLAYER
 70
0
 71
3
 72
19
 73
15
 74
0
 42
0.0000001
 43
0.0000001
 44
0.0000000001
 40
0.0
 40
0.0
 40
0.0
 40
0.0
 40
0.0453953767
 40
0.0940829486
 40
0.1481582472
 40
0.2086058251
 40
0.3468402368
 40
0.4999818206
 40
0.6531252565
 40
0.7913716362
 40
0.8518272153
 40
0.9059105752
 40
0.9546033303
 40
1.0
 40
1.0
 40
1.0
 40
1.0
 10
191.4089524644
 20
321.9554748422
 30
0.0
 10
191.3265542151
 20
322.0030522829
 30
0.0
 10
191.1369875443
 20
322.0716612117
 30
0.0
 10
190.8223511813
 20
322.0799001996
 30
0.0
 10
190.4867248128
 20
321.9988675565
 30
0.0
 10
190.0059594272
 20
321.7695852252
 30
0.0
 10
189.4333573427
 20
321.2871310542
 30
0.0
 10
188.8786959038
 20
320.5297334836
 30
0.0
 10
188.5000499291
 20
319.6706792868
 30
0.0
 10
188.3684788643
 20
318.933528707
 30
0.0
 10
188.4102546981
 20
318.4024704655
 30
0.0
 10
188.5078733755
 20
318.0712405213
 30
0.0
 10
188.6723204564
 20
317.8028373532
 30
0.0
 10
188.8265172272
 20
317.6729466211
 30
0.0
 10
188.9089178235
 20
317.6253678252
 30
0.0
  0
SPLINE
  5
2DD
100
AcDbEntity
  8
0
100
AcDbSpline
 62
7
  6
BYLAYER
 70
0
 71
3
 72
14
 73
10
 74
0
 42
0.0000001
 43
0.0000001
 44
0.0000000001
 40
0.0
 40
0.0
 40
0.0
 40
0.0
 40
0.3126751477
 40
0.4576832512
 40
0.5901460104
 40
0.708278428
 40
0.812788764
 40
0.9076387186
 40
1.0
 40
1.0
 40
1.0
 40
1.0
 10
81.7145031077
 20
382.3995962334
 30
0.0
 10
81.3810988641
 20
381.8221338131
 30
0.0
 10
80.989445466
 20
380.9122010309
 30
0.0
 10
80.7417530597
 20
379.6746408818
 30
0.0
 10
80.7105530803
 20
378.8270016344
 30
0.0
 10
80.8328202583
 20
378.073457272
 30
0.0
 10
81.1093955318
 20
377.4450097811
 30
0.0
 10
81.538486905
 20
376.9766976429
 30
0.0
 10
81.9089329891
 20
376.7999782667
 30
0.0
 10
82.0989600237
 20
376.7481573578
 30
0.0
  0
SPLINE
  5
2DE
100
AcDbEntity
  8
0
100
AcDbSpline
 62
7
  6
BYLAYER
 70
0
 71
3
 72
13
 73
9
 74
0
 42
0.0000001
 43
0.0000001
 44
0.0000000001
 40
0.0
 40
0.0
 40
0.0
 40
0.0
 40
0.0908529322
 40
0.1881339421
 40
0.2962868766
 40
0.4171895251
 40
0.6936748409
 40
1.0
 40
1.0
 40
1.0
 40
1.0
 10
73.1072166745
 20
381.5952973209
 30
0.0
 10
72.9422995082
 20
381.6905182969
 30
0.0
 10
72.6336304803
 20
381.9499130624
 30
0.0
 10
72.3053686765
 20
382.4870362501
 30
0.0
 10
72.1098781362
 20
383.1490743134
 30
0.0
 10
72.025983828
 20
384.2112425798
 30
0.0
 10
72.2890310854
 20
385.6851981028
 30
0.0
 10
72.7861731513
 20
386.8128617838
 30
0.0
 10
73.1072151288
 20
387.3689125268
 30
0.0
  0
SPLINE
  5
2DF
100
AcDbEntity
  8
0
100
AcDbSpline
 62
7
  6
BYLAYER
 70
0
 71
3
 72
19
 73
15
 74
0
 42
0.0000001
 43
0.0000001
 44
0.0000000001
 40
0.0
 40
0.0
 40
0.0
 40
0.0
 40
0.0453959135
 40
0.0940849114
 40
0.1481621291
 40
0.2086117316
 40
0.3468494479
 40
0.4999922677
 40
0.653134468
 40
0.7913775432
 40
0.8518310975
 40
0.9059125382
 40
0.9546038671
 40
1.0
 40
1.0
 40
1.0
 40
1.0
 10
82.8424590515
 20
378.8614810032
 30
0.0
 10
82.7600598278
 20
378.9090590066
 30
0.0
 10
82.605867884
 20
379.0389403394
 30
0.0
 10
82.4414300463
 20
379.3073224163
 30
0.0
 10
82.3438077844
 20
379.6385153563
 30
0.0
 10
82.302008606
 20
380.1695279823
 30
0.0
 10
82.4335437041
 20
380.9066527208
 30
0.0
 10
82.8121542299
 20
381.7657030739
 30
0.0
 10
83.3668012745
 20
382.5231332678
 30
0.0
 10
83.9394077558
 20
383.0056315084
 30
0.0
 10
84.420200974
 20
383.2349568642
 30
0.0
 10
84.7558575969
 20
383.3160111123
 30
0.0
 10
85.0705168466
 20
383.3077746638
 30
0.0
 10
85.2600940704
 20
383.2391662535
 30
0.0
 10
85.3424936923
 20
383.1915880202
 30
0.0
  0
SPLINE
  5
2E0
100
AcDbEntity
  8
0
100
AcDbSpline
 62
7
  6
BYLAYER
 70
0
 71
3
 72
15
 73
11
 74
0
 42
0.0000001
 43
0.0000001
 44
0.0000000001
 40
0.0
 40
0.0
 40
0.0
 40
0.0
 40
0.1072616346
 40
0.2288471448
 40
0.3614604255
 40
0.5000048494
 40
0.6385485339
 40
0.7711597011
 40
0.8927420256
 40
1.0
 40
1.0
 40
1.0
 40
1.0
 10
64.471431487
 20
387.1229867094
 30
0.0
 10
64.3898699544
 20
387.4609944116
 30
0.0
 10
64.3256944102
 20
388.2094140576
 30
0.0
 10
64.4755965838
 20
389.3776197957
 30
0.0
 10
64.8525928272
 20
390.5996150871
 30
0.0
 10
65.4335541292
 20
391.7992117157
 30
0.0
 10
66.1819681304
 20
392.9021199178
 30
0.0
 10
67.0517535059
 20
393.8395753371
 30
0.0
 10
67.9884938104
 20
394.5534559305
 30
0.0
 10
68.6687251424
 20
394.8720527528
 30
0.0
 10
69.0022226844
 20
394.9704022755
 30
0.0
  0
SPLINE
  5
2E1
100
AcDbEntity
  8
0
100
AcDbSpline
 62
7
  6
BYLAYER
 70
0
 71
3
 72
11
 73
7
 74
0
 42
0.0000001
 43
0.0000001
 44
0.0000000001
 40
0.0
 40
0.0
 40
0.0
 40
0.0
 40
0.2828673645
 40
0.5509529678
 40
0.7921563559
 40
1.0
 40
1.0
 40
1.0
 40
1.0
 10
64.8618686799
 20
392.1293112129
 30
0.0
 10
64.557799703
 20
391.6026580262
 30
0.0
 10
64.046585733
 20
390.5273395908
 30
0.0
 10
63.5821683594
 20
388.8792117653
 30
0.0
 10
63.4590222203
 20
387.3317449418
 30
0.0
 10
63.6315967274
 20
386.3632287373
 30
0.0
 10
63.7919815342
 20
385.9461666124
 30
0.0
  0
SPLINE
  5
2E2
100
AcDbEntity
  8
0
100
AcDbSpline
 62
7
  6
BYLAYER
 70
0
 71
3
 72
11
 73
7
 74
0
 42
0.0000001
 43
0.0000001
 44
0.0000000001
 40
0.0
 40
0.0
 40
0.0
 40
0.0
 40
0.2078406194
 40
0.4490421507
 40
0.7171285615
 40
1.0
 40
1.0
 40
1.0
 40
1.0
 10
69.6816726372
 20
396.1472223724
 30
0.0
 10
69.2403051941
 20
396.0776171234
 30
0.0
 10
68.3152697684
 20
395.7428642861
 30
0.0
 10
67.0367053179
 20
394.8625410573
 30
0.0
 10
65.8415892622
 20
393.6363229469
 30
0.0
 10
65.1659358069
 20
392.6559611956
 30
0.0
 10
64.8618686799
 20
392.1293112129
 30
0.0
  0
SPLINE
  5
2E3
100
AcDbEntity
  8
0
100
AcDbSpline
 62
7
  6
BYLAYER
 70
0
 71
3
 72
19
 73
15
 74
0
 42
0.0000001
 43
0.0000001
 44
0.0000000001
 40
0.0
 40
0.0
 40
0.0
 40
0.0
 40
0.0447468189
 40
0.092410963
 40
0.1450179342
 40
0.2035614872
 40
0.3373898943
 40
0.4869589074
 40
0.6393579127
 40
0.7808428434
 40
0.8441989045
 40
0.9015602887
 40
0.9530886314
 40
1.0
 40
1.0
 40
1.0
 40
1.0
 10
64.6114588016
 20
400.3565088573
 30
0.0
 10
64.3918308387
 20
400.4833238865
 30
0.0
 10
63.8910985159
 20
400.670084892
 30
0.0
 10
63.0597147228
 20
400.7100470853
 30
0.0
 10
62.1710552531
 20
400.5231900459
 30
0.0
 10
60.8920339167
 20
399.9641091188
 30
0.0
 10
59.344972792
 20
398.7488215747
 30
0.0
 10
57.8000883021
 20
396.7993291809
 30
0.0
 10
56.6722038023
 20
394.5336740245
 30
0.0
 10
56.1796825418
 20
392.5449506758
 30
0.0
 10
56.143425625
 20
391.0536262599
 30
0.0
 10
56.289037901
 20
390.0821463104
 30
0.0
 10
56.6039129911
 20
389.2488508864
 30
0.0
 10
56.9378789088
 20
388.7901787248
 30
0.0
 10
57.1269027605
 20
388.603198588
 30
0.0
  0
SPLINE
  5
2E4
100
AcDbEntity
  8
0
100
AcDbSpline
 62
7
  6
BYLAYER
 70
0
 71
3
 72
9
 73
5
 74
0
 42
0.0000001
 43
0.0000001
 44
0.0000000001
 40
0.0
 40
0.0
 40
0.0
 40
0.0
 40
0.259705242
 40
1.0
 40
1.0
 40
1.0
 40
1.0
 10
58.7983980218
 20
395.6574062116
 30
0.0
 10
58.9130766746
 20
395.8546679145
 30
0.0
 10
59.3866109355
 20
396.5944894366
 30
0.0
 10
59.9844420034
 20
397.2602303068
 30
0.0
 10
60.492736503
 20
397.6660326188
 30
0.0
  0
SPLINE
  5
2E5
100
AcDbEntity
  8
0
100
AcDbSpline
 62
7
  6
BYLAYER
 70
0
 71
3
 72
14
 73
10
 74
0
 42
0.0000001
 43
0.0000001
 44
0.0000000001
 40
0.0
 40
0.0
 40
0.0
 40
0.0
 40
0.0907895481
 40
0.1880018591
 40
0.2960840056
 40
0.4169019395
 40
0.5501512881
 40
0.693900189
 40
1.0
 40
1.0
 40
1.0
 40
1.0
 10
64.3870328397
 20
400.9478430975
 30
0.0
 10
64.1429606826
 20
401.0887585696
 30
0.0
 10
63.5821193878
 20
401.2924454111
 30
0.0
 10
62.6507612241
 20
401.3158540367
 30
0.0
 10
61.6576809586
 20
401.0763046417
 30
0.0
 10
60.6368880945
 20
400.5905014773
 30
0.0
 10
59.6216691197
 20
399.8786953164
 30
0.0
 10
58.296941479
 20
398.6394082337
 30
0.0
 10
57.4623331926
 20
397.4985607918
 30
0.0
 10
56.9872265482
 20
396.6756671482
 30
0.0
  0
SPLINE
  5
2E6
100
AcDbEntity
  8
0
100
AcDbSpline
 62
7
  6
BYLAYER
 70
0
 71
3
 72
11
 73
7
 74
0
 42
0.0000001
 43
0.0000001
 44
0.0000000001
 40
0.0
 40
0.0
 40
0.0
 40
0.0
 40
0.3014045471
 40
0.5661353405
 40
0.7948465698
 40
1.0
 40
1.0
 40
1.0
 40
1.0
 10
55.6100285297
 20
393.0698729861
 30
0.0
 10
55.5070900735
 20
392.5337391804
 30
0.0
 10
55.3976507545
 20
391.5065262418
 30
0.0
 10
55.5632752995
 20
390.0616643578
 30
0.0
 10
56.0734703782
 20
388.8770825249
 30
0.0
 10
56.6654145046
 20
388.3164967609
 30
0.0
 10
56.9872470693
 20
388.1307485425
 30
0.0
  0
SPLINE
  5
2E7
100
AcDbEntity
  8
0
100
AcDbSpline
 62
7
  6
BYLAYER
 70
0
 71
3
 72
9
 73
5
 74
0
 42
0.0000001
 43
0.0000001
 44
0.0000000001
 40
0.0
 40
0.0
 40
0.0
 40
0.0
 40
0.2580520664
 40
1.0
 40
1.0
 40
1.0
 40
1.0
 10
56.9872265482
 20
396.6756671482
 30
0.0
 10
56.8208037315
 20
396.3874196997
 30
0.0
 10
56.22004119
 20
395.246149624
 30
0.0
 10
55.7904741641
 20
394.0096870107
 30
0.0
 10
55.6100285297
 20
393.0698729861
 30
0.0
  0
SPLINE
  5
2E8
100
AcDbEntity
  8
0
100
AcDbSpline
 62
7
  6
BYLAYER
 70
0
 71
3
 72
9
 73
5
 74
0
 42
0.0000001
 43
0.0000001
 44
0.0000000001
 40
0.0
 40
0.0
 40
0.0
 40
0.0
 40
0.5263861577
 40
1.0
 40
1.0
 40
1.0
 40
1.0
 10
62.0515598317
 20
400.8211234587
 30
0.0
 10
62.4243017158
 20
400.9128982908
 30
0.0
 10
63.1653872944
 20
400.9929230694
 30
0.0
 10
63.8880848796
 20
400.7741608299
 30
0.0
 10
64.1871929665
 20
400.60145331
 30
0.0
  0
SPLINE
  5
2E9
100
AcDbEntity
  8
0
100
AcDbSpline
 62
7
  6
BYLAYER
 70
0
 71
3
 72
17
 73
13
 74
0
 42
0.0000001
 43
0.0000001
 44
0.0000000001
 40
0.0
 40
0.0
 40
0.0
 40
0.0
 40
0.0434016379
 40
0.0890555983
 40
0.1386045324
 40
0.1930584406
 40
0.3169192205
 40
0.4573964134
 40
0.6058919399
 40
0.7519182869
 40
0.885536293
 40
1.0
 40
1.0
 40
1.0
 40
1.0
 10
57.1870959721
 20
388.4771536624
 30
0.0
 10
56.9939207816
 20
388.5886946388
 30
0.0
 10
56.6293811711
 20
388.8773427003
 30
0.0
 10
56.2075877706
 20
389.4606138661
 30
0.0
 10
55.9132269427
 20
390.1778124474
 30
0.0
 10
55.6869109219
 20
391.3328284829
 30
0.0
 10
55.7762934357
 20
392.9924491222
 30
0.0
 10
56.3711988206
 20
395.0428423129
 30
0.0
 10
57.3978830778
 20
397.0437818738
 30
0.0
 10
58.7555834995
 20
398.7934622014
 30
0.0
 10
60.3058760388
 20
400.1190144751
 30
0.0
 10
61.4803272052
 20
400.6804771277
 30
0.0
 10
62.0515598317
 20
400.8211234587
 30
0.0
  0
SPLINE
  5
2EA
100
AcDbEntity
  8
0
100
AcDbSpline
 62
7
  6
BYLAYER
 70
0
 71
3
 72
9
 73
5
 74
0
 42
0.0000001
 43
0.0000001
 44
0.0000000001
 40
0.0
 40
0.0
 40
0.0
 40
0.0
 40
0.2376983214
 40
1.0
 40
1.0
 40
1.0
 40
1.0
 10
57.8816437213
 20
393.1409471685
 30
0.0
 10
57.9128015866
 20
393.3477746257
 30
0.0
 10
58.0922405804
 20
394.2103280261
 30
0.0
 10
58.4409124269
 20
395.0342179783
 30
0.0
 10
58.7745678629
 20
395.6161316916
 30
0.0
  0
SPLINE
  5
2EB
100
AcDbEntity
  8
0
100
AcDbSpline
 62
7
  6
BYLAYER
 70
0
 71
3
 72
19
 73
15
 74
0
 42
0.0000001
 43
0.0000001
 44
0.0000000001
 40
0.0
 40
0.0
 40
0.0
 40
0.0
 40
0.0452443898
 40
0.0936541557
 40
0.1473518035
 40
0.2073188268
 40
0.3444508099
 40
0.4967242404
 40
0.6497503214
 40
0.7889084097
 40
0.8501252098
 40
0.9050228376
 40
0.9543392663
 40
1.0
 40
1.0
 40
1.0
 40
1.0
 10
78.2571963894
 20
390.515337004
 30
0.0
 10
78.0845879374
 20
390.6150025729
 30
0.0
 10
77.688583627
 20
390.7596678646
 30
0.0
 10
77.0310888986
 20
390.7801874671
 30
0.0
 10
76.3294493997
 20
390.6163490388
 30
0.0
 10
75.322791221
 20
390.1467042952
 30
0.0
 10
74.1193739223
 20
389.1498099166
 30
0.0
 10
72.9440574379
 20
387.5768634195
 30
0.0
 10
72.127286166
 20
385.7814158529
 30
0.0
 10
71.8228688348
 20
384.2317693051
 30
0.0
 10
71.8811980806
 20
383.103125394
 30
0.0
 10
72.0628216095
 20
382.391095827
 30
0.0
 10
72.3822851005
 20
381.8040117061
 30
0.0
 10
72.6912010549
 20
381.5088913407
 30
0.0
 10
72.8583569109
 20
381.3969970606
 30
0.0
  0
SPLINE
  5
2EC
100
AcDbEntity
  8
0
100
AcDbSpline
 62
7
  6
BYLAYER
 70
0
 71
3
 72
13
 73
9
 74
0
 42
0.0000001
 43
0.0000001
 44
0.0000000001
 40
0.0
 40
0.0
 40
0.0
 40
0.0
 40
0.3063253434
 40
0.5828023565
 40
0.7037037396
 40
0.8118587029
 40
0.9091432815
 40
1.0
 40
1.0
 40
1.0
 40
1.0
 10
73.1072151288
 20
387.3689125268
 30
0.0
 10
73.4282417783
 20
387.9249367213
 30
0.0
 10
74.1562190739
 20
388.9192382962
 30
0.0
 10
75.3011123725
 20
389.8839524652
 30
0.0
 10
76.2628556349
 20
390.3423664689
 30
0.0
 10
76.9339215233
 20
390.5040834441
 30
0.0
 10
77.5631978152
 20
390.4883541515
 30
0.0
 10
77.9421866001
 20
390.3507701516
 30
0.0
 10
78.1071026657
 20
390.255549811
 30
0.0
  0
SPLINE
  5
2ED
100
AcDbEntity
  8
0
100
AcDbSpline
 62
7
  6
BYLAYER
 70
0
 71
3
 72
9
 73
5
 74
0
 42
0.0000001
 43
0.0000001
 44
0.0000000001
 40
0.0
 40
0.0
 40
0.0
 40
0.0
 40
0.2450798784
 40
1.0
 40
1.0
 40
1.0
 40
1.0
 10
224.3394051201
 20
256.5181124532
 30
0.0
 10
224.3139816544
 20
256.5327921757
 30
0.0
 10
224.2136668749
 20
256.5985582932
 30
0.0
 10
224.1290679762
 20
256.6872766077
 30
0.0
 10
224.0768110399
 20
256.761077975
 30
0.0
  0
SPLINE
  5
2EE
100
AcDbEntity
  8
0
100
AcDbSpline
 62
7
  6
BYLAYER
 70
0
 71
3
 72
10
 73
6
 74
0
 42
0.0000001
 43
0.0000001
 44
0.0000000001
 40
0.0
 40
0.0
 40
0.0
 40
0.0
 40
0.4351058578
 40
0.704797584
 40
1.0
 40
1.0
 40
1.0
 40
1.0
 10
224.0768110399
 20
256.761077975
 30
0.0
 10
223.9093427685
 20
256.9975898767
 30
0.0
 10
223.8172143947
 20
257.4976312426
 30
0.0
 10
223.8995012182
 20
258.1554861602
 30
0.0
 10
224.010851787
 20
258.5183961803
 30
0.0
 10
224.0830075574
 20
258.7012949225
 30
0.0
  0
SPLINE
  5
2EF
100
AcDbEntity
  8
0
100
AcDbSpline
 62
7
  6
BYLAYER
 70
0
 71
3
 72
11
 73
7
 74
0
 42
0.0000001
 43
0.0000001
 44
0.0000000001
 40
0.0
 40
0.0
 40
0.0
 40
0.0
 40
0.306103422
 40
0.5747217118
 40
0.8019779033
 40
1.0
 40
1.0
 40
1.0
 40
1.0
 10
224.8543040591
 20
259.9329830738
 30
0.0
 10
224.9988630108
 20
260.0886603295
 30
0.0
 10
225.2972393524
 20
260.3581701514
 30
0.0
 10
225.7883246022
 20
260.6322240615
 30
0.0
 10
226.2702828798
 20
260.7329436449
 30
0.0
 10
226.5704201832
 20
260.6571347522
 30
0.0
 10
226.6894376825
 20
260.5884130492
 30
0.0
  0
SPLINE
  5
2F0
100
AcDbEntity
  8
0
100
AcDbSpline
 62
7
  6
BYLAYER
 70
0
 71
3
 72
8
 73
4
 74
0
 42
0.0000001
 43
0.0000001
 44
0.0000000001
 40
0.0
 40
0.0
 40
0.0
 40
0.0
 40
1.0
 40
1.0
 40
1.0
 40
1.0
 10
363.8617118406
 20
182.1834210294
 30
0.0
 10
363.8929567647
 20
182.1898250618
 30
0.0
 10
363.9257689746
 20
182.1918791569
 30
0.0
 10
363.9573201097
 20
182.1872119537
 30
0.0
  0
SPLINE
  5
2F1
100
AcDbEntity
  8
0
100
AcDbSpline
 62
7
  6
BYLAYER
 70
0
 71
3
 72
8
 73
4
 74
0
 42
0.0000001
 43
0.0000001
 44
0.0000000001
 40
0.0
 40
0.0
 40
0.0
 40
0.0
 40
1.0
 40
1.0
 40
1.0
 40
1.0
 10
363.9573201097
 20
182.1872119537
 30
0.0
 10
363.9832106159
 20
182.1833820994
 30
0.0
 10
364.0088948114
 20
182.1747400635
 30
0.0
 10
364.0315607578
 20
182.1616541564
 30
0.0
  0
SPLINE
  5
2F2
100
AcDbEntity
  8
0
100
AcDbSpline
 62
7
  6
BYLAYER
 70
0
 71
3
 72
8
 73
4
 74
0
 42
0.0000001
 43
0.0000001
 44
0.0000000001
 40
0.0
 40
0.0
 40
0.0
 40
0.0
 40
1.0
 40
1.0
 40
1.0
 40
1.0
 10
363.4316242075
 20
181.1225100618
 30
0.0
 10
363.4089519078
 20
181.1355996369
 30
0.0
 10
363.3886202287
 20
181.1535279089
 30
0.0
 10
363.372355257
 20
181.1740418273
 30
0.0
  0
SPLINE
  5
2F3
100
AcDbEntity
  8
0
100
AcDbSpline
 62
7
  6
BYLAYER
 70
0
 71
3
 72
8
 73
4
 74
0
 42
0.0000001
 43
0.0000001
 44
0.0000000001
 40
0.0
 40
0.0
 40
0.0
 40
0.0
 40
1.0
 40
1.0
 40
1.0
 40
1.0
 10
363.372355257
 20
181.1740418273
 30
0.0
 10
363.352548727
 20
181.1990224757
 30
0.0
 10
363.3379276474
 20
181.2284510552
 30
0.0
 10
363.3278533168
 20
181.2586973655
 30
0.0
  0
SPLINE
  5
2F4
100
AcDbEntity
  8
0
100
AcDbSpline
 62
7
  6
BYLAYER
 70
0
 71
3
 72
12
 73
8
 74
0
 42
0.0000001
 43
0.0000001
 44
0.0000000001
 40
0.0
 40
0.0
 40
0.0
 40
0.0
 40
0.260729996
 40
0.5553099826
 40
0.6933062629
 40
0.8145357499
 40
1.0
 40
1.0
 40
1.0
 40
1.0
 10
190.3265883264
 20
279.4962216302
 30
0.0
 10
190.3139781143
 20
279.5992502739
 30
0.0
 10
190.3584803832
 20
279.8253319639
 30
0.0
 10
190.5001709208
 20
280.0672922633
 30
0.0
 10
190.6616361641
 20
280.2207040567
 30
0.0
 10
190.8112221937
 20
280.313356058
 30
0.0
 10
190.9532165676
 20
280.3253798708
 30
0.0
 10
191.0171570283
 20
280.2884601121
 30
0.0
  0
SPLINE
  5
2F5
100
AcDbEntity
  8
0
100
AcDbSpline
 62
7
  6
BYLAYER
 70
0
 71
3
 72
8
 73
4
 74
0
 42
0.0000001
 43
0.0000001
 44
0.0000000001
 40
0.0
 40
0.0
 40
0.0
 40
0.0
 40
1.0
 40
1.0
 40
1.0
 40
1.0
 10
363.3073422733
 20
181.1521899284
 30
0.0
 10
363.3073337505
 20
181.188648726
 30
0.0
 10
363.3096848388
 20
181.2251565246
 30
0.0
 10
363.3139225642
 20
181.2613682033
 30
0.0
  0
SPLINE
  5
2F6
100
AcDbEntity
  8
0
100
AcDbSpline
 62
7
  6
BYLAYER
 70
0
 71
3
 72
9
 73
5
 74
0
 42
0.0000001
 43
0.0000001
 44
0.0000000001
 40
0.0
 40
0.0
 40
0.0
 40
0.0
 40
0.2411881318
 40
1.0
 40
1.0
 40
1.0
 40
1.0
 10
363.331460681
 20
181.3665485655
 30
0.0
 10
363.3389697624
 20
181.4014987218
 30
0.0
 10
363.376615484
 20
181.5449660771
 30
0.0
 10
363.4375009145
 20
181.682038739
 30
0.0
 10
363.4937353828
 20
181.7794378957
 30
0.0
  0
SPLINE
  5
2F7
100
AcDbEntity
  8
0
100
AcDbSpline
 62
7
  6
BYLAYER
 70
0
 71
3
 72
11
 73
7
 74
0
 42
0.0000001
 43
0.0000001
 44
0.0000000001
 40
0.0
 40
0.0
 40
0.0
 40
0.0
 40
0.182953738
 40
0.4153943586
 40
0.6977555758
 40
1.0
 40
1.0
 40
1.0
 40
1.0
 10
189.4421352046
 20
277.5604926914
 30
0.0
 10
189.3975247564
 20
277.5862511386
 30
0.0
 10
189.3238493592
 20
277.6909905468
 30
0.0
 10
189.3159413841
 20
277.8927403298
 30
0.0
 10
189.3769361473
 20
278.1169718396
 30
0.0
 10
189.4602331931
 20
278.2615491706
 30
0.0
 10
189.5118812115
 20
278.3291852321
 30
0.0
  0
SPLINE
  5
2F8
100
AcDbEntity
  8
0
100
AcDbSpline
 62
7
  6
BYLAYER
 70
0
 71
3
 72
9
 73
5
 74
0
 42
0.0000001
 43
0.0000001
 44
0.0000000001
 40
0.0
 40
0.0
 40
0.0
 40
0.0
 40
0.2733772871
 40
1.0
 40
1.0
 40
1.0
 40
1.0
 10
189.5118812115
 20
278.3291852321
 30
0.0
 10
189.5314899434
 20
278.3548639985
 30
0.0
 10
189.6078423606
 20
278.444741498
 30
0.0
 10
189.703928488
 20
278.5210761733
 30
0.0
 10
189.7829652955
 20
278.5546622177
 30
0.0
  0
SPLINE
  5
2F9
100
AcDbEntity
  8
0
100
AcDbSpline
 62
7
  6
BYLAYER
 70
0
 71
3
 72
8
 73
4
 74
0
 42
0.0000001
 43
0.0000001
 44
0.0000000001
 40
0.0
 40
0.0
 40
0.0
 40
0.0
 40
1.0
 40
1.0
 40
1.0
 40
1.0
 10
362.1816068871
 20
178.9574565533
 30
0.0
 10
362.1589345874
 20
178.9705461284
 30
0.0
 10
362.1386029083
 20
178.9884744005
 30
0.0
 10
362.1223379366
 20
179.0089883188
 30
0.0
  0
SPLINE
  5
2FA
100
AcDbEntity
  8
0
100
AcDbSpline
 62
7
  6
BYLAYER
 70
0
 71
3
 72
8
 73
4
 74
0
 42
0.0000001
 43
0.0000001
 44
0.0000000001
 40
0.0
 40
0.0
 40
0.0
 40
0.0
 40
1.0
 40
1.0
 40
1.0
 40
1.0
 10
362.1223379366
 20
179.0089883188
 30
0.0
 10
362.1025314066
 20
179.0339689672
 30
0.0
 10
362.087910327
 20
179.0633975467
 30
0.0
 10
362.0778359964
 20
179.093643857
 30
0.0
  0
SPLINE
  5
2FB
100
AcDbEntity
  8
0
100
AcDbSpline
 62
7
  6
BYLAYER
 70
0
 71
3
 72
15
 73
11
 74
0
 42
0.0000001
 43
0.0000001
 44
0.0000000001
 40
0.0
 40
0.0
 40
0.0
 40
0.0
 40
0.0932458448
 40
0.2076015687
 40
0.3463037179
 40
0.499979061
 40
0.6536551057
 40
0.7923675996
 40
0.9067479389
 40
1.0
 40
1.0
 40
1.0
 40
1.0
 10
189.4421532245
 20
278.7152118869
 30
0.0
 10
189.4033668663
 20
278.7376074557
 30
0.0
 10
189.3365575747
 20
278.8217296963
 30
0.0
 10
189.3137051692
 20
278.9909599787
 30
0.0
 10
189.3480335498
 20
279.1854067395
 30
0.0
 10
189.4352153157
 20
279.3831407606
 30
0.0
 10
189.5628604733
 20
279.5575205651
 30
0.0
 10
189.7140978414
 20
279.6844926484
 30
0.0
 10
189.8720978724
 20
279.749334209
 30
0.0
 10
189.978372248
 20
279.7335335626
 30
0.0
 10
190.0171611919
 20
279.7111365009
 30
0.0
  0
SPLINE
  5
2FC
100
AcDbEntity
  8
0
100
AcDbSpline
 62
7
  6
BYLAYER
 70
0
 71
3
 72
12
 73
8
 74
0
 42
0.0000001
 43
0.0000001
 44
0.0000000001
 40
0.0
 40
0.0
 40
0.0
 40
0.0
 40
0.2989061936
 40
0.5737177561
 40
0.6966878807
 40
0.8083515773
 40
1.0
 40
1.0
 40
1.0
 40
1.0
 10
329.2029069091
 20
198.6902112948
 30
0.0
 10
329.4799242286
 20
199.1700105021
 30
0.0
 10
330.104700433
 20
200.0404640334
 30
0.0
 10
331.0731761102
 20
200.9154472268
 30
0.0
 10
331.8973290735
 20
201.3858784095
 30
0.0
 10
332.6392676993
 20
201.6589103428
 30
0.0
 10
333.2316967938
 20
201.6889795431
 30
0.0
 10
333.5744207175
 20
201.595578346
 30
0.0
  0
SPLINE
  5
2FD
100
AcDbEntity
  8
0
100
AcDbSpline
 62
7
  6
BYLAYER
 70
0
 71
3
 72
8
 73
4
 74
0
 42
0.0000001
 43
0.0000001
 44
0.0000000001
 40
0.0
 40
0.0
 40
0.0
 40
0.0
 40
1.0
 40
1.0
 40
1.0
 40
1.0
 10
362.6116945201
 20
180.0183675209
 30
0.0
 10
362.6429394443
 20
180.0247715533
 30
0.0
 10
362.6757516541
 20
180.0268256484
 30
0.0
 10
362.7073027893
 20
180.0221584452
 30
0.0
  0
SPLINE
  5
2FE
100
AcDbEntity
  8
0
100
AcDbSpline
 62
7
  6
BYLAYER
 70
0
 71
3
 72
8
 73
4
 74
0
 42
0.0000001
 43
0.0000001
 44
0.0000000001
 40
0.0
 40
0.0
 40
0.0
 40
0.0
 40
1.0
 40
1.0
 40
1.0
 40
1.0
 10
362.7073027893
 20
180.0221584452
 30
0.0
 10
362.7331932954
 20
180.0183285909
 30
0.0
 10
362.758877491
 20
180.009686555
 30
0.0
 10
362.7815434374
 20
179.9966006479
 30
0.0
  0
SPLINE
  5
2FF
100
AcDbEntity
  8
0
100
AcDbSpline
 62
7
  6
BYLAYER
 70
0
 71
3
 72
8
 73
4
 74
0
 42
0.0000001
 43
0.0000001
 44
0.0000000001
 40
0.0
 40
0.0
 40
0.0
 40
0.0
 40
1.0
 40
1.0
 40
1.0
 40
1.0
 10
362.0573249529
 20
178.9871364199
 30
0.0
 10
362.0573164301
 20
179.0235952175
 30
0.0
 10
362.0596675184
 20
179.0601030161
 30
0.0
 10
362.0639052438
 20
179.0963146948
 30
0.0
  0
SPLINE
  5
300
100
AcDbEntity
  8
0
100
AcDbSpline
 62
7
  6
BYLAYER
 70
0
 71
3
 72
9
 73
5
 74
0
 42
0.0000001
 43
0.0000001
 44
0.0000000001
 40
0.0
 40
0.0
 40
0.0
 40
0.0
 40
0.2411881318
 40
1.0
 40
1.0
 40
1.0
 40
1.0
 10
362.0814433605
 20
179.201495057
 30
0.0
 10
362.088952442
 20
179.2364452133
 30
0.0
 10
362.1265981636
 20
179.3799125686
 30
0.0
 10
362.1874835941
 20
179.5169852305
 30
0.0
 10
362.2437180624
 20
179.6143843872
 30
0.0
  0
SPLINE
  5
301
100
AcDbEntity
  8
0
100
AcDbSpline
 62
7
  6
BYLAYER
 70
0
 71
3
 72
9
 73
5
 74
0
 42
0.0000001
 43
0.0000001
 44
0.0000000001
 40
0.0
 40
0.0
 40
0.0
 40
0.0
 40
0.2621323272
 40
1.0
 40
1.0
 40
1.0
 40
1.0
 10
337.5940303518
 20
199.7948442611
 30
0.0
 10
337.5550737267
 20
199.870993107
 30
0.0
 10
337.3923940221
 20
200.153847067
 30
0.0
 10
337.1655356481
 20
200.4015503673
 30
0.0
 10
336.9711550743
 20
200.5436294045
 30
0.0
  0
SPLINE
  5
302
100
AcDbEntity
  8
0
100
AcDbSpline
 62
7
  6
BYLAYER
 70
0
 71
3
 72
9
 73
5
 74
0
 42
0.0000001
 43
0.0000001
 44
0.0000000001
 40
0.0
 40
0.0
 40
0.0
 40
0.0
 40
0.7470286161
 40
1.0
 40
1.0
 40
1.0
 40
1.0
 10
336.9711550743
 20
200.5436294045
 30
0.0
 10
336.834738737
 20
200.6433405098
 30
0.0
 10
336.63186419
 20
200.7519556897
 30
0.0
 10
336.4163134707
 20
200.8208591071
 30
0.0
 10
336.3611090302
 20
200.8359135139
 30
0.0
  0
SPLINE
  5
303
100
AcDbEntity
  8
0
100
AcDbSpline
 62
7
  6
BYLAYER
 70
0
 71
3
 72
8
 73
4
 74
0
 42
0.0000001
 43
0.0000001
 44
0.0000000001
 40
0.0
 40
0.0
 40
0.0
 40
0.0
 40
1.0
 40
1.0
 40
1.0
 40
1.0
 10
361.3617222495
 20
180.7401120013
 30
0.0
 10
361.3929671736
 20
180.7465160337
 30
0.0
 10
361.4257793835
 20
180.7485701288
 30
0.0
 10
361.4573305186
 20
180.7439029256
 30
0.0
  0
SPLINE
  5
304
100
AcDbEntity
  8
0
100
AcDbSpline
 62
7
  6
BYLAYER
 70
0
 71
3
 72
8
 73
4
 74
0
 42
0.0000001
 43
0.0000001
 44
0.0000000001
 40
0.0
 40
0.0
 40
0.0
 40
0.0
 40
1.0
 40
1.0
 40
1.0
 40
1.0
 10
361.4573305186
 20
180.7439029256
 30
0.0
 10
361.4832210248
 20
180.7400730713
 30
0.0
 10
361.5089052203
 20
180.7314310354
 30
0.0
 10
361.5315711668
 20
180.7183451283
 30
0.0
  0
SPLINE
  5
305
100
AcDbEntity
  8
0
100
AcDbSpline
 62
7
  6
BYLAYER
 70
0
 71
3
 72
19
 73
15
 74
0
 42
0.0000001
 43
0.0000001
 44
0.0000000001
 40
0.0
 40
0.0
 40
0.0
 40
0.0
 40
0.0454802038
 40
0.0945254937
 40
0.149030074
 40
0.2097482763
 40
0.3477938116
 40
0.4999773091
 40
0.6521642748
 40
0.7902238962
 40
0.8509517446
 40
0.9054648902
 40
0.9545170534
 40
1.0
 40
1.0
 40
1.0
 40
1.0
 10
337.3178326048
 20
187.8895404609
 30
0.0
 10
337.152744191
 20
187.9999790428
 30
0.0
 10
336.8473662369
 20
188.2902455385
 30
0.0
 10
336.5291683788
 20
188.8670228582
 30
0.0
 10
336.3452723963
 20
189.5665562098
 30
0.0
 10
336.2789918856
 20
190.6761318854
 30
0.0
 10
336.5656123188
 20
192.2040986627
 30
0.0
 10
337.3544834499
 20
193.9832278164
 30
0.0
 10
338.5006468877
 20
195.5561759016
 30
0.0
 10
339.68052574
 20
196.5686357985
 30
0.0
 10
340.6746159593
 20
197.0662782541
 30
0.0
 10
341.372440306
 20
197.2569680528
 30
0.0
 10
342.031117874
 20
197.2699649806
 30
0.0
 10
342.4352598385
 20
197.150738816
 30
0.0
 10
342.613482947
 20
197.0630339309
 30
0.0
  0
SPLINE
  5
306
100
AcDbEntity
  8
0
100
AcDbSpline
 62
7
  6
BYLAYER
 70
0
 71
3
 72
8
 73
4
 74
0
 42
0.0000001
 43
0.0000001
 44
0.0000000001
 40
0.0
 40
0.0
 40
0.0
 40
0.0
 40
1.0
 40
1.0
 40
1.0
 40
1.0
 10
360.9316346164
 20
179.6792010337
 30
0.0
 10
360.9089623167
 20
179.6922906088
 30
0.0
 10
360.8886306377
 20
179.7102188809
 30
0.0
 10
360.872365666
 20
179.7307327992
 30
0.0
  0
SPLINE
  5
307
100
AcDbEntity
  8
0
100
AcDbSpline
 62
7
  6
BYLAYER
 70
0
 71
3
 72
8
 73
4
 74
0
 42
0.0000001
 43
0.0000001
 44
0.0000000001
 40
0.0
 40
0.0
 40
0.0
 40
0.0
 40
1.0
 40
1.0
 40
1.0
 40
1.0
 10
360.872365666
 20
179.7307327992
 30
0.0
 10
360.8525591359
 20
179.7557134476
 30
0.0
 10
360.8379380563
 20
179.7851420271
 30
0.0
 10
360.8278637257
 20
179.8153883374
 30
0.0
  0
SPLINE
  5
308
100
AcDbEntity
  8
0
100
AcDbSpline
 62
7
  6
BYLAYER
 70
0
 71
3
 72
8
 73
4
 74
0
 42
0.0000001
 43
0.0000001
 44
0.0000000001
 40
0.0
 40
0.0
 40
0.0
 40
0.0
 40
1.0
 40
1.0
 40
1.0
 40
1.0
 10
360.8073526823
 20
179.7088809003
 30
0.0
 10
360.8073441594
 20
179.7453396979
 30
0.0
 10
360.8096952477
 20
179.7818474965
 30
0.0
 10
360.8139329731
 20
179.8180591752
 30
0.0
  0
SPLINE
  5
309
100
AcDbEntity
  8
0
100
AcDbSpline
 62
7
  6
BYLAYER
 70
0
 71
3
 72
9
 73
5
 74
0
 42
0.0000001
 43
0.0000001
 44
0.0000000001
 40
0.0
 40
0.0
 40
0.0
 40
0.0
 40
0.2411881318
 40
1.0
 40
1.0
 40
1.0
 40
1.0
 10
360.8314710899
 20
179.9232395374
 30
0.0
 10
360.8389801713
 20
179.9581896937
 30
0.0
 10
360.876625893
 20
180.101657049
 30
0.0
 10
360.9375113234
 20
180.2387297109
 30
0.0
 10
360.9937457917
 20
180.3361288676
 30
0.0
  0
SPLINE
  5
30A
100
AcDbEntity
  8
0
100
AcDbSpline
 62
7
  6
BYLAYER
 70
0
 71
3
 72
8
 73
4
 74
0
 42
0.0000001
 43
0.0000001
 44
0.0000000001
 40
0.0
 40
0.0
 40
0.0
 40
0.0
 40
1.0
 40
1.0
 40
1.0
 40
1.0
 10
363.4315791577
 20
178.2357120729
 30
0.0
 10
363.4089068581
 20
178.248801648
 30
0.0
 10
363.388575179
 20
178.26672992
 30
0.0
 10
363.3723102073
 20
178.2872438384
 30
0.0
  0
SPLINE
  5
30B
100
AcDbEntity
  8
0
100
AcDbSpline
 62
7
  6
BYLAYER
 70
0
 71
3
 72
8
 73
4
 74
0
 42
0.0000001
 43
0.0000001
 44
0.0000000001
 40
0.0
 40
0.0
 40
0.0
 40
0.0
 40
1.0
 40
1.0
 40
1.0
 40
1.0
 10
363.3723102073
 20
178.2872438384
 30
0.0
 10
363.3525036772
 20
178.3122244868
 30
0.0
 10
363.3378825977
 20
178.3416530663
 30
0.0
 10
363.327808267
 20
178.3718993766
 30
0.0
  0
SPLINE
  5
30C
100
AcDbEntity
  8
0
100
AcDbSpline
 62
7
  6
BYLAYER
 70
0
 71
3
 72
8
 73
4
 74
0
 42
0.0000001
 43
0.0000001
 44
0.0000000001
 40
0.0
 40
0.0
 40
0.0
 40
0.0
 40
1.0
 40
1.0
 40
1.0
 40
1.0
 10
363.8616667908
 20
179.2966230405
 30
0.0
 10
363.8929117149
 20
179.3030270729
 30
0.0
 10
363.9257239248
 20
179.305081168
 30
0.0
 10
363.9572750599
 20
179.3004139648
 30
0.0
  0
SPLINE
  5
30D
100
AcDbEntity
  8
0
100
AcDbSpline
 62
7
  6
BYLAYER
 70
0
 71
3
 72
8
 73
4
 74
0
 42
0.0000001
 43
0.0000001
 44
0.0000000001
 40
0.0
 40
0.0
 40
0.0
 40
0.0
 40
1.0
 40
1.0
 40
1.0
 40
1.0
 10
363.9572750599
 20
179.3004139648
 30
0.0
 10
363.9831655661
 20
179.2965841105
 30
0.0
 10
364.0088497616
 20
179.2879420746
 30
0.0
 10
364.0315157081
 20
179.2748561675
 30
0.0
  0
SPLINE
  5
30E
100
AcDbEntity
  8
0
100
AcDbSpline
 62
7
  6
BYLAYER
 70
0
 71
3
 72
8
 73
4
 74
0
 42
0.0000001
 43
0.0000001
 44
0.0000000001
 40
0.0
 40
0.0
 40
0.0
 40
0.0
 40
1.0
 40
1.0
 40
1.0
 40
1.0
 10
363.3072972236
 20
178.2653919395
 30
0.0
 10
363.3072887007
 20
178.3018507371
 30
0.0
 10
363.309639789
 20
178.3383585357
 30
0.0
 10
363.3138775144
 20
178.3745702144
 30
0.0
  0
SPLINE
  5
30F
100
AcDbEntity
  8
0
100
AcDbSpline
 62
7
  6
BYLAYER
 70
0
 71
3
 72
9
 73
5
 74
0
 42
0.0000001
 43
0.0000001
 44
0.0000000001
 40
0.0
 40
0.0
 40
0.0
 40
0.0
 40
0.2411881318
 40
1.0
 40
1.0
 40
1.0
 40
1.0
 10
363.3314156312
 20
178.4797505766
 30
0.0
 10
363.3389247126
 20
178.5147007329
 30
0.0
 10
363.3765704343
 20
178.6581680882
 30
0.0
 10
363.4374558647
 20
178.7952407501
 30
0.0
 10
363.493690333
 20
178.8926399068
 30
0.0
  0
SPLINE
  5
310
100
AcDbEntity
  8
0
100
AcDbSpline
 62
7
  6
BYLAYER
 70
0
 71
3
 72
9
 73
5
 74
0
 42
0.0000001
 43
0.0000001
 44
0.0000000001
 40
0.0
 40
0.0
 40
0.0
 40
0.0
 40
0.4659920251
 40
1.0
 40
1.0
 40
1.0
 40
1.0
 10
348.6383751652
 20
195.2176883116
 30
0.0
 10
348.7146945236
 20
195.1390624836
 30
0.0
 10
348.8931404519
 20
194.9853071297
 30
0.0
 10
349.0825002297
 20
194.8442266131
 30
0.0
 10
349.1912462941
 20
194.7814434639
 30
0.0
  0
SPLINE
  5
311
100
AcDbEntity
  8
0
100
AcDbSpline
 62
7
  6
BYLAYER
 70
0
 71
3
 72
8
 73
4
 74
0
 42
0.0000001
 43
0.0000001
 44
0.0000000001
 40
0.0
 40
0.0
 40
0.0
 40
0.0
 40
1.0
 40
1.0
 40
1.0
 40
1.0
 10
360.9315895667
 20
176.7924030448
 30
0.0
 10
360.908917267
 20
176.8054926199
 30
0.0
 10
360.8885855879
 20
176.8234208919
 30
0.0
 10
360.8723206162
 20
176.8439348103
 30
0.0
  0
SPLINE
  5
312
100
AcDbEntity
  8
0
100
AcDbSpline
 62
7
  6
BYLAYER
 70
0
 71
3
 72
8
 73
4
 74
0
 42
0.0000001
 43
0.0000001
 44
0.0000000001
 40
0.0
 40
0.0
 40
0.0
 40
0.0
 40
1.0
 40
1.0
 40
1.0
 40
1.0
 10
360.8723206162
 20
176.8439348103
 30
0.0
 10
360.8525140862
 20
176.8689154587
 30
0.0
 10
360.8378930066
 20
176.8983440382
 30
0.0
 10
360.827818676
 20
176.9285903485
 30
0.0
  0
SPLINE
  5
313
100
AcDbEntity
  8
0
100
AcDbSpline
 62
7
  6
BYLAYER
 70
0
 71
3
 72
9
 73
5
 74
0
 42
0.0000001
 43
0.0000001
 44
0.0000000001
 40
0.0
 40
0.0
 40
0.0
 40
0.0
 40
0.5339969799
 40
1.0
 40
1.0
 40
1.0
 40
1.0
 10
342.5820700596
 20
183.3342259248
 30
0.0
 10
342.4733264917
 20
183.3970076327
 30
0.0
 10
342.2564696912
 20
183.4904606666
 30
0.0
 10
342.0340942611
 20
183.5681287667
 30
0.0
 10
341.9278425551
 20
183.5949196237
 30
0.0
  0
SPLINE
  5
314
100
AcDbEntity
  8
0
100
AcDbSpline
 62
7
  6
BYLAYER
 70
0
 71
3
 72
8
 73
4
 74
0
 42
0.0000001
 43
0.0000001
 44
0.0000000001
 40
0.0
 40
0.0
 40
0.0
 40
0.0
 40
1.0
 40
1.0
 40
1.0
 40
1.0
 10
361.3616771997
 20
177.8533140124
 30
0.0
 10
361.3929221238
 20
177.8597180448
 30
0.0
 10
361.4257343337
 20
177.8617721399
 30
0.0
 10
361.4572854689
 20
177.8571049367
 30
0.0
  0
SPLINE
  5
315
100
AcDbEntity
  8
0
100
AcDbSpline
 62
7
  6
BYLAYER
 70
0
 71
3
 72
8
 73
4
 74
0
 42
0.0000001
 43
0.0000001
 44
0.0000000001
 40
0.0
 40
0.0
 40
0.0
 40
0.0
 40
1.0
 40
1.0
 40
1.0
 40
1.0
 10
361.4572854689
 20
177.8571049367
 30
0.0
 10
361.483175975
 20
177.8532750824
 30
0.0
 10
361.5088601705
 20
177.8446330465
 30
0.0
 10
361.531526117
 20
177.8315471394
 30
0.0
  0
SPLINE
  5
316
100
AcDbEntity
  8
0
100
AcDbSpline
 62
7
  6
BYLAYER
 70
0
 71
3
 72
9
 73
5
 74
0
 42
0.0000001
 43
0.0000001
 44
0.0000000001
 40
0.0
 40
0.0
 40
0.0
 40
0.0
 40
0.4810636483
 40
1.0
 40
1.0
 40
1.0
 40
1.0
 10
339.8647021949
 20
184.6826716452
 30
0.0
 10
339.6266798096
 20
184.8201077682
 30
0.0
 10
339.1827510558
 20
185.2015325324
 30
0.0
 10
338.8938767356
 20
185.7058214663
 30
0.0
 10
338.7801745719
 20
185.9796425365
 30
0.0
  0
SPLINE
  5
317
100
AcDbEntity
  8
0
100
AcDbSpline
 62
7
  6
BYLAYER
 70
0
 71
3
 72
8
 73
4
 74
0
 42
0.0000001
 43
0.0000001
 44
0.0000000001
 40
0.0
 40
0.0
 40
0.0
 40
0.0
 40
1.0
 40
1.0
 40
1.0
 40
1.0
 10
360.8073076325
 20
176.8220829114
 30
0.0
 10
360.8072991097
 20
176.858541709
 30
0.0
 10
360.8096501979
 20
176.8950495076
 30
0.0
 10
360.8138879233
 20
176.9312611863
 30
0.0
  0
SPLINE
  5
318
100
AcDbEntity
  8
0
100
AcDbSpline
 62
7
  6
BYLAYER
 70
0
 71
3
 72
9
 73
5
 74
0
 42
0.0000001
 43
0.0000001
 44
0.0000000001
 40
0.0
 40
0.0
 40
0.0
 40
0.0
 40
0.2411881318
 40
1.0
 40
1.0
 40
1.0
 40
1.0
 10
360.8314260401
 20
177.0364415485
 30
0.0
 10
360.8389351215
 20
177.0713917048
 30
0.0
 10
360.8765808432
 20
177.2148590601
 30
0.0
 10
360.9374662736
 20
177.351931722
 30
0.0
 10
360.9937007419
 20
177.4493308787
 30
0.0
  0
SPLINE
  5
319
100
AcDbEntity
  8
0
100
AcDbSpline
 62
7
  6
BYLAYER
 70
0
 71
3
 72
9
 73
5
 74
0
 42
0.0000001
 43
0.0000001
 44
0.0000000001
 40
0.0
 40
0.0
 40
0.0
 40
0.0
 40
0.5189318897
 40
1.0
 40
1.0
 40
1.0
 40
1.0
 10
344.99938403
 20
196.7514302838
 30
0.0
 10
345.2933645474
 20
196.7898527159
 30
0.0
 10
345.8745176402
 20
196.7917834644
 30
0.0
 10
346.4267769981
 20
196.5979971422
 30
0.0
 10
346.664796418
 20
196.4605627314
 30
0.0
  0
SPLINE
  5
31A
100
AcDbEntity
  8
0
100
AcDbSpline
 62
7
  6
BYLAYER
 70
0
 71
3
 72
13
 73
9
 74
0
 42
0.0000001
 43
0.0000001
 44
0.0000000001
 40
0.0
 40
0.0
 40
0.0
 40
0.0
 40
0.0910455983
 40
0.1884256289
 40
0.29654555
 40
0.4173066803
 40
0.69345154
 40
1.0
 40
1.0
 40
1.0
 40
1.0
 10
360.6937751923
 20
175.8904929736
 30
0.0
 10
360.8245278869
 20
175.8150699523
 30
0.0
 10
361.1243863637
 20
175.7054385819
 30
0.0
 10
361.6224646258
 20
175.6909556645
 30
0.0
 10
362.1537963615
 20
175.8159280752
 30
0.0
 10
362.9159666329
 20
176.1735242315
 30
0.0
 10
363.8261232106
 20
176.9304761445
 30
0.0
 10
364.4072966429
 20
177.712668254
 30
0.0
 10
364.6650566588
 20
178.1506883494
 30
0.0
  0
SPLINE
  5
31B
100
AcDbEntity
  8
0
100
AcDbSpline
 62
7
  6
BYLAYER
 70
0
 71
3
 72
9
 73
5
 74
0
 42
0.0000001
 43
0.0000001
 44
0.0000000001
 40
0.0
 40
0.0
 40
0.0
 40
0.0
 40
0.5340182438
 40
1.0
 40
1.0
 40
1.0
 40
1.0
 10
354.4502461216
 20
191.7453410801
 30
0.0
 10
354.5589939667
 20
191.6825569028
 30
0.0
 10
354.7758532952
 20
191.5891099022
 30
0.0
 10
354.9982268203
 20
191.5114370026
 30
0.0
 10
355.1044736261
 20
191.4846473811
 30
0.0
  0
SPLINE
  5
31C
100
AcDbEntity
  8
0
100
AcDbSpline
 62
7
  6
BYLAYER
 70
0
 71
3
 72
13
 73
9
 74
0
 42
0.0000001
 43
0.0000001
 44
0.0000000001
 40
0.0
 40
0.0
 40
0.0
 40
0.0
 40
0.0908576258
 40
0.1881427171
 40
0.2963004168
 40
0.4172069803
 40
0.6936843875
 40
1.0
 40
1.0
 40
1.0
 40
1.0
 10
358.8830901514
 20
175.2037508467
 30
0.0
 10
358.7016671415
 20
175.3084930265
 30
0.0
 10
358.3621278778
 20
175.5938628093
 30
0.0
 10
358.0010239256
 20
176.1847253723
 30
0.0
 10
357.7859947838
 20
176.9130075651
 30
0.0
 10
357.6937437748
 20
178.0814013969
 30
0.0
 10
357.9831179665
 20
179.7027216533
 30
0.0
 10
358.5299676996
 20
180.9431157888
 30
0.0
 10
358.8831044966
 20
181.5547553629
 30
0.0
  0
SPLINE
  5
31D
100
AcDbEntity
  8
0
100
AcDbSpline
 62
7
  6
BYLAYER
 70
0
 71
3
 72
9
 73
5
 74
0
 42
0.0000001
 43
0.0000001
 44
0.0000000001
 40
0.0
 40
0.0
 40
0.0
 40
0.0
 40
0.2531116696
 40
1.0
 40
1.0
 40
1.0
 40
1.0
 10
348.6383751652
 20
195.2176883116
 30
0.0
 10
348.6006175217
 20
195.2565870398
 30
0.0
 10
348.4464159774
 20
195.4052953675
 30
0.0
 10
348.2716984098
 20
195.5328285605
 30
0.0
 10
348.1331681725
 20
195.6128170823
 30
0.0
  0
SPLINE
  5
31E
100
AcDbEntity
  8
0
100
AcDbSpline
 62
7
  6
BYLAYER
 70
0
 71
3
 72
9
 73
5
 74
0
 42
0.0000001
 43
0.0000001
 44
0.0000000001
 40
0.0
 40
0.0
 40
0.0
 40
0.0
 40
0.2531099328
 40
1.0
 40
1.0
 40
1.0
 40
1.0
 10
355.1044736261
 20
191.4846473811
 30
0.0
 10
355.1570377756
 20
191.4713935834
 30
0.0
 10
355.3629168183
 20
191.4121887413
 30
0.0
 10
355.5607130247
 20
191.3246289356
 30
0.0
 10
355.6992422315
 20
191.2446410089
 30
0.0
  0
SPLINE
  5
31F
100
AcDbEntity
  8
0
100
AcDbSpline
 62
7
  6
BYLAYER
 70
0
 71
3
 72
13
 73
9
 74
0
 42
0.0000001
 43
0.0000001
 44
0.0000000001
 40
0.0
 40
0.0
 40
0.0
 40
0.0
 40
0.0908534028
 40
0.1881339014
 40
0.2962911664
 40
0.4171929474
 40
0.6936801368
 40
1.0
 40
1.0
 40
1.0
 40
1.0
 10
358.4867037722
 20
173.7006647281
 30
0.0
 10
358.717581165
 20
173.567365892
 30
0.0
 10
359.2481093295
 20
173.3746869185
 30
0.0
 10
360.1290943193
 20
173.3525712175
 30
0.0
 10
361.0685764101
 20
173.579035309
 30
0.0
 10
362.4150269542
 20
174.2208703382
 30
0.0
 10
364.0179250794
 20
175.5714411663
 30
0.0
 10
365.0370906125
 20
176.9634911979
 30
0.0
 10
365.4865207125
 20
177.7419125836
 30
0.0
  0
SPLINE
  5
320
100
AcDbEntity
  8
0
100
AcDbSpline
 62
7
  6
BYLAYER
 70
0
 71
3
 72
9
 73
5
 74
0
 42
0.0000001
 43
0.0000001
 44
0.0000000001
 40
0.0
 40
0.0
 40
0.0
 40
0.0
 40
0.2464631012
 40
1.0
 40
1.0
 40
1.0
 40
1.0
 10
351.5449758257
 20
177.3618366819
 30
0.0
 10
351.5109548798
 20
177.3919057784
 30
0.0
 10
351.3762003186
 20
177.5175916395
 30
0.0
 10
351.2549115085
 20
177.657558372
 30
0.0
 10
351.1717997286
 20
177.7687493804
 30
0.0
  0
SPLINE
  5
321
100
AcDbEntity
  8
0
100
AcDbSpline
 62
7
  6
BYLAYER
 70
0
 71
3
 72
9
 73
5
 74
0
 42
0.0000001
 43
0.0000001
 44
0.0000000001
 40
0.0
 40
0.0
 40
0.0
 40
0.0
 40
0.2227558566
 40
1.0
 40
1.0
 40
1.0
 40
1.0
 10
351.1717997286
 20
177.7687493804
 30
0.0
 10
351.041049624
 20
177.9436732721
 30
0.0
 10
350.5436025508
 20
178.7970577453
 30
0.0
 10
350.4113271984
 20
179.8192342328
 30
0.0
 10
350.4269099833
 20
180.5810837229
 30
0.0
  0
SPLINE
  5
322
100
AcDbEntity
  8
0
100
AcDbSpline
 62
7
  6
BYLAYER
 70
0
 71
3
 72
9
 73
5
 74
0
 42
0.0000001
 43
0.0000001
 44
0.0000000001
 40
0.0
 40
0.0
 40
0.0
 40
0.0
 40
0.4759297543
 40
1.0
 40
1.0
 40
1.0
 40
1.0
 10
350.4269099833
 20
180.5810837229
 30
0.0
 10
350.4439223856
 20
181.4128278593
 30
0.0
 10
350.7734596251
 20
183.1554411807
 30
0.0
 10
351.4896525242
 20
184.7655590946
 30
0.0
 10
351.9476923526
 20
185.5588926919
 30
0.0
  0
SPLINE
  5
323
100
AcDbEntity
  8
0
100
AcDbSpline
 62
7
  6
BYLAYER
 70
0
 71
3
 72
8
 73
4
 74
0
 42
0.0000001
 43
0.0000001
 44
0.0000000001
 40
0.0
 40
0.0
 40
0.0
 40
0.0
 40
1.0
 40
1.0
 40
1.0
 40
1.0
 10
356.1903758513
 20
174.6222736924
 30
0.0
 10
356.3625549861
 20
174.5228877706
 30
0.0
 10
356.5482153032
 20
174.4441991787
 30
0.0
 10
356.7390437218
 20
174.3884521559
 30
0.0
  0
SPLINE
  5
324
100
AcDbEntity
  8
0
100
AcDbSpline
 62
7
  6
BYLAYER
 70
0
 71
3
 72
8
 73
4
 74
0
 42
0.0000001
 43
0.0000001
 44
0.0000000001
 40
0.0
 40
0.0
 40
0.0
 40
0.0
 40
1.0
 40
1.0
 40
1.0
 40
1.0
 10
356.7390437218
 20
174.3884521559
 30
0.0
 10
356.882048491
 20
174.3466759353
 30
0.0
 10
357.0291219164
 20
174.3172509947
 30
0.0
 10
357.1770341656
 20
174.2994301318
 30
0.0
  0
SPLINE
  5
325
100
AcDbEntity
  8
0
100
AcDbSpline
 62
7
  6
BYLAYER
 70
0
 71
3
 72
11
 73
7
 74
0
 42
0.0000001
 43
0.0000001
 44
0.0000000001
 40
0.0
 40
0.0
 40
0.0
 40
0.0
 40
0.2828715115
 40
0.5509579358
 40
0.7921594396
 40
1.0
 40
1.0
 40
1.0
 40
1.0
 10
344.3116320579
 20
189.96744417
 30
0.0
 10
344.6156992635
 20
190.4940942888
 30
0.0
 10
345.2913528469
 20
191.4744561839
 30
0.0
 10
346.4864690574
 20
192.7006743241
 30
0.0
 10
347.7650334405
 20
193.5809973775
 30
0.0
 10
348.6900686972
 20
193.9157501003
 30
0.0
 10
349.1314360153
 20
193.9853553295
 30
0.0
  0
SPLINE
  5
326
100
AcDbEntity
  8
0
100
AcDbSpline
 62
7
  6
BYLAYER
 70
0
 71
3
 72
11
 73
7
 74
0
 42
0.0000001
 43
0.0000001
 44
0.0000000001
 40
0.0
 40
0.0
 40
0.0
 40
0.0
 40
0.2078437031
 40
0.4490471187
 40
0.7171327085
 40
1.0
 40
1.0
 40
1.0
 40
1.0
 10
343.2417449123
 20
183.7842995695
 30
0.0
 10
343.0813600601
 20
184.2013618125
 30
0.0
 10
342.9087855677
 20
185.1698782207
 30
0.0
 10
343.031931825
 20
186.7173451903
 30
0.0
 10
343.4963492501
 20
188.3654728668
 30
0.0
 10
344.0075631596
 20
189.4407911194
 30
0.0
 10
344.3116320579
 20
189.96744417
 30
0.0
  0
SPLINE
  5
327
100
AcDbEntity
  8
0
100
AcDbSpline
 62
7
  6
BYLAYER
 70
0
 71
3
 72
9
 73
5
 74
0
 42
0.0000001
 43
0.0000001
 44
0.0000000001
 40
0.0
 40
0.0
 40
0.0
 40
0.0
 40
0.4866078719
 40
1.0
 40
1.0
 40
1.0
 40
1.0
 10
351.2442242733
 20
177.8819113377
 30
0.0
 10
351.0433984569
 20
177.9978698496
 30
0.0
 10
350.6651916429
 20
178.3006649138
 30
0.0
 10
350.3887161176
 20
178.6963404186
 30
0.0
 10
350.272637011
 20
178.9117146761
 30
0.0
  0
SPLINE
  5
328
100
AcDbEntity
  8
0
100
AcDbSpline
 62
7
  6
BYLAYER
 70
0
 71
3
 72
9
 73
5
 74
0
 42
0.0000001
 43
0.0000001
 44
0.0000000001
 40
0.0
 40
0.0
 40
0.0
 40
0.0
 40
0.230061942
 40
1.0
 40
1.0
 40
1.0
 40
1.0
 10
350.1712873003
 20
179.1167240504
 30
0.0
 10
350.1076194911
 20
179.2574630478
 30
0.0
 10
349.8723048302
 20
179.8880265636
 30
0.0
 10
349.7945378435
 20
180.5694964008
 30
0.0
 10
349.7945459108
 20
181.0864550784
 30
0.0
  0
SPLINE
  5
329
100
AcDbEntity
  8
0
100
AcDbSpline
 62
7
  6
BYLAYER
 70
0
 71
3
 72
9
 73
5
 74
0
 42
0.0000001
 43
0.0000001
 44
0.0000000001
 40
0.0
 40
0.0
 40
0.0
 40
0.0
 40
0.7468900672
 40
1.0
 40
1.0
 40
1.0
 40
1.0
 10
341.3330739494
 20
183.834925996
 30
0.0
 10
341.4716031562
 20
183.7549380692
 30
0.0
 10
341.6693993628
 20
183.6673782635
 30
0.0
 10
341.8752784056
 20
183.6081734214
 30
0.0
 10
341.9278425551
 20
183.5949196237
 30
0.0
  0
SPLINE
  5
32A
100
AcDbEntity
  8
0
100
AcDbSpline
 62
7
  6
BYLAYER
 70
0
 71
3
 72
9
 73
5
 74
0
 42
0.0000001
 43
0.0000001
 44
0.0000000001
 40
0.0
 40
0.0
 40
0.0
 40
0.0
 40
0.6447055523
 40
1.0
 40
1.0
 40
1.0
 40
1.0
 10
340.9821055531
 20
184.2580588596
 30
0.0
 10
340.9433891501
 20
184.2804112796
 30
0.0
 10
340.8831588483
 20
184.3102979149
 30
0.0
 10
340.813267118
 20
184.3358783555
 30
0.0
 10
340.7891130133
 20
184.3310240714
 30
0.0
  0
SPLINE
  5
32B
100
AcDbEntity
  8
0
100
AcDbSpline
 62
7
  6
BYLAYER
 70
0
 71
3
 72
9
 73
5
 74
0
 42
0.0000001
 43
0.0000001
 44
0.0000000001
 40
0.0
 40
0.0
 40
0.0
 40
0.0
 40
0.5444281324
 40
1.0
 40
1.0
 40
1.0
 40
1.0
 10
340.7891130133
 20
184.3310240714
 30
0.0
 10
340.7861512616
 20
184.3304288441
 30
0.0
 10
340.7807374415
 20
184.3287001689
 30
0.0
 10
340.7765497565
 20
184.3246601126
 30
0.0
 10
340.7752851179
 20
184.322471264
 30
0.0
  0
SPLINE
  5
32C
100
AcDbEntity
  8
0
100
AcDbSpline
 62
7
  6
BYLAYER
 70
0
 71
3
 72
9
 73
5
 74
0
 42
0.0000001
 43
0.0000001
 44
0.0000000001
 40
0.0
 40
0.0
 40
0.0
 40
0.0
 40
0.4659507664
 40
1.0
 40
1.0
 40
1.0
 40
1.0
 10
348.393941016
 20
179.861878693
 30
0.0
 10
348.3176284667
 20
179.9404975061
 30
0.0
 10
348.1391783958
 20
180.0942475396
 30
0.0
 10
347.9498242795
 20
180.2353355834
 30
0.0
 10
347.8410698871
 20
180.2981235407
 30
0.0
  0
SPLINE
  5
32D
100
AcDbEntity
  8
0
100
AcDbSpline
 62
7
  6
BYLAYER
 70
0
 71
3
 72
9
 73
5
 74
0
 42
0.0000001
 43
0.0000001
 44
0.0000000001
 40
0.0
 40
0.0
 40
0.0
 40
0.0
 40
0.1515854414
 40
1.0
 40
1.0
 40
1.0
 40
1.0
 10
347.4320781543
 20
195.8521757568
 30
0.0
 10
347.4302718956
 20
195.8491019786
 30
0.0
 10
347.4282350739
 20
195.8239211144
 30
0.0
 10
347.4503173823
 20
195.8064402649
 30
0.0
 10
347.4650072818
 20
195.7929355131
 30
0.0
  0
SPLINE
  5
32E
100
AcDbEntity
  8
0
100
AcDbSpline
 62
7
  6
BYLAYER
 70
0
 71
3
 72
8
 73
4
 74
0
 42
0.0000001
 43
0.0000001
 44
0.0000000001
 40
0.0
 40
0.0
 40
0.0
 40
0.0
 40
1.0
 40
1.0
 40
1.0
 40
1.0
 10
347.4650072818
 20
195.7929355131
 30
0.0
 10
347.4699020968
 20
195.7884356007
 30
0.0
 10
347.4749470378
 20
195.7840967207
 30
0.0
 10
347.480083811
 20
195.7798751112
 30
0.0
  0
SPLINE
  5
32F
100
AcDbEntity
  8
0
100
AcDbSpline
 62
7
  6
BYLAYER
 70
0
 71
3
 72
9
 73
5
 74
0
 42
0.0000001
 43
0.0000001
 44
0.0000000001
 40
0.0
 40
0.0
 40
0.0
 40
0.0
 40
0.2225801494
 40
1.0
 40
1.0
 40
1.0
 40
1.0
 10
347.497928295
 20
195.7658938407
 30
0.0
 10
347.5045364198
 20
195.7609361761
 30
0.0
 10
347.53468601
 20
195.7392776825
 30
0.0
 10
347.566293293
 20
195.7197031867
 30
0.0
 10
347.5912817877
 20
195.7052763989
 30
0.0
  0
SPLINE
  5
330
100
AcDbEntity
  8
0
100
AcDbSpline
 62
7
  6
BYLAYER
 70
0
 71
3
 72
9
 73
5
 74
0
 42
0.0000001
 43
0.0000001
 44
0.0000000001
 40
0.0
 40
0.0
 40
0.0
 40
0.0
 40
0.2529721247
 40
1.0
 40
1.0
 40
1.0
 40
1.0
 10
330.9237721577
 20
191.4179564609
 30
0.0
 10
330.9639160735
 20
191.3781657022
 30
0.0
 10
331.1292383436
 20
191.2277127937
 30
0.0
 10
331.3219415899
 20
191.1073184735
 30
0.0
 10
331.4743140452
 20
191.0391834401
 30
0.0
  0
SPLINE
  5
331
100
AcDbEntity
  8
0
100
AcDbSpline
 62
7
  6
BYLAYER
 70
0
 71
3
 72
9
 73
5
 74
0
 42
0.0000001
 43
0.0000001
 44
0.0000000001
 40
0.0
 40
0.0
 40
0.0
 40
0.0
 40
0.2415732878
 40
1.0
 40
1.0
 40
1.0
 40
1.0
 10
331.4743140452
 20
191.0391834401
 30
0.0
 10
331.5476405478
 20
191.0063946812
 30
0.0
 10
331.8599156734
 20
190.8902094152
 30
0.0
 10
332.2002286546
 20
190.8575329921
 30
0.0
 10
332.4520297246
 20
190.8713222573
 30
0.0
  0
SPLINE
  5
332
100
AcDbEntity
  8
0
100
AcDbSpline
 62
7
  6
BYLAYER
 70
0
 71
3
 72
12
 73
8
 74
0
 42
0.0000001
 43
0.0000001
 44
0.0000000001
 40
0.0
 40
0.0
 40
0.0
 40
0.0
 40
0.1916397358
 40
0.3033014018
 40
0.4262749558
 40
0.7010962405
 40
1.0
 40
1.0
 40
1.0
 40
1.0
 10
328.8725013008
 20
193.4514298028
 30
0.0
 10
328.6202639652
 20
193.7015525784
 30
0.0
 10
328.3500645436
 20
194.2296292509
 30
0.0
 10
328.2155115315
 20
195.00870942
 30
0.0
 10
328.2108526276
 20
195.9577324501
 30
0.0
 10
328.4843893621
 20
197.2340338842
 30
0.0
 10
328.9258775269
 20
198.2103911946
 30
0.0
 10
329.2029069091
 20
198.6902112948
 30
0.0
  0
SPLINE
  5
333
100
AcDbEntity
  8
0
100
AcDbSpline
 62
7
  6
BYLAYER
 70
0
 71
3
 72
9
 73
5
 74
0
 42
0.0000001
 43
0.0000001
 44
0.0000000001
 40
0.0
 40
0.0
 40
0.0
 40
0.0
 40
0.474461947
 40
1.0
 40
1.0
 40
1.0
 40
1.0
 10
349.7945459108
 20
181.0864550784
 30
0.0
 10
349.7945584922
 20
181.8926705335
 30
0.0
 10
350.0948509594
 20
183.5924849488
 30
0.0
 10
350.7834243444
 20
185.1616948226
 30
0.0
 10
351.2278577737
 20
185.9362507557
 30
0.0
  0
SPLINE
  5
334
100
AcDbEntity
  8
0
100
AcDbSpline
 62
7
  6
BYLAYER
 70
0
 71
3
 72
13
 73
9
 74
0
 42
0.0000001
 43
0.0000001
 44
0.0000000001
 40
0.0
 40
0.0
 40
0.0
 40
0.0
 40
0.306312774
 40
0.5827824023
 40
0.7036781133
 40
0.8118281686
 40
0.9091398328
 40
1.0
 40
1.0
 40
1.0
 40
1.0
 10
351.248479673
 20
185.9720492147
 30
0.0
 10
351.6980509028
 20
186.7494183911
 30
0.0
 10
352.716963693
 20
188.1395612907
 30
0.0
 10
354.319018365
 20
189.4880823115
 30
0.0
 10
355.6645238765
 20
190.1284761782
 30
0.0
 10
356.6032652664
 20
190.3544907942
 30
0.0
 10
357.4835179795
 20
190.3319447698
 30
0.0
 10
358.0136423018
 20
190.1394069563
 30
0.0
 10
358.2443212677
 20
190.0062109853
 30
0.0
  0
SPLINE
  5
335
100
AcDbEntity
  8
0
100
AcDbSpline
 62
7
  6
BYLAYER
 70
0
 71
3
 72
9
 73
5
 74
0
 42
0.0000001
 43
0.0000001
 44
0.0000000001
 40
0.0
 40
0.0
 40
0.0
 40
0.0
 40
0.5240276115
 40
1.0
 40
1.0
 40
1.0
 40
1.0
 10
351.9476923526
 20
185.5588926919
 30
0.0
 10
352.4052537599
 20
186.3513976548
 30
0.0
 10
353.4404224494
 20
187.7753951655
 30
0.0
 10
354.7830333519
 20
188.9314043385
 30
0.0
 10
355.4939318549
 20
189.3621039827
 30
0.0
  0
SPLINE
  5
336
100
AcDbEntity
  8
0
100
AcDbSpline
 62
7
  6
BYLAYER
 70
0
 71
3
 72
9
 73
5
 74
0
 42
0.0000001
 43
0.0000001
 44
0.0000000001
 40
0.0
 40
0.0
 40
0.0
 40
0.0
 40
0.2823707477
 40
1.0
 40
1.0
 40
1.0
 40
1.0
 10
355.4939318549
 20
189.3621039827
 30
0.0
 10
355.7305207477
 20
189.5054419578
 30
0.0
 10
356.591542979
 20
189.9639715058
 30
0.0
 10
357.6056125298
 20
190.2083058265
 30
0.0
 10
358.3037856663
 20
190.1258896421
 30
0.0
  0
SPLINE
  5
337
100
AcDbEntity
  8
0
100
AcDbSpline
 62
7
  6
BYLAYER
 70
0
 71
3
 72
9
 73
5
 74
0
 42
0.0000001
 43
0.0000001
 44
0.0000000001
 40
0.0
 40
0.0
 40
0.0
 40
0.0
 40
0.254087902
 40
1.0
 40
1.0
 40
1.0
 40
1.0
 10
358.3037856663
 20
190.1258896421
 30
0.0
 10
358.3478176878
 20
190.1206918609
 30
0.0
 10
358.5206120029
 20
190.0962706138
 30
0.0
 10
358.6911744476
 20
190.0555510522
 30
0.0
 10
358.8150864314
 20
190.0157085336
 30
0.0
  0
SPLINE
  5
338
100
AcDbEntity
  8
0
100
AcDbSpline
 62
7
  6
BYLAYER
 70
0
 71
3
 72
9
 73
5
 74
0
 42
0.0000001
 43
0.0000001
 44
0.0000000001
 40
0.0
 40
0.0
 40
0.0
 40
0.0
 40
0.2562327424
 40
1.0
 40
1.0
 40
1.0
 40
1.0
 10
364.2954508699
 20
186.6829977274
 30
0.0
 10
364.2447238422
 20
186.7492128751
 30
0.0
 10
364.0357699087
 20
186.9989629582
 30
0.0
 10
363.7797886924
 20
187.209891023
 30
0.0
 10
363.5719459172
 20
187.3340865475
 30
0.0
  0
SPLINE
  5
339
100
AcDbEntity
  8
0
100
AcDbSpline
 62
7
  6
BYLAYER
 70
0
 71
3
 72
13
 73
9
 74
0
 42
0.0000001
 43
0.0000001
 44
0.0000000001
 40
0.0
 40
0.0
 40
0.0
 40
0.0
 40
0.3063178072
 40
0.5828000886
 40
0.7037015713
 40
0.8118616272
 40
0.9091448761
 40
1.0
 40
1.0
 40
1.0
 40
1.0
 10
365.4865207125
 20
177.7419125836
 30
0.0
 10
365.9359699833
 20
178.5203671736
 30
0.0
 10
366.6319847052
 20
180.0990662087
 30
0.0
 10
367.0002022562
 20
182.162578126
 30
0.0
 10
366.882838987
 20
183.6496230388
 30
0.0
 10
366.6092333663
 20
184.5765387707
 30
0.0
 10
366.1495611135
 20
185.3285027011
 30
0.0
 10
365.7173861017
 20
185.6916215873
 30
0.0
 10
365.4864929371
 20
185.8249295294
 30
0.0
  0
SPLINE
  5
33A
100
AcDbEntity
  8
0
100
AcDbSpline
 62
7
  6
BYLAYER
 70
0
 71
3
 72
13
 73
9
 74
0
 42
0.0000001
 43
0.0000001
 44
0.0000000001
 40
0.0
 40
0.0
 40
0.0
 40
0.0
 40
0.3063165222
 40
0.582792567
 40
0.7036985234
 40
0.811856067
 40
0.9091415645
 40
1.0
 40
1.0
 40
1.0
 40
1.0
 10
358.8831044966
 20
181.5547553629
 30
0.0
 10
359.2362251226
 20
182.1663669283
 30
0.0
 10
360.0369851529
 20
183.2600861058
 30
0.0
 10
361.2963476222
 20
184.3212878384
 30
0.0
 10
362.3542790964
 20
184.8255592706
 30
0.0
 10
363.092468284
 20
185.0034675727
 30
0.0
 10
363.7846905252
 20
184.9861753607
 30
0.0
 10
364.2015810529
 20
184.8348221709
 30
0.0
 10
364.3829968327
 20
184.7300841653
 30
0.0
  0
SPLINE
  5
33B
100
AcDbEntity
  8
0
100
AcDbSpline
 62
7
  6
BYLAYER
 70
0
 71
3
 72
13
 73
9
 74
0
 42
0.0000001
 43
0.0000001
 44
0.0000000001
 40
0.0
 40
0.0
 40
0.0
 40
0.0
 40
0.3063360203
 40
0.582793491
 40
0.7036970132
 40
0.8118578394
 40
0.9091450605
 40
1.0
 40
1.0
 40
1.0
 40
1.0
 10
364.6936637128
 20
178.1997652056
 30
0.0
 10
364.9505052839
 20
178.6446196371
 30
0.0
 10
365.3482276086
 20
179.5467161305
 30
0.0
 10
365.5585970998
 20
180.725859366
 30
0.0
 10
365.4915058591
 20
181.5755504745
 30
0.0
 10
365.335207054
 20
182.1052334426
 30
0.0
 10
365.0725514914
 20
182.5349530339
 30
0.0
 10
364.8255620983
 20
182.7424161401
 30
0.0
 10
364.6936248001
 20
182.8185921521
 30
0.0
  0
SPLINE
  5
33C
100
AcDbEntity
  8
0
100
AcDbSpline
 62
7
  6
BYLAYER
 70
0
 71
3
 72
9
 73
5
 74
0
 42
0.0000001
 43
0.0000001
 44
0.0000000001
 40
0.0
 40
0.0
 40
0.0
 40
0.0
 40
0.2562523661
 40
1.0
 40
1.0
 40
1.0
 40
1.0
 10
360.9937007419
 20
177.4493308787
 30
0.0
 10
361.0126863398
 20
177.4822142913
 30
0.0
 10
361.0915421174
 20
177.607660879
 30
0.0
 10
361.1883611248
 20
177.7223381735
 30
0.0
 10
361.2700953525
 20
177.7962632656
 30
0.0
  0
SPLINE
  5
33D
100
AcDbEntity
  8
0
100
AcDbSpline
 62
7
  6
BYLAYER
 70
0
 71
3
 72
8
 73
4
 74
0
 42
0.0000001
 43
0.0000001
 44
0.0000000001
 40
0.0
 40
0.0
 40
0.0
 40
0.0
 40
1.0
 40
1.0
 40
1.0
 40
1.0
 10
361.3523970753
 20
177.8640336989
 30
0.0
 10
361.3816445181
 20
177.8858163392
 30
0.0
 10
361.4120928001
 20
177.906112154
 30
0.0
 10
361.443679771
 20
177.9243374001
 30
0.0
  0
SPLINE
  5
33E
100
AcDbEntity
  8
0
100
AcDbSpline
 62
7
  6
BYLAYER
 70
0
 71
3
 72
9
 73
5
 74
0
 42
0.0000001
 43
0.0000001
 44
0.0000000001
 40
0.0
 40
0.0
 40
0.0
 40
0.0
 40
0.2562523661
 40
1.0
 40
1.0
 40
1.0
 40
1.0
 10
363.493690333
 20
178.8926399068
 30
0.0
 10
363.5126759309
 20
178.9255233194
 30
0.0
 10
363.5915317085
 20
179.0509699071
 30
0.0
 10
363.6883507158
 20
179.1656472016
 30
0.0
 10
363.7700849436
 20
179.2395722937
 30
0.0
  0
SPLINE
  5
33F
100
AcDbEntity
  8
0
100
AcDbSpline
 62
7
  6
BYLAYER
 70
0
 71
3
 72
8
 73
4
 74
0
 42
0.0000001
 43
0.0000001
 44
0.0000000001
 40
0.0
 40
0.0
 40
0.0
 40
0.0
 40
1.0
 40
1.0
 40
1.0
 40
1.0
 10
363.8523866664
 20
179.307342727
 30
0.0
 10
363.8816341091
 20
179.3291253673
 30
0.0
 10
363.9120823912
 20
179.3494211821
 30
0.0
 10
363.9436693621
 20
179.3676464282
 30
0.0
  0
SPLINE
  5
340
100
AcDbEntity
  8
0
100
AcDbSpline
 62
7
  6
BYLAYER
 70
0
 71
3
 72
9
 73
5
 74
0
 42
0.0000001
 43
0.0000001
 44
0.0000000001
 40
0.0
 40
0.0
 40
0.0
 40
0.0
 40
0.2562523661
 40
1.0
 40
1.0
 40
1.0
 40
1.0
 10
360.9937457917
 20
180.3361288676
 30
0.0
 10
361.0127313896
 20
180.3690122802
 30
0.0
 10
361.0915871672
 20
180.4944588679
 30
0.0
 10
361.1884061745
 20
180.6091361624
 30
0.0
 10
361.2701404023
 20
180.6830612545
 30
0.0
  0
SPLINE
  5
341
100
AcDbEntity
  8
0
100
AcDbSpline
 62
7
  6
BYLAYER
 70
0
 71
3
 72
8
 73
4
 74
0
 42
0.0000001
 43
0.0000001
 44
0.0000000001
 40
0.0
 40
0.0
 40
0.0
 40
0.0
 40
1.0
 40
1.0
 40
1.0
 40
1.0
 10
361.3524421251
 20
180.7508316878
 30
0.0
 10
361.3816895678
 20
180.7726143281
 30
0.0
 10
361.4121378499
 20
180.792910143
 30
0.0
 10
361.4437248208
 20
180.811135389
 30
0.0
  0
SPLINE
  5
342
100
AcDbEntity
  8
0
100
AcDbSpline
 62
7
  6
BYLAYER
 70
0
 71
3
 72
9
 73
5
 74
0
 42
0.0000001
 43
0.0000001
 44
0.0000000001
 40
0.0
 40
0.0
 40
0.0
 40
0.0
 40
0.2562523661
 40
1.0
 40
1.0
 40
1.0
 40
1.0
 10
362.2437180624
 20
179.6143843872
 30
0.0
 10
362.2627036602
 20
179.6472677998
 30
0.0
 10
362.3415594378
 20
179.7727143875
 30
0.0
 10
362.4383784452
 20
179.887391682
 30
0.0
 10
362.520112673
 20
179.9613167741
 30
0.0
  0
SPLINE
  5
343
100
AcDbEntity
  8
0
100
AcDbSpline
 62
7
  6
BYLAYER
 70
0
 71
3
 72
8
 73
4
 74
0
 42
0.0000001
 43
0.0000001
 44
0.0000000001
 40
0.0
 40
0.0
 40
0.0
 40
0.0
 40
1.0
 40
1.0
 40
1.0
 40
1.0
 10
362.6024143957
 20
180.0290872074
 30
0.0
 10
362.6316618385
 20
180.0508698477
 30
0.0
 10
362.6621101206
 20
180.0711656626
 30
0.0
 10
362.6936970915
 20
180.0893909086
 30
0.0
  0
SPLINE
  5
344
100
AcDbEntity
  8
0
100
AcDbSpline
 62
7
  6
BYLAYER
 70
0
 71
3
 72
9
 73
5
 74
0
 42
0.0000001
 43
0.0000001
 44
0.0000000001
 40
0.0
 40
0.0
 40
0.0
 40
0.0
 40
0.2562523661
 40
1.0
 40
1.0
 40
1.0
 40
1.0
 10
363.4937353828
 20
181.7794378957
 30
0.0
 10
363.5127209807
 20
181.8123213083
 30
0.0
 10
363.5915767583
 20
181.937767896
 30
0.0
 10
363.6883957656
 20
182.0524451905
 30
0.0
 10
363.7701299934
 20
182.1263702826
 30
0.0
  0
SPLINE
  5
345
100
AcDbEntity
  8
0
100
AcDbSpline
 62
7
  6
BYLAYER
 70
0
 71
3
 72
8
 73
4
 74
0
 42
0.0000001
 43
0.0000001
 44
0.0000000001
 40
0.0
 40
0.0
 40
0.0
 40
0.0
 40
1.0
 40
1.0
 40
1.0
 40
1.0
 10
363.8524317162
 20
182.1941407159
 30
0.0
 10
363.8816791589
 20
182.2159233562
 30
0.0
 10
363.912127441
 20
182.2362191711
 30
0.0
 10
363.9437144119
 20
182.2544444171
 30
0.0
  0
SPLINE
  5
346
100
AcDbEntity
  8
0
100
AcDbSpline
 62
7
  6
BYLAYER
 70
0
 71
3
 72
8
 73
4
 74
0
 42
0.0000001
 43
0.0000001
 44
0.0000000001
 40
0.0
 40
0.0
 40
0.0
 40
0.0
 40
1.0
 40
1.0
 40
1.0
 40
1.0
 10
363.9437144119
 20
182.2544444171
 30
0.0
 10
363.9699198776
 20
182.269564609
 30
0.0
 10
363.9969947324
 20
182.2833034035
 30
0.0
 10
364.0248040646
 20
182.2952192618
 30
0.0
  0
SPLINE
  5
347
100
AcDbEntity
  8
0
100
AcDbSpline
 62
7
  6
BYLAYER
 70
0
 71
3
 72
13
 73
9
 74
0
 42
0.0000001
 43
0.0000001
 44
0.0000000001
 40
0.0
 40
0.0
 40
0.0
 40
0.0
 40
0.2144262972
 40
0.3104852579
 40
0.4153156968
 40
0.5377725753
 40
0.6792437839
 40
1.0
 40
1.0
 40
1.0
 40
1.0
 10
364.0248040646
 20
182.2952192618
 30
0.0
 10
364.1236154744
 20
182.3375583854
 30
0.0
 10
364.2990586768
 20
182.3676008929
 30
0.0
 10
364.4785411724
 20
182.2453239101
 30
0.0
 10
364.558428723
 20
182.0990524177
 30
0.0
 10
364.5878481497
 20
181.9139921732
 30
0.0
 10
364.5620204018
 20
181.6201390454
 30
0.0
 10
364.4741202939
 20
181.3990446277
 30
0.0
 10
364.3937154177
 20
181.2597818698
 30
0.0
  0
SPLINE
  5
348
100
AcDbEntity
  8
0
100
AcDbSpline
 62
7
  6
BYLAYER
 70
0
 71
3
 72
9
 73
5
 74
0
 42
0.0000001
 43
0.0000001
 44
0.0000000001
 40
0.0
 40
0.0
 40
0.0
 40
0.0
 40
0.424985669
 40
1.0
 40
1.0
 40
1.0
 40
1.0
 10
364.0315157081
 20
179.2748561675
 30
0.0
 10
364.090976335
 20
179.2405273013
 30
0.0
 10
364.1780357761
 20
179.0796857017
 30
0.0
 10
364.1552560549
 20
178.9146095345
 30
0.0
 10
364.1319990226
 20
178.8246710492
 30
0.0
  0
SPLINE
  5
349
100
AcDbEntity
  8
0
100
AcDbSpline
 62
7
  6
BYLAYER
 70
0
 71
3
 72
8
 73
4
 74
0
 42
0.0000001
 43
0.0000001
 44
0.0000000001
 40
0.0
 40
0.0
 40
0.0
 40
0.0
 40
1.0
 40
1.0
 40
1.0
 40
1.0
 10
364.1319990226
 20
178.8246710492
 30
0.0
 10
364.1100862564
 20
178.7399310454
 30
0.0
 10
364.0753050609
 20
178.6578660063
 30
0.0
 10
364.0315407779
 20
178.5820654449
 30
0.0
  0
SPLINE
  5
34A
100
AcDbEntity
  8
0
100
AcDbSpline
 62
7
  6
BYLAYER
 70
0
 71
3
 72
13
 73
9
 74
0
 42
0.0000001
 43
0.0000001
 44
0.0000000001
 40
0.0
 40
0.0
 40
0.0
 40
0.0
 40
0.0933105727
 40
0.1920074223
 40
0.3000782139
 40
0.4196096185
 40
0.6923790321
 40
1.0
 40
1.0
 40
1.0
 40
1.0
 10
364.6936248001
 20
182.8185921521
 30
0.0
 10
364.5756870357
 20
182.8866853198
 30
0.0
 10
364.3094780949
 20
182.9892999787
 30
0.0
 10
363.867682041
 20
183.0223807965
 30
0.0
 10
363.3944771269
 20
182.9406901239
 30
0.0
 10
362.7105463145
 20
182.6739586784
 30
0.0
 10
361.8686792877
 20
182.0696435745
 30
0.0
 10
361.3082352682
 20
181.4258098173
 30
0.0
 10
361.047751855
 20
181.0601381056
 30
0.0
  0
SPLINE
  5
34B
100
AcDbEntity
  8
0
100
AcDbSpline
 62
7
  6
BYLAYER
 70
0
 71
3
 72
8
 73
4
 74
0
 42
0.0000001
 43
0.0000001
 44
0.0000000001
 40
0.0
 40
0.0
 40
0.0
 40
0.0
 40
1.0
 40
1.0
 40
1.0
 40
1.0
 10
363.9436693621
 20
179.3676464282
 30
0.0
 10
363.9698748279
 20
179.3827666201
 30
0.0
 10
363.9969496826
 20
179.3965054146
 30
0.0
 10
364.0247590148
 20
179.4084212729
 30
0.0
  0
SPLINE
  5
34C
100
AcDbEntity
  8
0
100
AcDbSpline
 62
7
  6
BYLAYER
 70
0
 71
3
 72
13
 73
9
 74
0
 42
0.0000001
 43
0.0000001
 44
0.0000000001
 40
0.0
 40
0.0
 40
0.0
 40
0.0
 40
0.2144262972
 40
0.3104852579
 40
0.4153156968
 40
0.5377725753
 40
0.6792437839
 40
1.0
 40
1.0
 40
1.0
 40
1.0
 10
364.0247590148
 20
179.4084212729
 30
0.0
 10
364.1235704246
 20
179.4507603965
 30
0.0
 10
364.299013627
 20
179.480802904
 30
0.0
 10
364.4784961227
 20
179.3585259212
 30
0.0
 10
364.5583836733
 20
179.2122544288
 30
0.0
 10
364.5878030999
 20
179.0271941843
 30
0.0
 10
364.561975352
 20
178.7333410565
 30
0.0
 10
364.4740752441
 20
178.5122466388
 30
0.0
 10
364.3936703679
 20
178.3729838809
 30
0.0
  0
SPLINE
  5
34D
100
AcDbEntity
  8
0
100
AcDbSpline
 62
7
  6
BYLAYER
 70
0
 71
3
 72
9
 73
5
 74
0
 42
0.0000001
 43
0.0000001
 44
0.0000000001
 40
0.0
 40
0.0
 40
0.0
 40
0.0
 40
0.424985669
 40
1.0
 40
1.0
 40
1.0
 40
1.0
 10
364.0315607578
 20
182.1616541564
 30
0.0
 10
364.0910213847
 20
182.1273252903
 30
0.0
 10
364.1780808259
 20
181.9664836906
 30
0.0
 10
364.1553011047
 20
181.8014075234
 30
0.0
 10
364.1320440724
 20
181.7114690381
 30
0.0
  0
SPLINE
  5
34E
100
AcDbEntity
  8
0
100
AcDbSpline
 62
7
  6
BYLAYER
 70
0
 71
3
 72
8
 73
4
 74
0
 42
0.0000001
 43
0.0000001
 44
0.0000000001
 40
0.0
 40
0.0
 40
0.0
 40
0.0
 40
1.0
 40
1.0
 40
1.0
 40
1.0
 10
364.1320440724
 20
181.7114690381
 30
0.0
 10
364.1101313062
 20
181.6267290343
 30
0.0
 10
364.0753501107
 20
181.5446639952
 30
0.0
 10
364.0315858276
 20
181.4688634338
 30
0.0
  0
SPLINE
  5
34F
100
AcDbEntity
  8
0
100
AcDbSpline
 62
7
  6
BYLAYER
 70
0
 71
3
 72
8
 73
4
 74
0
 42
0.0000001
 43
0.0000001
 44
0.0000000001
 40
0.0
 40
0.0
 40
0.0
 40
0.0
 40
1.0
 40
1.0
 40
1.0
 40
1.0
 10
347.538399567
 20
195.8528234545
 30
0.0
 10
347.5260946472
 20
195.8559260809
 30
0.0
 10
347.5136810994
 20
195.8586702432
 30
0.0
 10
347.5011587423
 20
195.8607264327
 30
0.0
  0
SPLINE
  5
350
100
AcDbEntity
  8
0
100
AcDbSpline
 62
7
  6
BYLAYER
 70
0
 71
3
 72
13
 73
9
 74
0
 42
0.0000001
 43
0.0000001
 44
0.0000000001
 40
0.0
 40
0.0
 40
0.0
 40
0.0
 40
0.0909742718
 40
0.1883147947
 40
0.2964481036
 40
0.4172577331
 40
0.6935366218
 40
1.0
 40
1.0
 40
1.0
 40
1.0
 10
365.4864929371
 20
185.8249295294
 30
0.0
 10
365.256996051
 20
185.9574313194
 30
0.0
 10
364.7301757867
 20
186.149416859
 30
0.0
 10
363.8553216966
 20
186.1738143557
 30
0.0
 10
362.9220950248
 20
185.9523945561
 30
0.0
 10
361.5838529235
 20
185.3209268158
 30
0.0
 10
359.9874665198
 20
183.9872150241
 30
0.0
 10
358.9696323178
 20
182.6102262251
 30
0.0
 10
358.5191246141
 20
181.8395359393
 30
0.0
  0
SPLINE
  5
351
100
AcDbEntity
  8
0
100
AcDbSpline
 62
7
  6
BYLAYER
 70
0
 71
3
 72
8
 73
4
 74
0
 42
0.0000001
 43
0.0000001
 44
0.0000000001
 40
0.0
 40
0.0
 40
0.0
 40
0.0
 40
1.0
 40
1.0
 40
1.0
 40
1.0
 10
348.1331681725
 20
195.6128170823
 30
0.0
 10
347.9748003553
 20
195.7042599891
 30
0.0
 10
347.8040728233
 20
195.7766999731
 30
0.0
 10
347.6286087575
 20
195.8282221271
 30
0.0
  0
SPLINE
  5
352
100
AcDbEntity
  8
0
100
AcDbSpline
 62
7
  6
BYLAYER
 70
0
 71
3
 72
11
 73
7
 74
0
 42
0.0000001
 43
0.0000001
 44
0.0000000001
 40
0.0
 40
0.0
 40
0.0
 40
0.0
 40
0.2078406194
 40
0.4490421507
 40
0.7171285615
 40
1.0
 40
1.0
 40
1.0
 40
1.0
 10
355.0711577065
 20
190.5561329915
 30
0.0
 10
354.6297902634
 20
190.4865277426
 30
0.0
 10
353.7047548377
 20
190.1517749052
 30
0.0
 10
352.4261903872
 20
189.2714516764
 30
0.0
 10
351.2310743315
 20
188.045233566
 30
0.0
 10
350.5554208762
 20
187.0648718147
 30
0.0
 10
350.2513537492
 20
186.5382218321
 30
0.0
  0
SPLINE
  5
353
100
AcDbEntity
  8
0
100
AcDbSpline
 62
7
  6
BYLAYER
 70
0
 71
3
 72
13
 73
9
 74
0
 42
0.0000001
 43
0.0000001
 44
0.0000000001
 40
0.0
 40
0.0
 40
0.0
 40
0.0
 40
0.0908525934
 40
0.1881326889
 40
0.2962901131
 40
0.4171924989
 40
0.6936810475
 40
1.0
 40
1.0
 40
1.0
 40
1.0
 10
356.3653745799
 20
174.9253870058
 30
0.0
 10
356.134483926
 20
175.0586841251
 30
0.0
 10
355.7023314023
 20
175.4218060344
 30
0.0
 10
355.2426642334
 20
176.1737376816
 30
0.0
 10
354.9690371584
 20
177.1006327309
 30
0.0
 10
354.8516609126
 20
178.5876902795
 30
0.0
 10
355.2198758354
 20
180.6512273576
 30
0.0
 10
355.9158961402
 20
182.2299469046
 30
0.0
 10
356.3653468214
 20
183.0084039375
 30
0.0
  0
SPLINE
  5
354
100
AcDbEntity
  8
0
100
AcDbSpline
 62
7
  6
BYLAYER
 70
0
 71
3
 72
9
 73
5
 74
0
 42
0.0000001
 43
0.0000001
 44
0.0000000001
 40
0.0
 40
0.0
 40
0.0
 40
0.0
 40
0.4810683673
 40
1.0
 40
1.0
 40
1.0
 40
1.0
 10
356.9013287643
 20
190.5506317262
 30
0.0
 10
356.6633094053
 20
190.6880661018
 30
0.0
 10
356.111049492
 20
190.8818486763
 30
0.0
 10
355.5298972533
 20
190.8799217159
 30
0.0
 10
355.2359171084
 20
190.8414993743
 30
0.0
  0
SPLINE
  5
355
100
AcDbEntity
  8
0
100
AcDbSpline
 62
7
  6
BYLAYER
 70
0
 71
3
 72
9
 73
5
 74
0
 42
0.0000001
 43
0.0000001
 44
0.0000000001
 40
0.0
 40
0.0
 40
0.0
 40
0.0
 40
0.424985669
 40
1.0
 40
1.0
 40
1.0
 40
1.0
 10
362.7815434374
 20
179.9966006479
 30
0.0
 10
362.8410040643
 20
179.9622717818
 30
0.0
 10
362.9280635055
 20
179.8014301821
 30
0.0
 10
362.9052837843
 20
179.6363540149
 30
0.0
 10
362.882026752
 20
179.5464155296
 30
0.0
  0
SPLINE
  5
356
100
AcDbEntity
  8
0
100
AcDbSpline
 62
7
  6
BYLAYER
 70
0
 71
3
 72
8
 73
4
 74
0
 42
0.0000001
 43
0.0000001
 44
0.0000000001
 40
0.0
 40
0.0
 40
0.0
 40
0.0
 40
1.0
 40
1.0
 40
1.0
 40
1.0
 10
362.882026752
 20
179.5464155296
 30
0.0
 10
362.8601139857
 20
179.4616755258
 30
0.0
 10
362.8253327903
 20
179.3796104867
 30
0.0
 10
362.7815685072
 20
179.3038099253
 30
0.0
  0
SPLINE
  5
357
100
AcDbEntity
  8
0
100
AcDbSpline
 62
7
  6
BYLAYER
 70
0
 71
3
 72
8
 73
4
 74
0
 42
0.0000001
 43
0.0000001
 44
0.0000000001
 40
0.0
 40
0.0
 40
0.0
 40
0.0
 40
1.0
 40
1.0
 40
1.0
 40
1.0
 10
362.6936970915
 20
180.0893909086
 30
0.0
 10
362.7199025572
 20
180.1045111005
 30
0.0
 10
362.7469774119
 20
180.118249895
 30
0.0
 10
362.7747867442
 20
180.1301657533
 30
0.0
  0
SPLINE
  5
358
100
AcDbEntity
  8
0
100
AcDbSpline
 62
7
  6
BYLAYER
 70
0
 71
3
 72
13
 73
9
 74
0
 42
0.0000001
 43
0.0000001
 44
0.0000000001
 40
0.0
 40
0.0
 40
0.0
 40
0.0
 40
0.2144262972
 40
0.3104852579
 40
0.4153156968
 40
0.5377725753
 40
0.6792437839
 40
1.0
 40
1.0
 40
1.0
 40
1.0
 10
362.7747867442
 20
180.1301657533
 30
0.0
 10
362.873598154
 20
180.1725048769
 30
0.0
 10
363.0490413563
 20
180.2025473844
 30
0.0
 10
363.228523852
 20
180.0802704016
 30
0.0
 10
363.3084114026
 20
179.9339989092
 30
0.0
 10
363.3378308292
 20
179.7489386647
 30
0.0
 10
363.3120030813
 20
179.4550855369
 30
0.0
 10
363.2241029735
 20
179.2339911192
 30
0.0
 10
363.1436980972
 20
179.0947283613
 30
0.0
  0
SPLINE
  5
359
100
AcDbEntity
  8
0
100
AcDbSpline
 62
7
  6
BYLAYER
 70
0
 71
3
 72
9
 73
5
 74
0
 42
0.0000001
 43
0.0000001
 44
0.0000000001
 40
0.0
 40
0.0
 40
0.0
 40
0.0
 40
0.2554894809
 40
1.0
 40
1.0
 40
1.0
 40
1.0
 10
349.0167072016
 20
180.0697108488
 30
0.0
 10
349.0324433964
 20
180.031814502
 30
0.0
 10
349.0966688
 20
179.8846011957
 30
0.0
 10
349.1716494941
 20
179.7420174877
 30
0.0
 10
349.2336964862
 20
179.6398010708
 30
0.0
  0
SPLINE
  5
35A
100
AcDbEntity
  8
0
100
AcDbSpline
 62
7
  6
BYLAYER
 70
0
 71
3
 72
9
 73
5
 74
0
 42
0.0000001
 43
0.0000001
 44
0.0000000001
 40
0.0
 40
0.0
 40
0.0
 40
0.0
 40
0.5109043296
 40
1.0
 40
1.0
 40
1.0
 40
1.0
 10
349.2336964862
 20
179.6398010708
 30
0.0
 10
349.3429577569
 20
179.4598036976
 30
0.0
 10
349.5963960563
 20
179.1291652659
 30
0.0
 10
349.9266694185
 20
178.8735360069
 30
0.0
 10
350.1012345412
 20
178.77274064
 30
0.0
  0
SPLINE
  5
35B
100
AcDbEntity
  8
0
100
AcDbSpline
 62
7
  6
BYLAYER
 70
0
 71
3
 72
11
 73
7
 74
0
 42
0.0000001
 43
0.0000001
 44
0.0000000001
 40
0.0
 40
0.0
 40
0.0
 40
0.0
 40
0.2051989578
 40
0.4339149747
 40
0.6986317003
 40
1.0
 40
1.0
 40
1.0
 40
1.0
 10
363.540158619
 20
187.3527586246
 30
0.0
 10
363.2208451394
 20
187.5371163217
 30
0.0
 10
362.4456477314
 20
187.7678201668
 30
0.0
 10
361.1747429007
 20
187.619254732
 30
0.0
 10
359.8509834226
 20
187.0457144336
 30
0.0
 10
359.0224979522
 20
186.4427074574
 30
0.0
 10
358.6127193253
 20
186.0887024018
 30
0.0
  0
SPLINE
  5
35C
100
AcDbEntity
  8
0
100
AcDbSpline
 62
7
  6
BYLAYER
 70
0
 71
3
 72
9
 73
5
 74
0
 42
0.0000001
 43
0.0000001
 44
0.0000000001
 40
0.0
 40
0.0
 40
0.0
 40
0.0
 40
0.2397975786
 40
1.0
 40
1.0
 40
1.0
 40
1.0
 10
358.6127193253
 20
186.0887024018
 30
0.0
 10
358.379852151
 20
185.8875299844
 30
0.0
 10
357.449883723
 20
185.0015576839
 30
0.0
 10
356.678137059
 20
183.9543033064
 30
0.0
 10
356.1903507035
 20
183.1094481647
 30
0.0
  0
SPLINE
  5
35D
100
AcDbEntity
  8
0
100
AcDbSpline
 62
7
  6
BYLAYER
 70
0
 71
3
 72
11
 73
7
 74
0
 42
0.0000001
 43
0.0000001
 44
0.0000000001
 40
0.0
 40
0.0
 40
0.0
 40
0.0
 40
0.2828673645
 40
0.5509529678
 40
0.7921563559
 40
1.0
 40
1.0
 40
1.0
 40
1.0
 10
350.2513537492
 20
186.5382218321
 30
0.0
 10
349.9472847723
 20
186.0115686453
 30
0.0
 10
349.4360708023
 20
184.9362502099
 30
0.0
 10
348.9716534287
 20
183.2881223844
 30
0.0
 10
348.8485072896
 20
181.7406555609
 30
0.0
 10
349.0210817967
 20
180.7721393564
 30
0.0
 10
349.1814666035
 20
180.3550772316
 30
0.0
  0
SPLINE
  5
35E
100
AcDbEntity
  8
0
100
AcDbSpline
 62
7
  6
BYLAYER
 70
0
 71
3
 72
9
 73
5
 74
0
 42
0.0000001
 43
0.0000001
 44
0.0000000001
 40
0.0
 40
0.0
 40
0.0
 40
0.0
 40
0.2545209044
 40
1.0
 40
1.0
 40
1.0
 40
1.0
 10
351.1763332295
 20
186.0041309166
 30
0.0
 10
351.2581792421
 20
186.1458897497
 30
0.0
 10
351.5968137677
 20
186.6926973598
 30
0.0
 10
352.0012647125
 20
187.1997518383
 30
0.0
 10
352.337896777
 20
187.5411325262
 30
0.0
  0
SPLINE
  5
35F
100
AcDbEntity
  8
0
100
AcDbSpline
 62
7
  6
BYLAYER
 70
0
 71
3
 72
9
 73
5
 74
0
 42
0.0000001
 43
0.0000001
 44
0.0000000001
 40
0.0
 40
0.0
 40
0.0
 40
0.0
 40
0.2448887508
 40
1.0
 40
1.0
 40
1.0
 40
1.0
 10
350.4725227947
 20
184.3907909458
 30
0.0
 10
350.5141180493
 20
184.5285075381
 30
0.0
 10
350.7014824088
 20
185.0854799192
 30
0.0
 10
350.9545332015
 20
185.6199690967
 30
0.0
 10
351.1763332295
 20
186.0041309166
 30
0.0
  0
SPLINE
  5
360
100
AcDbEntity
  8
0
100
AcDbSpline
 62
7
  6
BYLAYER
 70
0
 71
3
 72
13
 73
9
 74
0
 42
0.0000001
 43
0.0000001
 44
0.0000000001
 40
0.0
 40
0.0
 40
0.0
 40
0.0
 40
0.091220959
 40
0.1902279932
 40
0.3593295507
 40
0.5549214234
 40
0.7716704496
 40
1.0
 40
1.0
 40
1.0
 40
1.0
 10
331.3622575248
 20
191.6888138952
 30
0.0
 10
331.2170658816
 20
191.8022207824
 30
0.0
 10
330.9522645479
 20
192.0903892799
 30
0.0
 10
330.6298892067
 20
192.7489614293
 30
0.0
 10
330.4767775642
 20
193.6882819052
 30
0.0
 10
330.5789175415
 20
194.8664178163
 30
0.0
 10
330.9364829987
 20
196.1168892749
 30
0.0
 10
331.3252455652
 20
196.932437207
 30
0.0
 10
331.55581967
 20
197.3317958931
 30
0.0
  0
SPLINE
  5
361
100
AcDbEntity
  8
0
100
AcDbSpline
 62
7
  6
BYLAYER
 70
0
 71
3
 72
12
 73
8
 74
0
 42
0.0000001
 43
0.0000001
 44
0.0000000001
 40
0.0
 40
0.0
 40
0.0
 40
0.0
 40
0.1916400297
 40
0.303306076
 40
0.4262685112
 40
0.7010991106
 40
1.0
 40
1.0
 40
1.0
 40
1.0
 10
336.3611090302
 20
200.8359135139
 30
0.0
 10
335.9648122118
 20
200.9439847754
 30
0.0
 10
335.2796898038
 20
200.9092757047
 30
0.0
 10
334.4217875694
 20
200.5934073633
 30
0.0
 10
333.468584816
 20
200.0495859033
 30
0.0
 10
332.3487109833
 20
199.0375711065
 30
0.0
 10
331.626167215
 20
198.0309831565
 30
0.0
 10
331.3058252159
 20
197.4761447892
 30
0.0
  0
SPLINE
  5
362
100
AcDbEntity
  8
0
100
AcDbSpline
 62
7
  6
BYLAYER
 70
0
 71
3
 72
12
 73
8
 74
0
 42
0.0000001
 43
0.0000001
 44
0.0000000001
 40
0.0
 40
0.0
 40
0.0
 40
0.0
 40
0.2989012415
 40
0.573727009
 40
0.696687536
 40
0.8083541686
 40
1.0
 40
1.0
 40
1.0
 40
1.0
 10
331.3058252159
 20
197.4761447892
 30
0.0
 10
330.9854660352
 20
196.921276663
 30
0.0
 10
330.4749746675
 20
195.7921961112
 30
0.0
 10
330.1584396424
 20
194.3162900099
 30
0.0
 10
330.1640774498
 20
193.2188377504
 30
0.0
 10
330.3194744913
 20
192.3178779739
 30
0.0
 10
330.632010585
 20
191.7071513274
 30
0.0
 10
330.9237721577
 20
191.4179564609
 30
0.0
  0
SPLINE
  5
363
100
AcDbEntity
  8
0
100
AcDbSpline
 62
7
  6
BYLAYER
 70
0
 71
3
 72
8
 73
4
 74
0
 42
0.0000001
 43
0.0000001
 44
0.0000000001
 40
0.0
 40
0.0
 40
0.0
 40
0.0
 40
1.0
 40
1.0
 40
1.0
 40
1.0
 10
361.4437248208
 20
180.811135389
 30
0.0
 10
361.4699302866
 20
180.8262555809
 30
0.0
 10
361.4970051413
 20
180.8399943754
 30
0.0
 10
361.5248144735
 20
180.8519102337
 30
0.0
  0
SPLINE
  5
364
100
AcDbEntity
  8
0
100
AcDbSpline
 62
7
  6
BYLAYER
 70
0
 71
3
 72
13
 73
9
 74
0
 42
0.0000001
 43
0.0000001
 44
0.0000000001
 40
0.0
 40
0.0
 40
0.0
 40
0.0
 40
0.2144262972
 40
0.3104852579
 40
0.4153156968
 40
0.5377725753
 40
0.6792437839
 40
1.0
 40
1.0
 40
1.0
 40
1.0
 10
361.5248144735
 20
180.8519102337
 30
0.0
 10
361.6236258833
 20
180.8942493573
 30
0.0
 10
361.7990690857
 20
180.9242918648
 30
0.0
 10
361.9785515814
 20
180.802014882
 30
0.0
 10
362.058439132
 20
180.6557433896
 30
0.0
 10
362.0878585586
 20
180.4706831451
 30
0.0
 10
362.0620308107
 20
180.1768300173
 30
0.0
 10
361.9741307028
 20
179.9557355996
 30
0.0
 10
361.8937258266
 20
179.8164728417
 30
0.0
  0
SPLINE
  5
365
100
AcDbEntity
  8
0
100
AcDbSpline
 62
7
  6
BYLAYER
 70
0
 71
3
 72
9
 73
5
 74
0
 42
0.0000001
 43
0.0000001
 44
0.0000000001
 40
0.0
 40
0.0
 40
0.0
 40
0.0
 40
0.424985669
 40
1.0
 40
1.0
 40
1.0
 40
1.0
 10
361.531526117
 20
177.8315471394
 30
0.0
 10
361.5909867439
 20
177.7972182732
 30
0.0
 10
361.6780461851
 20
177.6363766736
 30
0.0
 10
361.6552664638
 20
177.4713005064
 30
0.0
 10
361.6320094316
 20
177.3813620211
 30
0.0
  0
SPLINE
  5
366
100
AcDbEntity
  8
0
100
AcDbSpline
 62
7
  6
BYLAYER
 70
0
 71
3
 72
8
 73
4
 74
0
 42
0.0000001
 43
0.0000001
 44
0.0000000001
 40
0.0
 40
0.0
 40
0.0
 40
0.0
 40
1.0
 40
1.0
 40
1.0
 40
1.0
 10
361.6320094316
 20
177.3813620211
 30
0.0
 10
361.6100966653
 20
177.2966220173
 30
0.0
 10
361.5753154698
 20
177.2145569782
 30
0.0
 10
361.5315511868
 20
177.1387564168
 30
0.0
  0
SPLINE
  5
367
100
AcDbEntity
  8
0
100
AcDbSpline
 62
7
  6
BYLAYER
 70
0
 71
3
 72
8
 73
4
 74
0
 42
0.0000001
 43
0.0000001
 44
0.0000000001
 40
0.0
 40
0.0
 40
0.0
 40
0.0
 40
1.0
 40
1.0
 40
1.0
 40
1.0
 10
361.443679771
 20
177.9243374001
 30
0.0
 10
361.4698852368
 20
177.939457592
 30
0.0
 10
361.4969600915
 20
177.9531963865
 30
0.0
 10
361.5247694237
 20
177.9651122448
 30
0.0
  0
SPLINE
  5
368
100
AcDbEntity
  8
0
100
AcDbSpline
 62
7
  6
BYLAYER
 70
0
 71
3
 72
13
 73
9
 74
0
 42
0.0000001
 43
0.0000001
 44
0.0000000001
 40
0.0
 40
0.0
 40
0.0
 40
0.0
 40
0.2144262972
 40
0.3104852579
 40
0.4153156968
 40
0.5377725753
 40
0.6792437839
 40
1.0
 40
1.0
 40
1.0
 40
1.0
 10
361.5247694237
 20
177.9651122448
 30
0.0
 10
361.6235808335
 20
178.0074513684
 30
0.0
 10
361.7990240359
 20
178.0374938759
 30
0.0
 10
361.9785065316
 20
177.9152168931
 30
0.0
 10
362.0583940822
 20
177.7689454007
 30
0.0
 10
362.0878135088
 20
177.5838851562
 30
0.0
 10
362.0619857609
 20
177.2900320284
 30
0.0
 10
361.9740856531
 20
177.0689376107
 30
0.0
 10
361.8936807768
 20
176.9296748528
 30
0.0
  0
SPLINE
  5
369
100
AcDbEntity
  8
0
100
AcDbSpline
 62
7
  6
BYLAYER
 70
0
 71
3
 72
13
 73
9
 74
0
 42
0.0000001
 43
0.0000001
 44
0.0000000001
 40
0.0
 40
0.0
 40
0.0
 40
0.0
 40
0.3065208812
 40
0.5820221866
 40
0.7026360742
 40
0.8108667755
 40
0.9085776866
 40
1.0
 40
1.0
 40
1.0
 40
1.0
 10
356.0396790715
 20
182.8410375615
 30
0.0
 10
355.6037561476
 20
182.0419720913
 30
0.0
 10
354.9336119558
 20
180.4330205928
 30
0.0
 10
354.5981355639
 20
178.3425374656
 30
0.0
 10
354.7381812765
 20
176.843363322
 30
0.0
 10
355.0253008436
 20
175.9081493634
 30
0.0
 10
355.4951152301
 20
175.1471320311
 30
0.0
 10
355.9317908121
 20
174.7754437173
 30
0.0
 10
356.1652946694
 20
174.6369497095
 30
0.0
  0
SPLINE
  5
36A
100
AcDbEntity
  8
0
100
AcDbSpline
 62
7
  6
BYLAYER
 70
0
 71
3
 72
13
 73
9
 74
0
 42
0.0000001
 43
0.0000001
 44
0.0000000001
 40
0.0
 40
0.0
 40
0.0
 40
0.0
 40
0.3063253434
 40
0.5828023565
 40
0.7037037396
 40
0.8118587029
 40
0.9091432815
 40
1.0
 40
1.0
 40
1.0
 40
1.0
 10
331.55581967
 20
197.3317958931
 30
0.0
 10
331.8768463195
 20
197.8878200877
 30
0.0
 10
332.6048236151
 20
198.8821216625
 30
0.0
 10
333.7497169137
 20
199.8468358316
 30
0.0
 10
334.7114601761
 20
200.3052498353
 30
0.0
 10
335.3825260646
 20
200.4669668104
 30
0.0
 10
336.0118023564
 20
200.4512375179
 30
0.0
 10
336.3907911413
 20
200.313653518
 30
0.0
 10
336.555707207
 20
200.2184331774
 30
0.0
  0
SPLINE
  5
36B
100
AcDbEntity
  8
0
100
AcDbSpline
 62
7
  6
BYLAYER
 70
0
 71
3
 72
13
 73
9
 74
0
 42
0.0000001
 43
0.0000001
 44
0.0000000001
 40
0.0
 40
0.0
 40
0.0
 40
0.0
 40
0.3069005445
 40
0.5770696767
 40
0.6960018786
 40
0.8044580627
 40
0.9045738021
 40
1.0
 40
1.0
 40
1.0
 40
1.0
 10
357.4656719909
 20
184.6010732455
 30
0.0
 10
357.9120205913
 20
185.1444525959
 30
0.0
 10
358.8479686071
 20
186.0918517712
 30
0.0
 10
360.2151618959
 20
186.9553947658
 30
0.0
 10
361.3036957902
 20
187.3128903195
 30
0.0
 10
362.0541954203
 20
187.4055851465
 30
0.0
 10
362.7535208751
 20
187.3281117733
 30
0.0
 10
363.175820814
 20
187.1589988197
 30
0.0
 10
363.3651683129
 20
187.0496598778
 30
0.0
  0
SPLINE
  5
36C
100
AcDbEntity
  8
0
100
AcDbSpline
 62
7
  6
BYLAYER
 70
0
 71
3
 72
9
 73
5
 74
0
 42
0.0000001
 43
0.0000001
 44
0.0000000001
 40
0.0
 40
0.0
 40
0.0
 40
0.0
 40
0.2521298556
 40
1.0
 40
1.0
 40
1.0
 40
1.0
 10
356.3653468214
 20
183.0084039375
 30
0.0
 10
356.4467440282
 20
183.1493854306
 30
0.0
 10
356.7808088493
 20
183.7019690683
 30
0.0
 10
357.1591711883
 20
184.2279429011
 30
0.0
 10
357.4656719909
 20
184.6010732455
 30
0.0
  0
SPLINE
  5
36D
100
AcDbEntity
  8
0
100
AcDbSpline
 62
7
  6
BYLAYER
 70
0
 71
3
 72
13
 73
9
 74
0
 42
0.0000001
 43
0.0000001
 44
0.0000000001
 40
0.0
 40
0.0
 40
0.0
 40
0.0
 40
0.3063178072
 40
0.5828000886
 40
0.7037015713
 40
0.8118616272
 40
0.9091448761
 40
1.0
 40
1.0
 40
1.0
 40
1.0
 10
358.4866759968
 20
181.7836816739
 30
0.0
 10
358.037226726
 20
181.0052270839
 30
0.0
 10
357.3412120041
 20
179.4265280488
 30
0.0
 10
356.9729944531
 20
177.3630161316
 30
0.0
 10
357.0903577223
 20
175.8759712187
 30
0.0
 10
357.3639633429
 20
174.9490554869
 30
0.0
 10
357.8236355958
 20
174.1970915564
 30
0.0
 10
358.2558106075
 20
173.8339726703
 30
0.0
 10
358.4867037722
 20
173.7006647281
 30
0.0
  0
SPLINE
  5
36E
100
AcDbEntity
  8
0
100
AcDbSpline
 62
7
  6
BYLAYER
 70
0
 71
3
 72
19
 73
15
 74
0
 42
0.0000001
 43
0.0000001
 44
0.0000000001
 40
0.0
 40
0.0
 40
0.0
 40
0.0
 40
0.1533400932
 40
0.2918564785
 40
0.3524904618
 40
0.4067644474
 40
0.4555812524
 40
0.5011111268
 40
0.5465260682
 40
0.5950371572
 40
0.6489003544
 40
0.7091017825
 40
0.8469141284
 40
1.0
 40
1.0
 40
1.0
 40
1.0
 10
358.803656263
 20
181.6006546077
 30
0.0
 10
359.2107337173
 20
182.3057204146
 30
0.0
 10
360.1336526838
 20
183.5673531742
 30
0.0
 10
361.5842280764
 20
184.7934359006
 30
0.0
 10
362.8034942773
 20
185.3796219694
 30
0.0
 10
363.654937296
 20
185.5896837041
 30
0.0
 10
364.4549545936
 20
185.575718653
 30
0.0
 10
365.1688460207
 20
185.3256469276
 30
0.0
 10
365.7525522202
 20
184.846887624
 30
0.0
 10
366.1759732421
 20
184.1728658012
 30
0.0
 10
366.4312637768
 20
183.3400474018
 30
0.0
 10
366.5493813195
 20
182.0004260172
 30
0.0
 10
366.2308541622
 20
180.1349424324
 30
0.0
 10
365.6122843352
 20
178.7049546556
 30
0.0
 10
365.2113177184
 20
177.9979471333
 30
0.0
  0
SPLINE
  5
36F
100
AcDbEntity
  8
0
100
AcDbSpline
 62
7
  6
BYLAYER
 70
0
 71
3
 72
14
 73
10
 74
0
 42
0.0000001
 43
0.0000001
 44
0.0000000001
 40
0.0
 40
0.0
 40
0.0
 40
0.0
 40
0.3141613025
 40
0.4591496478
 40
0.5910595085
 40
0.7082841977
 40
0.8119288461
 40
0.9065797296
 40
1.0
 40
1.0
 40
1.0
 40
1.0
 10
365.1275442155
 20
177.8528394545
 30
0.0
 10
364.6705047308
 20
177.0750293448
 30
0.0
 10
363.8608474984
 20
176.0085707031
 30
0.0
 10
362.566724445
 20
174.9024220274
 30
0.0
 10
361.5911794211
 20
174.3158254156
 30
0.0
 10
360.6262879395
 20
173.979100639
 30
0.0
 10
359.7084078194
 20
173.914776946
 30
0.0
 10
358.8833814229
 20
174.1451924705
 30
0.0
 10
358.4462764251
 20
174.4878429267
 30
0.0
 10
358.2672510647
 20
174.687635308
 30
0.0
  0
SPLINE
  5
370
100
AcDbEntity
  8
0
100
AcDbSpline
 62
7
  6
BYLAYER
 70
0
 71
3
 72
13
 73
9
 74
0
 42
0.0000001
 43
0.0000001
 44
0.0000000001
 40
0.0
 40
0.0
 40
0.0
 40
0.0
 40
0.1932731215
 40
0.3056151189
 40
0.4288422513
 40
0.5620015958
 40
0.7032929909
 40
1.0
 40
1.0
 40
1.0
 40
1.0
 10
358.2672510647
 20
174.687635308
 30
0.0
 10
357.9528472132
 20
175.0385101452
 30
0.0
 10
357.6272193626
 20
175.7492894377
 30
0.0
 10
357.4749860592
 20
176.7838561444
 30
0.0
 10
357.4855708021
 20
177.6869261859
 30
0.0
 10
357.628792233
 20
178.6480883697
 30
0.0
 10
357.9953460782
 20
179.9936105267
 30
0.0
 10
358.4420194821
 20
180.9742929017
 30
0.0
 10
358.803656263
 20
181.6006546077
 30
0.0
  0
SPLINE
  5
371
100
AcDbEntity
  8
0
100
AcDbSpline
 62
7
  6
BYLAYER
 70
0
 71
3
 72
9
 73
5
 74
0
 42
0.0000001
 43
0.0000001
 44
0.0000000001
 40
0.0
 40
0.0
 40
0.0
 40
0.0
 40
0.260477065
 40
1.0
 40
1.0
 40
1.0
 40
1.0
 10
361.8485440166
 20
175.6075086018
 30
0.0
 10
361.7809622378
 20
175.5641444667
 30
0.0
 10
361.5180124437
 20
175.4032628238
 30
0.0
 10
361.2404359803
 20
175.265618946
 30
0.0
 10
361.0284538828
 20
175.1817385645
 30
0.0
  0
SPLINE
  5
372
100
AcDbEntity
  8
0
100
AcDbSpline
 62
7
  6
BYLAYER
 70
0
 71
3
 72
10
 73
6
 74
0
 42
0.0000001
 43
0.0000001
 44
0.0000000001
 40
0.0
 40
0.0
 40
0.0
 40
0.0
 40
0.535102743
 40
0.7728615107
 40
1.0
 40
1.0
 40
1.0
 40
1.0
 10
361.0284538828
 20
175.1817385645
 30
0.0
 10
360.6617999739
 20
175.0366552289
 30
0.0
 10
360.0883223115
 20
174.900160796
 30
0.0
 10
359.3503396888
 20
174.9897293799
 30
0.0
 10
359.0280440634
 20
175.1200636192
 30
0.0
 10
358.8830901514
 20
175.2037508467
 30
0.0
  0
SPLINE
  5
373
100
AcDbEntity
  8
0
100
AcDbSpline
 62
7
  6
BYLAYER
 70
0
 71
3
 72
11
 73
7
 74
0
 42
0.0000001
 43
0.0000001
 44
0.0000000001
 40
0.0
 40
0.0
 40
0.0
 40
0.0
 40
0.3073112902
 40
0.5849745466
 40
0.8135076974
 40
1.0
 40
1.0
 40
1.0
 40
1.0
 10
364.0315858276
 20
181.4688634338
 30
0.0
 10
363.9930801944
 20
181.4021709528
 30
0.0
 10
363.9055775199
 20
181.2826158069
 30
0.0
 10
363.7478070795
 20
181.1502461098
 30
0.0
 10
363.5829100755
 20
181.0826127047
 30
0.0
 10
363.4720970423
 20
181.0991435654
 30
0.0
 10
363.4316242075
 20
181.1225100618
 30
0.0
  0
SPLINE
  5
374
100
AcDbEntity
  8
0
100
AcDbSpline
 62
7
  6
BYLAYER
 70
0
 71
3
 72
9
 73
5
 74
0
 42
0.0000001
 43
0.0000001
 44
0.0000000001
 40
0.0
 40
0.0
 40
0.0
 40
0.0
 40
0.424985669
 40
1.0
 40
1.0
 40
1.0
 40
1.0
 10
361.5315711668
 20
180.7183451283
 30
0.0
 10
361.5910317937
 20
180.6840162622
 30
0.0
 10
361.6780912348
 20
180.5231746625
 30
0.0
 10
361.6553115136
 20
180.3580984953
 30
0.0
 10
361.6320544813
 20
180.26816001
 30
0.0
  0
SPLINE
  5
375
100
AcDbEntity
  8
0
100
AcDbSpline
 62
7
  6
BYLAYER
 70
0
 71
3
 72
8
 73
4
 74
0
 42
0.0000001
 43
0.0000001
 44
0.0000000001
 40
0.0
 40
0.0
 40
0.0
 40
0.0
 40
1.0
 40
1.0
 40
1.0
 40
1.0
 10
361.6320544813
 20
180.26816001
 30
0.0
 10
361.6101417151
 20
180.1834200062
 30
0.0
 10
361.5753605196
 20
180.1013549671
 30
0.0
 10
361.5315962366
 20
180.0255544057
 30
0.0
  0
SPLINE
  5
376
100
AcDbEntity
  8
0
100
AcDbSpline
 62
7
  6
BYLAYER
 70
0
 71
3
 72
9
 73
5
 74
0
 42
0.0000001
 43
0.0000001
 44
0.0000000001
 40
0.0
 40
0.0
 40
0.0
 40
0.0
 40
0.5354888673
 40
1.0
 40
1.0
 40
1.0
 40
1.0
 10
359.9089306919
 20
177.1752802502
 30
0.0
 10
359.9548212195
 20
176.9036141535
 30
0.0
 10
360.1125028003
 20
176.3993515005
 30
0.0
 10
360.4867526131
 20
176.0099113033
 30
0.0
 10
360.6937751923
 20
175.8904929736
 30
0.0
  0
SPLINE
  5
377
100
AcDbEntity
  8
0
100
AcDbSpline
 62
7
  6
BYLAYER
 70
0
 71
3
 72
9
 73
5
 74
0
 42
0.0000001
 43
0.0000001
 44
0.0000000001
 40
0.0
 40
0.0
 40
0.0
 40
0.0
 40
0.5000040253
 40
1.0
 40
1.0
 40
1.0
 40
1.0
 10
360.7138173359
 20
178.211513941
 30
0.0
 10
360.7138146885
 20
178.0418692262
 30
0.0
 10
360.5978782743
 20
177.7069013592
 30
0.0
 10
360.3657515406
 20
177.4390148103
 30
0.0
 10
360.2188357306
 20
177.3541964912
 30
0.0
  0
SPLINE
  5
378
100
AcDbEntity
  8
0
100
AcDbSpline
 62
7
  6
BYLAYER
 70
0
 71
3
 72
9
 73
5
 74
0
 42
0.0000001
 43
0.0000001
 44
0.0000000001
 40
0.0
 40
0.0
 40
0.0
 40
0.0
 40
0.2602448044
 40
1.0
 40
1.0
 40
1.0
 40
1.0
 10
360.6937524467
 20
180.5093475429
 30
0.0
 10
360.5924810685
 20
180.3339436112
 30
0.0
 10
360.2334760623
 20
179.6436619965
 30
0.0
 10
359.9895425338
 20
178.8884520641
 30
0.0
 10
359.9089485307
 20
178.3183939332
 30
0.0
  0
SPLINE
  5
379
100
AcDbEntity
  8
0
100
AcDbSpline
 62
7
  6
BYLAYER
 70
0
 71
3
 72
13
 73
9
 74
0
 42
0.0000001
 43
0.0000001
 44
0.0000000001
 40
0.0
 40
0.0
 40
0.0
 40
0.0
 40
0.3207545621
 40
0.462234641
 40
0.5847260035
 40
0.6895930854
 40
0.7856628558
 40
1.0
 40
1.0
 40
1.0
 40
1.0
 10
361.8936807768
 20
176.9296748528
 30
0.0
 10
361.813316853
 20
176.7904830253
 30
0.0
 10
361.665882837
 20
176.6038961579
 30
0.0
 10
361.4244569419
 20
176.434627798
 30
0.0
 10
361.2495713168
 20
176.3674990736
 30
0.0
 10
361.0830095862
 20
176.3634144674
 30
0.0
 10
360.8873673413
 20
176.4573743336
 30
0.0
 10
360.8254709609
 20
176.6241306645
 30
0.0
 10
360.8126270151
 20
176.7307612482
 30
0.0
  0
SPLINE
  5
37A
100
AcDbEntity
  8
0
100
AcDbSpline
 62
7
  6
BYLAYER
 70
0
 71
3
 72
8
 73
4
 74
0
 42
0.0000001
 43
0.0000001
 44
0.0000000001
 40
0.0
 40
0.0
 40
0.0
 40
0.0
 40
1.0
 40
1.0
 40
1.0
 40
1.0
 10
360.8126270151
 20
176.7307612482
 30
0.0
 10
360.8089805099
 20
176.7610345753
 30
0.0
 10
360.8073147605
 20
176.7915907602
 30
0.0
 10
360.8073076325
 20
176.8220829114
 30
0.0
  0
SPLINE
  5
37B
100
AcDbEntity
  8
0
100
AcDbSpline
 62
7
  6
BYLAYER
 70
0
 71
3
 72
11
 73
7
 74
0
 42
0.0000001
 43
0.0000001
 44
0.0000000001
 40
0.0
 40
0.0
 40
0.0
 40
0.0
 40
0.2103701897
 40
0.4407024063
 40
0.7029992615
 40
1.0
 40
1.0
 40
1.0
 40
1.0
 10
364.3829968327
 20
184.7300841653
 30
0.0
 10
364.5970366453
 20
184.6065111051
 30
0.0
 10
364.9939030525
 20
184.2498498592
 30
0.0
 10
365.371990068
 20
183.499799556
 30
0.0
 10
365.5443807074
 20
182.5790356626
 30
0.0
 10
365.5239397111
 20
181.9176214195
 30
0.0
 10
365.4848224412
 20
181.5708938964
 30
0.0
  0
SPLINE
  5
37C
100
AcDbEntity
  8
0
100
AcDbSpline
 62
7
  6
BYLAYER
 70
0
 71
3
 72
13
 73
9
 74
0
 42
0.0000001
 43
0.0000001
 44
0.0000000001
 40
0.0
 40
0.0
 40
0.0
 40
0.0
 40
0.3207545621
 40
0.462234641
 40
0.5847260035
 40
0.6895930854
 40
0.7856628558
 40
1.0
 40
1.0
 40
1.0
 40
1.0
 10
364.3936703679
 20
178.3729838809
 30
0.0
 10
364.313306444
 20
178.2337920534
 30
0.0
 10
364.1658724281
 20
178.047205186
 30
0.0
 10
363.9244465329
 20
177.8779368261
 30
0.0
 10
363.7495609079
 20
177.8108081017
 30
0.0
 10
363.5829991773
 20
177.8067234955
 30
0.0
 10
363.3873569324
 20
177.9006833617
 30
0.0
 10
363.3254605519
 20
178.0674396926
 30
0.0
 10
363.3126166061
 20
178.1740702763
 30
0.0
  0
SPLINE
  5
37D
100
AcDbEntity
  8
0
100
AcDbSpline
 62
7
  6
BYLAYER
 70
0
 71
3
 72
8
 73
4
 74
0
 42
0.0000001
 43
0.0000001
 44
0.0000000001
 40
0.0
 40
0.0
 40
0.0
 40
0.0
 40
1.0
 40
1.0
 40
1.0
 40
1.0
 10
363.3126166061
 20
178.1740702763
 30
0.0
 10
363.308970101
 20
178.2043436034
 30
0.0
 10
363.3073043516
 20
178.2348997883
 30
0.0
 10
363.3072972236
 20
178.2653919395
 30
0.0
  0
SPLINE
  5
37E
100
AcDbEntity
  8
0
100
AcDbSpline
 62
7
  6
BYLAYER
 70
0
 71
3
 72
13
 73
9
 74
0
 42
0.0000001
 43
0.0000001
 44
0.0000000001
 40
0.0
 40
0.0
 40
0.0
 40
0.0
 40
0.3207545621
 40
0.462234641
 40
0.5847260035
 40
0.6895930854
 40
0.7856628558
 40
1.0
 40
1.0
 40
1.0
 40
1.0
 10
361.8937258266
 20
179.8164728417
 30
0.0
 10
361.8133619027
 20
179.6772810142
 30
0.0
 10
361.6659278868
 20
179.4906941468
 30
0.0
 10
361.4245019916
 20
179.321425787
 30
0.0
 10
361.2496163666
 20
179.2542970625
 30
0.0
 10
361.083054636
 20
179.2502124563
 30
0.0
 10
360.8874123911
 20
179.3441723226
 30
0.0
 10
360.8255160106
 20
179.5109286534
 30
0.0
 10
360.8126720648
 20
179.6175592371
 30
0.0
  0
SPLINE
  5
37F
100
AcDbEntity
  8
0
100
AcDbSpline
 62
7
  6
BYLAYER
 70
0
 71
3
 72
8
 73
4
 74
0
 42
0.0000001
 43
0.0000001
 44
0.0000000001
 40
0.0
 40
0.0
 40
0.0
 40
0.0
 40
1.0
 40
1.0
 40
1.0
 40
1.0
 10
360.8126720648
 20
179.6175592371
 30
0.0
 10
360.8090255597
 20
179.6478325642
 30
0.0
 10
360.8073598103
 20
179.6783887492
 30
0.0
 10
360.8073526823
 20
179.7088809003
 30
0.0
  0
SPLINE
  5
380
100
AcDbEntity
  8
0
100
AcDbSpline
 62
7
  6
BYLAYER
 70
0
 71
3
 72
13
 73
9
 74
0
 42
0.0000001
 43
0.0000001
 44
0.0000000001
 40
0.0
 40
0.0
 40
0.0
 40
0.0
 40
0.3207545621
 40
0.462234641
 40
0.5847260035
 40
0.6895930854
 40
0.7856628558
 40
1.0
 40
1.0
 40
1.0
 40
1.0
 10
363.1436980972
 20
179.0947283613
 30
0.0
 10
363.0633341734
 20
178.9555365338
 30
0.0
 10
362.9159001574
 20
178.7689496664
 30
0.0
 10
362.6744742623
 20
178.5996813066
 30
0.0
 10
362.4995886372
 20
178.5325525821
 30
0.0
 10
362.3330269066
 20
178.5284679759
 30
0.0
 10
362.1373846617
 20
178.6224278421
 30
0.0
 10
362.0754882813
 20
178.789184173
 30
0.0
 10
362.0626443355
 20
178.8958147567
 30
0.0
  0
SPLINE
  5
381
100
AcDbEntity
  8
0
100
AcDbSpline
 62
7
  6
BYLAYER
 70
0
 71
3
 72
8
 73
4
 74
0
 42
0.0000001
 43
0.0000001
 44
0.0000000001
 40
0.0
 40
0.0
 40
0.0
 40
0.0
 40
1.0
 40
1.0
 40
1.0
 40
1.0
 10
362.0626443355
 20
178.8958147567
 30
0.0
 10
362.0589978303
 20
178.9260880838
 30
0.0
 10
362.0573320809
 20
178.9566442687
 30
0.0
 10
362.0573249529
 20
178.9871364199
 30
0.0
  0
SPLINE
  5
382
100
AcDbEntity
  8
0
100
AcDbSpline
 62
7
  6
BYLAYER
 70
0
 71
3
 72
13
 73
9
 74
0
 42
0.0000001
 43
0.0000001
 44
0.0000000001
 40
0.0
 40
0.0
 40
0.0
 40
0.0
 40
0.3207545621
 40
0.462234641
 40
0.5847260035
 40
0.6895930854
 40
0.7856628558
 40
1.0
 40
1.0
 40
1.0
 40
1.0
 10
364.3937154177
 20
181.2597818698
 30
0.0
 10
364.3133514938
 20
181.1205900423
 30
0.0
 10
364.1659174779
 20
180.9340031749
 30
0.0
 10
363.9244915827
 20
180.7647348151
 30
0.0
 10
363.7496059576
 20
180.6976060906
 30
0.0
 10
363.5830442271
 20
180.6935214844
 30
0.0
 10
363.3874019821
 20
180.7874813506
 30
0.0
 10
363.3255056017
 20
180.9542376815
 30
0.0
 10
363.3126616559
 20
181.0608682652
 30
0.0
  0
SPLINE
  5
383
100
AcDbEntity
  8
0
100
AcDbSpline
 62
7
  6
BYLAYER
 70
0
 71
3
 72
8
 73
4
 74
0
 42
0.0000001
 43
0.0000001
 44
0.0000000001
 40
0.0
 40
0.0
 40
0.0
 40
0.0
 40
1.0
 40
1.0
 40
1.0
 40
1.0
 10
363.3126616559
 20
181.0608682652
 30
0.0
 10
363.3090151508
 20
181.0911415923
 30
0.0
 10
363.3073494014
 20
181.1216977772
 30
0.0
 10
363.3073422733
 20
181.1521899284
 30
0.0
  0
SPLINE
  5
384
100
AcDbEntity
  8
0
100
AcDbSpline
 62
7
  6
BYLAYER
 70
0
 71
3
 72
11
 73
7
 74
0
 42
0.0000001
 43
0.0000001
 44
0.0000000001
 40
0.0
 40
0.0
 40
0.0
 40
0.0
 40
0.3073112902
 40
0.5849745466
 40
0.8135076974
 40
1.0
 40
1.0
 40
1.0
 40
1.0
 10
361.5315511868
 20
177.1387564168
 30
0.0
 10
361.4930455535
 20
177.0720639358
 30
0.0
 10
361.405542879
 20
176.9525087899
 30
0.0
 10
361.2477724386
 20
176.8201390928
 30
0.0
 10
361.0828754346
 20
176.7525056877
 30
0.0
 10
360.9720624014
 20
176.7690365484
 30
0.0
 10
360.9315895667
 20
176.7924030448
 30
0.0
  0
SPLINE
  5
385
100
AcDbEntity
  8
0
100
AcDbSpline
 62
7
  6
BYLAYER
 70
0
 71
3
 72
11
 73
7
 74
0
 42
0.0000001
 43
0.0000001
 44
0.0000000001
 40
0.0
 40
0.0
 40
0.0
 40
0.0
 40
0.3073112902
 40
0.5849745466
 40
0.8135076974
 40
1.0
 40
1.0
 40
1.0
 40
1.0
 10
364.0315407779
 20
178.5820654449
 30
0.0
 10
363.9930351446
 20
178.5153729639
 30
0.0
 10
363.9055324701
 20
178.3958178179
 30
0.0
 10
363.7477620297
 20
178.2634481209
 30
0.0
 10
363.5828650257
 20
178.1958147157
 30
0.0
 10
363.4720519925
 20
178.2123455765
 30
0.0
 10
363.4315791577
 20
178.2357120729
 30
0.0
  0
SPLINE
  5
386
100
AcDbEntity
  8
0
100
AcDbSpline
 62
7
  6
BYLAYER
 70
0
 71
3
 72
11
 73
7
 74
0
 42
0.0000001
 43
0.0000001
 44
0.0000000001
 40
0.0
 40
0.0
 40
0.0
 40
0.0
 40
0.3073112902
 40
0.5849745466
 40
0.8135076974
 40
1.0
 40
1.0
 40
1.0
 40
1.0
 10
362.7815685072
 20
179.3038099253
 30
0.0
 10
362.743062874
 20
179.2371174443
 30
0.0
 10
362.6555601995
 20
179.1175622984
 30
0.0
 10
362.4977897591
 20
178.9851926013
 30
0.0
 10
362.332892755
 20
178.9175591962
 30
0.0
 10
362.2220797219
 20
178.9340900569
 30
0.0
 10
362.1816068871
 20
178.9574565533
 30
0.0
  0
SPLINE
  5
387
100
AcDbEntity
  8
0
100
AcDbSpline
 62
7
  6
BYLAYER
 70
0
 71
3
 72
11
 73
7
 74
0
 42
0.0000001
 43
0.0000001
 44
0.0000000001
 40
0.0
 40
0.0
 40
0.0
 40
0.0
 40
0.3073112902
 40
0.5849745466
 40
0.8135076974
 40
1.0
 40
1.0
 40
1.0
 40
1.0
 10
361.5315962366
 20
180.0255544057
 30
0.0
 10
361.4930906033
 20
179.9588619247
 30
0.0
 10
361.4055879288
 20
179.8393067788
 30
0.0
 10
361.2478174884
 20
179.7069370818
 30
0.0
 10
361.0829204844
 20
179.6393036766
 30
0.0
 10
360.9721074512
 20
179.6558345373
 30
0.0
 10
360.9316346164
 20
179.6792010337
 30
0.0
  0
ENDSEC
  0
SECTION
  2
OBJECTS
  0
DICTIONARY
  5
C
100
AcDbDictionary
280
0
281
1
  3
ACAD_GROUP
350
D
  3
ACAD_MLINESTYLE
350
17
  3
ACAD_LAYOUT
350
1A
  3
ACAD_PLOTSETTINGS
350
19
  3
ACAD_PLOTSTYLENAME
350
E
  0
DICTIONARY
  5
D
102
{ACAD_REACTORS
330
C
102
}
100
AcDbDictionary
280
0
281
1
  0
ACDBDICTIONARYWDFLT
  5
E
102
{ACAD_REACTORS
330
C
102
}
100
AcDbDictionary
281
1
  3
Normal
350
F
100
AcDbDictionaryWithDefault
340
F
  0
DICTIONARY
  5
17
102
{ACAD_REACTORS
330
C
102
}
100
AcDbDictionary
280
0
281
1
  3
Standard
350
18
  0
DICTIONARY
  5
19
102
{ACAD_REACTORS
330
C
102
}
100
AcDbDictionary
281
1
  0
DICTIONARY
  5
1A
102
{ACAD_REACTORS
330
C
102
}
100
AcDbDictionary
281
1
  3
Model
350
388
  3
Layout1
350
389
  0
ACDBPLACEHOLDER
  5
F
102
{ACAD_REACTORS
330
E
102
}
  0
MLINESTYLE
  5
18
102
{ACAD_REACTORS
330
17
102
}
100
AcDbMlineStyle
  2
STANDARD
 70
0
  3

 62
256
 51
90.0
 52
90.0
 71
2
 49
0.5
 62
256
  6
BYLAYER
 49
-0.5
 62
256
  6
BYLAYER
  0
LAYOUT
  5
388
102
{ACAD_REACTORS
330
1A
102
}
100
AcDbPlotSettings
  1

  2
none_device
  4

  6

 40
0.0
 41
0.0
 42
0.0
 43
0.0
 44
210.0
 45
297.0
 46
0.0
 47
0.0
 48
0.0
 49
0.0
140
0.0
141
0.0
142
1.0
143
1.0
 70
1024
 72
1
 73
0
 74
0
  7

 75
0
147
1.0
148
0.0
149
0.0
100
AcDbLayout
  1
Model
 70
0
 71
0
 10
0.0
 20
0.0
 11
210.0
 21
297.0
 12
0.0
 22
0.0
 32
0.0
 14
0.0
 24
0.0
 34
0.0
 15
0.0
 25
0.0
 35
0.0
146
0.0
 13
0.0
 23
0.0
 33
0.0
 16
1.0
 26
0.0
 36
0.0
 17
0.0
 27
1.0
 37
0.0
 76
0
330
210
345
0
346
0
  0
LAYOUT
  5
389
102
{ACAD_REACTORS
330
1A
102
}
100
AcDbPlotSettings
  1

  2
none_device
  4

  6

 40
0.0
 41
0.0
 42
0.0
 43
0.0
 44
210.0
 45
297.0
 46
0.0
 47
0.0
 48
0.0
 49
0.0
140
0.0
141
0.0
142
1.0
143
1.0
 70
0
 72
1
 73
0
 74
0
  7

 75
0
147
1.0
148
0.0
149
0.0
100
AcDbLayout
  1
Layout1
 70
0
 71
1
 10
0.0
 20
0.0
 11
210.0
 21
297.0
 12
0.0
 22
0.0
 32
0.0
 14
0.0
 24
0.0
 34
0.0
 15
0.0
 25
0.0
 35
0.0
146
0.0
 13
0.0
 23
0.0
 33
0.0
 16
1.0
 26
0.0
 36
0.0
 17
0.0
 27
1.0
 37
0.0
 76
0
330
211
345
0
346
0
  0
ENDSEC
  0
EOF
