999
DXF file: C:\Users\sesa63760\Dev\_Creo\CAD\MCADID0004697_3D-CAD\drw0001_1.dxf
999
Pro/ENGINEER 2019471 by Parametric Technology Corporation
  0
SECTION
  2
HEADER
  9
$ACADVER
  1
AC1024
  9
$DWGCODEPAGE
  3
ANSI_1252
  9
$EXTMAX
 10
183.1075570788
 20
258.9664021544
 30
0.0
  9
$EXTMIN
 10
0.0
 20
0.0
 30
0.0
  9
$LIMMIN
 10
0.0
 20
0.0
  9
$LIMMAX
 10
183.1075570788
 20
258.9664021544
  9
$VIEWCTR
 10
91.5537785394
 20
129.4832010772
  9
$VIEWSIZE
 40
258.9664021544
  9
$CLAYER
  8
0
  9
$LTSCALE
 40
16.8807728812
  9
$CELTYPE
  6
BYLAYER
  9
$DIMSCALE
 40
1.0
  9
$DIMASZ
 40
2.17985187
  9
$DIMEXO
 40
1.0
  9
$DIMDLI
 40
11.6630794452
  9
$DIMEXE
 40
1.0
  9
$DIMCEN
 40
2.7623082896
  9
$DIMLFAC
 40
1.0
  9
$DIMBLK
  1
_FILLED
  9
$DIMALT
 70
0
  9
$DIMALTF
 40
0.0393700787
  9
$DIMTXT
 40
3.051792618
  9
$DIMTOL
 70
1
  9
$DIMLIM
 70
0
  9
$DIMTFAC
 40
1.0
  9
$DIMTP
 40
0.01
  9
$DIMTM
 40
0.01
  9
$DIMGAP
 40
0.625
  9
$DIMDSEP
 70
46
  9
$AUNITS
 70
0
  9
$PDMODE
 70
3
  9
$PDSIZE
 40
0.3125
  9
$HANDSEED
  5
33F
  9
$TILEMODE
 70
1
  9
$MEASUREMENT
 70
1
  9
$INSUNITS
 70
4
  0
ENDSEC
  0
SECTION
  2
CLASSES
  0
CLASS
  1
ACDBDICTIONARYWDFLT
  2
AcDbDictionaryWithDefault
  3
AutoCAD 2000
 90
0
 91
1
280
0
281
0
  0
CLASS
  1
ACDBPLACEHOLDER
  2
AcDbPlaceHolder
  3
AutoCAD 2000
 90
0
 91
1
280
0
281
0
  0
CLASS
  1
LAYOUT
  2
AcDbLayout
  3
AutoCAD 2000
 90
0
 91
0
280
0
281
0
  0
ENDSEC
  0
SECTION
  2
TABLES
  0
TABLE
  2
VPORT
  5
8
100
AcDbSymbolTable
 70
2
  0
VPORT
  5
1F4
100
AcDbSymbolTableRecord
100
AcDbViewportTableRecord
  2
*ACTIVE
 70
0
 10
0.0
 20
0.0
 11
1.0
 21
1.0
 12
91.5537785394
 22
129.4832010772
 13
0.0
 23
0.0
 14
1.0
 24
1.0
 15
0.0
 25
0.0
 16
0.0
 26
0.0
 36
1.0
 17
0.0
 27
0.0
 37
0.0
 40
258.9664021544
 41
0.7070707071
 42
50.0
 43
0.0
 44
0.0
 50
0.0
 51
0.0
 71
0
 72
100
 73
1
 74
1
 75
0
 76
0
 77
0
 78
0
  0
ENDTAB
  0
TABLE
  2
LTYPE
  5
5
100
AcDbSymbolTable
 70
6
  0
LTYPE
  5
14
100
AcDbSymbolTableRecord
100
AcDbLinetypeTableRecord
  2
BYBLOCK
 70
0
  3

 72
65
 73
0
 40
0.0
  0
LTYPE
  5
15
100
AcDbSymbolTableRecord
100
AcDbLinetypeTableRecord
  2
BYLAYER
 70
0
  3

 72
65
 73
0
 40
0.0
  0
LTYPE
  5
16
100
AcDbSymbolTableRecord
100
AcDbLinetypeTableRecord
  2
CONTINUOUS
 70
64
  3
Solid line
 72
65
 73
0
 40
0.0
  0
LTYPE
  5
1F5
100
AcDbSymbolTableRecord
100
AcDbLinetypeTableRecord
  2
CENTER
 70
64
  3
____ _ ____ _ ____ _ ____ _ ____ _ ____ _ ____
 72
65
 73
4
 40
0.6
 49
0.375
 74
0
 49
-0.075
 74
0
 49
0.075
 74
0
 49
-0.075
 74
0
  0
LTYPE
  5
1F6
100
AcDbSymbolTableRecord
100
AcDbLinetypeTableRecord
  2
HIDDEN
 70
64
  3
- - - - - - - - - - - - - - - - - - - -
 72
65
 73
2
 40
0.2
 49
0.1
 74
0
 49
-0.1
 74
0
  0
LTYPE
  5
1F7
100
AcDbSymbolTableRecord
100
AcDbLinetypeTableRecord
  2
PHANTOM
 70
64
  3
_____ _ _ _____ _ _ _____ _ _ _____
 72
65
 73
6
 40
0.8
 49
0.45
 74
0
 49
-0.05
 74
0
 49
0.1
 74
0
 49
-0.05
 74
0
 49
0.1
 74
0
 49
-0.05
 74
0
  0
LTYPE
  5
1F8
100
AcDbSymbolTableRecord
100
AcDbLinetypeTableRecord
  2
DOT
 70
64
  3
. . . . . . . . . . . . . . . . . . . .
 72
65
 73
2
 40
0.2
 49
0.1
 74
0
 49
-0.1
 74
0
  0
LTYPE
  5
1F9
100
AcDbSymbolTableRecord
100
AcDbLinetypeTableRecord
  2
DASHED
 70
64
  3
- - - - - - - - - - - - - - - - - - - -
 72
65
 73
2
 40
0.2
 49
0.1
 74
0
 49
-0.1
 74
0
  0
ENDTAB
  0
TABLE
  2
LAYER
  5
2
100
AcDbSymbolTable
 70
36
  0
LAYER
  5
10
100
AcDbSymbolTableRecord
100
AcDbLayerTableRecord
  2
0
 70
0
 62
7
  6
CONTINUOUS
370
-3
390
F
  0
LAYER
  5
1FA
100
AcDbSymbolTableRecord
100
AcDbLayerTableRecord
  2
DEFAULT_1
 70
0
 62
7
  6
CENTER
370
-3
390
F
  0
LAYER
  5
1FB
100
AcDbSymbolTableRecord
100
AcDbLayerTableRecord
  2
DEFAULT_2
 70
0
 62
7
  6
HIDDEN
370
-3
390
F
  0
LAYER
  5
1FC
100
AcDbSymbolTableRecord
100
AcDbLayerTableRecord
  2
DEFAULT_3
 70
0
 62
7
  6
PHANTOM
370
-3
390
F
  0
LAYER
  5
1FD
100
AcDbSymbolTableRecord
100
AcDbLayerTableRecord
  2
00_COMPONENTS
 70
0
 62
7
  6
CONTINUOUS
370
-3
390
F
  0
LAYER
  5
1FE
100
AcDbSymbolTableRecord
100
AcDbLayerTableRecord
  2
01_1_DEFAULT_DATUMS
 70
0
 62
7
  6
CONTINUOUS
370
-3
390
F
  0
LAYER
  5
1FF
100
AcDbSymbolTableRecord
100
AcDbLayerTableRecord
  2
01_PLANES
 70
0
 62
7
  6
CONTINUOUS
370
-3
390
F
  0
LAYER
  5
200
100
AcDbSymbolTableRecord
100
AcDbLayerTableRecord
  2
02_COORD_SYS
 70
0
 62
7
  6
CONTINUOUS
370
-3
390
F
  0
LAYER
  5
201
100
AcDbSymbolTableRecord
100
AcDbLayerTableRecord
  2
03_AXES
 70
0
 62
7
  6
CONTINUOUS
370
-3
390
F
  0
LAYER
  5
202
100
AcDbSymbolTableRecord
100
AcDbLayerTableRecord
  2
04_POINTS
 70
0
 62
7
  6
CONTINUOUS
370
-3
390
F
  0
LAYER
  5
203
100
AcDbSymbolTableRecord
100
AcDbLayerTableRecord
  2
05_CURVES
 70
0
 62
7
  6
CONTINUOUS
370
-3
390
F
  0
LAYER
  5
204
100
AcDbSymbolTableRecord
100
AcDbLayerTableRecord
  2
06_SURFS
 70
0
 62
7
  6
CONTINUOUS
370
-3
390
F
  0
LAYER
  5
205
100
AcDbSymbolTableRecord
100
AcDbLayerTableRecord
  2
07_COSMETICS
 70
0
 62
7
  6
CONTINUOUS
370
-3
390
F
  0
LAYER
  5
206
100
AcDbSymbolTableRecord
100
AcDbLayerTableRecord
  2
10_NOTES
 70
0
 62
7
  6
CONTINUOUS
370
-3
390
F
  0
LAYER
  5
207
100
AcDbSymbolTableRecord
100
AcDbLayerTableRecord
  2
11_NOTES_PUB
 70
0
 62
7
  6
CONTINUOUS
370
-3
390
F
  0
LAYER
  5
208
100
AcDbSymbolTableRecord
100
AcDbLayerTableRecord
  2
13_REF_GTOL
 70
0
 62
7
  6
CONTINUOUS
370
-3
390
F
  0
LAYER
  5
209
100
AcDbSymbolTableRecord
100
AcDbLayerTableRecord
  2
16_MISC
 70
0
 62
7
  6
CONTINUOUS
370
-3
390
F
  0
LAYER
  5
20A
100
AcDbSymbolTableRecord
100
AcDbLayerTableRecord
  2
17_NO_PRINT
 70
0
 62
7
  6
CONTINUOUS
370
-3
390
F
  0
LAYER
  5
20B
100
AcDbSymbolTableRecord
100
AcDbLayerTableRecord
  2
18_DATUM_CAMS_JOINTS
 70
0
 62
7
  6
CONTINUOUS
370
-3
390
F
  0
LAYER
  5
20C
100
AcDbSymbolTableRecord
100
AcDbLayerTableRecord
  2
19_DATUM_FUNCTIONAL
 70
0
 62
7
  6
CONTINUOUS
370
-3
390
F
  0
LAYER
  5
20D
100
AcDbSymbolTableRecord
100
AcDbLayerTableRecord
  2
20_DATUM_KINEMATIC_SCHEME
 70
0
 62
7
  6
CONTINUOUS
370
-3
390
F
  0
ENDTAB
  0
TABLE
  2
STYLE
  5
3
100
AcDbSymbolTable
 70
1
  0
STYLE
  5
11
100
AcDbSymbolTableRecord
100
AcDbTextStyleTableRecord
  2
STANDARD
 70
0
 40
0.0
 41
1.0
 50
0.0
 71
0
 42
0.2
  3
ARIAL.TTF
  4

  0
STYLE
  5
20E
100
AcDbSymbolTableRecord
100
AcDbTextStyleTableRecord
  2
TEXTSTYLE_1
 70
0
 40
0.0
 41
0.8
 50
0.0
 71
0
 42
0.2
  3
gdt
  4

  0
ENDTAB
  0
TABLE
  2
VIEW
  5
6
100
AcDbSymbolTable
 70
0
  0
ENDTAB
  0
TABLE
  2
UCS
  5
7
100
AcDbSymbolTable
 70
0
  0
ENDTAB
  0
TABLE
  2
APPID
  5
9
100
AcDbSymbolTable
 70
1
  0
APPID
  5
20F
100
AcDbSymbolTableRecord
100
AcDbRegAppTableRecord
  2
ACAD
 70
0
  0
ENDTAB
  0
TABLE
  2
BLOCK_RECORD
  5
1
100
AcDbSymbolTable
 70
0
  0
BLOCK_RECORD
  5
210
100
AcDbSymbolTableRecord
100
AcDbBlockTableRecord
  2
*Model_Space
  0
BLOCK_RECORD
  5
211
100
AcDbSymbolTableRecord
100
AcDbBlockTableRecord
  2
*Paper_Space
  0
BLOCK_RECORD
  5
212
100
AcDbSymbolTableRecord
100
AcDbBlockTableRecord
  2
_FILLED
  0
ENDTAB
  0
TABLE
  2
DIMSTYLE
  5
A
100
AcDbSymbolTable
 70
1
100
AcDbDimStyleTable
 71
0
  0
DIMSTYLE
105
213
100
AcDbSymbolTableRecord
100
AcDbDimStyleTableRecord
  2
STANDARD
 70
0
  3

  4

 40
1.0
 41
2.17985187
 42
1.0
 43
0.38
 44
1.0
 45
0.0
 46
0.0
 47
0.01
 48
0.01
140
3.051792618
141
0.09
142
0.0
143
25.4
144
1.0
145
0.0
146
1.0
147
0.625
 71
1
 72
0
 73
0
 74
0
 75
0
 76
0
 77
1
 78
8
 79
2
170
0
171
1
172
0
173
0
174
0
175
0
176
0
177
0
178
0
270
2
179
2
271
2
272
2
273
2
274
2
275
0
280
0
281
0
282
0
283
1
284
8
285
0
286
0
287
3
288
0
340
11
278
46
341
212
342
212
343
212
344
212
  0
ENDTAB
  0
ENDSEC
  0
SECTION
  2
BLOCKS
  0
BLOCK
  5
20
100
AcDbEntity
  8
0
100
AcDbBlockBegin
  2
*Model_Space
 70
0
 10
0.0
 20
0.0
 30
0.0
  3
*Model_Space
  1

  0
ENDBLK
  5
21
100
AcDbEntity
  8
0
100
AcDbBlockEnd
  0
BLOCK
  5
1C
100
AcDbEntity
  8
0
100
AcDbBlockBegin
  2
*Paper_Space
 70
0
 10
0.0
 20
0.0
 30
0.0
  3
*Paper_Space
  1

  0
ENDBLK
  5
1D
100
AcDbEntity
  8
0
100
AcDbBlockEnd
  0
BLOCK
  5
214
100
AcDbEntity
  8
0
100
AcDbBlockBegin
  2
_FILLED
 70
64
 10
0.0
 20
0.0
  3
_FILLED
  1

  0
SOLID
  5
215
100
AcDbEntity
  8
0
  6
BYBLOCK
 62
0
100
AcDbTrace
 10
0.0
 20
0.0
 11
-1.0
 21
0.25
 12
-1.0
 22
-0.25
 13
-1.0
 23
-0.25
  0
ENDBLK
  5
216
100
AcDbEntity
  8
0
  6
BYBLOCK
 62
0
100
AcDbBlockEnd
  0
ENDSEC
  0
SECTION
  2
ENTITIES
  0
LINE
  5
217
100
AcDbEntity
  8
0
100
AcDbLine
 62
7
  6
BYLAYER
 10
154.565115001
 20
102.7652593754
 11
153.2599354471
 21
103.068012179
  0
LINE
  5
218
100
AcDbEntity
  8
0
100
AcDbLine
 62
7
  6
BYLAYER
 10
131.3885484504
 20
114.0703729287
 11
134.1752662283
 21
113.3107709806
  0
LINE
  5
219
100
AcDbEntity
  8
0
100
AcDbLine
 62
7
  6
BYLAYER
 10
161.0423618099
 20
94.5641660313
 11
161.0606196982
 21
94.5563611627
  0
LINE
  5
21A
100
AcDbEntity
  8
0
100
AcDbLine
 62
7
  6
BYLAYER
 10
156.2300650088
 20
86.2161832769
 11
149.1210101812
 21
90.3205051432
  0
LINE
  5
21B
100
AcDbEntity
  8
0
100
AcDbLine
 62
7
  6
BYLAYER
 10
148.0654550378
 20
91.5072634065
 11
142.4792882092
 21
94.7323653672
  0
LINE
  5
21C
100
AcDbEntity
  8
0
100
AcDbLine
 62
7
  6
BYLAYER
 10
142.1381688244
 20
95.1115636215
 11
139.2428488714
 21
96.7831395597
  0
LINE
  5
21D
100
AcDbEntity
  8
0
100
AcDbLine
 62
7
  6
BYLAYER
 10
160.3303700286
 20
93.1378333488
 11
160.2628026645
 21
93.1744457014
  0
LINE
  5
21E
100
AcDbEntity
  8
0
100
AcDbLine
 62
7
  6
BYLAYER
 10
135.2303600798
 20
100.3030741044
 11
140.9755179851
 21
96.9861806795
  0
LINE
  5
21F
100
AcDbEntity
  8
0
100
AcDbLine
 62
7
  6
BYLAYER
 10
129.369924871
 20
104.0329296084
 11
134.666375682
 21
100.9750914845
  0
LINE
  5
220
100
AcDbEntity
  8
0
100
AcDbLine
 62
7
  6
BYLAYER
 10
158.1503811154
 20
88.8891362131
 11
155.2798128904
 21
90.5464220577
  0
LINE
  5
221
100
AcDbEntity
  8
0
100
AcDbLine
 62
7
  6
BYLAYER
 10
159.475450598
 20
88.3491468089
 11
158.83520734
 21
88.7187830639
  0
LINE
  5
222
100
AcDbEntity
  8
0
100
AcDbLine
 62
7
  6
BYLAYER
 10
126.1194111588
 20
108.276694836
 11
21.8535646698
 21
168.4732475457
  0
LINE
  5
223
100
AcDbEntity
  8
0
100
AcDbLine
 62
7
  6
BYLAYER
 10
138.8500651119
 20
105.7871895756
 11
143.0533654134
 21
103.3604668833
  0
LINE
  5
224
100
AcDbEntity
  8
0
100
AcDbLine
 62
7
  6
BYLAYER
 10
149.3708643425
 20
100.8226693325
 11
143.7846975138
 21
104.0477712932
  0
LINE
  5
225
100
AcDbEntity
  8
0
100
AcDbLine
 62
7
  6
BYLAYER
 10
139.2428488713
 20
106.9389986797
 11
149.3708643425
 21
101.0917185042
  0
LINE
  5
226
100
AcDbEntity
  8
0
100
AcDbLine
 62
7
  6
BYLAYER
 10
129.0671683029
 20
113.3875396027
 11
24.803514617
 21
173.5828263256
  0
LINE
  5
227
100
AcDbEntity
  8
0
100
AcDbLine
 62
7
  6
BYLAYER
 10
148.6283923601
 20
102.7777329785
 11
141.7694280262
 21
106.7376682974
  0
LINE
  5
228
100
AcDbEntity
  8
0
100
AcDbLine
 62
7
  6
BYLAYER
 10
161.8753179132
 20
95.3410619607
 11
159.00486528
 21
96.9982810698
  0
LINE
  5
229
100
AcDbEntity
  8
0
100
AcDbLine
 62
7
  6
BYLAYER
 10
159.0181342679
 20
97.0113465063
 11
162.942641064
 21
94.7455827096
  0
LINE
  5
22A
100
AcDbEntity
  8
0
100
AcDbLine
 62
7
  6
BYLAYER
 10
150.9618479762
 20
102.4695251491
 11
149.7597614434
 21
103.1635344318
  0
LINE
  5
22B
100
AcDbEntity
  8
0
100
AcDbLine
 62
7
  6
BYLAYER
 10
142.1936873844
 20
107.5317105052
 11
140.833832505
 21
108.3168053246
  0
LINE
  5
22C
100
AcDbEntity
  8
0
100
AcDbLine
 62
7
  6
BYLAYER
 10
149.7597614434
 20
103.3272654477
 11
150.9618479762
 21
102.633256165
  0
LINE
  5
22D
100
AcDbEntity
  8
0
100
AcDbLine
 62
7
  6
BYLAYER
 10
142.1936873844
 20
107.695441521
 11
140.9801996041
 21
108.3960332253
  0
LINE
  5
22E
100
AcDbEntity
  8
0
100
AcDbLine
 62
7
  6
BYLAYER
 10
134.3698400359
 20
112.6932326252
 11
139.5445295953
 21
109.7056918023
  0
LINE
  5
22F
100
AcDbEntity
  8
0
100
AcDbLine
 62
7
  6
BYLAYER
 10
151.6689518134
 20
103.0415003189
 11
150.4668652807
 21
103.7355096016
  0
LINE
  5
230
100
AcDbEntity
  8
0
100
AcDbLine
 62
7
  6
BYLAYER
 10
141.6873034414
 20
108.8042773791
 11
142.9007912216
 21
108.1036856749
  0
LINE
  5
231
100
AcDbEntity
  8
0
100
AcDbLine
 62
7
  6
BYLAYER
 10
140.5302701546
 20
109.4829953023
 11
141.6628673664
 21
108.8291047902
  0
LINE
  5
232
100
AcDbEntity
  8
0
100
AcDbLine
 62
7
  6
BYLAYER
 10
150.8911246392
 20
103.9133961433
 11
144.0321603053
 21
107.8733314621
  0
LINE
  5
233
100
AcDbEntity
  8
0
100
AcDbLine
 62
7
  6
BYLAYER
 10
144.0321603053
 20
108.0440495897
 11
150.8911246392
 21
104.0841142708
  0
LINE
  5
234
100
AcDbEntity
  8
0
100
AcDbLine
 62
7
  6
BYLAYER
 10
153.2599354471
 20
103.3370613505
 11
143.1319199758
 21
109.1843415261
  0
LINE
  5
235
100
AcDbEntity
  8
0
100
AcDbLine
 62
7
  6
BYLAYER
 10
148.9791779235
 20
105.9907592892
 11
154.5653447522
 21
102.7656573285
  0
LINE
  5
236
100
AcDbEntity
  8
0
100
AcDbLine
 62
7
  6
BYLAYER
 10
162.9799504814
 20
97.9075923497
 11
162.9799920932
 21
97.907568325
  0
LINE
  5
237
100
AcDbEntity
  8
0
100
AcDbLine
 62
7
  6
BYLAYER
 10
163.2299462397
 20
98.3406075005
 11
156.120891412
 21
102.4449293668
  0
LINE
  5
238
100
AcDbEntity
  8
0
100
AcDbLine
 62
7
  6
BYLAYER
 10
126.6866034982
 20
105.9261811351
 11
128.7378368119
 21
103.8926539072
  0
LINE
  5
239
100
AcDbEntity
  8
0
100
AcDbLine
 62
7
  6
BYLAYER
 10
150.8911246392
 20
104.0841142708
 11
151.037541085
 21
103.9075494847
  0
LINE
  5
23A
100
AcDbEntity
  8
0
100
AcDbLine
 62
7
  6
BYLAYER
 10
161.0606171508
 20
91.8622532743
 11
161.2327738059
 21
91.6414315549
  0
LINE
  5
23B
100
AcDbEntity
  8
0
100
AcDbLine
 62
7
  6
BYLAYER
 10
160.2624563745
 20
90.4797948939
 11
160.1399580327
 21
90.6723756388
  0
LINE
  5
23C
100
AcDbEntity
  8
0
100
AcDbLine
 62
7
  6
BYLAYER
 10
143.3250535241
 20
107.8733297624
 11
141.7694250823
 21
106.9751926239
  0
LINE
  5
23D
100
AcDbEntity
  8
0
100
AcDbLine
 62
7
  6
BYLAYER
 10
141.7694250823
 20
106.9751926239
 11
141.7694250822
 21
107.2286673305
  0
LINE
  5
23E
100
AcDbEntity
  8
0
100
AcDbLine
 62
7
  6
BYLAYER
 10
142.1936873844
 20
107.5317105052
 11
142.1936873844
 21
107.695441521
  0
LINE
  5
23F
100
AcDbEntity
  8
0
100
AcDbLine
 62
7
  6
BYLAYER
 10
142.9007912216
 20
107.9399546591
 11
142.9007912216
 21
108.1036856749
  0
LINE
  5
240
100
AcDbEntity
  8
0
100
AcDbLine
 62
7
  6
BYLAYER
 10
143.3250535241
 20
108.126804469
 11
143.3250535241
 21
107.8733297624
  0
LINE
  5
241
100
AcDbEntity
  8
0
100
AcDbLine
 62
7
  6
BYLAYER
 10
144.0321603053
 20
107.8733314621
 11
144.0321603053
 21
108.0440495897
  0
LINE
  5
242
100
AcDbEntity
  8
0
100
AcDbLine
 62
7
  6
BYLAYER
 10
149.3708643425
 20
100.8226693325
 11
149.3708643425
 21
101.0917185042
  0
LINE
  5
243
100
AcDbEntity
  8
0
100
AcDbLine
 62
7
  6
BYLAYER
 10
149.7597614434
 20
103.3272654477
 11
149.7597614434
 21
103.1635344318
  0
LINE
  5
244
100
AcDbEntity
  8
0
100
AcDbLine
 62
7
  6
BYLAYER
 10
139.130125747
 20
106.933134352
 11
139.1062440826
 21
106.8852308743
  0
LINE
  5
245
100
AcDbEntity
  8
0
100
AcDbLine
 62
7
  6
BYLAYER
 10
141.7694250823
 20
107.2286673305
 11
141.6229799448
 21
106.9693429174
  0
LINE
  5
246
100
AcDbEntity
  8
0
100
AcDbLine
 62
7
  6
BYLAYER
 10
150.8911246392
 20
104.0841142708
 11
150.8911246392
 21
103.9133961433
  0
LINE
  5
247
100
AcDbEntity
  8
0
100
AcDbLine
 62
7
  6
BYLAYER
 10
150.9618479762
 20
102.4695251491
 11
150.9618479762
 21
102.633256165
  0
LINE
  5
248
100
AcDbEntity
  8
0
100
AcDbLine
 62
7
  6
BYLAYER
 10
151.6689518134
 20
102.877769303
 11
151.6689518134
 21
103.0415003189
  0
LINE
  5
249
100
AcDbEntity
  8
0
100
AcDbLine
 62
7
  6
BYLAYER
 10
153.2599354471
 20
103.068012179
 11
153.2599354471
 21
103.3370613505
  0
LINE
  5
24A
100
AcDbEntity
  8
0
100
AcDbLine
 62
7
  6
BYLAYER
 10
159.475450598
 20
88.827338486
 11
159.475450598
 21
88.3491468089
  0
LINE
  5
24B
100
AcDbEntity
  8
0
100
AcDbLine
 62
7
  6
BYLAYER
 10
160.5502484306
 20
89.4478695998
 11
160.5502484306
 21
88.9696779227
  0
LINE
  5
24C
100
AcDbEntity
  8
0
100
AcDbLine
 62
7
  6
BYLAYER
 10
162.5181459511
 20
94.5005018048
 11
162.942641064
 21
94.7455827096
  0
LINE
  5
24D
100
AcDbEntity
  8
0
100
AcDbLine
 62
7
  6
BYLAYER
 10
162.942641064
 20
92.8676271502
 11
162.5181459511
 21
92.6225462454
  0
ARC
  5
24E
100
AcDbEntity
  8
0
100
AcDbCircle
 62
7
  6
BYLAYER
 10
146.6278460707
 20
100.0869997803
 40
10.1531873451
100
AcDbArc
 50
137.1262056974
 51
137.6008355646
  0
ARC
  5
24F
100
AcDbEntity
  8
0
100
AcDbCircle
 62
7
  6
BYLAYER
 10
145.1927297587
 20
101.7706332602
 40
7.8648067449
100
AcDbArc
 50
124.4264534054
 51
128.5678890917
  0
ARC
  5
250
100
AcDbEntity
  8
0
100
AcDbCircle
 62
7
  6
BYLAYER
 10
146.3337444492
 20
101.2870987378
 40
7.4923460028
100
AcDbArc
 50
123.5436098943
 51
127.5315083866
  0
ARC
  5
251
100
AcDbEntity
  8
0
100
AcDbCircle
 62
7
  6
BYLAYER
 10
144.8151552194
 20
102.3075316569
 40
7.2084880919
100
AcDbArc
 50
123.5256587323
 51
124.3635900953
  0
ARC
  5
252
100
AcDbEntity
  8
0
100
AcDbCircle
 62
7
  6
BYLAYER
 10
144.7334101605
 20
102.4268966257
 40
7.1759980499
100
AcDbArc
 50
122.15856927
 51
123.4915923049
  0
ARC
  5
253
100
AcDbEntity
  8
0
100
AcDbCircle
 62
7
  6
BYLAYER
 10
144.6739314491
 20
102.3791788562
 40
7.1342573912
100
AcDbArc
 50
123.556129901
 51
123.781245021
  0
ARC
  5
254
100
AcDbEntity
  8
0
100
AcDbCircle
 62
7
  6
BYLAYER
 10
144.8459405257
 20
102.5424089927
 40
7.0148582333
100
AcDbArc
 50
120.0444901679
 51
123.4406361987
  0
ARC
  5
255
100
AcDbEntity
  8
0
100
AcDbCircle
 62
7
  6
BYLAYER
 10
144.6122317608
 20
102.6191646464
 40
6.948729196
100
AcDbArc
 50
121.2201181573
 51
122.1565111458
  0
ARC
  5
256
100
AcDbEntity
  8
0
100
AcDbCircle
 62
7
  6
BYLAYER
 10
145.9963973865
 20
101.9436583381
 40
6.8951876801
100
AcDbArc
 50
120.0150100835
 51
123.4701196382
  0
ARC
  5
257
100
AcDbEntity
  8
0
100
AcDbCircle
 62
7
  6
BYLAYER
 10
144.4433584829
 20
102.9005051278
 40
6.6206003086
100
AcDbArc
 50
118.7614980566
 51
121.2323120273
  0
ARC
  5
258
100
AcDbEntity
  8
0
100
AcDbCircle
 62
7
  6
BYLAYER
 10
144.5362640493
 20
103.069476658
 40
6.4035639416
100
AcDbArc
 50
117.5990979965
 51
120.0070969056
  0
ARC
  5
259
100
AcDbEntity
  8
0
100
AcDbCircle
 62
7
  6
BYLAYER
 10
147.3610060871
 20
97.7073319504
 40
6.2279479959
100
AcDbArc
 50
178.5527604921
 51
179.9940810645
  0
ARC
  5
25A
100
AcDbEntity
  8
0
100
AcDbCircle
 62
7
  6
BYLAYER
 10
145.6472404027
 20
102.5556985101
 40
6.1905690114
100
AcDbArc
 50
116.3370319132
 51
120.0504197076
  0
ARC
  5
25B
100
AcDbEntity
  8
0
100
AcDbCircle
 62
7
  6
BYLAYER
 10
144.2282551219
 20
103.2923562611
 40
6.1735916217
100
AcDbArc
 50
116.2752545644
 51
118.7613015596
  0
ARC
  5
25C
100
AcDbEntity
  8
0
100
AcDbCircle
 62
7
  6
BYLAYER
 10
144.3568332526
 20
103.4085440689
 40
6.0199519514
100
AcDbArc
 50
116.3235628326
 51
117.5807321125
  0
ARC
  5
25D
100
AcDbEntity
  8
0
100
AcDbCircle
 62
7
  6
BYLAYER
 10
146.9285196449
 20
97.910899376
 40
5.9419097226
100
AcDbArc
 50
179.9884478209
 51
182.3468738366
  0
ARC
  5
25E
100
AcDbEntity
  8
0
100
AcDbCircle
 62
7
  6
BYLAYER
 10
145.3996652727
 20
102.8633991112
 40
5.6582495309
100
AcDbArc
 50
115.4936624601
 51
116.2081683969
  0
ARC
  5
25F
100
AcDbEntity
  8
0
100
AcDbCircle
 62
7
  6
BYLAYER
 10
143.8186940036
 20
103.9253277342
 40
5.3652010854
100
AcDbArc
 50
113.5473097469
 51
113.9539292313
  0
ARC
  5
260
100
AcDbEntity
  8
0
100
AcDbCircle
 62
7
  6
BYLAYER
 10
145.2105952294
 20
103.273696017
 40
5.2065275539
100
AcDbArc
 50
111.2322671822
 51
115.5589810385
  0
ARC
  5
261
100
AcDbEntity
  8
0
100
AcDbCircle
 62
7
  6
BYLAYER
 10
143.8183649164
 20
104.1353338076
 40
5.1233824034
100
AcDbArc
 50
109.7714169503
 51
114.3627515295
  0
ARC
  5
262
100
AcDbEntity
  8
0
100
AcDbCircle
 62
7
  6
BYLAYER
 10
143.6754188193
 20
104.2667053029
 40
4.9950130744
100
AcDbArc
 50
109.4686280261
 51
113.6050952788
  0
ARC
  5
263
100
AcDbEntity
  8
0
100
AcDbCircle
 62
7
  6
BYLAYER
 10
147.8760689806
 20
104.0741641702
 40
2.2113818585
100
AcDbArc
 50
60.0771375504
 51
73.8203675818
  0
ARC
  5
264
100
AcDbEntity
  8
0
100
AcDbCircle
 62
7
  6
BYLAYER
 10
136.1147144247
 20
101.8342539274
 40
1.7681878636
100
AcDbArc
 50
238.5034798521
 51
239.990816236
  0
ARC
  5
265
100
AcDbEntity
  8
0
100
AcDbCircle
 62
7
  6
BYLAYER
 10
130.2222854246
 20
105.5040709459
 40
1.7002050457
100
AcDbArc
 50
227.5415383469
 51
239.9125445602
  0
ARC
  5
266
100
AcDbEntity
  8
0
100
AcDbCircle
 62
7
  6
BYLAYER
 10
167.1503978083
 20
88.0234435815
 40
12.4558288438
100
AcDbArc
 50
150.1161462127
 51
150.2394357482
  0
ARC
  5
267
100
AcDbEntity
  8
0
100
AcDbCircle
 62
7
  6
BYLAYER
 10
166.6584161902
 20
88.2783627757
 40
12.0416598105
100
AcDbArc
 50
149.8095307923
 51
150.000120803
  0
ARC
  5
268
100
AcDbEntity
  8
0
100
AcDbCircle
 62
7
  6
BYLAYER
 10
166.6039985204
 20
88.3097822632
 40
11.8394382468
100
AcDbArc
 50
149.8697702202
 51
150.000128453
  0
ARC
  5
269
100
AcDbEntity
  8
0
100
AcDbCircle
 62
7
  6
BYLAYER
 10
166.3359490628
 20
88.4646711286
 40
11.3566505776
100
AcDbArc
 50
148.7993759343
 51
151.1867142904
  0
ARC
  5
26A
100
AcDbEntity
  8
0
100
AcDbCircle
 62
7
  6
BYLAYER
 10
163.921480247
 20
90.9454204666
 40
8.2045111844
100
AcDbArc
 50
127.2468522719
 51
127.5917689563
  0
ARC
  5
26B
100
AcDbEntity
  8
0
100
AcDbCircle
 62
7
  6
BYLAYER
 10
163.8505539222
 20
90.8518948825
 40
7.8974337253
100
AcDbArc
 50
126.584077654
 51
128.9151788824
  0
ARC
  5
26C
100
AcDbEntity
  8
0
100
AcDbCircle
 62
7
  6
BYLAYER
 10
156.2997576429
 20
94.2583767843
 40
6.4378912032
100
AcDbArc
 50
328.2075030386
 51
330.0777670405
  0
ARC
  5
26D
100
AcDbEntity
  8
0
100
AcDbCircle
 62
7
  6
BYLAYER
 10
159.9527504273
 20
95.2111148094
 40
4.7175865589
100
AcDbArc
 50
9.145786279
 51
13.1793663648
  0
ARC
  5
26E
100
AcDbEntity
  8
0
100
AcDbCircle
 62
7
  6
BYLAYER
 10
157.3530923684
 20
90.4670037606
 40
4.5571095291
100
AcDbArc
 50
285.8624725503
 51
290.6954050613
  0
ARC
  5
26F
100
AcDbEntity
  8
0
100
AcDbCircle
 62
7
  6
BYLAYER
 10
161.8896134186
 20
95.2507074464
 40
3.0118197628
100
AcDbArc
 50
91.1777142857
 51
93.4817408787
  0
ARC
  5
270
100
AcDbEntity
  8
0
100
AcDbCircle
 62
7
  6
BYLAYER
 10
158.2313818517
 20
88.9195056816
 40
3.0067983846
100
AcDbArc
 50
206.5745402361
 51
208.8913056927
  0
ARC
  5
271
100
AcDbEntity
  8
0
100
AcDbCircle
 62
7
  6
BYLAYER
 10
157.4239238857
 20
88.2841465549
 40
2.3878381723
100
AcDbArc
 50
240.0016681969
 51
242.2281688824
  0
ARC
  5
272
100
AcDbEntity
  8
0
100
AcDbCircle
 62
7
  6
BYLAYER
 10
161.9392853425
 20
95.8715965564
 40
2.3871773065
100
AcDbArc
 50
72.1917747333
 51
79.3534441991
  0
ARC
  5
273
100
AcDbEntity
  8
0
100
AcDbCircle
 62
7
  6
BYLAYER
 10
157.6940291439
 20
88.5401255953
 40
2.3467760622
100
AcDbArc
 50
220.9811250829
 51
228.4586209581
  0
ARC
  5
274
100
AcDbEntity
  8
0
100
AcDbCircle
 62
7
  6
BYLAYER
 10
157.5265275502
 20
88.2921284662
 40
2.3460497084
100
AcDbArc
 50
227.8684551382
 51
237.8700207222
  0
ARC
  5
275
100
AcDbEntity
  8
0
100
AcDbCircle
 62
7
  6
BYLAYER
 10
162.0825779075
 20
96.1848502964
 40
2.3406041309
100
AcDbArc
 50
62.0315928286
 51
71.5562329667
  0
ARC
  5
276
100
AcDbEntity
  8
0
100
AcDbCircle
 62
7
  6
BYLAYER
 10
162.0823683586
 20
96.1920770904
 40
2.3343223925
100
AcDbArc
 50
47.8550700052
 51
61.9438611066
  0
ARC
  5
277
100
AcDbEntity
  8
0
100
AcDbCircle
 62
7
  6
BYLAYER
 10
161.9811890164
 20
96.0081968649
 40
2.244307438
100
AcDbArc
 50
62.186037642
 51
72.1437574434
  0
ARC
  5
278
100
AcDbEntity
  8
0
100
AcDbCircle
 62
7
  6
BYLAYER
 10
157.6224995763
 20
88.4596855331
 40
2.2391329324
100
AcDbArc
 50
228.4635733606
 51
237.7695180126
  0
ARC
  5
279
100
AcDbEntity
  8
0
100
AcDbCircle
 62
7
  6
BYLAYER
 10
157.2936008125
 20
88.7176930548
 40
2.1982563848
100
AcDbArc
 50
244.403245353
 51
248.3594091698
  0
ARC
  5
27A
100
AcDbEntity
  8
0
100
AcDbCircle
 62
7
  6
BYLAYER
 10
161.5953859764
 20
96.1687723279
 40
2.198255621
100
AcDbArc
 50
51.6417605784
 51
55.5968086096
  0
ARC
  5
27B
100
AcDbEntity
  8
0
100
AcDbCircle
 62
7
  6
BYLAYER
 10
157.5390742996
 20
88.4811724813
 40
2.1160431458
100
AcDbArc
 50
231.3976555139
 51
239.968980888
  0
ARC
  5
27C
100
AcDbEntity
  8
0
100
AcDbCircle
 62
7
  6
BYLAYER
 10
161.9229647469
 20
96.0744670817
 40
2.11602625
100
AcDbArc
 50
60.032117095
 51
68.6008837979
  0
ARC
  5
27D
100
AcDbEntity
  8
0
100
AcDbCircle
 62
7
  6
BYLAYER
 10
161.4652022143
 20
90.7066110505
 40
1.3615252593
100
AcDbArc
 50
148.1454214831
 51
158.7177351339
  0
ARC
  5
27E
100
AcDbEntity
  8
0
100
AcDbCircle
 62
7
  6
BYLAYER
 10
151.3710195889
 20
97.1438232261
 40
10.4573558921
100
AcDbArc
 50
142.4648446888
 51
143.0709562402
  0
ARC
  5
27F
100
AcDbEntity
  8
0
100
AcDbCircle
 62
7
  6
BYLAYER
 10
151.0613832029
 20
97.3883171366
 40
10.0628644441
100
AcDbArc
 50
138.6988378952
 51
142.4946420939
  0
ARC
  5
280
100
AcDbEntity
  8
0
100
AcDbCircle
 62
7
  6
BYLAYER
 10
151.2338286163
 20
97.3763921054
 40
9.9998427212
100
AcDbArc
 50
138.1526424869
 51
139.0940771725
  0
ARC
  5
281
100
AcDbEntity
  8
0
100
AcDbCircle
 62
7
  6
BYLAYER
 10
153.9848944577
 20
96.7998158137
 40
7.6386296964
100
AcDbArc
 50
123.5818100319
 51
127.4933082489
  0
ARC
  5
282
100
AcDbEntity
  8
0
100
AcDbCircle
 62
7
  6
BYLAYER
 10
153.6254593479
 20
97.4736654238
 40
7.0148594803
100
AcDbArc
 50
120.0444904556
 51
123.4406392662
  0
ARC
  5
283
100
AcDbEntity
  8
0
100
AcDbCircle
 62
7
  6
BYLAYER
 10
154.764557859
 20
96.881473175
 40
6.8951874534
100
AcDbArc
 50
120.0150100267
 51
123.470119695
  0
ARC
  5
284
100
AcDbEntity
  8
0
100
AcDbCircle
 62
7
  6
BYLAYER
 10
153.2678928543
 20
98.0857073949
 40
6.3060304822
100
AcDbArc
 50
116.3710389846
 51
120.0164126361
  0
ARC
  5
285
100
AcDbEntity
  8
0
100
AcDbCircle
 62
7
  6
BYLAYER
 10
154.4154001269
 20
97.4935147726
 40
6.190567176
100
AcDbArc
 50
116.3370313625
 51
120.0504202583
  0
ARC
  5
286
100
AcDbEntity
  8
0
100
AcDbCircle
 62
7
  6
BYLAYER
 10
154.1651986564
 20
97.8065024099
 40
5.6523443103
100
AcDbArc
 50
115.5404187494
 51
116.2079507569
  0
ARC
  5
287
100
AcDbEntity
  8
0
100
AcDbCircle
 62
7
  6
BYLAYER
 10
152.8182197862
 20
98.8142966362
 40
5.3067095729
100
AcDbArc
 50
112.9354877542
 51
114.4362217757
  0
ARC
  5
288
100
AcDbEntity
  8
0
100
AcDbCircle
 62
7
  6
BYLAYER
 10
152.7236668593
 20
99.038100356
 40
5.0637520843
100
AcDbArc
 50
111.2165317379
 51
112.937038954
  0
ARC
  5
289
100
AcDbEntity
  8
0
100
AcDbCircle
 62
7
  6
BYLAYER
 10
150.7702793556
 20
103.6522246274
 40
0.2839784682
100
AcDbArc
 50
39.5941453978
 51
44.1454883736
  0
ARC
  5
28A
100
AcDbEntity
  8
0
100
AcDbCircle
 62
7
  6
BYLAYER
 10
134.7707313248
 20
107.862778779
 40
5.7730687749
100
AcDbArc
 50
122.2377123265
 51
125.5012562962
  0
ARC
  5
28B
100
AcDbEntity
  8
0
100
AcDbCircle
 62
7
  6
BYLAYER
 10
131.6299810038
 20
109.8032085067
 40
4.4707589404
100
AcDbArc
 50
119.0657733077
 51
121.034774653
  0
ARC
  5
28C
100
AcDbEntity
  8
0
100
AcDbCircle
 62
7
  6
BYLAYER
 10
139.6466917105
 20
107.9531380588
 40
1.7666545241
100
AcDbArc
 50
59.9911539897
 51
62.38630927
  0
ARC
  5
28D
100
AcDbEntity
  8
0
100
AcDbCircle
 62
7
  6
BYLAYER
 10
130.049143708
 20
113.4227428651
 40
0.7490510509
100
AcDbArc
 50
240.0687764389
 51
245.0149064819
  0
ARC
  5
28E
100
AcDbEntity
  8
0
100
AcDbCircle
 62
7
  6
BYLAYER
 10
141.8666640977
 20
106.9694828015
 40
0.2436843261
100
AcDbArc
 50
180.0313785006
 51
196.5375036094
  0
ARC
  5
28F
100
AcDbEntity
  8
0
100
AcDbCircle
 62
7
  6
BYLAYER
 10
212.2979056822
 20
89.2303159517
 40
75.2908716156
100
AcDbArc
 50
166.4384706003
 51
167.2965198353
  0
ARC
  5
290
100
AcDbEntity
  8
0
100
AcDbCircle
 62
7
  6
BYLAYER
 10
287.3153371489
 20
124.9661864135
 40
150.8255282317
100
AcDbArc
 50
190.224817001
 51
190.6877605315
  0
SPLINE
  5
291
100
AcDbEntity
  8
0
100
AcDbSpline
 62
7
  6
BYLAYER
 70
0
 71
3
 72
11
 73
7
 74
0
 42
0.0000001
 43
0.0000001
 44
0.0000000001
 40
0.0
 40
0.0
 40
0.0
 40
0.0
 40
0.2063401076
 40
0.4371469362
 40
0.7016934024
 40
1.0
 40
1.0
 40
1.0
 40
1.0
 10
160.262449345
 20
93.173881757
 30
0.0
 10
160.2316147618
 20
93.1964351594
 30
0.0
 10
160.1763161392
 20
93.2588776961
 30
0.0
 10
160.129726929
 20
93.3822967643
 30
0.0
 10
160.1153976829
 20
93.5297916687
 30
0.0
 10
160.1265961819
 20
93.6340741646
 30
0.0
 10
160.1367879792
 20
93.6883550624
 30
0.0
  0
SPLINE
  5
292
100
AcDbEntity
  8
0
100
AcDbSpline
 62
7
  6
BYLAYER
 70
0
 71
3
 72
9
 73
5
 74
0
 42
0.0000001
 43
0.0000001
 44
0.0000000001
 40
0.0
 40
0.0
 40
0.0
 40
0.0
 40
0.5011380679
 40
1.0
 40
1.0
 40
1.0
 40
1.0
 10
160.1367879792
 20
93.6883550624
 30
0.0
 10
160.1632817912
 20
93.8294595072
 30
0.0
 10
160.2723573945
 20
94.1007153292
 30
0.0
 10
160.4559509788
 20
94.3283948981
 30
0.0
 10
160.5659421699
 20
94.4196500861
 30
0.0
  0
SPLINE
  5
293
100
AcDbEntity
  8
0
100
AcDbSpline
 62
7
  6
BYLAYER
 70
0
 71
3
 72
10
 73
6
 74
0
 42
0.0000001
 43
0.0000001
 44
0.0000000001
 40
0.0
 40
0.0
 40
0.0
 40
0.0
 40
0.2970418999
 40
0.5626317522
 40
1.0
 40
1.0
 40
1.0
 40
1.0
 10
160.5659421699
 20
94.4196500861
 30
0.0
 10
160.6052135758
 20
94.4522319638
 30
0.0
 10
160.6848617236
 20
94.5084297812
 30
0.0
 10
160.8406835374
 20
94.5801490646
 30
0.0
 10
160.9716181707
 20
94.5894725742
 30
0.0
 10
161.0423618099
 20
94.5641660313
 30
0.0
  0
SPLINE
  5
294
100
AcDbEntity
  8
0
100
AcDbSpline
 62
7
  6
BYLAYER
 70
0
 71
3
 72
11
 73
7
 74
0
 42
0.0000001
 43
0.0000001
 44
0.0000000001
 40
0.0
 40
0.0
 40
0.0
 40
0.0
 40
0.2077120066
 40
0.4389831529
 40
0.7029465194
 40
1.0
 40
1.0
 40
1.0
 40
1.0
 10
158.2418766789
 20
90.6602376772
 30
0.0
 10
158.2122404926
 20
90.6818477114
 30
0.0
 10
158.158994004
 20
90.7412010508
 30
0.0
 10
158.1121029147
 20
90.8580758568
 30
0.0
 10
158.0952797679
 20
90.998163178
 30
0.0
 10
158.1034132557
 20
91.0975169073
 30
0.0
 10
158.1117756227
 20
91.1493004739
 30
0.0
  0
SPLINE
  5
295
100
AcDbEntity
  8
0
100
AcDbSpline
 62
7
  6
BYLAYER
 70
0
 71
3
 72
9
 73
5
 74
0
 42
0.0000001
 43
0.0000001
 44
0.0000000001
 40
0.0
 40
0.0
 40
0.0
 40
0.0
 40
0.2384191088
 40
1.0
 40
1.0
 40
1.0
 40
1.0
 10
158.1117756227
 20
91.1493004739
 30
0.0
 10
158.119543801
 20
91.1974045555
 30
0.0
 10
158.1670524233
 20
91.3965759628
 30
0.0
 10
158.2640597358
 20
91.5830254459
 30
0.0
 10
158.3577236232
 20
91.7073386489
 30
0.0
  0
SPLINE
  5
296
100
AcDbEntity
  8
0
100
AcDbSpline
 62
7
  6
BYLAYER
 70
0
 71
3
 72
9
 73
5
 74
0
 42
0.0000001
 43
0.0000001
 44
0.0000000001
 40
0.0
 40
0.0
 40
0.0
 40
0.0
 40
0.2773545225
 40
1.0
 40
1.0
 40
1.0
 40
1.0
 10
143.1319199758
 20
109.1843415261
 30
0.0
 10
143.1265594881
 20
109.1874363351
 30
0.0
 10
143.1066940737
 20
109.1974799596
 30
0.0
 10
143.0839335876
 20
109.2029786617
 30
0.0
 10
143.0678383913
 20
109.2019618201
 30
0.0
  0
SPLINE
  5
297
100
AcDbEntity
  8
0
100
AcDbSpline
 62
7
  6
BYLAYER
 70
0
 71
3
 72
10
 73
6
 74
0
 42
0.0000001
 43
0.0000001
 44
0.0000000001
 40
0.0
 40
0.0
 40
0.0
 40
0.0
 40
0.2298301629
 40
0.4689424965
 40
1.0
 40
1.0
 40
1.0
 40
1.0
 10
158.1504010307
 20
88.8891705555
 30
0.0
 10
158.2407602119
 20
88.836957408
 30
0.0
 10
158.4397207233
 20
88.7538276964
 30
0.0
 10
158.8920041537
 20
88.6847173841
 30
0.0
 10
159.2469169395
 20
88.7503929973
 30
0.0
 10
159.475450598
 20
88.827338486
 30
0.0
  0
SPLINE
  5
298
100
AcDbEntity
  8
0
100
AcDbSpline
 62
7
  6
BYLAYER
 70
0
 71
3
 72
9
 73
5
 74
0
 42
0.0000001
 43
0.0000001
 44
0.0000000001
 40
0.0
 40
0.0
 40
0.0
 40
0.0
 40
0.4790774081
 40
1.0
 40
1.0
 40
1.0
 40
1.0
 10
156.0419043262
 20
87.768243239
 30
0.0
 10
155.8284708217
 20
87.8914663583
 30
0.0
 10
155.431742802
 20
88.2405558144
 30
0.0
 10
155.1845789113
 20
88.7026036606
 30
0.0
 10
155.0897470183
 20
88.9532396913
 30
0.0
  0
SPLINE
  5
299
100
AcDbEntity
  8
0
100
AcDbSpline
 62
7
  6
BYLAYER
 70
0
 71
3
 72
9
 73
5
 74
0
 42
0.0000001
 43
0.0000001
 44
0.0000000001
 40
0.0
 40
0.0
 40
0.0
 40
0.0
 40
0.5209189046
 40
1.0
 40
1.0
 40
1.0
 40
1.0
 10
160.2896071625
 20
97.9595942443
 30
0.0
 10
160.5540503888
 20
98.0027703163
 30
0.0
 10
161.0777180588
 20
98.0197245328
 30
0.0
 10
161.578343332
 20
97.8507115289
 30
0.0
 10
161.7917545545
 20
97.7275012738
 30
0.0
  0
SPLINE
  5
29A
100
AcDbEntity
  8
0
100
AcDbSpline
 62
7
  6
BYLAYER
 70
0
 71
3
 72
12
 73
8
 74
0
 42
0.0000001
 43
0.0000001
 44
0.0000000001
 40
0.0
 40
0.0
 40
0.0
 40
0.0
 40
0.2896513411
 40
0.5611095151
 40
0.6854682474
 40
0.800387727
 40
1.0
 40
1.0
 40
1.0
 40
1.0
 10
156.5166220241
 20
94.1336980273
 30
0.0
 10
156.1842515362
 20
93.5580122596
 30
0.0
 10
155.6361515488
 20
92.3843725901
 30
0.0
 10
155.2395627929
 20
90.8501468035
 30
0.0
 10
155.1459699855
 20
89.6781368931
 30
0.0
 10
155.1967957272
 20
88.6719171627
 30
0.0
 10
155.3949009516
 20
87.9552414987
 30
0.0
 10
155.6164983107
 20
87.5542979947
 30
0.0
  0
SPLINE
  5
29B
100
AcDbEntity
  8
0
100
AcDbSpline
 62
7
  6
BYLAYER
 70
0
 71
3
 72
9
 73
5
 74
0
 42
0.0000001
 43
0.0000001
 44
0.0000000001
 40
0.0
 40
0.0
 40
0.0
 40
0.0
 40
0.5127165294
 40
1.0
 40
1.0
 40
1.0
 40
1.0
 10
155.6164983107
 20
87.5542979947
 30
0.0
 10
155.6949181269
 20
87.4124104017
 30
0.0
 10
155.8719929211
 20
87.1479749573
 30
0.0
 10
156.098409021
 20
86.9235833966
 30
0.0
 10
156.2188504872
 20
86.8274954632
 30
0.0
  0
SPLINE
  5
29C
100
AcDbEntity
  8
0
100
AcDbSpline
 62
7
  6
BYLAYER
 70
0
 71
3
 72
9
 73
5
 74
0
 42
0.0000001
 43
0.0000001
 44
0.0000000001
 40
0.0
 40
0.0
 40
0.0
 40
0.0
 40
0.4872826801
 40
1.0
 40
1.0
 40
1.0
 40
1.0
 10
162.6950232108
 20
98.0446175377
 30
0.0
 10
162.5515726386
 20
98.1008891013
 30
0.0
 10
162.2439998182
 20
98.1847888314
 30
0.0
 10
161.9264163631
 20
98.2059201825
 30
0.0
 10
161.7643089215
 20
98.2028855235
 30
0.0
  0
SPLINE
  5
29D
100
AcDbEntity
  8
0
100
AcDbSpline
 62
7
  6
BYLAYER
 70
0
 71
3
 72
9
 73
5
 74
0
 42
0.0000001
 43
0.0000001
 44
0.0000000001
 40
0.0
 40
0.0
 40
0.0
 40
0.0
 40
0.4584484189
 40
1.0
 40
1.0
 40
1.0
 40
1.0
 10
161.7643089215
 20
98.2028855235
 30
0.0
 10
161.3481893715
 20
98.1950957459
 30
0.0
 10
160.4441552232
 20
97.9798416805
 30
0.0
 10
159.6492645054
 20
97.5234692984
 30
0.0
 10
159.2487181344
 20
97.238393127
 30
0.0
  0
SPLINE
  5
29E
100
AcDbEntity
  8
0
100
AcDbSpline
 62
7
  6
BYLAYER
 70
0
 71
3
 72
9
 73
5
 74
0
 42
0.0000001
 43
0.0000001
 44
0.0000000001
 40
0.0
 40
0.0
 40
0.0
 40
0.0
 40
0.4809382661
 40
1.0
 40
1.0
 40
1.0
 40
1.0
 10
159.2487181344
 20
97.238393127
 30
0.0
 10
158.7055828539
 20
96.8518338233
 30
0.0
 10
157.6835132128
 20
95.894818358
 30
0.0
 10
156.8763685775
 20
94.7568007946
 30
0.0
 10
156.5166220241
 20
94.1336980273
 30
0.0
  0
SPLINE
  5
29F
100
AcDbEntity
  8
0
100
AcDbSpline
 62
7
  6
BYLAYER
 70
0
 71
3
 72
14
 73
10
 74
0
 42
0.0000001
 43
0.0000001
 44
0.0000000001
 40
0.0
 40
0.0
 40
0.0
 40
0.0
 40
0.0926341107
 40
0.1915331501
 40
0.3006269376
 40
0.4216432974
 40
0.554350167
 40
0.6969965016
 40
1.0
 40
1.0
 40
1.0
 40
1.0
 10
156.3113066566
 20
86.1713630736
 30
0.0
 10
156.5497380191
 20
86.0457974796
 30
0.0
 10
157.0909392603
 20
85.8702734171
 30
0.0
 10
157.9765362984
 20
85.8688402835
 30
0.0
 10
158.9115280678
 20
86.1087838557
 30
0.0
 10
159.8656592637
 20
86.57299382
 30
0.0
 10
160.8101972086
 20
87.2420996038
 30
0.0
 10
162.0386839652
 20
88.3968666696
 30
0.0
 10
162.8137115673
 20
89.4552845181
 30
0.0
 10
163.2558054214
 20
90.2178410034
 30
0.0
  0
LINE
  5
2A0
100
AcDbEntity
  8
0
100
AcDbLine
 62
7
  6
BYLAYER
 10
163.2558054214
 20
90.2178410034
 11
163.2665939211
 21
90.2364885105
  0
SPLINE
  5
2A1
100
AcDbEntity
  8
0
100
AcDbSpline
 62
7
  6
BYLAYER
 70
0
 71
3
 72
14
 73
10
 74
0
 42
0.0000001
 43
0.0000001
 44
0.0000000001
 40
0.0
 40
0.0
 40
0.0
 40
0.0
 40
0.3039896197
 40
0.446906318
 40
0.5796059269
 40
0.700330956
 40
0.8089479638
 40
0.9074179486
 40
1.0
 40
1.0
 40
1.0
 40
1.0
 10
163.2665939211
 20
90.2364885105
 30
0.0
 10
163.7144916533
 20
91.0122744458
 30
0.0
 10
164.2523564662
 20
92.232118989
 30
0.0
 10
164.6388574468
 20
93.8996747188
 30
0.0
 10
164.740398422
 20
95.0679574516
 30
0.0
 10
164.6535352674
 20
96.1373097726
 30
0.0
 10
164.3757728234
 20
97.0717493992
 30
0.0
 10
163.9072082864
 20
97.8343839855
 30
0.0
 10
163.4662179911
 20
98.2041990272
 30
0.0
 10
163.2299462397
 20
98.3406075005
 30
0.0
  0
SPLINE
  5
2A2
100
AcDbEntity
  8
0
100
AcDbSpline
 62
7
  6
BYLAYER
 70
0
 71
3
 72
9
 73
5
 74
0
 42
0.0000001
 43
0.0000001
 44
0.0000000001
 40
0.0
 40
0.0
 40
0.0
 40
0.0
 40
0.4867331456
 40
1.0
 40
1.0
 40
1.0
 40
1.0
 10
156.120891412
 20
102.4449293668
 30
0.0
 10
155.9035951656
 20
102.570382575
 30
0.0
 10
155.4130141916
 20
102.7572811965
 30
0.0
 10
154.8914320067
 20
102.7911333298
 30
0.0
 10
154.6272382254
 20
102.7766809381
 30
0.0
  0
SPLINE
  5
2A3
100
AcDbEntity
  8
0
100
AcDbSpline
 62
7
  6
BYLAYER
 70
0
 71
3
 72
10
 73
6
 74
0
 42
0.0000001
 43
0.0000001
 44
0.0000000001
 40
0.0
 40
0.0
 40
0.0
 40
0.0
 40
0.4578965873
 40
0.7190083902
 40
1.0
 40
1.0
 40
1.0
 40
1.0
 10
154.6272382254
 20
102.7766809381
 30
0.0
 10
154.0916934702
 20
102.7473846293
 30
0.0
 10
153.2603004067
 20
102.4977641258
 30
0.0
 10
152.2393270055
 20
101.9236112014
 30
0.0
 10
151.7289431246
 20
101.5415991955
 30
0.0
 10
151.4768516164
 20
101.3299911391
 30
0.0
  0
SPLINE
  5
2A4
100
AcDbEntity
  8
0
100
AcDbSpline
 62
7
  6
BYLAYER
 70
0
 71
3
 72
9
 73
5
 74
0
 42
0.0000001
 43
0.0000001
 44
0.0000000001
 40
0.0
 40
0.0
 40
0.0
 40
0.0
 40
0.4870555967
 40
1.0
 40
1.0
 40
1.0
 40
1.0
 10
151.4768516164
 20
101.3299911391
 30
0.0
 10
151.0071066912
 20
100.9356826941
 30
0.0
 10
150.1246628106
 20
100.0261596503
 30
0.0
 10
149.4073118337
 20
98.9839918929
 30
0.0
 10
149.0843624998
 20
98.4246241332
 30
0.0
  0
SPLINE
  5
2A5
100
AcDbEntity
  8
0
100
AcDbSpline
 62
7
  6
BYLAYER
 70
0
 71
3
 72
10
 73
6
 74
0
 42
0.0000001
 43
0.0000001
 44
0.0000000001
 40
0.0
 40
0.0
 40
0.0
 40
0.0
 40
0.5250093013
 40
0.7714994261
 40
1.0
 40
1.0
 40
1.0
 40
1.0
 10
149.0843624998
 20
98.4246241332
 30
0.0
 10
148.6316371887
 20
97.6404765397
 30
0.0
 10
148.0893930517
 20
96.4068820863
 30
0.0
 10
147.7051466431
 20
94.7220143194
 30
0.0
 10
147.638693476
 20
93.9012328342
 30
0.0
 10
147.6422199175
 20
93.50716636
 30
0.0
  0
SPLINE
  5
2A6
100
AcDbEntity
  8
0
100
AcDbSpline
 62
7
  6
BYLAYER
 70
0
 71
3
 72
9
 73
5
 74
0
 42
0.0000001
 43
0.0000001
 44
0.0000000001
 40
0.0
 40
0.0
 40
0.0
 40
0.0
 40
0.2720296926
 40
1.0
 40
1.0
 40
1.0
 40
1.0
 10
147.6422199175
 20
93.50716636
 30
0.0
 10
147.6439370548
 20
93.3152827784
 30
0.0
 10
147.6809425453
 20
92.6117769063
 30
0.0
 10
147.8547691705
 20
91.9062096247
 30
0.0
 10
148.0868624771
 20
91.4481379547
 30
0.0
  0
SPLINE
  5
2A7
100
AcDbEntity
  8
0
100
AcDbSpline
 62
7
  6
BYLAYER
 70
0
 71
3
 72
9
 73
5
 74
0
 42
0.0000001
 43
0.0000001
 44
0.0000000001
 40
0.0
 40
0.0
 40
0.0
 40
0.0
 40
0.5132663777
 40
1.0
 40
1.0
 40
1.0
 40
1.0
 10
148.0868624771
 20
91.4481379547
 30
0.0
 10
148.2064475924
 20
91.2121184232
 30
0.0
 10
148.4965634736
 20
90.7773522696
 30
0.0
 10
148.9037157032
 20
90.4459573304
 30
0.0
 10
149.1210101812
 20
90.3205051432
 30
0.0
  0
SPLINE
  5
2A8
100
AcDbEntity
  8
0
100
AcDbSpline
 62
7
  6
BYLAYER
 70
0
 71
3
 72
9
 73
5
 74
0
 42
0.0000001
 43
0.0000001
 44
0.0000000001
 40
0.0
 40
0.0
 40
0.0
 40
0.0
 40
0.743120616
 40
1.0
 40
1.0
 40
1.0
 40
1.0
 10
141.6330601091
 20
106.9001197906
 30
0.0
 10
141.6401662262
 20
106.8762833404
 30
0.0
 10
141.654893836
 20
106.8454565337
 30
0.0
 10
141.6749317609
 20
106.8186289234
 30
0.0
 10
141.6803837041
 20
106.8119803898
 30
0.0
  0
SPLINE
  5
2A9
100
AcDbEntity
  8
0
100
AcDbSpline
 62
7
  6
BYLAYER
 70
0
 71
3
 72
9
 73
5
 74
0
 42
0.0000001
 43
0.0000001
 44
0.0000000001
 40
0.0
 40
0.0
 40
0.0
 40
0.0
 40
0.2412567304
 40
1.0
 40
1.0
 40
1.0
 40
1.0
 10
141.6803837041
 20
106.8119803898
 30
0.0
 10
141.6863161563
 20
106.8047458852
 30
0.0
 10
141.7123992529
 20
106.7759941523
 30
0.0
 10
141.7439461125
 20
106.7523799543
 30
0.0
 10
141.7694280262
 20
106.7376682974
 30
0.0
  0
SPLINE
  5
2AA
100
AcDbEntity
  8
0
100
AcDbSpline
 62
7
  6
BYLAYER
 70
0
 71
3
 72
9
 73
5
 74
0
 42
0.0000001
 43
0.0000001
 44
0.0000000001
 40
0.0
 40
0.0
 40
0.0
 40
0.0
 40
0.2393348726
 40
1.0
 40
1.0
 40
1.0
 40
1.0
 10
140.7071161533
 20
108.3089347477
 30
0.0
 10
140.5737159212
 20
108.2196947441
 30
0.0
 10
140.0289053035
 20
107.8281416618
 30
0.0
 10
139.5341073811
 20
107.3689107606
 30
0.0
 10
139.1870404131
 20
106.9950837716
 30
0.0
  0
SPLINE
  5
2AB
100
AcDbEntity
  8
0
100
AcDbSpline
 62
7
  6
BYLAYER
 70
0
 71
3
 72
11
 73
7
 74
0
 42
0.0000001
 43
0.0000001
 44
0.0000000001
 40
0.0
 40
0.0
 40
0.0
 40
0.0
 40
0.2177651606
 40
0.4508956102
 40
0.7103690052
 40
1.0
 40
1.0
 40
1.0
 40
1.0
 10
21.8535957546
 20
168.4733009893
 30
0.0
 10
21.7563155584
 20
168.5295160042
 30
0.0
 10
21.5741530132
 20
168.6824256495
 30
0.0
 10
21.3803503064
 20
168.9994449139
 30
0.0
 10
21.2652980874
 20
169.3900185058
 30
0.0
 10
21.2425833236
 20
169.6742832957
 30
0.0
 10
21.2425833236
 20
169.8237166817
 30
0.0
  0
SPLINE
  5
2AC
100
AcDbEntity
  8
0
100
AcDbSpline
 62
7
  6
BYLAYER
 70
0
 71
3
 72
9
 73
5
 74
0
 42
0.0000001
 43
0.0000001
 44
0.0000000001
 40
0.0
 40
0.0
 40
0.0
 40
0.0
 40
0.230420773
 40
1.0
 40
1.0
 40
1.0
 40
1.0
 10
131.5555431129
 20
112.9581650876
 30
0.0
 10
131.5264448153
 20
112.9413447134
 30
0.0
 10
131.3976416209
 20
112.8727203037
 30
0.0
 10
131.2612956079
 20
112.8189379888
 30
0.0
 10
131.1547333211
 20
112.7836479217
 30
0.0
  0
SPLINE
  5
2AD
100
AcDbEntity
  8
0
100
AcDbSpline
 62
7
  6
BYLAYER
 70
0
 71
3
 72
11
 73
7
 74
0
 42
0.0000001
 43
0.0000001
 44
0.0000000001
 40
0.0
 40
0.0
 40
0.0
 40
0.0
 40
0.2813942907
 40
0.5496319306
 40
0.7912049585
 40
1.0
 40
1.0
 40
1.0
 40
1.0
 10
131.1547333211
 20
112.7836479217
 30
0.0
 10
131.0256367888
 20
112.7408952235
 30
0.0
 10
130.7673474147
 20
112.6750295168
 30
0.0
 10
130.3863016132
 20
112.6301738689
 30
0.0
 10
130.0377843994
 20
112.6442555107
 30
0.0
 10
129.8241717698
 20
112.7010640737
 30
0.0
 10
129.7327576856
 20
112.7437897285
 30
0.0
  0
SPLINE
  5
2AE
100
AcDbEntity
  8
0
100
AcDbSpline
 62
7
  6
BYLAYER
 70
0
 71
3
 72
9
 73
5
 74
0
 42
0.0000001
 43
0.0000001
 44
0.0000000001
 40
0.0
 40
0.0
 40
0.0
 40
0.0
 40
0.252738434
 40
1.0
 40
1.0
 40
1.0
 40
1.0
 10
128.7378795691
 20
103.8927146878
 30
0.0
 10
128.767347519
 20
103.8634923275
 30
0.0
 10
128.8875480243
 20
103.7515708078
 30
0.0
 10
129.0224797415
 20
103.6554092173
 30
0.0
 10
129.1291062319
 20
103.5946892556
 30
0.0
  0
SPLINE
  5
2AF
100
AcDbEntity
  8
0
100
AcDbSpline
 62
7
  6
BYLAYER
 70
0
 71
3
 72
9
 73
5
 74
0
 42
0.0000001
 43
0.0000001
 44
0.0000000001
 40
0.0
 40
0.0
 40
0.0
 40
0.0
 40
0.485104682
 40
1.0
 40
1.0
 40
1.0
 40
1.0
 10
129.1291062319
 20
103.5946892556
 30
0.0
 10
129.2960888113
 20
103.4995986661
 30
0.0
 10
129.6738957838
 20
103.3582010488
 30
0.0
 10
130.0748180151
 20
103.3346755679
 30
0.0
 10
130.2784207235
 20
103.3467514712
 30
0.0
  0
SPLINE
  5
2B0
100
AcDbEntity
  8
0
100
AcDbSpline
 62
7
  6
BYLAYER
 70
0
 71
3
 72
11
 73
7
 74
0
 42
0.0000001
 43
0.0000001
 44
0.0000000001
 40
0.0
 40
0.0
 40
0.0
 40
0.0
 40
0.2195932072
 40
0.456738688
 40
0.7165176827
 40
1.0
 40
1.0
 40
1.0
 40
1.0
 10
126.6866593684
 20
105.9262616155
 30
0.0
 10
126.5784258225
 20
106.0335307408
 30
0.0
 10
126.3831950662
 20
106.2881864474
 30
0.0
 10
126.1787912429
 20
106.7453365982
 30
0.0
 10
126.0567895149
 20
107.2758261935
 30
0.0
 10
126.0319757721
 20
107.6535730631
 30
0.0
 10
126.0319757721
 20
107.8502933192
 30
0.0
  0
SPLINE
  5
2B1
100
AcDbEntity
  8
0
100
AcDbSpline
 62
7
  6
BYLAYER
 70
0
 71
3
 72
11
 73
7
 74
0
 42
0.0000001
 43
0.0000001
 44
0.0000000001
 40
0.0
 40
0.0
 40
0.0
 40
0.0
 40
0.2752250288
 40
0.5297225379
 40
0.768850674
 40
1.0
 40
1.0
 40
1.0
 40
1.0
 10
140.991593825
 20
97.6675827913
 30
0.0
 10
141.0045332
 20
97.3534435138
 30
0.0
 10
141.0783794038
 20
96.74878614
 30
0.0
 10
141.3645569921
 20
95.9103650633
 30
0.0
 10
141.8262794503
 20
95.2106951911
 30
0.0
 10
142.2506082342
 20
94.8643908255
 30
0.0
 10
142.4792882092
 20
94.7323653672
 30
0.0
  0
SPLINE
  5
2B2
100
AcDbEntity
  8
0
100
AcDbSpline
 62
7
  6
BYLAYER
 70
0
 71
3
 72
10
 73
6
 74
0
 42
0.0000001
 43
0.0000001
 44
0.0000000001
 40
0.0
 40
0.0
 40
0.0
 40
0.0
 40
0.5143848755
 40
0.7641035951
 40
1.0
 40
1.0
 40
1.0
 40
1.0
 10
143.0116163737
 20
103.4268694728
 30
0.0
 10
142.4630369919
 20
102.6970105785
 30
0.0
 10
141.7824612923
 20
101.5011178359
 30
0.0
 10
141.2146756126
 20
99.815910362
 30
0.0
 10
141.0578178471
 20
98.9638497985
 30
0.0
 10
141.0178297458
 20
98.5470465599
 30
0.0
  0
SPLINE
  5
2B3
100
AcDbEntity
  8
0
100
AcDbSpline
 62
7
  6
BYLAYER
 70
0
 71
3
 72
9
 73
5
 74
0
 42
0.0000001
 43
0.0000001
 44
0.0000000001
 40
0.0
 40
0.0
 40
0.0
 40
0.0
 40
0.2546000703
 40
1.0
 40
1.0
 40
1.0
 40
1.0
 10
141.0178297458
 20
98.5470465599
 30
0.0
 10
141.0126762469
 20
98.4933307048
 30
0.0
 10
140.9948099439
 20
98.2821322177
 30
0.0
 10
140.9866100431
 20
98.0700849705
 30
0.0
 10
140.9866100431
 20
97.912097405
 30
0.0
  0
SPLINE
  5
2B4
100
AcDbEntity
  8
0
100
AcDbSpline
 62
7
  6
BYLAYER
 70
0
 71
3
 72
9
 73
5
 74
0
 42
0.0000001
 43
0.0000001
 44
0.0000000001
 40
0.0
 40
0.0
 40
0.0
 40
0.0
 40
0.249019715
 40
1.0
 40
1.0
 40
1.0
 40
1.0
 10
148.9791779235
 20
105.9907592892
 30
0.0
 10
148.9164060734
 20
106.0269998139
 30
0.0
 10
148.658118136
 20
106.1616168504
 30
0.0
 10
148.3764293821
 20
106.2503327757
 30
0.0
 10
148.1615501724
 20
106.2904290523
 30
0.0
  0
SPLINE
  5
2B5
100
AcDbEntity
  8
0
100
AcDbSpline
 62
7
  6
BYLAYER
 70
0
 71
3
 72
17
 73
13
 74
0
 42
0.0000001
 43
0.0000001
 44
0.0000000001
 40
0.0
 40
0.0
 40
0.0
 40
0.0
 40
0.0428676232
 40
0.0876463279
 40
0.135704378
 40
0.1879139097
 40
0.3055674642
 40
0.4393634127
 40
0.5835658822
 40
0.7304044158
 40
0.8716158297
 40
1.0
 40
1.0
 40
1.0
 40
1.0
 10
135.1909303712
 20
100.3265698281
 30
0.0
 10
135.0628096821
 20
100.4050711048
 30
0.0
 10
134.8206126222
 20
100.600248055
 30
0.0
 10
134.5313326189
 20
100.9828613534
 30
0.0
 10
134.3164733764
 20
101.4473838995
 30
0.0
 10
134.1265449709
 20
102.1907747337
 30
0.0
 10
134.1107877139
 20
103.2691019277
 30
0.0
 10
134.397122801
 20
104.6341924879
 30
0.0
 10
134.9630215499
 20
106.0197339871
 30
0.0
 10
135.76375095
 20
107.3143444174
 30
0.0
 10
136.7338143671
 20
108.4141662001
 30
0.0
 10
137.4905975823
 20
108.9954953335
 30
0.0
 10
137.8803151172
 20
109.2204975142
 30
0.0
  0
SPLINE
  5
2B6
100
AcDbEntity
  8
0
100
AcDbSpline
 62
7
  6
BYLAYER
 70
0
 71
3
 72
9
 73
5
 74
0
 42
0.0000001
 43
0.0000001
 44
0.0000000001
 40
0.0
 40
0.0
 40
0.0
 40
0.0
 40
0.2389116423
 40
1.0
 40
1.0
 40
1.0
 40
1.0
 10
151.0375477192
 20
103.9075484347
 30
0.0
 10
151.0375488158
 20
103.9006380452
 30
0.0
 10
151.0346225709
 20
103.8716513382
 30
0.0
 10
151.018746627
 20
103.845119255
 30
0.0
 10
151.0038387893
 20
103.8289212444
 30
0.0
  0
SPLINE
  5
2B7
100
AcDbEntity
  8
0
100
AcDbSpline
 62
7
  6
BYLAYER
 70
0
 71
3
 72
9
 73
5
 74
0
 42
0.0000001
 43
0.0000001
 44
0.0000000001
 40
0.0
 40
0.0
 40
0.0
 40
0.0
 40
0.2358886203
 40
1.0
 40
1.0
 40
1.0
 40
1.0
 10
151.0038387893
 20
103.8289212444
 30
0.0
 10
151.0012521875
 20
103.8261107896
 30
0.0
 10
150.9898803197
 20
103.8145709733
 30
0.0
 10
150.9770754406
 20
103.8044964677
 30
0.0
 10
150.9668663431
 20
103.7975065945
 30
0.0
  0
SPLINE
  5
2B8
100
AcDbEntity
  8
0
100
AcDbSpline
 62
7
  6
BYLAYER
 70
0
 71
3
 72
9
 73
5
 74
0
 42
0.0000001
 43
0.0000001
 44
0.0000000001
 40
0.0
 40
0.0
 40
0.0
 40
0.0
 40
0.2319974924
 40
1.0
 40
1.0
 40
1.0
 40
1.0
 10
150.9668663431
 20
103.7975065945
 30
0.0
 10
150.9614270166
 20
103.7937824453
 30
0.0
 10
150.9374023499
 20
103.7785766768
 30
0.0
 10
150.911471817
 20
103.7665232179
 30
0.0
 10
150.8911275832
 20
103.7586283956
 30
0.0
  0
SPLINE
  5
2B9
100
AcDbEntity
  8
0
100
AcDbSpline
 62
7
  6
BYLAYER
 70
0
 71
3
 72
8
 73
4
 74
0
 42
0.0000001
 43
0.0000001
 44
0.0000000001
 40
0.0
 40
0.0
 40
0.0
 40
0.0
 40
1.0
 40
1.0
 40
1.0
 40
1.0
 10
140.7735539992
 20
108.4114976655
 30
0.0
 10
140.7601813559
 20
108.4025597636
 30
0.0
 10
140.748423433
 20
108.3908978178
 30
0.0
 10
140.7388438749
 20
108.3779770693
 30
0.0
  0
SPLINE
  5
2BA
100
AcDbEntity
  8
0
100
AcDbSpline
 62
7
  6
BYLAYER
 70
0
 71
3
 72
8
 73
4
 74
0
 42
0.0000001
 43
0.0000001
 44
0.0000000001
 40
0.0
 40
0.0
 40
0.0
 40
0.0
 40
1.0
 40
1.0
 40
1.0
 40
1.0
 10
140.7388438749
 20
108.3779770693
 30
0.0
 10
140.7292015821
 20
108.3649717052
 30
0.0
 10
140.7214607396
 20
108.3504447579
 30
0.0
 10
140.7154531507
 20
108.3354107238
 30
0.0
  0
SPLINE
  5
2BB
100
AcDbEntity
  8
0
100
AcDbSpline
 62
7
  6
BYLAYER
 70
0
 71
3
 72
8
 73
4
 74
0
 42
0.0000001
 43
0.0000001
 44
0.0000000001
 40
0.0
 40
0.0
 40
0.0
 40
0.0
 40
1.0
 40
1.0
 40
1.0
 40
1.0
 10
140.7154531507
 20
108.3354107238
 30
0.0
 10
140.7119433686
 20
108.326627469
 30
0.0
 10
140.7089934108
 20
108.3176053125
 30
0.0
 10
140.7065527201
 20
108.308467087
 30
0.0
  0
SPLINE
  5
2BC
100
AcDbEntity
  8
0
100
AcDbSpline
 62
7
  6
BYLAYER
 70
0
 71
3
 72
9
 73
5
 74
0
 42
0.0000001
 43
0.0000001
 44
0.0000000001
 40
0.0
 40
0.0
 40
0.0
 40
0.0
 40
0.7373925331
 40
1.0
 40
1.0
 40
1.0
 40
1.0
 10
141.4952043498
 20
108.8282616895
 30
0.0
 10
141.5114957277
 20
108.8363385253
 30
0.0
 10
141.5362271968
 20
108.842516518
 30
0.0
 10
141.5608804229
 20
108.8428408229
 30
0.0
 10
141.567351292
 20
108.8425899202
 30
0.0
  0
SPLINE
  5
2BD
100
AcDbEntity
  8
0
100
AcDbSpline
 62
7
  6
BYLAYER
 70
0
 71
3
 72
9
 73
5
 74
0
 42
0.0000001
 43
0.0000001
 44
0.0000000001
 40
0.0
 40
0.0
 40
0.0
 40
0.0
 40
0.2367576584
 40
1.0
 40
1.0
 40
1.0
 40
1.0
 10
141.567351292
 20
108.8425899202
 30
0.0
 10
141.5731285867
 20
108.8423659103
 30
0.0
 10
141.597483989
 20
108.8402592179
 30
0.0
 10
141.6213608567
 20
108.8338514378
 30
0.0
 10
141.6388197404
 20
108.8273262409
 30
0.0
  0
SPLINE
  5
2BE
100
AcDbEntity
  8
0
100
AcDbSpline
 62
7
  6
BYLAYER
 70
0
 71
3
 72
8
 73
4
 74
0
 42
0.0000001
 43
0.0000001
 44
0.0000000001
 40
0.0
 40
0.0
 40
0.0
 40
0.0
 40
1.0
 40
1.0
 40
1.0
 40
1.0
 10
141.6388197404
 20
108.8273262409
 30
0.0
 10
141.6555817837
 20
108.8210614856
 30
0.0
 10
141.6718062592
 20
108.8132244791
 30
0.0
 10
141.6873034414
 20
108.8042773791
 30
0.0
  0
SPLINE
  5
2BF
100
AcDbEntity
  8
0
100
AcDbSpline
 62
7
  6
BYLAYER
 70
0
 71
3
 72
9
 73
5
 74
0
 42
0.0000001
 43
0.0000001
 44
0.0000000001
 40
0.0
 40
0.0
 40
0.0
 40
0.0
 40
0.2398827527
 40
1.0
 40
1.0
 40
1.0
 40
1.0
 10
143.067842264
 20
109.2019495993
 30
0.0
 10
142.9814230012
 20
109.196348259
 30
0.0
 10
142.6221086749
 20
109.1588425828
 30
0.0
 10
142.2693817565
 20
109.0674914707
 30
0.0
 10
142.0106275585
 20
108.9761241282
 30
0.0
  0
SPLINE
  5
2C0
100
AcDbEntity
  8
0
100
AcDbSpline
 62
7
  6
BYLAYER
 70
0
 71
3
 72
9
 73
5
 74
0
 42
0.0000001
 43
0.0000001
 44
0.0000000001
 40
0.0
 40
0.0
 40
0.0
 40
0.0
 40
0.489076591
 40
1.0
 40
1.0
 40
1.0
 40
1.0
 10
139.2428488714
 20
96.7831395597
 30
0.0
 10
139.2065983954
 20
96.8040683083
 30
0.0
 10
139.1472097504
 20
96.8708364323
 30
0.0
 10
139.1143569532
 20
96.9516080667
 30
0.0
 10
139.1062644143
 20
96.994580712
 30
0.0
  0
SPLINE
  5
2C1
100
AcDbEntity
  8
0
100
AcDbSpline
 62
7
  6
BYLAYER
 70
0
 71
3
 72
11
 73
7
 74
0
 42
0.0000001
 43
0.0000001
 44
0.0000000001
 40
0.0
 40
0.0
 40
0.0
 40
0.0
 40
0.2889097226
 40
0.5484439971
 40
0.7822307657
 40
1.0
 40
1.0
 40
1.0
 40
1.0
 10
137.8803151172
 20
109.2204975142
 30
0.0
 10
138.1061430118
 20
109.3508785316
 30
0.0
 10
138.5554085372
 20
109.5658789339
 30
0.0
 10
139.2456753777
 20
109.7397225262
 30
0.0
 10
139.8954309167
 20
109.7371885379
 30
0.0
 10
140.2913849911
 20
109.6096616216
 30
0.0
 10
140.4655498248
 20
109.5185580013
 30
0.0
  0
SPLINE
  5
2C2
100
AcDbEntity
  8
0
100
AcDbSpline
 62
7
  6
BYLAYER
 70
0
 71
3
 72
9
 73
5
 74
0
 42
0.0000001
 43
0.0000001
 44
0.0000000001
 40
0.0
 40
0.0
 40
0.0
 40
0.0
 40
0.5166045037
 40
1.0
 40
1.0
 40
1.0
 40
1.0
 10
135.4568744405
 20
112.1692941683
 30
0.0
 10
135.3679141035
 20
112.3631316606
 30
0.0
 10
135.1493834209
 20
112.7202666683
 30
0.0
 10
134.8320859353
 20
112.9967968538
 30
0.0
 10
134.6619693707
 20
113.101138335
 30
0.0
  0
SPLINE
  5
2C3
100
AcDbEntity
  8
0
100
AcDbSpline
 62
7
  6
BYLAYER
 70
0
 71
3
 72
9
 73
5
 74
0
 42
0.0000001
 43
0.0000001
 44
0.0000000001
 40
0.0
 40
0.0
 40
0.0
 40
0.0
 40
0.248666558
 40
1.0
 40
1.0
 40
1.0
 40
1.0
 10
134.6619693707
 20
113.101138335
 30
0.0
 10
134.6244544301
 20
113.1241482311
 30
0.0
 10
134.4703094191
 20
113.2112547934
 30
0.0
 10
134.3035445145
 20
113.2757666739
 30
0.0
 10
134.1752571267
 20
113.3107514631
 30
0.0
  0
SPLINE
  5
2C4
100
AcDbEntity
  8
0
100
AcDbSpline
 62
7
  6
BYLAYER
 70
0
 71
3
 72
11
 73
7
 74
0
 42
0.0000001
 43
0.0000001
 44
0.0000000001
 40
0.0
 40
0.0
 40
0.0
 40
0.0
 40
0.2366343877
 40
0.4987141605
 40
0.7615041215
 40
1.0
 40
1.0
 40
1.0
 40
1.0
 10
126.0319757721
 20
107.8502933192
 30
0.0
 10
126.0319757721
 20
108.3938669943
 30
0.0
 10
126.2331671153
 20
109.5402533301
 30
0.0
 10
126.9369436209
 20
111.1555276437
 30
0.0
 10
127.9698726825
 20
112.5882284904
 30
0.0
 10
128.8555699848
 20
113.3516282972
 30
0.0
 10
129.3250444714
 20
113.6339986452
 30
0.0
  0
SPLINE
  5
2C5
100
AcDbEntity
  8
0
100
AcDbSpline
 62
7
  6
BYLAYER
 70
0
 71
3
 72
9
 73
5
 74
0
 42
0.0000001
 43
0.0000001
 44
0.0000000001
 40
0.0
 40
0.0
 40
0.0
 40
0.0
 40
0.2558986453
 40
1.0
 40
1.0
 40
1.0
 40
1.0
 10
129.4580267166
 20
113.7109316389
 30
0.0
 10
129.490595138
 20
113.7290263183
 30
0.0
 10
129.6187668507
 20
113.7980947227
 30
0.0
 10
129.7505836732
 20
113.8604624529
 30
0.0
 10
129.8504853894
 20
113.9023741711
 30
0.0
  0
SPLINE
  5
2C6
100
AcDbEntity
  8
0
100
AcDbSpline
 62
7
  6
BYLAYER
 70
0
 71
3
 72
9
 73
5
 74
0
 42
0.0000001
 43
0.0000001
 44
0.0000000001
 40
0.0
 40
0.0
 40
0.0
 40
0.0
 40
0.2716021232
 40
1.0
 40
1.0
 40
1.0
 40
1.0
 10
129.8504853894
 20
113.9023741711
 30
0.0
 10
129.9535090986
 20
113.9455956575
 30
0.0
 10
130.3391932442
 20
114.0872022807
 30
0.0
 10
130.7588813179
 20
114.1510734809
 30
0.0
 10
131.0575670254
 20
114.1273738799
 30
0.0
  0
SPLINE
  5
2C7
100
AcDbEntity
  8
0
100
AcDbSpline
 62
7
  6
BYLAYER
 70
0
 71
3
 72
9
 73
5
 74
0
 42
0.0000001
 43
0.0000001
 44
0.0000000001
 40
0.0
 40
0.0
 40
0.0
 40
0.0
 40
0.2544130479
 40
1.0
 40
1.0
 40
1.0
 40
1.0
 10
131.0575670254
 20
114.1273738799
 30
0.0
 10
131.0859811847
 20
114.125119322
 30
0.0
 10
131.1974506565
 20
114.1137789815
 30
0.0
 10
131.3079272016
 20
114.0922799785
 30
0.0
 10
131.3885187016
 20
114.0703090073
 30
0.0
  0
SPLINE
  5
2C8
100
AcDbEntity
  8
0
100
AcDbSpline
 62
7
  6
BYLAYER
 70
0
 71
3
 72
16
 73
12
 74
0
 42
0.0000001
 43
0.0000001
 44
0.0000000001
 40
0.0
 40
0.0
 40
0.0
 40
0.0
 40
0.1287450452
 40
0.2703977788
 40
0.4176140475
 40
0.562018456
 40
0.6957487187
 40
0.8130635968
 40
0.9124710976
 40
0.9571206415
 40
1.0
 40
1.0
 40
1.0
 40
1.0
 10
21.2425833236
 20
169.8237166817
 30
0.0
 10
21.2425833236
 20
170.0758673107
 30
0.0
 10
21.3131298649
 20
170.6060530133
 30
0.0
 10
21.5763853864
 20
171.3845094947
 30
0.0
 10
21.982168881
 20
172.1344209133
 30
0.0
 10
22.497401761
 20
172.7942272969
 30
0.0
 10
23.0815048308
 20
173.3108952359
 30
0.0
 10
23.6891761443
 20
173.6442282553
 30
0.0
 10
24.2050321747
 20
173.7449647549
 30
0.0
 10
24.5704372443
 20
173.6914096808
 30
0.0
 10
24.7307706688
 20
173.6247912462
 30
0.0
 10
24.8034835322
 20
173.5827728821
 30
0.0
  0
SPLINE
  5
2C9
100
AcDbEntity
  8
0
100
AcDbSpline
 62
7
  6
BYLAYER
 70
0
 71
3
 72
9
 73
5
 74
0
 42
0.0000001
 43
0.0000001
 44
0.0000000001
 40
0.0
 40
0.0
 40
0.0
 40
0.0
 40
0.4584719697
 40
1.0
 40
1.0
 40
1.0
 40
1.0
 10
160.1399580327
 20
90.6723756388
 30
0.0
 10
160.1186930576
 20
90.7517387161
 30
0.0
 10
160.114394744
 20
90.9356634161
 30
0.0
 10
160.1613962581
 20
91.1103292274
 30
0.0
 10
160.1965280456
 20
91.200794099
 30
0.0
  0
SPLINE
  5
2CA
100
AcDbEntity
  8
0
100
AcDbSpline
 62
7
  6
BYLAYER
 70
0
 71
3
 72
9
 73
5
 74
0
 42
0.0000001
 43
0.0000001
 44
0.0000000001
 40
0.0
 40
0.0
 40
0.0
 40
0.0
 40
0.2575479112
 40
1.0
 40
1.0
 40
1.0
 40
1.0
 10
160.3087358078
 20
91.4251766233
 30
0.0
 10
160.3249923139
 20
91.4514145282
 30
0.0
 10
160.3915300382
 20
91.5510908068
 30
0.0
 10
160.4714108085
 20
91.642190672
 30
0.0
 10
160.5378252484
 20
91.7014058171
 30
0.0
  0
SPLINE
  5
2CB
100
AcDbEntity
  8
0
100
AcDbSpline
 62
7
  6
BYLAYER
 70
0
 71
3
 72
11
 73
7
 74
0
 42
0.0000001
 43
0.0000001
 44
0.0000000001
 40
0.0
 40
0.0
 40
0.0
 40
0.0
 40
0.2993547736
 40
0.5646552483
 40
0.7951806026
 40
1.0
 40
1.0
 40
1.0
 40
1.0
 10
160.5378252484
 20
91.7014058171
 30
0.0
 10
160.5806289151
 20
91.739569586
 30
0.0
 10
160.6674215246
 20
91.8053100142
 30
0.0
 10
160.8062490439
 20
91.8711747533
 30
0.0
 10
160.9404641713
 20
91.895013459
 30
0.0
 10
161.0249563461
 20
91.8785438915
 30
0.0
 10
161.0608405526
 20
91.8626744078
 30
0.0
  0
SPLINE
  5
2CC
100
AcDbEntity
  8
0
100
AcDbSpline
 62
7
  6
BYLAYER
 70
0
 71
3
 72
10
 73
6
 74
0
 42
0.0000001
 43
0.0000001
 44
0.0000000001
 40
0.0
 40
0.0
 40
0.0
 40
0.0
 40
0.4856190234
 40
0.7508715312
 40
1.0
 40
1.0
 40
1.0
 40
1.0
 10
148.6283923601
 20
102.7777329785
 30
0.0
 10
148.7323233782
 20
102.7177297347
 30
0.0
 10
148.9341697951
 20
102.6989743849
 30
0.0
 10
149.1727735006
 20
102.7616366171
 30
0.0
 10
149.2866392803
 20
102.8230337373
 30
0.0
 10
149.3354991413
 20
102.8604912572
 30
0.0
  0
SPLINE
  5
2CD
100
AcDbEntity
  8
0
100
AcDbSpline
 62
7
  6
BYLAYER
 70
0
 71
3
 72
9
 73
5
 74
0
 42
0.0000001
 43
0.0000001
 44
0.0000000001
 40
0.0
 40
0.0
 40
0.0
 40
0.0
 40
0.2549675061
 40
1.0
 40
1.0
 40
1.0
 40
1.0
 10
158.3577236232
 20
91.7073386489
 30
0.0
 10
158.3688080167
 20
91.7220501508
 30
0.0
 10
158.4135105018
 20
91.7788071743
 30
0.0
 10
158.4630208524
 20
91.8318277925
 30
0.0
 10
158.5025003661
 20
91.8684120486
 30
0.0
  0
SPLINE
  5
2CE
100
AcDbEntity
  8
0
100
AcDbSpline
 62
7
  6
BYLAYER
 70
0
 71
3
 72
11
 73
7
 74
0
 42
0.0000001
 43
0.0000001
 44
0.0000000001
 40
0.0
 40
0.0
 40
0.0
 40
0.0
 40
0.3005614078
 40
0.5662682238
 40
0.7963656223
 40
1.0
 40
1.0
 40
1.0
 40
1.0
 10
158.5025003661
 20
91.8684120486
 30
0.0
 10
158.5461924922
 20
91.9088999821
 30
0.0
 10
158.6349804106
 20
91.9787597116
 30
0.0
 10
158.7777073168
 20
92.0493791428
 30
0.0
 10
158.9160215293
 20
92.0758370584
 30
0.0
 10
159.0033781172
 20
92.0594892624
 30
0.0
 10
159.0402713884
 20
92.0431298264
 30
0.0
  0
SPLINE
  5
2CF
100
AcDbEntity
  8
0
100
AcDbSpline
 62
7
  6
BYLAYER
 70
0
 71
3
 72
9
 73
5
 74
0
 42
0.0000001
 43
0.0000001
 44
0.0000000001
 40
0.0
 40
0.0
 40
0.0
 40
0.0
 40
0.4861435826
 40
1.0
 40
1.0
 40
1.0
 40
1.0
 10
160.5502484306
 20
89.4478695998
 30
0.0
 10
160.7858475263
 20
89.6405900127
 30
0.0
 10
161.2323007752
 20
90.0847160136
 30
0.0
 10
161.602209731
 20
90.5931520836
 30
0.0
 10
161.7717185429
 20
90.8666092431
 30
0.0
  0
SPLINE
  5
2D0
100
AcDbEntity
  8
0
100
AcDbSpline
 62
7
  6
BYLAYER
 70
0
 71
3
 72
9
 73
5
 74
0
 42
0.0000001
 43
0.0000001
 44
0.0000000001
 40
0.0
 40
0.0
 40
0.0
 40
0.0
 40
0.2560842537
 40
1.0
 40
1.0
 40
1.0
 40
1.0
 10
161.8794988803
 20
91.0470015543
 30
0.0
 10
161.9520234271
 20
91.1730070869
 30
0.0
 10
162.2184731477
 20
91.6743504487
 30
0.0
 10
162.4188673172
 20
92.212038236
 30
0.0
 10
162.5181459511
 20
92.6225462454
 30
0.0
  0
SPLINE
  5
2D1
100
AcDbEntity
  8
0
100
AcDbSpline
 62
7
  6
BYLAYER
 70
0
 71
3
 72
9
 73
5
 74
0
 42
0.0000001
 43
0.0000001
 44
0.0000000001
 40
0.0
 40
0.0
 40
0.0
 40
0.0
 40
0.5335820891
 40
1.0
 40
1.0
 40
1.0
 40
1.0
 10
162.942641064
 20
92.8676271502
 30
0.0
 10
163.0121030595
 20
93.1967170918
 30
0.0
 10
163.0895986944
 20
93.8265230367
 30
0.0
 10
163.0216758334
 20
94.4624008041
 30
0.0
 10
162.942641064
 20
94.7455827096
 30
0.0
  0
SPLINE
  5
2D2
100
AcDbEntity
  8
0
100
AcDbSpline
 62
7
  6
BYLAYER
 70
0
 71
3
 72
9
 73
5
 74
0
 42
0.0000001
 43
0.0000001
 44
0.0000000001
 40
0.0
 40
0.0
 40
0.0
 40
0.0
 40
0.5234201491
 40
1.0
 40
1.0
 40
1.0
 40
1.0
 10
162.5181459511
 20
94.5005018048
 30
0.0
 10
162.458415555
 20
94.6785111838
 30
0.0
 10
162.2973651556
 20
95.0071666346
 30
0.0
 10
162.0233756755
 20
95.2555844723
 30
0.0
 10
161.8753151034
 20
95.3410571842
 30
0.0
  0
SPLINE
  5
2D3
100
AcDbEntity
  8
0
100
AcDbSpline
 62
7
  6
BYLAYER
 70
0
 71
3
 72
9
 73
5
 74
0
 42
0.0000001
 43
0.0000001
 44
0.0000000001
 40
0.0
 40
0.0
 40
0.0
 40
0.0
 40
0.2411079733
 40
1.0
 40
1.0
 40
1.0
 40
1.0
 10
159.475450598
 20
88.3491468089
 30
0.0
 10
159.5203166378
 20
88.3657469523
 30
0.0
 10
159.7047667282
 20
88.4389817556
 30
0.0
 10
159.8824494968
 20
88.5288526574
 30
0.0
 10
160.0128495143
 20
88.6041386932
 30
0.0
  0
SPLINE
  5
2D4
100
AcDbEntity
  8
0
100
AcDbSpline
 62
7
  6
BYLAYER
 70
0
 71
3
 72
9
 73
5
 74
0
 42
0.0000001
 43
0.0000001
 44
0.0000000001
 40
0.0
 40
0.0
 40
0.0
 40
0.0
 40
0.242460701
 40
1.0
 40
1.0
 40
1.0
 40
1.0
 10
160.0128495143
 20
88.6041386932
 30
0.0
 10
160.0583619097
 20
88.6304151301
 30
0.0
 10
160.2439564091
 20
88.7424361613
 30
0.0
 10
160.4210745925
 20
88.8683151942
 30
0.0
 10
160.5502484306
 20
88.9696779227
 30
0.0
  0
SPLINE
  5
2D5
100
AcDbEntity
  8
0
100
AcDbSpline
 62
7
  6
BYLAYER
 70
0
 71
3
 72
11
 73
7
 74
0
 42
0.0000001
 43
0.0000001
 44
0.0000000001
 40
0.0
 40
0.0
 40
0.0
 40
0.0
 40
0.2897773381
 40
0.5490784112
 40
0.7822418864
 40
1.0
 40
1.0
 40
1.0
 40
1.0
 10
146.7192249531
 20
94.4828733673
 30
0.0
 10
146.7192249531
 20
94.1534435989
 30
0.0
 10
146.7690503503
 20
93.5270933856
 30
0.0
 10
147.022864942
 20
92.6665387253
 30
0.0
 10
147.4499111497
 20
91.968324563
 30
0.0
 10
147.8510701612
 20
91.6310491437
 30
0.0
 10
148.0654583593
 20
91.5072691806
 30
0.0
  0
SPLINE
  5
2D6
100
AcDbEntity
  8
0
100
AcDbSpline
 62
7
  6
BYLAYER
 70
0
 71
3
 72
11
 73
7
 74
0
 42
0.0000001
 43
0.0000001
 44
0.0000000001
 40
0.0
 40
0.0
 40
0.0
 40
0.0
 40
0.2177753893
 40
0.4509143241
 40
0.7102712918
 40
1.0
 40
1.0
 40
1.0
 40
1.0
 10
161.8753151034
 20
95.3410571842
 30
0.0
 10
161.7524457838
 20
95.4119874379
 30
0.0
 10
161.4701163605
 20
95.5143956515
 30
0.0
 10
161.0012206584
 20
95.5263230747
 30
0.0
 10
160.5014489865
 20
95.4056378967
 30
0.0
 10
160.1763104594
 20
95.250944248
 30
0.0
 10
160.0128495143
 20
95.1565705907
 30
0.0
  0
SPLINE
  5
2D7
100
AcDbEntity
  8
0
100
AcDbSpline
 62
7
  6
BYLAYER
 70
0
 71
3
 72
11
 73
7
 74
0
 42
0.0000001
 43
0.0000001
 44
0.0000000001
 40
0.0
 40
0.0
 40
0.0
 40
0.0
 40
0.2585443555
 40
0.5202493872
 40
0.7713824046
 40
1.0
 40
1.0
 40
1.0
 40
1.0
 10
149.3708643425
 20
100.8226693325
 30
0.0
 10
148.9681943372
 20
100.3730841196
 30
0.0
 10
148.2379005346
 20
99.3943061725
 30
0.0
 10
147.4025059463
 20
97.7905562822
 30
0.0
 10
146.8627019091
 20
96.1377647483
 30
0.0
 10
146.7192249531
 20
95.0165599602
 30
0.0
 10
146.7192249531
 20
94.4828733673
 30
0.0
  0
SPLINE
  5
2D8
100
AcDbEntity
  8
0
100
AcDbSpline
 62
7
  6
BYLAYER
 70
0
 71
3
 72
9
 73
5
 74
0
 42
0.0000001
 43
0.0000001
 44
0.0000000001
 40
0.0
 40
0.0
 40
0.0
 40
0.0
 40
0.5516167109
 40
1.0
 40
1.0
 40
1.0
 40
1.0
 10
140.9801996041
 20
108.3960332253
 30
0.0
 10
140.9458864423
 20
108.4158434904
 30
0.0
 10
140.8770302349
 20
108.4440476693
 30
0.0
 10
140.8003300928
 20
108.4293940599
 30
0.0
 10
140.7735539992
 20
108.4114976655
 30
0.0
  0
SPLINE
  5
2D9
100
AcDbEntity
  8
0
100
AcDbSpline
 62
7
  6
BYLAYER
 70
0
 71
3
 72
9
 73
5
 74
0
 42
0.0000001
 43
0.0000001
 44
0.0000000001
 40
0.0
 40
0.0
 40
0.0
 40
0.0
 40
0.2383051599
 40
1.0
 40
1.0
 40
1.0
 40
1.0
 10
150.9618479762
 20
102.4695251491
 30
0.0
 10
150.8222787571
 20
102.377062957
 30
0.0
 10
150.2503379389
 20
101.9684444918
 30
0.0
 10
149.7329917709
 20
101.4856925981
 30
0.0
 10
149.3708643425
 20
101.0917185042
 30
0.0
  0
SPLINE
  5
2DA
100
AcDbEntity
  8
0
100
AcDbSpline
 62
7
  6
BYLAYER
 70
0
 71
3
 72
9
 73
5
 74
0
 42
0.0000001
 43
0.0000001
 44
0.0000000001
 40
0.0
 40
0.0
 40
0.0
 40
0.0
 40
0.2568357579
 40
1.0
 40
1.0
 40
1.0
 40
1.0
 10
151.315399895
 20
101.4230980574
 30
0.0
 10
151.3592577129
 20
101.4484192293
 30
0.0
 10
151.5315326191
 20
101.5443459188
 30
0.0
 10
151.7099363772
 20
101.6294117828
 30
0.0
 10
151.8454824382
 20
101.6850906506
 30
0.0
  0
SPLINE
  5
2DB
100
AcDbEntity
  8
0
100
AcDbSpline
 62
7
  6
BYLAYER
 70
0
 71
3
 72
9
 73
5
 74
0
 42
0.0000001
 43
0.0000001
 44
0.0000000001
 40
0.0
 40
0.0
 40
0.0
 40
0.0
 40
0.5384423364
 40
1.0
 40
1.0
 40
1.0
 40
1.0
 10
131.2547368505
 20
112.7925578892
 30
0.0
 10
131.3128774186
 20
112.8372067011
 30
0.0
 10
131.4114847492
 20
112.936430292
 30
0.0
 10
131.4549047728
 20
113.0731318312
 30
0.0
 10
131.4556251409
 20
113.1359666948
 30
0.0
  0
SPLINE
  5
2DC
100
AcDbEntity
  8
0
100
AcDbSpline
 62
7
  6
BYLAYER
 70
0
 71
3
 72
11
 73
7
 74
0
 42
0.0000001
 43
0.0000001
 44
0.0000000001
 40
0.0
 40
0.0
 40
0.0
 40
0.0
 40
0.2176934519
 40
0.450806295
 40
0.7106524631
 40
1.0
 40
1.0
 40
1.0
 40
1.0
 10
131.4556251409
 20
113.1359666948
 30
0.0
 10
131.4560645636
 20
113.1742958042
 30
0.0
 10
131.4426377699
 20
113.2543677961
 30
0.0
 10
131.3826736437
 20
113.3662104988
 30
0.0
 10
131.2869209246
 20
113.46697213
 30
0.0
 10
131.2068897567
 20
113.5223695679
 30
0.0
 10
131.1627668404
 20
113.5478435028
 30
0.0
  0
SPLINE
  5
2DD
100
AcDbEntity
  8
0
100
AcDbSpline
 62
7
  6
BYLAYER
 70
0
 71
3
 72
11
 73
7
 74
0
 42
0.0000001
 43
0.0000001
 44
0.0000000001
 40
0.0
 40
0.0
 40
0.0
 40
0.0
 40
0.2172762514
 40
0.4535734531
 40
0.7140004201
 40
1.0
 40
1.0
 40
1.0
 40
1.0
 10
134.1752571267
 20
113.3107514631
 30
0.0
 10
133.992509618
 20
113.3605878748
 30
0.0
 10
133.594350326
 20
113.4084549812
 30
0.0
 10
132.9721414821
 20
113.3286288513
 30
0.0
 10
132.3229132108
 20
113.1065775735
 30
0.0
 10
131.9021117555
 20
112.878840461
 30
0.0
 10
131.6911851868
 20
112.7458842114
 30
0.0
  0
SPLINE
  5
2DE
100
AcDbEntity
  8
0
100
AcDbSpline
 62
7
  6
BYLAYER
 70
0
 71
3
 72
11
 73
7
 74
0
 42
0.0000001
 43
0.0000001
 44
0.0000000001
 40
0.0
 40
0.0
 40
0.0
 40
0.0
 40
0.2440594751
 40
0.506831387
 40
0.7659269725
 40
1.0
 40
1.0
 40
1.0
 40
1.0
 10
131.4181901711
 20
112.5626501488
 30
0.0
 10
130.9192738663
 20
112.2072357968
 30
0.0
 10
129.9898448904
 20
111.3164380391
 30
0.0
 10
128.9103464521
 20
109.7107022611
 30
0.0
 10
128.1847834998
 20
107.9441116057
 30
0.0
 10
127.9808113488
 20
106.7052390335
 30
0.0
 10
127.9808113488
 20
106.1177382705
 30
0.0
  0
SPLINE
  5
2DF
100
AcDbEntity
  8
0
100
AcDbSpline
 62
7
  6
BYLAYER
 70
0
 71
3
 72
9
 73
5
 74
0
 42
0.0000001
 43
0.0000001
 44
0.0000000001
 40
0.0
 40
0.0
 40
0.0
 40
0.0
 40
0.2636549358
 40
1.0
 40
1.0
 40
1.0
 40
1.0
 10
141.7694250823
 20
106.9751926239
 30
0.0
 10
141.7614653734
 20
106.9705971113
 30
0.0
 10
141.7318178041
 20
106.9522719908
 30
0.0
 10
141.7043427581
 20
106.9302266846
 30
0.0
 10
141.6864809162
 20
106.9117914052
 30
0.0
  0
SPLINE
  5
2E0
100
AcDbEntity
  8
0
100
AcDbSpline
 62
7
  6
BYLAYER
 70
0
 71
3
 72
8
 73
4
 74
0
 42
0.0000001
 43
0.0000001
 44
0.0000000001
 40
0.0
 40
0.0
 40
0.0
 40
0.0
 40
1.0
 40
1.0
 40
1.0
 40
1.0
 10
141.6864809162
 20
106.9117914052
 30
0.0
 10
141.6745134944
 20
106.8994397806
 30
0.0
 10
141.663530033
 20
106.8859855969
 30
0.0
 10
141.654228138
 20
106.871519894
 30
0.0
  0
SPLINE
  5
2E1
100
AcDbEntity
  8
0
100
AcDbSpline
 62
7
  6
BYLAYER
 70
0
 71
3
 72
11
 73
7
 74
0
 42
0.0000001
 43
0.0000001
 44
0.0000000001
 40
0.0
 40
0.0
 40
0.0
 40
0.0
 40
0.2372436391
 40
0.5000005261
 40
0.7627571268
 40
1.0
 40
1.0
 40
1.0
 40
1.0
 10
144.0321603053
 20
107.8733314621
 30
0.0
 10
143.9819649414
 20
107.9023111134
 30
0.0
 10
143.8652362335
 20
107.9445938976
 30
0.0
 10
143.6786063589
 20
107.9648532962
 30
0.0
 10
143.4919767659
 20
107.9445930459
 30
0.0
 10
143.375248517
 20
107.9023096821
 30
0.0
 10
143.3250535241
 20
107.8733297624
 30
0.0
  0
SPLINE
  5
2E2
100
AcDbEntity
  8
0
100
AcDbSpline
 62
7
  6
BYLAYER
 70
0
 71
3
 72
11
 73
7
 74
0
 42
0.0000001
 43
0.0000001
 44
0.0000000001
 40
0.0
 40
0.0
 40
0.0
 40
0.0
 40
0.2190144454
 40
0.4555253532
 40
0.7153749953
 40
1.0
 40
1.0
 40
1.0
 40
1.0
 10
129.0745526266
 20
104.2497158838
 30
0.0
 10
128.9527686779
 20
104.361007292
 30
0.0
 10
128.7319282621
 20
104.6297918165
 30
0.0
 10
128.5004515461
 20
105.12117124
 30
0.0
 10
128.3623096739
 20
105.6964246567
 30
0.0
 10
128.3343632674
 20
106.1074620775
 30
0.0
 10
128.3343632674
 20
106.3218603474
 30
0.0
  0
SPLINE
  5
2E3
100
AcDbEntity
  8
0
100
AcDbSpline
 62
7
  6
BYLAYER
 70
0
 71
3
 72
9
 73
5
 74
0
 42
0.0000001
 43
0.0000001
 44
0.0000000001
 40
0.0
 40
0.0
 40
0.0
 40
0.0
 40
0.23873232
 40
1.0
 40
1.0
 40
1.0
 40
1.0
 10
160.5095119009
 20
94.3211080595
 30
0.0
 10
160.5095175803
 20
94.3112165325
 30
0.0
 10
160.5081091066
 20
94.2697866609
 30
0.0
 10
160.5014329665
 20
94.2286024504
 30
0.0
 10
160.4940121821
 20
94.1979457812
 30
0.0
  0
SPLINE
  5
2E4
100
AcDbEntity
  8
0
100
AcDbSpline
 62
7
  6
BYLAYER
 70
0
 71
3
 72
18
 73
14
 74
0
 42
0.0000001
 43
0.0000001
 44
0.0000000001
 40
0.0
 40
0.0
 40
0.0
 40
0.0
 40
0.0449138613
 40
0.0921157634
 40
0.1440067449
 40
0.2019362025
 40
0.3356298835
 40
0.4864603528
 40
0.5641860959
 40
0.6408100245
 40
0.783297761
 40
0.9032383282
 40
1.0
 40
1.0
 40
1.0
 40
1.0
 10
161.0608372739
 20
94.5567707623
 30
0.0
 10
161.0880640386
 20
94.5446760904
 30
0.0
 10
161.1400265097
 20
94.5100201463
 30
0.0
 10
161.1989875959
 20
94.4330333566
 30
0.0
 10
161.2371400212
 20
94.334911026
 30
0.0
 10
161.2612338884
 20
94.1741801665
 30
0.0
 10
161.2327234125
 20
93.9449369804
 30
0.0
 10
161.1453818011
 20
93.7190207946
 30
0.0
 10
161.0425998447
 20
93.5441774218
 30
0.0
 10
160.9244241326
 20
93.3862899819
 30
0.0
 10
160.7591664934
 20
93.2301484334
 30
0.0
 10
160.5437535965
 20
93.1185823205
 30
0.0
 10
160.3908036188
 20
93.1162149354
 30
0.0
 10
160.3303700286
 20
93.1378333488
 30
0.0
  0
SPLINE
  5
2E5
100
AcDbEntity
  8
0
100
AcDbSpline
 62
7
  6
BYLAYER
 70
0
 71
3
 72
9
 73
5
 74
0
 42
0.0000001
 43
0.0000001
 44
0.0000000001
 40
0.0
 40
0.0
 40
0.0
 40
0.0
 40
0.4861302004
 40
1.0
 40
1.0
 40
1.0
 40
1.0
 10
142.4792855486
 20
94.7323607589
 30
0.0
 10
142.288845321
 20
94.842311106
 30
0.0
 10
141.9306194371
 20
95.1311651243
 30
0.0
 10
141.6712891109
 20
95.5091015119
 30
0.0
 10
141.5630609825
 20
95.7148181511
 30
0.0
  0
SPLINE
  5
2E6
100
AcDbEntity
  8
0
100
AcDbSpline
 62
7
  6
BYLAYER
 70
0
 71
3
 72
9
 73
5
 74
0
 42
0.0000001
 43
0.0000001
 44
0.0000000001
 40
0.0
 40
0.0
 40
0.0
 40
0.0
 40
0.2280583349
 40
1.0
 40
1.0
 40
1.0
 40
1.0
 10
141.5630609825
 20
95.7148181511
 30
0.0
 10
141.4904749648
 20
95.8527873817
 30
0.0
 10
141.2199782491
 20
96.4830826238
 30
0.0
 10
141.1330581245
 20
97.1802845034
 30
0.0
 10
141.1330581245
 20
97.707975328
 30
0.0
  0
SPLINE
  5
2E7
100
AcDbEntity
  8
0
100
AcDbSpline
 62
7
  6
BYLAYER
 70
0
 71
3
 72
10
 73
6
 74
0
 42
0.0000001
 43
0.0000001
 44
0.0000000001
 40
0.0
 40
0.0
 40
0.0
 40
0.0
 40
0.2256271444
 40
0.4547828624
 40
1.0
 40
1.0
 40
1.0
 40
1.0
 10
143.5016662278
 20
104.0299538635
 30
0.0
 10
143.5168774543
 20
104.0472281087
 30
0.0
 10
143.5541389445
 20
104.0771335392
 30
0.0
 10
143.6553415777
 20
104.1040891406
 30
0.0
 10
143.7365294253
 20
104.0755805229
 30
0.0
 10
143.7846975138
 20
104.0477712932
 30
0.0
  0
SPLINE
  5
2E8
100
AcDbEntity
  8
0
100
AcDbSpline
 62
7
  6
BYLAYER
 70
0
 71
3
 72
9
 73
5
 74
0
 42
0.0000001
 43
0.0000001
 44
0.0000000001
 40
0.0
 40
0.0
 40
0.0
 40
0.0
 40
0.4740164772
 40
1.0
 40
1.0
 40
1.0
 40
1.0
 10
160.5095046903
 20
91.6333059487
 30
0.0
 10
160.5106218927
 20
91.5690862162
 30
0.0
 10
160.482801581
 20
91.4332542192
 30
0.0
 10
160.4195284386
 20
91.3116211743
 30
0.0
 10
160.378420455
 20
91.2534001277
 30
0.0
  0
SPLINE
  5
2E9
100
AcDbEntity
  8
0
100
AcDbSpline
 62
7
  6
BYLAYER
 70
0
 71
3
 72
11
 73
7
 74
0
 42
0.0000001
 43
0.0000001
 44
0.0000000001
 40
0.0
 40
0.0
 40
0.0
 40
0.0
 40
0.2259665035
 40
0.4868121576
 40
0.7557285628
 40
1.0
 40
1.0
 40
1.0
 40
1.0
 10
143.3250535241
 20
108.126804469
 30
0.0
 10
143.3763057503
 20
108.1466935059
 30
0.0
 10
143.4946729511
 20
108.168630675
 30
0.0
 10
143.6793126537
 20
108.1618208851
 30
0.0
 10
143.8641717589
 20
108.1216583364
 30
0.0
 10
143.9806925618
 20
108.073763833
 30
0.0
 10
144.0321603053
 20
108.0440495897
 30
0.0
  0
SPLINE
  5
2EA
100
AcDbEntity
  8
0
100
AcDbSpline
 62
7
  6
BYLAYER
 70
0
 71
3
 72
9
 73
5
 74
0
 42
0.0000001
 43
0.0000001
 44
0.0000000001
 40
0.0
 40
0.0
 40
0.0
 40
0.0
 40
0.2367422994
 40
1.0
 40
1.0
 40
1.0
 40
1.0
 10
150.9740547991
 20
103.8500107215
 30
0.0
 10
150.9683119984
 20
103.8559369311
 30
0.0
 10
150.9430292477
 20
103.879971924
 30
0.0
 10
150.9141656266
 20
103.9000937239
 30
0.0
 10
150.8911246392
 20
103.9133961433
 30
0.0
  0
SPLINE
  5
2EB
100
AcDbEntity
  8
0
100
AcDbSpline
 62
7
  6
BYLAYER
 70
0
 71
3
 72
11
 73
7
 74
0
 42
0.0000001
 43
0.0000001
 44
0.0000000001
 40
0.0
 40
0.0
 40
0.0
 40
0.0
 40
0.2150009998
 40
0.4470502147
 40
0.7073909652
 40
1.0
 40
1.0
 40
1.0
 40
1.0
 10
161.7917545545
 20
97.7275012738
 30
0.0
 10
161.9938575512
 20
97.6108196791
 30
0.0
 10
162.3708697357
 20
97.2862072919
 30
0.0
 10
162.7570200332
 20
96.6093148788
 30
0.0
 10
162.968513182
 20
95.7757711814
 30
0.0
 10
162.9910442183
 20
95.1719289983
 30
0.0
 10
162.9774644375
 20
94.8546147378
 30
0.0
  0
SPLINE
  5
2EC
100
AcDbEntity
  8
0
100
AcDbSpline
 62
7
  6
BYLAYER
 70
0
 71
3
 72
9
 73
5
 74
0
 42
0.0000001
 43
0.0000001
 44
0.0000000001
 40
0.0
 40
0.0
 40
0.0
 40
0.0
 40
0.2330949001
 40
1.0
 40
1.0
 40
1.0
 40
1.0
 10
153.2599354471
 20
103.3370613505
 30
0.0
 10
153.136152251
 20
103.328798774
 30
0.0
 10
152.6071508049
 20
103.2624820084
 30
0.0
 10
152.0964863545
 20
103.0824801058
 30
0.0
 10
151.7282033529
 20
102.906507321
 30
0.0
  0
SPLINE
  5
2ED
100
AcDbEntity
  8
0
100
AcDbSpline
 62
7
  6
BYLAYER
 70
0
 71
3
 72
9
 73
5
 74
0
 42
0.0000001
 43
0.0000001
 44
0.0000000001
 40
0.0
 40
0.0
 40
0.0
 40
0.0
 40
0.2365886408
 40
1.0
 40
1.0
 40
1.0
 40
1.0
 10
160.1584052815
 20
90.8216609071
 30
0.0
 10
160.172644005
 20
90.8288492629
 30
0.0
 10
160.231669007
 20
90.8615147494
 30
0.0
 10
160.286012365
 20
90.9023117977
 30
0.0
 10
160.3246132476
 20
90.9363543986
 30
0.0
  0
SPLINE
  5
2EE
100
AcDbEntity
  8
0
100
AcDbSpline
 62
7
  6
BYLAYER
 70
0
 71
3
 72
10
 73
6
 74
0
 42
0.0000001
 43
0.0000001
 44
0.0000000001
 40
0.0
 40
0.0
 40
0.0
 40
0.0
 40
0.5166678642
 40
0.7720692484
 40
1.0
 40
1.0
 40
1.0
 40
1.0
 10
160.3246132476
 20
90.9363543986
 30
0.0
 10
160.4480452978
 20
91.0452106665
 30
0.0
 10
160.5952734154
 20
91.2538395681
 30
0.0
 10
160.7002154346
 20
91.5555625032
 30
0.0
 10
160.7168392459
 20
91.7110555375
 30
0.0
 10
160.7125415276
 20
91.783531659
 30
0.0
  0
SPLINE
  5
2EF
100
AcDbEntity
  8
0
100
AcDbSpline
 62
7
  6
BYLAYER
 70
0
 71
3
 72
9
 73
5
 74
0
 42
0.0000001
 43
0.0000001
 44
0.0000000001
 40
0.0
 40
0.0
 40
0.0
 40
0.0
 40
0.515362975
 40
1.0
 40
1.0
 40
1.0
 40
1.0
 10
160.4940121821
 20
94.1979457812
 30
0.0
 10
160.472715403
 20
94.1099647434
 30
0.0
 10
160.3963592716
 20
93.9476133751
 30
0.0
 10
160.270675836
 20
93.8169924919
 30
0.0
 10
160.1977267423
 20
93.7731211611
 30
0.0
  0
SPLINE
  5
2F0
100
AcDbEntity
  8
0
100
AcDbSpline
 62
7
  6
BYLAYER
 70
0
 71
3
 72
11
 73
7
 74
0
 42
0.0000001
 43
0.0000001
 44
0.0000000001
 40
0.0
 40
0.0
 40
0.0
 40
0.0
 40
0.2332599068
 40
0.4987732584
 40
0.764964371
 40
1.0
 40
1.0
 40
1.0
 40
1.0
 10
160.1398592472
 20
93.506770279
 30
0.0
 10
160.2236710384
 20
93.5455790336
 30
0.0
 10
160.3842904125
 20
93.6682003529
 30
0.0
 10
160.5685803141
 20
93.9119101712
 30
0.0
 10
160.6905191649
 20
94.1928717469
 30
0.0
 10
160.7188361967
 20
94.3938076137
 30
0.0
 10
160.7120088051
 20
94.4866208485
 30
0.0
  0
SPLINE
  5
2F1
100
AcDbEntity
  8
0
100
AcDbSpline
 62
7
  6
BYLAYER
 70
0
 71
3
 72
11
 73
7
 74
0
 42
0.0000001
 43
0.0000001
 44
0.0000000001
 40
0.0
 40
0.0
 40
0.0
 40
0.0
 40
0.2300291233
 40
0.4808391533
 40
0.7416079288
 40
1.0
 40
1.0
 40
1.0
 40
1.0
 10
141.1350447691
 20
97.8646275497
 30
0.0
 10
141.1479358031
 20
98.3769471745
 30
0.0
 10
141.3010593669
 20
99.445956558
 30
0.0
 10
141.8234327217
 20
101.0206252656
 30
0.0
 10
142.6140816697
 20
102.5503454534
 30
0.0
 10
143.2991155526
 20
103.4894058214
 30
0.0
 10
143.6760896582
 20
103.9244785657
 30
0.0
  0
SPLINE
  5
2F2
100
AcDbEntity
  8
0
100
AcDbSpline
 62
7
  6
BYLAYER
 70
0
 71
3
 72
9
 73
5
 74
0
 42
0.0000001
 43
0.0000001
 44
0.0000000001
 40
0.0
 40
0.0
 40
0.0
 40
0.0
 40
0.2355439145
 40
1.0
 40
1.0
 40
1.0
 40
1.0
 10
158.4890078509
 20
91.8043409478
 30
0.0
 10
158.4889234129
 20
91.7917372121
 30
0.0
 10
158.4861932284
 20
91.7382508883
 30
0.0
 10
158.4749973818
 20
91.685363781
 30
0.0
 10
158.4629834493
 20
91.6462615194
 30
0.0
  0
SPLINE
  5
2F3
100
AcDbEntity
  8
0
100
AcDbSpline
 62
7
  6
BYLAYER
 70
0
 71
3
 72
9
 73
5
 74
0
 42
0.0000001
 43
0.0000001
 44
0.0000000001
 40
0.0
 40
0.0
 40
0.0
 40
0.0
 40
0.2449275251
 40
1.0
 40
1.0
 40
1.0
 40
1.0
 10
158.4629834493
 20
91.6462615194
 30
0.0
 10
158.4582856489
 20
91.6309713869
 30
0.0
 10
158.4368513275
 20
91.5692542979
 30
0.0
 10
158.4072316783
 20
91.5104202608
 30
0.0
 10
158.3810122945
 20
91.4686567705
 30
0.0
  0
SPLINE
  5
2F4
100
AcDbEntity
  8
0
100
AcDbSpline
 62
7
  6
BYLAYER
 70
0
 71
3
 72
9
 73
5
 74
0
 42
0.0000001
 43
0.0000001
 44
0.0000000001
 40
0.0
 40
0.0
 40
0.0
 40
0.0
 40
0.2679759071
 40
1.0
 40
1.0
 40
1.0
 40
1.0
 10
158.3810122945
 20
91.4686567705
 30
0.0
 10
158.3665414939
 20
91.4456069862
 30
0.0
 10
158.3081026706
 20
91.3627219336
 30
0.0
 10
158.2320244146
 20
91.2902836123
 30
0.0
 10
158.1672941237
 20
91.2537169792
 30
0.0
  0
SPLINE
  5
2F5
100
AcDbEntity
  8
0
100
AcDbSpline
 62
7
  6
BYLAYER
 70
0
 71
3
 72
9
 73
5
 74
0
 42
0.0000001
 43
0.0000001
 44
0.0000000001
 40
0.0
 40
0.0
 40
0.0
 40
0.0
 40
0.2670843153
 40
1.0
 40
1.0
 40
1.0
 40
1.0
 10
160.378420455
 20
91.2534001277
 30
0.0
 10
160.3647294402
 20
91.2340096071
 30
0.0
 10
160.3100625172
 20
91.1640718843
 30
0.0
 10
160.2419284885
 20
91.1031546763
 30
0.0
 10
160.1849414063
 20
91.0716062061
 30
0.0
  0
SPLINE
  5
2F6
100
AcDbEntity
  8
0
100
AcDbSpline
 62
7
  6
BYLAYER
 70
0
 71
3
 72
11
 73
7
 74
0
 42
0.0000001
 43
0.0000001
 44
0.0000000001
 40
0.0
 40
0.0
 40
0.0
 40
0.0
 40
0.2835502795
 40
0.5432659497
 40
0.7803893771
 40
1.0
 40
1.0
 40
1.0
 40
1.0
 10
127.9808113488
 20
106.1177382705
 30
0.0
 10
127.9808113488
 20
105.8901905474
 30
0.0
 10
128.0094429776
 20
105.4533389811
 30
0.0
 10
128.1506392766
 20
104.8399074389
 30
0.0
 10
128.3869541742
 20
104.3112757147
 30
0.0
 10
128.6127412053
 20
104.0168101325
 30
0.0
 10
128.7378795691
 20
103.8927146878
 30
0.0
  0
SPLINE
  5
2F7
100
AcDbEntity
  8
0
100
AcDbSpline
 62
7
  6
BYLAYER
 70
0
 71
3
 72
9
 73
5
 74
0
 42
0.0000001
 43
0.0000001
 44
0.0000000001
 40
0.0
 40
0.0
 40
0.0
 40
0.0
 40
0.550710105
 40
1.0
 40
1.0
 40
1.0
 40
1.0
 10
139.2428488713
 20
106.9389986797
 30
0.0
 10
139.2236958181
 20
106.95005645
 30
0.0
 10
139.1830759646
 20
106.9654321844
 30
0.0
 10
139.1422052509
 20
106.9465653663
 30
0.0
 10
139.1300653503
 20
106.9332172452
 30
0.0
  0
SPLINE
  5
2F8
100
AcDbEntity
  8
0
100
AcDbSpline
 62
7
  6
BYLAYER
 70
0
 71
3
 72
17
 73
13
 74
0
 42
0.0000001
 43
0.0000001
 44
0.0000000001
 40
0.0
 40
0.0
 40
0.0
 40
0.0
 40
0.1286933065
 40
0.2702801751
 40
0.4174384432
 40
0.5617797022
 40
0.6954488753
 40
0.8127120148
 40
0.8646745954
 40
0.9125103814
 40
0.9571382807
 40
1.0
 40
1.0
 40
1.0
 40
1.0
 10
128.3343632674
 20
106.3218603474
 30
0.0
 10
128.3343632674
 20
106.7492486697
 30
0.0
 10
128.4539118344
 20
107.6478723854
 30
0.0
 10
128.9002042387
 20
108.9672966898
 30
0.0
 10
129.5878281516
 20
110.2383224608
 30
0.0
 10
130.4615953711
 20
111.3567162369
 30
0.0
 10
131.4500494766
 20
112.2321376498
 30
0.0
 10
132.3447173135
 20
112.721399844
 30
0.0
 10
133.0445925143
 20
112.9075395313
 30
0.0
 10
133.5262774166
 20
112.9430689543
 30
0.0
 10
133.9747921438
 20
112.8772241749
 30
0.0
 10
134.2465648115
 20
112.7643998932
 30
0.0
 10
134.3698284955
 20
112.6932127502
 30
0.0
  0
SPLINE
  5
2F9
100
AcDbEntity
  8
0
100
AcDbSpline
 62
7
  6
BYLAYER
 70
0
 71
3
 72
14
 73
10
 74
0
 42
0.0000001
 43
0.0000001
 44
0.0000000001
 40
0.0
 40
0.0
 40
0.0
 40
0.0
 40
0.3044976953
 40
0.4185899718
 40
0.5113052619
 40
0.5957312002
 40
0.6943937684
 40
0.8266413768
 40
1.0
 40
1.0
 40
1.0
 40
1.0
 10
131.3802930548
 20
113.6368712449
 30
0.0
 10
131.4846553583
 20
113.6058715566
 30
0.0
 10
131.6275908527
 20
113.5536385222
 30
0.0
 10
131.7769833438
 20
113.4463641616
 30
0.0
 10
131.8418088135
 20
113.3610248644
 30
0.0
 10
131.8550063513
 20
113.2579638085
 30
0.0
 10
131.8042328221
 20
113.1524055667
 30
0.0
 10
131.7009697271
 20
113.0496340166
 30
0.0
 10
131.6092047882
 20
112.9891844095
 30
0.0
 10
131.5555431129
 20
112.9581650876
 30
0.0
  0
SPLINE
  5
2FA
100
AcDbEntity
  8
0
100
AcDbSpline
 62
7
  6
BYLAYER
 70
0
 71
3
 72
9
 73
5
 74
0
 42
0.0000001
 43
0.0000001
 44
0.0000000001
 40
0.0
 40
0.0
 40
0.0
 40
0.0
 40
0.2586152713
 40
1.0
 40
1.0
 40
1.0
 40
1.0
 10
131.2359305735
 20
113.6745644472
 30
0.0
 10
131.2484713254
 20
113.6717023098
 30
0.0
 10
131.2968779442
 20
113.6602671183
 30
0.0
 10
131.344943969
 20
113.6473713067
 30
0.0
 10
131.3802930548
 20
113.6368712449
 30
0.0
  0
SPLINE
  5
2FB
100
AcDbEntity
  8
0
100
AcDbSpline
 62
7
  6
BYLAYER
 70
0
 71
3
 72
11
 73
7
 74
0
 42
0.0000001
 43
0.0000001
 44
0.0000000001
 40
0.0
 40
0.0
 40
0.0
 40
0.0
 40
0.2596670007
 40
0.4965349064
 40
0.7344482418
 40
1.0
 40
1.0
 40
1.0
 40
1.0
 10
129.5406707027
 20
113.3754318571
 30
0.0
 10
129.5021397578
 20
113.3266479837
 30
0.0
 10
129.4273971535
 20
113.2267373214
 30
0.0
 10
129.434348553
 20
113.0399299373
 30
0.0
 10
129.5221110032
 20
112.8805983896
 30
0.0
 10
129.6203400276
 20
112.8053826849
 30
0.0
 10
129.6753971324
 20
112.7735965226
 30
0.0
  0
SPLINE
  5
2FC
100
AcDbEntity
  8
0
100
AcDbSpline
 62
7
  6
BYLAYER
 70
0
 71
3
 72
10
 73
6
 74
0
 42
0.0000001
 43
0.0000001
 44
0.0000000001
 40
0.0
 40
0.0
 40
0.0
 40
0.0
 40
0.281811227
 40
0.6661481307
 40
1.0
 40
1.0
 40
1.0
 40
1.0
 10
129.8864347102
 20
113.6175943249
 30
0.0
 10
129.8490484763
 20
113.6034676144
 30
0.0
 10
129.7616857071
 20
113.5669941267
 30
0.0
 10
129.6404715937
 20
113.4917609527
 30
0.0
 10
129.5681925205
 20
113.4170072823
 30
0.0
 10
129.5431490907
 20
113.3768262041
 30
0.0
  0
SPLINE
  5
2FD
100
AcDbEntity
  8
0
100
AcDbSpline
 62
7
  6
BYLAYER
 70
0
 71
3
 72
9
 73
5
 74
0
 42
0.0000001
 43
0.0000001
 44
0.0000000001
 40
0.0
 40
0.0
 40
0.0
 40
0.0
 40
0.5162946069
 40
1.0
 40
1.0
 40
1.0
 40
1.0
 10
129.5431490907
 20
113.3768262041
 30
0.0
 10
129.5052426148
 20
113.327584114
 30
0.0
 10
129.4473203747
 20
113.2163351797
 30
0.0
 10
129.4546669419
 20
113.0896234104
 30
0.0
 10
129.472477544
 20
113.0341946864
 30
0.0
  0
SPLINE
  5
2FE
100
AcDbEntity
  8
0
100
AcDbSpline
 62
7
  6
BYLAYER
 70
0
 71
3
 72
9
 73
5
 74
0
 42
0.0000001
 43
0.0000001
 44
0.0000000001
 40
0.0
 40
0.0
 40
0.0
 40
0.0
 40
0.2252448127
 40
1.0
 40
1.0
 40
1.0
 40
1.0
 10
129.472477544
 20
113.0341946864
 30
0.0
 10
129.4808186493
 20
113.008236169
 30
0.0
 10
129.5309118098
 20
112.8970330276
 30
0.0
 10
129.6250771541
 20
112.8109186495
 30
0.0
 10
129.7033512441
 20
112.7592610148
 30
0.0
  0
SPLINE
  5
2FF
100
AcDbEntity
  8
0
100
AcDbSpline
 62
7
  6
BYLAYER
 70
0
 71
3
 72
11
 73
7
 74
0
 42
0.0000001
 43
0.0000001
 44
0.0000000001
 40
0.0
 40
0.0
 40
0.0
 40
0.0
 40
0.2483108377
 40
0.5107824759
 40
0.7677402964
 40
1.0
 40
1.0
 40
1.0
 40
1.0
 10
129.8864347102
 20
113.6175943249
 30
0.0
 10
129.9874601635
 20
113.6576957939
 30
0.0
 10
130.2074907513
 20
113.7089347239
 30
0.0
 10
130.5447568569
 20
113.7261023897
 30
0.0
 10
130.8722823823
 20
113.6766187494
 30
0.0
 10
131.0747199277
 20
113.5986765397
 30
0.0
 10
131.1627668404
 20
113.5478435028
 30
0.0
  0
SPLINE
  5
300
100
AcDbEntity
  8
0
100
AcDbSpline
 62
7
  6
BYLAYER
 70
0
 71
3
 72
11
 73
7
 74
0
 42
0.0000001
 43
0.0000001
 44
0.0000000001
 40
0.0
 40
0.0
 40
0.0
 40
0.0
 40
0.2340464635
 40
0.4908296148
 40
0.7531305851
 40
1.0
 40
1.0
 40
1.0
 40
1.0
 10
131.2359321662
 20
113.6745653382
 30
0.0
 10
131.1317727108
 20
113.698337336
 30
0.0
 10
130.9101381901
 20
113.735543583
 30
0.0
 10
130.5665263173
 20
113.7524191865
 30
0.0
 10
130.2150889387
 20
113.7335604892
 30
0.0
 10
129.9914530953
 20
113.6624195172
 30
0.0
 10
129.8868028613
 20
113.6206149014
 30
0.0
  0
SPLINE
  5
301
100
AcDbEntity
  8
0
100
AcDbSpline
 62
7
  6
BYLAYER
 70
0
 71
3
 72
9
 73
5
 74
0
 42
0.0000001
 43
0.0000001
 44
0.0000000001
 40
0.0
 40
0.0
 40
0.0
 40
0.0
 40
0.751967953
 40
1.0
 40
1.0
 40
1.0
 40
1.0
 10
158.4553476576
 20
91.2815380464
 30
0.0
 10
158.5101759673
 20
91.3543076376
 30
0.0
 10
158.5727593768
 20
91.4595719665
 30
0.0
 10
158.619226619
 20
91.5715222456
 30
0.0
 10
158.6296644746
 20
91.5997044329
 30
0.0
  0
SPLINE
  5
302
100
AcDbEntity
  8
0
100
AcDbSpline
 62
7
  6
BYLAYER
 70
0
 71
3
 72
9
 73
5
 74
0
 42
0.0000001
 43
0.0000001
 44
0.0000000001
 40
0.0
 40
0.0
 40
0.0
 40
0.0
 40
0.2576274805
 40
1.0
 40
1.0
 40
1.0
 40
1.0
 10
158.6296644746
 20
91.5997044329
 30
0.0
 10
158.6356369195
 20
91.615830021
 30
0.0
 10
158.657437903
 20
91.6789171218
 30
0.0
 10
158.6736994071
 20
91.7439848848
 30
0.0
 10
158.6818147203
 20
91.7928675551
 30
0.0
  0
SPLINE
  5
303
100
AcDbEntity
  8
0
100
AcDbSpline
 62
7
  6
BYLAYER
 70
0
 71
3
 72
9
 73
5
 74
0
 42
0.0000001
 43
0.0000001
 44
0.0000000001
 40
0.0
 40
0.0
 40
0.0
 40
0.0
 40
0.2620380276
 40
1.0
 40
1.0
 40
1.0
 40
1.0
 10
158.6818147203
 20
91.7928675551
 30
0.0
 10
158.6843115875
 20
91.8079074598
 30
0.0
 10
158.6923904953
 20
91.8655200607
 30
0.0
 10
158.6945789548
 20
91.9240696182
 30
0.0
 10
158.6918541232
 20
91.9669187759
 30
0.0
  0
SPLINE
  5
304
100
AcDbEntity
  8
0
100
AcDbSpline
 62
7
  6
BYLAYER
 70
0
 71
3
 72
9
 73
5
 74
0
 42
0.0000001
 43
0.0000001
 44
0.0000000001
 40
0.0
 40
0.0
 40
0.0
 40
0.0
 40
0.228914798
 40
1.0
 40
1.0
 40
1.0
 40
1.0
 10
158.1435007148
 20
91.0050073334
 30
0.0
 10
158.1718889322
 20
91.0196792399
 30
0.0
 10
158.2910859856
 20
91.093027389
 30
0.0
 10
158.3905738286
 20
91.1955684973
 30
0.0
 10
158.4553476576
 20
91.2815380464
 30
0.0
  0
SPLINE
  5
305
100
AcDbEntity
  8
0
100
AcDbSpline
 62
7
  6
BYLAYER
 70
0
 71
3
 72
11
 73
7
 74
0
 42
0.0000001
 43
0.0000001
 44
0.0000000001
 40
0.0
 40
0.0
 40
0.0
 40
0.0
 40
0.2202352485
 40
0.464825984
 40
0.7275893759
 40
1.0
 40
1.0
 40
1.0
 40
1.0
 10
147.6418758445
 20
94.3981673
 30
0.0
 10
147.5978891361
 20
94.7218234915
 30
0.0
 10
147.5889491468
 20
95.4170874496
 30
0.0
 10
147.7707169731
 20
96.4851646454
 30
0.0
 10
148.1361303226
 20
97.5865293958
 30
0.0
 10
148.4878827381
 20
98.3011594357
 30
0.0
 10
148.6898608422
 20
98.651061336
 30
0.0
  0
SPLINE
  5
306
100
AcDbEntity
  8
0
100
AcDbSpline
 62
7
  6
BYLAYER
 70
0
 71
3
 72
10
 73
6
 74
0
 42
0.0000001
 43
0.0000001
 44
0.0000000001
 40
0.0
 40
0.0
 40
0.0
 40
0.0
 40
0.5248903564
 40
0.7715610628
 40
1.0
 40
1.0
 40
1.0
 40
1.0
 10
148.6898608422
 20
98.651061336
 30
0.0
 10
149.0269361172
 20
99.2350022531
 30
0.0
 10
149.6192479946
 20
100.0448994536
 30
0.0
 10
150.5590920749
 20
100.9242106873
 30
0.0
 10
151.0612729299
 20
101.2763786615
 30
0.0
 10
151.315399895
 20
101.4230980574
 30
0.0
  0
SPLINE
  5
307
100
AcDbEntity
  8
0
100
AcDbSpline
 62
7
  6
BYLAYER
 70
0
 71
3
 72
9
 73
5
 74
0
 42
0.0000001
 43
0.0000001
 44
0.0000000001
 40
0.0
 40
0.0
 40
0.0
 40
0.0
 40
0.5476138156
 40
1.0
 40
1.0
 40
1.0
 40
1.0
 10
140.833832505
 20
108.3168053246
 30
0.0
 10
140.8167182151
 20
108.326686041
 30
0.0
 10
140.7814383082
 20
108.3412059224
 30
0.0
 10
140.7445958661
 20
108.3324699314
 30
0.0
 10
140.729569779
 20
108.326087801
 30
0.0
  0
SPLINE
  5
308
100
AcDbEntity
  8
0
100
AcDbSpline
 62
7
  6
BYLAYER
 70
0
 71
3
 72
9
 73
5
 74
0
 42
0.0000001
 43
0.0000001
 44
0.0000000001
 40
0.0
 40
0.0
 40
0.0
 40
0.0
 40
0.25668568
 40
1.0
 40
1.0
 40
1.0
 40
1.0
 10
139.2428488713
 20
106.9389986797
 30
0.0
 10
139.3259503861
 20
107.0294084125
 30
0.0
 10
139.6559759829
 20
107.3757625172
 30
0.0
 10
140.0113692722
 20
107.6982862735
 30
0.0
 10
140.2894828241
 20
107.9198896896
 30
0.0
  0
SPLINE
  5
309
100
AcDbEntity
  8
0
100
AcDbSpline
 62
7
  6
BYLAYER
 70
0
 71
3
 72
15
 73
11
 74
0
 42
0.0000001
 43
0.0000001
 44
0.0000000001
 40
0.0
 40
0.0
 40
0.0
 40
0.0
 40
0.1165904962
 40
0.2525791025
 40
0.4003722662
 40
0.54959822
 40
0.6894018159
 40
0.8112895052
 40
0.912436939
 40
1.0
 40
1.0
 40
1.0
 40
1.0
 10
161.2327738059
 20
91.6414315549
 30
0.0
 10
161.2506578591
 20
91.574686426
 30
0.0
 10
161.2594797725
 20
91.4221431496
 30
0.0
 10
161.2117156459
 20
91.1880319569
 30
0.0
 10
161.1097128398
 20
90.9506852525
 30
0.0
 10
160.9640798415
 20
90.7348149548
 30
0.0
 10
160.7894885796
 20
90.562257741
 30
0.0
 10
160.6027472446
 20
90.4506054029
 30
0.0
 10
160.4172416059
 20
90.41161658
 30
0.0
 10
160.3043103433
 20
90.4490967366
 30
0.0
 10
160.262389467
 20
90.4796880123
 30
0.0
  0
SPLINE
  5
30A
100
AcDbEntity
  8
0
100
AcDbSpline
 62
7
  6
BYLAYER
 70
0
 71
3
 72
13
 73
9
 74
0
 42
0.0000001
 43
0.0000001
 44
0.0000000001
 40
0.0
 40
0.0
 40
0.0
 40
0.0
 40
0.0886889288
 40
0.1837991241
 40
0.2914779844
 40
0.4139541213
 40
0.6956262945
 40
1.0
 40
1.0
 40
1.0
 40
1.0
 10
159.0402713884
 20
92.0431298264
 30
0.0
 10
159.0726987449
 20
92.0287506931
 30
0.0
 10
159.1344555572
 20
91.9847073595
 30
0.0
 10
159.1974525902
 20
91.8838988892
 30
0.0
 10
159.230779685
 20
91.756578197
 30
0.0
 10
159.2354860556
 20
91.5505558159
 30
0.0
 10
159.163509928
 20
91.271369445
 30
0.0
 10
159.0471675534
 20
91.0646789568
 30
0.0
 10
158.9739097857
 20
90.9674492987
 30
0.0
  0
SPLINE
  5
30B
100
AcDbEntity
  8
0
100
AcDbSpline
 62
7
  6
BYLAYER
 70
0
 71
3
 72
11
 73
7
 74
0
 42
0.0000001
 43
0.0000001
 44
0.0000000001
 40
0.0
 40
0.0
 40
0.0
 40
0.0
 40
0.3112335201
 40
0.58406594
 40
0.8085725808
 40
1.0
 40
1.0
 40
1.0
 40
1.0
 10
158.9739097857
 20
90.9674492987
 30
0.0
 10
158.9198894171
 20
90.8957520284
 30
0.0
 10
158.8045696924
 20
90.7706504811
 30
0.0
 10
158.6077286121
 20
90.6407957413
 30
0.0
 10
158.409256692
 20
90.589909203
 30
0.0
 10
158.2864898868
 20
90.6277067389
 30
0.0
 10
158.2418766789
 20
90.6602376772
 30
0.0
  0
SPLINE
  5
30C
100
AcDbEntity
  8
0
100
AcDbSpline
 62
7
  6
BYLAYER
 70
0
 71
3
 72
10
 73
6
 74
0
 42
0.0000001
 43
0.0000001
 44
0.0000000001
 40
0.0
 40
0.0
 40
0.0
 40
0.0
 40
0.2329393393
 40
0.4735661943
 40
1.0
 40
1.0
 40
1.0
 40
1.0
 10
163.2299205732
 20
98.3405630461
 30
0.0
 10
163.0766856327
 20
98.42904448
 30
0.0
 10
162.7431665974
 20
98.573495704
 30
0.0
 10
161.9920895383
 20
98.7155883242
 30
0.0
 10
161.3973551136
 20
98.6422872823
 30
0.0
 10
161.0110892038
 20
98.5387903267
 30
0.0
  0
SPLINE
  5
30D
100
AcDbEntity
  8
0
100
AcDbSpline
 62
7
  6
BYLAYER
 70
0
 71
3
 72
11
 73
7
 74
0
 42
0.0000001
 43
0.0000001
 44
0.0000000001
 40
0.0
 40
0.0
 40
0.0
 40
0.0
 40
0.2311403274
 40
0.4864055438
 40
0.7489058364
 40
1.0
 40
1.0
 40
1.0
 40
1.0
 10
160.0128495143
 20
95.1565705907
 30
0.0
 10
159.7026408795
 20
94.977472621
 30
0.0
 10
159.1053537734
 20
94.5028620614
 30
0.0
 10
158.3637464918
 20
93.6016351505
 30
0.0
 10
157.7864456973
 20
92.5519219437
 30
0.0
 10
157.5391553725
 20
91.7882661205
 30
0.0
 10
157.4632531828
 20
91.406620745
 30
0.0
  0
SPLINE
  5
30E
100
AcDbEntity
  8
0
100
AcDbSpline
 62
7
  6
BYLAYER
 70
0
 71
3
 72
12
 73
8
 74
0
 42
0.0000001
 43
0.0000001
 44
0.0000000001
 40
0.0
 40
0.0
 40
0.0
 40
0.0
 40
0.3013595304
 40
0.5660069799
 40
0.7943177034
 40
0.8988002446
 40
1.0
 40
1.0
 40
1.0
 40
1.0
 10
157.4632531828
 20
91.406620745
 30
0.0
 10
157.4089732307
 20
91.133694591
 30
0.0
 10
157.3501598883
 20
90.6103625969
 30
0.0
 10
157.429059119
 20
89.8742254437
 30
0.0
 10
157.6513661613
 20
89.3552867878
 30
0.0
 10
157.9153749295
 20
89.0501131704
 30
0.0
 10
158.0694911242
 20
88.9359235344
 30
0.0
 10
158.1504010307
 20
88.8891705555
 30
0.0
  0
SPLINE
  5
30F
100
AcDbEntity
  8
0
100
AcDbSpline
 62
7
  6
BYLAYER
 70
0
 71
3
 72
9
 73
5
 74
0
 42
0.0000001
 43
0.0000001
 44
0.0000000001
 40
0.0
 40
0.0
 40
0.0
 40
0.0
 40
0.2562788357
 40
1.0
 40
1.0
 40
1.0
 40
1.0
 10
142.0852860231
 20
108.956690961
 30
0.0
 10
142.1298934534
 20
108.9726552698
 30
0.0
 10
142.304871323
 20
109.0323254393
 30
0.0
 10
142.483578024
 20
109.0812385076
 30
0.0
 10
142.6179287823
 20
109.1104565802
 30
0.0
  0
SPLINE
  5
310
100
AcDbEntity
  8
0
100
AcDbSpline
 62
7
  6
BYLAYER
 70
0
 71
3
 72
9
 73
5
 74
0
 42
0.0000001
 43
0.0000001
 44
0.0000000001
 40
0.0
 40
0.0
 40
0.0
 40
0.0
 40
0.2561902843
 40
1.0
 40
1.0
 40
1.0
 40
1.0
 10
142.6179287823
 20
109.1104565802
 30
0.0
 10
142.6612819937
 20
109.1198848655
 30
0.0
 10
142.8311146169
 20
109.1537816129
 30
0.0
 10
143.0033943355
 20
109.1757623895
 30
0.0
 10
143.1319199759
 20
109.184341526
 30
0.0
  0
SPLINE
  5
311
100
AcDbEntity
  8
0
100
AcDbSpline
 62
7
  6
BYLAYER
 70
0
 71
3
 72
11
 73
7
 74
0
 42
0.0000001
 43
0.0000001
 44
0.0000000001
 40
0.0
 40
0.0
 40
0.0
 40
0.0
 40
0.2177800013
 40
0.4509282512
 40
0.7102442966
 40
1.0
 40
1.0
 40
1.0
 40
1.0
 10
149.1210284325
 20
90.3205367595
 30
0.0
 10
148.8901048485
 20
90.4538158155
 30
0.0
 10
148.4580655987
 20
90.8170443719
 30
0.0
 10
147.9981951979
 20
91.5690110194
 30
0.0
 10
147.7248920053
 20
92.4957433156
 30
0.0
 10
147.6712239361
 20
93.1702640418
 30
0.0
 10
147.6712239361
 20
93.5250081779
 30
0.0
  0
SPLINE
  5
312
100
AcDbEntity
  8
0
100
AcDbSpline
 62
7
  6
BYLAYER
 70
0
 71
3
 72
9
 73
5
 74
0
 42
0.0000001
 43
0.0000001
 44
0.0000000001
 40
0.0
 40
0.0
 40
0.0
 40
0.0
 40
0.2384914281
 40
1.0
 40
1.0
 40
1.0
 40
1.0
 10
147.6712239361
 20
93.5250081779
 30
0.0
 10
147.6712239361
 20
93.6634166567
 30
0.0
 10
147.6895818542
 20
94.2437248027
 30
0.0
 10
147.7763031922
 20
94.8209973553
 30
0.0
 10
147.8720467264
 20
95.2524430695
 30
0.0
  0
SPLINE
  5
313
100
AcDbEntity
  8
0
100
AcDbSpline
 62
7
  6
BYLAYER
 70
0
 71
3
 72
9
 73
5
 74
0
 42
0.0000001
 43
0.0000001
 44
0.0000000001
 40
0.0
 40
0.0
 40
0.0
 40
0.0
 40
0.245664241
 40
1.0
 40
1.0
 40
1.0
 40
1.0
 10
147.8720467264
 20
95.2524430695
 30
0.0
 10
147.891320976
 20
95.3392979413
 30
0.0
 10
147.9747614612
 20
95.6917312706
 30
0.0
 10
148.0776333843
 20
96.0395119134
 30
0.0
 10
148.1649392892
 20
96.2983695131
 30
0.0
  0
SPLINE
  5
314
100
AcDbEntity
  8
0
100
AcDbSpline
 62
7
  6
BYLAYER
 70
0
 71
3
 72
9
 73
5
 74
0
 42
0.0000001
 43
0.0000001
 44
0.0000000001
 40
0.0
 40
0.0
 40
0.0
 40
0.0
 40
0.2460596618
 40
1.0
 40
1.0
 40
1.0
 40
1.0
 10
148.1649392892
 20
96.2983695131
 30
0.0
 10
148.2255994235
 20
96.4782237484
 30
0.0
 10
148.4912672169
 20
97.2026004388
 30
0.0
 10
148.8301750147
 20
97.899826097
 30
0.0
 10
149.1209653685
 20
98.40349256
 30
0.0
  0
SPLINE
  5
315
100
AcDbEntity
  8
0
100
AcDbSpline
 62
7
  6
BYLAYER
 70
0
 71
3
 72
9
 73
5
 74
0
 42
0.0000001
 43
0.0000001
 44
0.0000000001
 40
0.0
 40
0.0
 40
0.0
 40
0.0
 40
0.2540758808
 40
1.0
 40
1.0
 40
1.0
 40
1.0
 10
149.1209653685
 20
98.40349256
 30
0.0
 10
149.2363216263
 20
98.6032965685
 30
0.0
 10
149.7128075075
 20
99.3763750963
 30
0.0
 10
150.2766463396
 20
100.0966606443
 30
0.0
 10
150.743610615
 20
100.5873015032
 30
0.0
  0
SPLINE
  5
316
100
AcDbEntity
  8
0
100
AcDbSpline
 62
7
  6
BYLAYER
 70
0
 71
3
 72
9
 73
5
 74
0
 42
0.0000001
 43
0.0000001
 44
0.0000000001
 40
0.0
 40
0.0
 40
0.0
 40
0.0
 40
0.2539394541
 40
1.0
 40
1.0
 40
1.0
 40
1.0
 10
150.743610615
 20
100.5873015032
 30
0.0
 10
150.7960505193
 20
100.6424002784
 30
0.0
 10
151.0049326813
 20
100.8570965188
 30
0.0
 10
151.223428385
 20
101.062482195
 30
0.0
 10
151.3917573848
 20
101.2094713596
 30
0.0
  0
SPLINE
  5
317
100
AcDbEntity
  8
0
100
AcDbSpline
 62
7
  6
BYLAYER
 70
0
 71
3
 72
9
 73
5
 74
0
 42
0.0000001
 43
0.0000001
 44
0.0000000001
 40
0.0
 40
0.0
 40
0.0
 40
0.0
 40
0.5231606491
 40
1.0
 40
1.0
 40
1.0
 40
1.0
 10
151.3917573848
 20
101.2094713596
 30
0.0
 10
151.694422054
 20
101.4737658481
 30
0.0
 10
152.3067862485
 20
101.9420832555
 30
0.0
 10
152.9875913291
 20
102.3078742141
 30
0.0
 10
153.3263192106
 20
102.4471414435
 30
0.0
  0
SPLINE
  5
318
100
AcDbEntity
  8
0
100
AcDbSpline
 62
7
  6
BYLAYER
 70
0
 71
3
 72
9
 73
5
 74
0
 42
0.0000001
 43
0.0000001
 44
0.0000000001
 40
0.0
 40
0.0
 40
0.0
 40
0.0
 40
0.2570328546
 40
1.0
 40
1.0
 40
1.0
 40
1.0
 10
153.3263192106
 20
102.4471414435
 30
0.0
 10
153.378565503
 20
102.4686223927
 30
0.0
 10
153.5831620433
 20
102.5488944347
 30
0.0
 10
153.7931704003
 20
102.6156081791
 30
0.0
 10
153.9513902284
 20
102.6559706542
 30
0.0
  0
SPLINE
  5
319
100
AcDbEntity
  8
0
100
AcDbSpline
 62
7
  6
BYLAYER
 70
0
 71
3
 72
9
 73
5
 74
0
 42
0.0000001
 43
0.0000001
 44
0.0000000001
 40
0.0
 40
0.0
 40
0.0
 40
0.0
 40
0.5216470144
 40
1.0
 40
1.0
 40
1.0
 40
1.0
 10
153.9513902284
 20
102.6559706542
 30
0.0
 10
154.2076118276
 20
102.7213337507
 30
0.0
 10
154.712524573
 20
102.801255951
 30
0.0
 10
155.2242949735
 20
102.7582225148
 30
0.0
 10
155.4605389887
 20
102.7035788461
 30
0.0
  0
SPLINE
  5
31A
100
AcDbEntity
  8
0
100
AcDbSpline
 62
7
  6
BYLAYER
 70
0
 71
3
 72
9
 73
5
 74
0
 42
0.0000001
 43
0.0000001
 44
0.0000000001
 40
0.0
 40
0.0
 40
0.0
 40
0.0
 40
0.2535696318
 40
1.0
 40
1.0
 40
1.0
 40
1.0
 10
155.4605389887
 20
102.7035788461
 30
0.0
 10
155.5190607588
 20
102.6900426546
 30
0.0
 10
155.7478868263
 20
102.6285380575
 30
0.0
 10
155.967731288
 20
102.5332845834
 30
0.0
 10
156.1208731606
 20
102.4448977505
 30
0.0
  0
SPLINE
  5
31B
100
AcDbEntity
  8
0
100
AcDbSpline
 62
7
  6
BYLAYER
 70
0
 71
3
 72
16
 73
12
 74
0
 42
0.0000001
 43
0.0000001
 44
0.0000000001
 40
0.0
 40
0.0
 40
0.0
 40
0.0
 40
0.1527706151
 40
0.2281389647
 40
0.3021799912
 40
0.5125251082
 40
0.6994658977
 40
0.7830910668
 40
0.8602785866
 40
0.9320231507
 40
1.0
 40
1.0
 40
1.0
 40
1.0
 10
162.6971482031
 20
90.5652574787
 30
0.0
 10
162.8975218421
 20
90.9123167284
 30
0.0
 10
163.169464081
 20
91.4471246994
 30
0.0
 10
163.4698102434
 20
92.181062077
 30
0.0
 10
163.7773031874
 20
93.073608447
 30
0.0
 10
164.0480843431
 20
94.2871659632
 30
0.0
 10
164.0648055698
 20
95.562484884
 30
0.0
 10
163.8821319196
 20
96.4596260904
 30
0.0
 10
163.6630939202
 20
97.0325106524
 30
0.0
 10
163.3599707545
 20
97.5186011721
 30
0.0
 10
163.0994095663
 20
97.7818802113
 30
0.0
 10
162.9595715643
 20
97.8925256331
 30
0.0
  0
SPLINE
  5
31C
100
AcDbEntity
  8
0
100
AcDbSpline
 62
7
  6
BYLAYER
 70
0
 71
3
 72
13
 73
9
 74
0
 42
0.0000001
 43
0.0000001
 44
0.0000000001
 40
0.0
 40
0.0
 40
0.0
 40
0.0
 40
0.0913042286
 40
0.1903881756
 40
0.3596085509
 40
0.555203975
 40
0.7718343444
 40
1.0
 40
1.0
 40
1.0
 40
1.0
 10
156.4829208885
 20
86.6743797665
 30
0.0
 10
156.7053445974
 20
86.5861076612
 30
0.0
 10
157.201975439
 20
86.4782238753
 30
0.0
 10
158.1516316844
 20
86.5472085289
 30
0.0
 10
159.3058529468
 20
86.9875976831
 30
0.0
 10
160.5624254779
 20
87.8684152426
 30
0.0
 10
161.7344658979
 20
89.0817993267
 30
0.0
 10
162.398149403
 20
90.0473734906
 30
0.0
 10
162.6971482031
 20
90.5652574787
 30
0.0
  0
SPLINE
  5
31D
100
AcDbEntity
  8
0
100
AcDbSpline
 62
7
  6
BYLAYER
 70
0
 71
3
 72
9
 73
5
 74
0
 42
0.0000001
 43
0.0000001
 44
0.0000000001
 40
0.0
 40
0.0
 40
0.0
 40
0.0
 40
0.4726794045
 40
1.0
 40
1.0
 40
1.0
 40
1.0
 10
161.0110892038
 20
98.5387903267
 30
0.0
 10
160.6573426259
 20
98.444006674
 30
0.0
 10
159.9336588163
 20
98.1482254121
 30
0.0
 10
159.280927196
 20
97.7237798619
 30
0.0
 10
158.9556977507
 20
97.4765006202
 30
0.0
  0
SPLINE
  5
31E
100
AcDbEntity
  8
0
100
AcDbSpline
 62
7
  6
BYLAYER
 70
0
 71
3
 72
9
 73
5
 74
0
 42
0.0000001
 43
0.0000001
 44
0.0000000001
 40
0.0
 40
0.0
 40
0.0
 40
0.0
 40
0.4839701237
 40
1.0
 40
1.0
 40
1.0
 40
1.0
 10
158.9164713098
 20
97.4464887875
 30
0.0
 10
158.3901712729
 20
97.0413081549
 30
0.0
 10
157.400249385
 20
96.0747803125
 30
0.0
 10
156.6062422939
 20
94.9459652737
 30
0.0
 10
156.25010561
 20
94.3338265778
 30
0.0
  0
SPLINE
  5
31F
100
AcDbEntity
  8
0
100
AcDbSpline
 62
7
  6
BYLAYER
 70
0
 71
3
 72
11
 73
7
 74
0
 42
0.0000001
 43
0.0000001
 44
0.0000000001
 40
0.0
 40
0.0
 40
0.0
 40
0.0
 40
0.2952310355
 40
0.5566980742
 40
0.7877130997
 40
1.0
 40
1.0
 40
1.0
 40
1.0
 10
159.3291150178
 20
88.3152353264
 30
0.0
 10
159.0460998259
 20
88.1184780088
 30
0.0
 10
158.4802170431
 20
87.7896475644
 30
0.0
 10
157.5966731149
 20
87.5042639996
 30
0.0
 10
156.7610588957
 20
87.4748481461
 30
0.0
 10
156.2565502573
 20
87.6443201406
 30
0.0
 10
156.0419043262
 20
87.768243239
 30
0.0
  0
SPLINE
  5
320
100
AcDbEntity
  8
0
100
AcDbSpline
 62
7
  6
BYLAYER
 70
0
 71
3
 72
11
 73
7
 74
0
 42
0.0000001
 43
0.0000001
 44
0.0000000001
 40
0.0
 40
0.0
 40
0.0
 40
0.0
 40
0.2897557034
 40
0.5490717488
 40
0.7822199987
 40
1.0
 40
1.0
 40
1.0
 40
1.0
 10
154.7802787638
 20
89.4206863116
 30
0.0
 10
154.7802787638
 20
89.0659421755
 30
0.0
 10
154.833946833
 20
88.3914214493
 30
0.0
 10
155.1072500256
 20
87.4646891531
 30
0.0
 10
155.5671204264
 20
86.7127225056
 30
0.0
 10
155.9991596762
 20
86.3494939492
 30
0.0
 10
156.2300832602
 20
86.2162148932
 30
0.0
  0
SPLINE
  5
321
100
AcDbEntity
  8
0
100
AcDbSpline
 62
7
  6
BYLAYER
 70
0
 71
3
 72
10
 73
6
 74
0
 42
0.0000001
 43
0.0000001
 44
0.0000000001
 40
0.0
 40
0.0
 40
0.0
 40
0.0
 40
0.5249238765
 40
0.7714869185
 40
1.0
 40
1.0
 40
1.0
 40
1.0
 10
156.2300201962
 20
94.2991706937
 30
0.0
 10
155.780622794
 20
93.5207872394
 30
0.0
 10
155.240795685
 20
92.297273292
 30
0.0
 10
154.8519522826
 20
90.6263358516
 30
0.0
 10
154.7802787638
 20
89.8119568076
 30
0.0
 10
154.7802787638
 20
89.4206863116
 30
0.0
  0
SPLINE
  5
322
100
AcDbEntity
  8
0
100
AcDbSpline
 62
7
  6
BYLAYER
 70
0
 71
3
 72
9
 73
5
 74
0
 42
0.0000001
 43
0.0000001
 44
0.0000000001
 40
0.0
 40
0.0
 40
0.0
 40
0.0
 40
0.2538692899
 40
1.0
 40
1.0
 40
1.0
 40
1.0
 10
163.250702233
 20
90.2456642269
 30
0.0
 10
163.3620699122
 20
90.4385597763
 30
0.0
 10
163.7791958099
 20
91.2105088433
 30
0.0
 10
164.1117106525
 20
92.0290839157
 30
0.0
 10
164.2999744338
 20
92.6560582558
 30
0.0
  0
SPLINE
  5
323
100
AcDbEntity
  8
0
100
AcDbSpline
 62
7
  6
BYLAYER
 70
0
 71
3
 72
9
 73
5
 74
0
 42
0.0000001
 43
0.0000001
 44
0.0000000001
 40
0.0
 40
0.0
 40
0.0
 40
0.0
 40
0.254893432
 40
1.0
 40
1.0
 40
1.0
 40
1.0
 10
164.2999744338
 20
92.6560582558
 30
0.0
 10
164.3264221097
 20
92.7441368763
 30
0.0
 10
164.4255467873
 20
93.0910531786
 30
0.0
 10
164.5057747518
 20
93.443441917
 30
0.0
 10
164.5533926496
 20
93.7080200645
 30
0.0
  0
SPLINE
  5
324
100
AcDbEntity
  8
0
100
AcDbSpline
 62
7
  6
BYLAYER
 70
0
 71
3
 72
9
 73
5
 74
0
 42
0.0000001
 43
0.0000001
 44
0.0000000001
 40
0.0
 40
0.0
 40
0.0
 40
0.0
 40
0.5239758589
 40
1.0
 40
1.0
 40
1.0
 40
1.0
 10
164.5533926496
 20
93.7080200645
 30
0.0
 10
164.6233597001
 20
94.0967762556
 30
0.0
 10
164.707751545
 20
94.8488609501
 30
0.0
 10
164.6675145347
 20
95.6066881453
 30
0.0
 10
164.610362799
 20
95.960961418
 30
0.0
  0
SPLINE
  5
325
100
AcDbEntity
  8
0
100
AcDbSpline
 62
7
  6
BYLAYER
 70
0
 71
3
 72
9
 73
5
 74
0
 42
0.0000001
 43
0.0000001
 44
0.0000000001
 40
0.0
 40
0.0
 40
0.0
 40
0.0
 40
0.5268532927
 40
1.0
 40
1.0
 40
1.0
 40
1.0
 10
164.5460808256
 20
96.2867257022
 30
0.0
 10
164.4701869157
 20
96.6094352627
 30
0.0
 10
164.2576107228
 20
97.210335262
 30
0.0
 10
163.8695750136
 20
97.7232124603
 30
0.0
 10
163.6487179483
 20
97.9228601486
 30
0.0
  0
SPLINE
  5
326
100
AcDbEntity
  8
0
100
AcDbSpline
 62
7
  6
BYLAYER
 70
0
 71
3
 72
11
 73
7
 74
0
 42
0.0000001
 43
0.0000001
 44
0.0000000001
 40
0.0
 40
0.0
 40
0.0
 40
0.0
 40
0.2109366914
 40
0.4444859977
 40
0.7073119978
 40
1.0
 40
1.0
 40
1.0
 40
1.0
 10
162.823083663
 20
98.4052284001
 30
0.0
 10
162.5512343336
 20
98.4959835808
 30
0.0
 10
161.9404395189
 20
98.5821304993
 30
0.0
 10
160.981433481
 20
98.4267136834
 30
0.0
 10
159.9841992374
 20
98.0131112501
 30
0.0
 10
159.3487355208
 20
97.5983861629
 30
0.0
 10
159.0323622659
 20
97.3574464493
 30
0.0
  0
SPLINE
  5
327
100
AcDbEntity
  8
0
100
AcDbSpline
 62
7
  6
BYLAYER
 70
0
 71
3
 72
9
 73
5
 74
0
 42
0.0000001
 43
0.0000001
 44
0.0000000001
 40
0.0
 40
0.0
 40
0.0
 40
0.0
 40
0.4835900167
 40
1.0
 40
1.0
 40
1.0
 40
1.0
 10
159.0323622659
 20
97.3574464493
 30
0.0
 10
158.5049232445
 20
96.9557658243
 30
0.0
 10
157.5130132337
 20
95.9928089521
 30
0.0
 10
156.719604478
 20
94.8651067849
 30
0.0
 10
156.3642258631
 20
94.252791091
 30
0.0
  0
SPLINE
  5
328
100
AcDbEntity
  8
0
100
AcDbSpline
 62
7
  6
BYLAYER
 70
0
 71
3
 72
9
 73
5
 74
0
 42
0.0000001
 43
0.0000001
 44
0.0000000001
 40
0.0
 40
0.0
 40
0.0
 40
0.0
 40
0.5164148167
 40
1.0
 40
1.0
 40
1.0
 40
1.0
 10
156.3374017761
 20
94.2062252366
 30
0.0
 10
155.9858580591
 20
93.5914144036
 30
0.0
 10
155.4036739359
 20
92.3411421975
 30
0.0
 10
155.0666317949
 20
90.9997243955
 30
0.0
 10
154.9825230977
 20
90.3418827415
 30
0.0
  0
SPLINE
  5
329
100
AcDbEntity
  8
0
100
AcDbSpline
 62
7
  6
BYLAYER
 70
0
 71
3
 72
9
 73
5
 74
0
 42
0.0000001
 43
0.0000001
 44
0.0000000001
 40
0.0
 40
0.0
 40
0.0
 40
0.0
 40
0.5399123505
 40
1.0
 40
1.0
 40
1.0
 40
1.0
 10
154.9825230977
 20
90.3418827415
 30
0.0
 10
154.9129264422
 20
89.7975445165
 30
0.0
 10
154.8822169794
 20
88.7720168524
 30
0.0
 10
155.1444599833
 20
87.7653973067
 30
0.0
 10
155.3558068892
 20
87.3482460988
 30
0.0
  0
SPLINE
  5
32A
100
AcDbEntity
  8
0
100
AcDbSpline
 62
7
  6
BYLAYER
 70
0
 71
3
 72
9
 73
5
 74
0
 42
0.0000001
 43
0.0000001
 44
0.0000000001
 40
0.0
 40
0.0
 40
0.0
 40
0.0
 40
0.2603188516
 40
1.0
 40
1.0
 40
1.0
 40
1.0
 10
155.3558068892
 20
87.3482460988
 30
0.0
 10
155.3949452671
 20
87.2709957526
 30
0.0
 10
155.5570922116
 20
86.9805244183
 30
0.0
 10
155.7701757721
 20
86.7172922046
 30
0.0
 10
155.9527152453
 20
86.5522824778
 30
0.0
  0
SPLINE
  5
32B
100
AcDbEntity
  8
0
100
AcDbSpline
 62
7
  6
BYLAYER
 70
0
 71
3
 72
10
 73
6
 74
0
 42
0.0000001
 43
0.0000001
 44
0.0000000001
 40
0.0
 40
0.0
 40
0.0
 40
0.0
 40
0.2325243702
 40
0.4724733601
 40
1.0
 40
1.0
 40
1.0
 40
1.0
 10
156.2788003621
 20
86.3053909147
 30
0.0
 10
156.4358570599
 20
86.2069141136
 30
0.0
 10
156.7809784967
 20
86.0452143969
 30
0.0
 10
157.5681099655
 20
85.8858708358
 30
0.0
 10
158.1940845567
 20
85.9686544119
 30
0.0
 10
158.5986836572
 20
86.0834264998
 30
0.0
  0
SPLINE
  5
32C
100
AcDbEntity
  8
0
100
AcDbSpline
 62
7
  6
BYLAYER
 70
0
 71
3
 72
9
 73
5
 74
0
 42
0.0000001
 43
0.0000001
 44
0.0000000001
 40
0.0
 40
0.0
 40
0.0
 40
0.0
 40
0.4758141708
 40
1.0
 40
1.0
 40
1.0
 40
1.0
 10
158.9635740695
 20
86.2039536846
 30
0.0
 10
159.3009013383
 20
86.3308841572
 30
0.0
 10
159.9815718
 20
86.6748304028
 30
0.0
 10
160.5942401395
 20
87.1253516115
 30
0.0
 10
160.8977250083
 20
87.3813831976
 30
0.0
  0
SPLINE
  5
32D
100
AcDbEntity
  8
0
100
AcDbSpline
 62
7
  6
BYLAYER
 70
0
 71
3
 72
9
 73
5
 74
0
 42
0.0000001
 43
0.0000001
 44
0.0000000001
 40
0.0
 40
0.0
 40
0.0
 40
0.0
 40
0.2449971195
 40
1.0
 40
1.0
 40
1.0
 40
1.0
 10
160.8977250083
 20
87.3813831976
 30
0.0
 10
160.9646399641
 20
87.4378352452
 30
0.0
 10
161.2343102376
 20
87.6723318411
 30
0.0
 10
161.4901870667
 20
87.9225883636
 30
0.0
 10
161.6755120903
 20
88.1186546694
 30
0.0
  0
SPLINE
  5
32E
100
AcDbEntity
  8
0
100
AcDbSpline
 62
7
  6
BYLAYER
 70
0
 71
3
 72
9
 73
5
 74
0
 42
0.0000001
 43
0.0000001
 44
0.0000000001
 40
0.0
 40
0.0
 40
0.0
 40
0.0
 40
0.2446549288
 40
1.0
 40
1.0
 40
1.0
 40
1.0
 10
161.6755120903
 20
88.1186546694
 30
0.0
 10
161.8239727917
 20
88.2757200279
 30
0.0
 10
162.4104257096
 20
88.9367515741
 30
0.0
 10
162.9170722633
 20
89.6677969606
 30
0.0
 10
163.250702233
 20
90.2456642269
 30
0.0
  0
SPLINE
  5
32F
100
AcDbEntity
  8
0
100
AcDbSpline
 62
7
  6
BYLAYER
 70
0
 71
3
 72
9
 73
5
 74
0
 42
0.0000001
 43
0.0000001
 44
0.0000000001
 40
0.0
 40
0.0
 40
0.0
 40
0.0
 40
0.2530691959
 40
1.0
 40
1.0
 40
1.0
 40
1.0
 10
156.6218322105
 20
94.3476414513
 30
0.0
 10
156.7084965695
 20
94.4907409244
 30
0.0
 10
157.0633414483
 20
95.0485561377
 30
0.0
 10
157.4669441319
 20
95.5756938815
 30
0.0
 10
157.7946611444
 20
95.9450371621
 30
0.0
  0
SPLINE
  5
330
100
AcDbEntity
  8
0
100
AcDbSpline
 62
7
  6
BYLAYER
 70
0
 71
3
 72
9
 73
5
 74
0
 42
0.0000001
 43
0.0000001
 44
0.0000000001
 40
0.0
 40
0.0
 40
0.0
 40
0.0
 40
0.2570076383
 40
1.0
 40
1.0
 40
1.0
 40
1.0
 10
157.7946611444
 20
95.9450371621
 30
0.0
 10
157.8810386588
 20
96.0423862569
 30
0.0
 10
158.2243251921
 20
96.414664155
 30
0.0
 10
158.5968568988
 20
96.7603930346
 30
0.0
 10
158.8896292264
 20
96.9967045303
 30
0.0
  0
SPLINE
  5
331
100
AcDbEntity
  8
0
100
AcDbSpline
 62
7
  6
BYLAYER
 70
0
 71
3
 72
9
 73
5
 74
0
 42
0.0000001
 43
0.0000001
 44
0.0000000001
 40
0.0
 40
0.0
 40
0.0
 40
0.0
 40
0.2624079338
 40
1.0
 40
1.0
 40
1.0
 40
1.0
 10
159.1436695928
 20
97.1934009619
 30
0.0
 10
159.2445706471
 20
97.2682383239
 30
0.0
 10
159.636012348
 20
97.5437715503
 30
0.0
 10
160.0567382972
 20
97.7793168561
 30
0.0
 10
160.3808032139
 20
97.9195729287
 30
0.0
  0
SPLINE
  5
332
100
AcDbEntity
  8
0
100
AcDbSpline
 62
7
  6
BYLAYER
 70
0
 71
3
 72
9
 73
5
 74
0
 42
0.0000001
 43
0.0000001
 44
0.0000000001
 40
0.0
 40
0.0
 40
0.0
 40
0.0
 40
0.266612848
 40
1.0
 40
1.0
 40
1.0
 40
1.0
 10
160.3808032139
 20
97.9195729287
 30
0.0
 10
160.4926913043
 20
97.9679983625
 30
0.0
 10
160.9183830154
 20
98.1344874457
 30
0.0
 10
161.3719540229
 20
98.236647307
 30
0.0
 10
161.706704252
 20
98.2569680007
 30
0.0
  0
SPLINE
  5
333
100
AcDbEntity
  8
0
100
AcDbSpline
 62
7
  6
BYLAYER
 70
0
 71
3
 72
9
 73
5
 74
0
 42
0.0000001
 43
0.0000001
 44
0.0000000001
 40
0.0
 40
0.0
 40
0.0
 40
0.0
 40
0.2560527608
 40
1.0
 40
1.0
 40
1.0
 40
1.0
 10
161.8277098471
 20
98.2618909731
 30
0.0
 10
161.8750629025
 20
98.2628577126
 30
0.0
 10
162.0600459581
 20
98.2621916905
 30
0.0
 10
162.2450853087
 20
98.2431592439
 30
0.0
 10
162.3803162924
 20
98.2176799296
 30
0.0
  0
SPLINE
  5
334
100
AcDbEntity
  8
0
100
AcDbSpline
 62
7
  6
BYLAYER
 70
0
 71
3
 72
14
 73
10
 74
0
 42
0.0000001
 43
0.0000001
 44
0.0000000001
 40
0.0
 40
0.0
 40
0.0
 40
0.0
 40
0.0908227338
 40
0.18761442
 40
0.2951927131
 40
0.4156763336
 40
0.5488749388
 40
0.6928643274
 40
1.0
 40
1.0
 40
1.0
 40
1.0
 10
163.0283877804
 20
97.9932133951
 30
0.0
 10
163.2528965434
 20
97.8745651959
 30
0.0
 10
163.6759736977
 20
97.5441412802
 30
0.0
 10
164.1312974918
 20
96.8413514383
 30
0.0
 10
164.4060548619
 20
95.9663969914
 30
0.0
 10
164.498057971
 20
94.9545443821
 30
0.0
 10
164.4080411011
 20
93.8416404275
 30
0.0
 10
164.0441699106
 20
92.2451371855
 30
0.0
 10
163.5300629955
 20
91.0759465849
 30
0.0
 10
163.1007028575
 20
90.3322688828
 30
0.0
  0
SPLINE
  5
335
100
AcDbEntity
  8
0
100
AcDbSpline
 62
7
  6
BYLAYER
 70
0
 71
3
 72
14
 73
10
 74
0
 42
0.0000001
 43
0.0000001
 44
0.0000000001
 40
0.0
 40
0.0
 40
0.0
 40
0.0
 40
0.3071600685
 40
0.4511524802
 40
0.584346493
 40
0.7048207946
 40
0.8123887773
 40
0.9091730737
 40
1.0
 40
1.0
 40
1.0
 40
1.0
 10
163.1007028575
 20
90.3322688828
 30
0.0
 10
162.6712083097
 20
89.5883583749
 30
0.0
 10
161.9154565214
 20
88.5582412162
 30
0.0
 10
160.7143368594
 20
87.4446836385
 30
0.0
 10
159.7952377421
 20
86.8103012885
 30
0.0
 10
158.8726669208
 20
86.3842351824
 30
0.0
 10
157.9773238525
 20
86.1850501611
 30
0.0
 10
157.1408750156
 20
86.2285386968
 30
0.0
 10
156.6432517387
 20
86.4302372156
 30
0.0
 10
156.4283109045
 20
86.5655816011
 30
0.0
  0
SPLINE
  5
336
100
AcDbEntity
  8
0
100
AcDbSpline
 62
7
  6
BYLAYER
 70
0
 71
3
 72
9
 73
5
 74
0
 42
0.0000001
 43
0.0000001
 44
0.0000000001
 40
0.0
 40
0.0
 40
0.0
 40
0.0
 40
0.244580562
 40
1.0
 40
1.0
 40
1.0
 40
1.0
 10
155.9223876658
 20
87.001085518
 30
0.0
 10
155.8919929786
 20
87.0359861994
 30
0.0
 10
155.7717558567
 20
87.1821718532
 30
0.0
 10
155.6678975158
 20
87.3416298316
 30
0.0
 10
155.5988160518
 20
87.4667724524
 30
0.0
  0
SPLINE
  5
337
100
AcDbEntity
  8
0
100
AcDbSpline
 62
7
  6
BYLAYER
 70
0
 71
3
 72
9
 73
5
 74
0
 42
0.0000001
 43
0.0000001
 44
0.0000000001
 40
0.0
 40
0.0
 40
0.0
 40
0.0
 40
0.2349777676
 40
1.0
 40
1.0
 40
1.0
 40
1.0
 10
155.5422423553
 20
87.5743791839
 30
0.0
 10
155.4946206996
 20
87.669549379
 30
0.0
 10
155.3129870728
 20
88.0850801506
 30
0.0
 10
155.2129518633
 20
88.5335167452
 30
0.0
 10
155.172015837
 20
88.8775634172
 30
0.0
  0
SPLINE
  5
338
100
AcDbEntity
  8
0
100
AcDbSpline
 62
7
  6
BYLAYER
 70
0
 71
3
 72
9
 73
5
 74
0
 42
0.0000001
 43
0.0000001
 44
0.0000000001
 40
0.0
 40
0.0
 40
0.0
 40
0.0
 40
0.2354551988
 40
1.0
 40
1.0
 40
1.0
 40
1.0
 10
155.172015837
 20
88.8775634172
 30
0.0
 10
155.1556061489
 20
89.0154785758
 30
0.0
 10
155.1099031807
 20
89.6040407517
 30
0.0
 10
155.1534779355
 20
90.1976762097
 30
0.0
 10
155.2230994752
 20
90.6432518875
 30
0.0
  0
SPLINE
  5
339
100
AcDbEntity
  8
0
100
AcDbSpline
 62
7
  6
BYLAYER
 70
0
 71
3
 72
9
 73
5
 74
0
 42
0.0000001
 43
0.0000001
 44
0.0000000001
 40
0.0
 40
0.0
 40
0.0
 40
0.0
 40
0.2427304026
 40
1.0
 40
1.0
 40
1.0
 40
1.0
 10
155.2230994752
 20
90.6432518875
 30
0.0
 10
155.2419279489
 20
90.7637535305
 30
0.0
 10
155.3306795709
 20
91.2584188205
 30
0.0
 10
155.4623749726
 20
91.7450910556
 30
0.0
 10
155.5820303368
 20
92.1062897403
 30
0.0
  0
SPLINE
  5
33A
100
AcDbEntity
  8
0
100
AcDbSpline
 62
7
  6
BYLAYER
 70
0
 71
3
 72
9
 73
5
 74
0
 42
0.0000001
 43
0.0000001
 44
0.0000000001
 40
0.0
 40
0.0
 40
0.0
 40
0.0
 40
0.2459740284
 40
1.0
 40
1.0
 40
1.0
 40
1.0
 10
155.5820303368
 20
92.1062897403
 30
0.0
 10
155.6336428953
 20
92.2620904294
 30
0.0
 10
155.8587940495
 20
92.8903447494
 30
0.0
 10
156.1428196283
 20
93.4972519692
 30
0.0
 10
156.3853092034
 20
93.9380867651
 30
0.0
  0
SPLINE
  5
33B
100
AcDbEntity
  8
0
100
AcDbSpline
 62
7
  6
BYLAYER
 70
0
 71
3
 72
14
 73
10
 74
0
 42
0.0000001
 43
0.0000001
 44
0.0000000001
 40
0.0
 40
0.0
 40
0.0
 40
0.0
 40
0.0907845218
 40
0.1880129385
 40
0.2960938075
 40
0.416915586
 40
0.5501609619
 40
0.6939160796
 40
1.0
 40
1.0
 40
1.0
 40
1.0
 10
162.9799920932
 20
97.907568325
 30
0.0
 10
163.1943736871
 20
97.7837915152
 30
0.0
 10
163.5956236036
 20
97.4465384053
 30
0.0
 10
164.0225388209
 20
96.7483105323
 30
0.0
 10
164.2763477054
 20
95.8875462003
 30
0.0
 10
164.3551775477
 20
94.8976582836
 30
0.0
 10
164.2595775337
 20
93.8127053356
 30
0.0
 10
163.8985942847
 20
92.2607064937
 30
0.0
 10
163.3973002461
 20
91.1247641125
 30
0.0
 10
162.9799920932
 20
90.4019611769
 30
0.0
  0
SPLINE
  5
33C
100
AcDbEntity
  8
0
100
AcDbSpline
 62
7
  6
BYLAYER
 70
0
 71
3
 72
14
 73
10
 74
0
 42
0.0000001
 43
0.0000001
 44
0.0000000001
 40
0.0
 40
0.0
 40
0.0
 40
0.0
 40
0.3060849163
 40
0.4498399307
 40
0.5830849581
 40
0.7039062921
 40
0.8119868003
 40
0.9092151252
 40
1.0
 40
1.0
 40
1.0
 40
1.0
 10
162.9799920932
 20
90.4019611769
 30
0.0
 10
162.5626886153
 20
89.6791663388
 30
0.0
 10
161.8295958938
 20
88.6770698749
 30
0.0
 10
160.6660383546
 20
87.5884584935
 30
0.0
 10
159.7742588907
 20
86.9631968128
 30
0.0
 10
158.8775924871
 20
86.5365270603
 30
0.0
 10
158.0052589809
 20
86.3259538683
 30
0.0
 10
157.1871302615
 20
86.3465617646
 30
0.0
 10
156.6944428634
 20
86.5254277202
 30
0.0
 10
156.4800607671
 20
86.6491984277
 30
0.0
  0
ENDSEC
  0
SECTION
  2
OBJECTS
  0
DICTIONARY
  5
C
100
AcDbDictionary
280
0
281
1
  3
ACAD_GROUP
350
D
  3
ACAD_MLINESTYLE
350
17
  3
ACAD_LAYOUT
350
1A
  3
ACAD_PLOTSETTINGS
350
19
  3
ACAD_PLOTSTYLENAME
350
E
  0
DICTIONARY
  5
D
102
{ACAD_REACTORS
330
C
102
}
100
AcDbDictionary
280
0
281
1
  0
ACDBDICTIONARYWDFLT
  5
E
102
{ACAD_REACTORS
330
C
102
}
100
AcDbDictionary
281
1
  3
Normal
350
F
100
AcDbDictionaryWithDefault
340
F
  0
DICTIONARY
  5
17
102
{ACAD_REACTORS
330
C
102
}
100
AcDbDictionary
280
0
281
1
  3
Standard
350
18
  0
DICTIONARY
  5
19
102
{ACAD_REACTORS
330
C
102
}
100
AcDbDictionary
281
1
  0
DICTIONARY
  5
1A
102
{ACAD_REACTORS
330
C
102
}
100
AcDbDictionary
281
1
  3
Model
350
33D
  3
Layout1
350
33E
  0
ACDBPLACEHOLDER
  5
F
102
{ACAD_REACTORS
330
E
102
}
  0
MLINESTYLE
  5
18
102
{ACAD_REACTORS
330
17
102
}
100
AcDbMlineStyle
  2
STANDARD
 70
0
  3

 62
256
 51
90.0
 52
90.0
 71
2
 49
0.5
 62
256
  6
BYLAYER
 49
-0.5
 62
256
  6
BYLAYER
  0
LAYOUT
  5
33D
102
{ACAD_REACTORS
330
1A
102
}
100
AcDbPlotSettings
  1

  2
none_device
  4

  6

 40
0.0
 41
0.0
 42
0.0
 43
0.0
 44
210.0
 45
297.0
 46
0.0
 47
0.0
 48
0.0
 49
0.0
140
0.0
141
0.0
142
1.0
143
1.0
 70
1024
 72
1
 73
0
 74
0
  7

 75
0
147
1.0
148
0.0
149
0.0
100
AcDbLayout
  1
Model
 70
0
 71
0
 10
0.0
 20
0.0
 11
210.0
 21
297.0
 12
0.0
 22
0.0
 32
0.0
 14
0.0
 24
0.0
 34
0.0
 15
0.0
 25
0.0
 35
0.0
146
0.0
 13
0.0
 23
0.0
 33
0.0
 16
1.0
 26
0.0
 36
0.0
 17
0.0
 27
1.0
 37
0.0
 76
0
330
210
345
0
346
0
  0
LAYOUT
  5
33E
102
{ACAD_REACTORS
330
1A
102
}
100
AcDbPlotSettings
  1

  2
none_device
  4

  6

 40
0.0
 41
0.0
 42
0.0
 43
0.0
 44
210.0
 45
297.0
 46
0.0
 47
0.0
 48
0.0
 49
0.0
140
0.0
141
0.0
142
1.0
143
1.0
 70
0
 72
1
 73
0
 74
0
  7

 75
0
147
1.0
148
0.0
149
0.0
100
AcDbLayout
  1
Layout1
 70
0
 71
1
 10
0.0
 20
0.0
 11
210.0
 21
297.0
 12
0.0
 22
0.0
 32
0.0
 14
0.0
 24
0.0
 34
0.0
 15
0.0
 25
0.0
 35
0.0
146
0.0
 13
0.0
 23
0.0
 33
0.0
 16
1.0
 26
0.0
 36
0.0
 17
0.0
 27
1.0
 37
0.0
 76
0
330
211
345
0
346
0
  0
ENDSEC
  0
EOF
