999
DXF file: C:\Users\sesa63760\Dev\_Creo\CAD\MCADID0003981_3D-CAD\drw0001_1.dxf
999
Pro/ENGINEER 2019471 by Parametric Technology Corporation
  0
SECTION
  2
HEADER
  9
$ACADVER
  1
AC1024
  9
$DWGCODEPAGE
  3
ANSI_1252
  9
$EXTMAX
 10
65.2205330087
 20
92.2404681123
 30
0.0
  9
$EXTMIN
 10
0.0
 20
0.0
 30
0.0
  9
$LIMMIN
 10
0.0
 20
0.0
  9
$LIMMAX
 10
65.2205330087
 20
92.2404681123
  9
$VIEWCTR
 10
32.6102665043
 20
46.1202340561
  9
$VIEWSIZE
 40
92.2404681123
  9
$CLAYER
  8
0
  9
$LTSCALE
 40
6.0127119955
  9
$CELTYPE
  6
BYLAYER
  9
$DIMSCALE
 40
1.0
  9
$DIMASZ
 40
0.7764349168
  9
$DIMEXO
 40
1.0
  9
$DIMDLI
 40
4.1542373787
  9
$DIMEXE
 40
1.0
  9
$DIMCEN
 40
0.9838983265
  9
$DIMLFAC
 40
1.0
  9
$DIMBLK
  1
_FILLED
  9
$DIMALT
 70
0
  9
$DIMALTF
 40
0.0393700787
  9
$DIMTXT
 40
1.0870088835
  9
$DIMTOL
 70
1
  9
$DIMLIM
 70
0
  9
$DIMTFAC
 40
1.0
  9
$DIMTP
 40
0.01
  9
$DIMTM
 40
0.01
  9
$DIMGAP
 40
0.625
  9
$DIMDSEP
 70
46
  9
$AUNITS
 70
0
  9
$PDMODE
 70
3
  9
$PDSIZE
 40
0.3125
  9
$HANDSEED
  5
34A
  9
$TILEMODE
 70
1
  9
$MEASUREMENT
 70
1
  9
$INSUNITS
 70
4
  0
ENDSEC
  0
SECTION
  2
CLASSES
  0
CLASS
  1
ACDBDICTIONARYWDFLT
  2
AcDbDictionaryWithDefault
  3
AutoCAD 2000
 90
0
 91
1
280
0
281
0
  0
CLASS
  1
ACDBPLACEHOLDER
  2
AcDbPlaceHolder
  3
AutoCAD 2000
 90
0
 91
1
280
0
281
0
  0
CLASS
  1
LAYOUT
  2
AcDbLayout
  3
AutoCAD 2000
 90
0
 91
0
280
0
281
0
  0
ENDSEC
  0
SECTION
  2
TABLES
  0
TABLE
  2
VPORT
  5
8
100
AcDbSymbolTable
 70
2
  0
VPORT
  5
1F4
100
AcDbSymbolTableRecord
100
AcDbViewportTableRecord
  2
*ACTIVE
 70
0
 10
0.0
 20
0.0
 11
1.0
 21
1.0
 12
32.6102665043
 22
46.1202340561
 13
0.0
 23
0.0
 14
1.0
 24
1.0
 15
0.0
 25
0.0
 16
0.0
 26
0.0
 36
1.0
 17
0.0
 27
0.0
 37
0.0
 40
92.2404681123
 41
0.7070707071
 42
50.0
 43
0.0
 44
0.0
 50
0.0
 51
0.0
 71
0
 72
100
 73
1
 74
1
 75
0
 76
0
 77
0
 78
0
  0
ENDTAB
  0
TABLE
  2
LTYPE
  5
5
100
AcDbSymbolTable
 70
6
  0
LTYPE
  5
14
100
AcDbSymbolTableRecord
100
AcDbLinetypeTableRecord
  2
BYBLOCK
 70
0
  3

 72
65
 73
0
 40
0.0
  0
LTYPE
  5
15
100
AcDbSymbolTableRecord
100
AcDbLinetypeTableRecord
  2
BYLAYER
 70
0
  3

 72
65
 73
0
 40
0.0
  0
LTYPE
  5
16
100
AcDbSymbolTableRecord
100
AcDbLinetypeTableRecord
  2
CONTINUOUS
 70
64
  3
Solid line
 72
65
 73
0
 40
0.0
  0
LTYPE
  5
1F5
100
AcDbSymbolTableRecord
100
AcDbLinetypeTableRecord
  2
CENTER
 70
64
  3
____ _ ____ _ ____ _ ____ _ ____ _ ____ _ ____
 72
65
 73
4
 40
0.6
 49
0.375
 74
0
 49
-0.075
 74
0
 49
0.075
 74
0
 49
-0.075
 74
0
  0
LTYPE
  5
1F6
100
AcDbSymbolTableRecord
100
AcDbLinetypeTableRecord
  2
HIDDEN
 70
64
  3
- - - - - - - - - - - - - - - - - - - -
 72
65
 73
2
 40
0.2
 49
0.1
 74
0
 49
-0.1
 74
0
  0
LTYPE
  5
1F7
100
AcDbSymbolTableRecord
100
AcDbLinetypeTableRecord
  2
PHANTOM
 70
64
  3
_____ _ _ _____ _ _ _____ _ _ _____
 72
65
 73
6
 40
0.8
 49
0.45
 74
0
 49
-0.05
 74
0
 49
0.1
 74
0
 49
-0.05
 74
0
 49
0.1
 74
0
 49
-0.05
 74
0
  0
LTYPE
  5
1F8
100
AcDbSymbolTableRecord
100
AcDbLinetypeTableRecord
  2
DOT
 70
64
  3
. . . . . . . . . . . . . . . . . . . .
 72
65
 73
2
 40
0.2
 49
0.1
 74
0
 49
-0.1
 74
0
  0
LTYPE
  5
1F9
100
AcDbSymbolTableRecord
100
AcDbLinetypeTableRecord
  2
DASHED
 70
64
  3
- - - - - - - - - - - - - - - - - - - -
 72
65
 73
2
 40
0.2
 49
0.1
 74
0
 49
-0.1
 74
0
  0
ENDTAB
  0
TABLE
  2
LAYER
  5
2
100
AcDbSymbolTable
 70
36
  0
LAYER
  5
10
100
AcDbSymbolTableRecord
100
AcDbLayerTableRecord
  2
0
 70
0
 62
7
  6
CONTINUOUS
370
-3
390
F
  0
LAYER
  5
1FA
100
AcDbSymbolTableRecord
100
AcDbLayerTableRecord
  2
DEFAULT_1
 70
0
 62
7
  6
CENTER
370
-3
390
F
  0
LAYER
  5
1FB
100
AcDbSymbolTableRecord
100
AcDbLayerTableRecord
  2
DEFAULT_2
 70
0
 62
7
  6
HIDDEN
370
-3
390
F
  0
LAYER
  5
1FC
100
AcDbSymbolTableRecord
100
AcDbLayerTableRecord
  2
DEFAULT_3
 70
0
 62
7
  6
PHANTOM
370
-3
390
F
  0
LAYER
  5
1FD
100
AcDbSymbolTableRecord
100
AcDbLayerTableRecord
  2
00_COMPONENTS
 70
0
 62
7
  6
CONTINUOUS
370
-3
390
F
  0
LAYER
  5
1FE
100
AcDbSymbolTableRecord
100
AcDbLayerTableRecord
  2
01_1_DEFAULT_DATUMS
 70
0
 62
7
  6
CONTINUOUS
370
-3
390
F
  0
LAYER
  5
1FF
100
AcDbSymbolTableRecord
100
AcDbLayerTableRecord
  2
01_PLANES
 70
0
 62
7
  6
CONTINUOUS
370
-3
390
F
  0
LAYER
  5
200
100
AcDbSymbolTableRecord
100
AcDbLayerTableRecord
  2
02_COORD_SYS
 70
0
 62
7
  6
CONTINUOUS
370
-3
390
F
  0
LAYER
  5
201
100
AcDbSymbolTableRecord
100
AcDbLayerTableRecord
  2
03_AXES
 70
0
 62
7
  6
CONTINUOUS
370
-3
390
F
  0
LAYER
  5
202
100
AcDbSymbolTableRecord
100
AcDbLayerTableRecord
  2
04_POINTS
 70
0
 62
7
  6
CONTINUOUS
370
-3
390
F
  0
LAYER
  5
203
100
AcDbSymbolTableRecord
100
AcDbLayerTableRecord
  2
05_CURVES
 70
0
 62
7
  6
CONTINUOUS
370
-3
390
F
  0
LAYER
  5
204
100
AcDbSymbolTableRecord
100
AcDbLayerTableRecord
  2
06_SURFS
 70
0
 62
7
  6
CONTINUOUS
370
-3
390
F
  0
LAYER
  5
205
100
AcDbSymbolTableRecord
100
AcDbLayerTableRecord
  2
07_COSMETICS
 70
0
 62
7
  6
CONTINUOUS
370
-3
390
F
  0
LAYER
  5
206
100
AcDbSymbolTableRecord
100
AcDbLayerTableRecord
  2
10_NOTES
 70
0
 62
7
  6
CONTINUOUS
370
-3
390
F
  0
LAYER
  5
207
100
AcDbSymbolTableRecord
100
AcDbLayerTableRecord
  2
11_NOTES_PUB
 70
0
 62
7
  6
CONTINUOUS
370
-3
390
F
  0
LAYER
  5
208
100
AcDbSymbolTableRecord
100
AcDbLayerTableRecord
  2
13_REF_GTOL
 70
0
 62
7
  6
CONTINUOUS
370
-3
390
F
  0
LAYER
  5
209
100
AcDbSymbolTableRecord
100
AcDbLayerTableRecord
  2
16_MISC
 70
0
 62
7
  6
CONTINUOUS
370
-3
390
F
  0
LAYER
  5
20A
100
AcDbSymbolTableRecord
100
AcDbLayerTableRecord
  2
17_NO_PRINT
 70
0
 62
7
  6
CONTINUOUS
370
-3
390
F
  0
LAYER
  5
20B
100
AcDbSymbolTableRecord
100
AcDbLayerTableRecord
  2
18_DATUM_CAMS_JOINTS
 70
0
 62
7
  6
CONTINUOUS
370
-3
390
F
  0
LAYER
  5
20C
100
AcDbSymbolTableRecord
100
AcDbLayerTableRecord
  2
19_DATUM_FUNCTIONAL
 70
0
 62
7
  6
CONTINUOUS
370
-3
390
F
  0
LAYER
  5
20D
100
AcDbSymbolTableRecord
100
AcDbLayerTableRecord
  2
20_DATUM_KINEMATIC_SCHEME
 70
0
 62
7
  6
CONTINUOUS
370
-3
390
F
  0
ENDTAB
  0
TABLE
  2
STYLE
  5
3
100
AcDbSymbolTable
 70
1
  0
STYLE
  5
11
100
AcDbSymbolTableRecord
100
AcDbTextStyleTableRecord
  2
STANDARD
 70
0
 40
0.0
 41
1.0
 50
0.0
 71
0
 42
0.2
  3
ARIAL.TTF
  4

  0
STYLE
  5
20E
100
AcDbSymbolTableRecord
100
AcDbTextStyleTableRecord
  2
TEXTSTYLE_1
 70
0
 40
0.0
 41
0.8
 50
0.0
 71
0
 42
0.2
  3
gdt
  4

  0
ENDTAB
  0
TABLE
  2
VIEW
  5
6
100
AcDbSymbolTable
 70
0
  0
ENDTAB
  0
TABLE
  2
UCS
  5
7
100
AcDbSymbolTable
 70
0
  0
ENDTAB
  0
TABLE
  2
APPID
  5
9
100
AcDbSymbolTable
 70
1
  0
APPID
  5
20F
100
AcDbSymbolTableRecord
100
AcDbRegAppTableRecord
  2
ACAD
 70
0
  0
ENDTAB
  0
TABLE
  2
BLOCK_RECORD
  5
1
100
AcDbSymbolTable
 70
0
  0
BLOCK_RECORD
  5
210
100
AcDbSymbolTableRecord
100
AcDbBlockTableRecord
  2
*Model_Space
  0
BLOCK_RECORD
  5
211
100
AcDbSymbolTableRecord
100
AcDbBlockTableRecord
  2
*Paper_Space
  0
BLOCK_RECORD
  5
212
100
AcDbSymbolTableRecord
100
AcDbBlockTableRecord
  2
_FILLED
  0
ENDTAB
  0
TABLE
  2
DIMSTYLE
  5
A
100
AcDbSymbolTable
 70
1
100
AcDbDimStyleTable
 71
0
  0
DIMSTYLE
105
213
100
AcDbSymbolTableRecord
100
AcDbDimStyleTableRecord
  2
STANDARD
 70
0
  3

  4

 40
1.0
 41
0.7764349168
 42
1.0
 43
0.38
 44
1.0
 45
0.0
 46
0.0
 47
0.01
 48
0.01
140
1.0870088835
141
0.09
142
0.0
143
25.4
144
1.0
145
0.0
146
1.0
147
0.625
 71
1
 72
0
 73
0
 74
0
 75
0
 76
0
 77
1
 78
8
 79
2
170
0
171
1
172
0
173
0
174
0
175
0
176
0
177
0
178
0
270
2
179
2
271
2
272
2
273
2
274
2
275
0
280
0
281
0
282
0
283
1
284
8
285
0
286
0
287
3
288
0
340
11
278
46
341
212
342
212
343
212
344
212
  0
ENDTAB
  0
ENDSEC
  0
SECTION
  2
BLOCKS
  0
BLOCK
  5
20
100
AcDbEntity
  8
0
100
AcDbBlockBegin
  2
*Model_Space
 70
0
 10
0.0
 20
0.0
 30
0.0
  3
*Model_Space
  1

  0
ENDBLK
  5
21
100
AcDbEntity
  8
0
100
AcDbBlockEnd
  0
BLOCK
  5
1C
100
AcDbEntity
  8
0
100
AcDbBlockBegin
  2
*Paper_Space
 70
0
 10
0.0
 20
0.0
 30
0.0
  3
*Paper_Space
  1

  0
ENDBLK
  5
1D
100
AcDbEntity
  8
0
100
AcDbBlockEnd
  0
BLOCK
  5
214
100
AcDbEntity
  8
0
100
AcDbBlockBegin
  2
_FILLED
 70
64
 10
0.0
 20
0.0
  3
_FILLED
  1

  0
SOLID
  5
215
100
AcDbEntity
  8
0
  6
BYBLOCK
 62
0
100
AcDbTrace
 10
0.0
 20
0.0
 11
-1.0
 21
0.25
 12
-1.0
 22
-0.25
 13
-1.0
 23
-0.25
  0
ENDBLK
  5
216
100
AcDbEntity
  8
0
  6
BYBLOCK
 62
0
100
AcDbBlockEnd
  0
ENDSEC
  0
SECTION
  2
ENTITIES
  0
LINE
  5
217
100
AcDbEntity
  8
0
100
AcDbLine
 62
7
  6
BYLAYER
 10
41.5640458634
 20
59.9949142756
 11
40.3202609787
 21
59.276819024
  0
LINE
  5
218
100
AcDbEntity
  8
0
100
AcDbLine
 62
7
  6
BYLAYER
 10
45.2699878392
 20
62.1345281011
 11
46.5137727102
 21
62.8526233448
  0
LINE
  5
219
100
AcDbEntity
  8
0
100
AcDbLine
 62
7
  6
BYLAYER
 10
47.3956643124
 20
60.2807600955
 11
47.386210125
 21
60.2765176934
  0
LWPOLYLINE
  5
21A
100
AcDbEntity
  8
0
100
AcDbPolyline
 62
7
  6
BYLAYER
 90
4
 70
0
 10
22.786848825
 20
45.2844586342
 10
22.2671126983
 20
44.8557472116
 10
21.8917578585
 20
44.2790767123
 10
21.7414873298
 20
43.5262236809
  0
LINE
  5
21B
100
AcDbEntity
  8
0
100
AcDbLine
 62
7
  6
BYLAYER
 10
46.9621035394
 20
60.4771305842
 11
45.7183186732
 21
59.7590353433
  0
LINE
  5
21C
100
AcDbEntity
  8
0
100
AcDbLine
 62
7
  6
BYLAYER
 10
50.6680455202
 20
62.6167444126
 11
51.9118303999
 21
63.3348396613
  0
LINE
  5
21D
100
AcDbEntity
  8
0
100
AcDbLine
 62
7
  6
BYLAYER
 10
47.4137528031
 20
60.2538594002
 11
46.2464693947
 21
59.579932033
  0
LINE
  5
21E
100
AcDbEntity
  8
0
100
AcDbLine
 62
7
  6
BYLAYER
 10
51.1961962329
 20
62.4376410972
 11
52.3634796695
 21
63.1115684807
  0
LINE
  5
21F
100
AcDbEntity
  8
0
100
AcDbLine
 62
7
  6
BYLAYER
 10
42.9194459197
 20
56.9079496034
 11
22.786848825
 21
45.2844586342
  0
LINE
  5
220
100
AcDbEntity
  8
0
100
AcDbLine
 62
7
  6
BYLAYER
 10
47.400861174
 20
60.2709884062
 11
47.3925149271
 21
60.2647068555
  0
LINE
  5
221
100
AcDbEntity
  8
0
100
AcDbLine
 62
7
  6
BYLAYER
 10
22.5797427494
 20
44.0101877841
 11
17.1350432028
 21
40.8667077993
  0
LINE
  5
222
100
AcDbEntity
  8
0
100
AcDbLine
 62
7
  6
BYLAYER
 10
17.0643328191
 20
40.8258833839
 11
15.6501251447
 21
40.0093950762
  0
LINE
  5
223
100
AcDbEntity
  8
0
100
AcDbLine
 62
7
  6
BYLAYER
 10
14.750390575
 20
35.3377901087
 11
15.9814122639
 21
36.1580020974
  0
LINE
  5
224
100
AcDbEntity
  8
0
100
AcDbLine
 62
7
  6
BYLAYER
 10
7.7734441726
 20
30.8429981391
 11
14.8444825448
 21
34.9254396778
  0
LINE
  5
225
100
AcDbEntity
  8
0
100
AcDbLine
 62
7
  6
BYLAYER
 10
53.3389631818
 20
56.3931085526
 11
53.4248689409
 21
56.4383527829
  0
LINE
  5
226
100
AcDbEntity
  8
0
100
AcDbLine
 62
7
  6
BYLAYER
 10
54.1002104182
 20
56.247129619
 11
53.8530365058
 21
56.1169498319
  0
LINE
  5
227
100
AcDbEntity
  8
0
100
AcDbLine
 62
7
  6
BYLAYER
 10
53.9135260606
 20
55.5660690923
 11
53.8276203016
 21
55.5208248619
  0
LINE
  5
228
100
AcDbEntity
  8
0
100
AcDbLine
 62
7
  6
BYLAYER
 10
8.7734396958
 20
29.1109447468
 11
15.8444780679
 21
33.1933862855
  0
LINE
  5
229
100
AcDbEntity
  8
0
100
AcDbLine
 62
7
  6
BYLAYER
 10
53.0567604749
 20
53.2339247623
 11
51.88947704
 21
52.5599973797
  0
LINE
  5
22A
100
AcDbEntity
  8
0
100
AcDbLine
 62
7
  6
BYLAYER
 10
56.8392039062
 20
55.4177064602
 11
58.0064873134
 21
56.0916338267
  0
LINE
  5
22B
100
AcDbEntity
  8
0
100
AcDbLine
 62
7
  6
BYLAYER
 10
54.4251391217
 20
54.4125153819
 11
54.3259482552
 21
54.3941773496
  0
LINE
  5
22C
100
AcDbEntity
  8
0
100
AcDbLine
 62
7
  6
BYLAYER
 10
52.6355073048
 20
57.4117207585
 11
52.7053668747
 21
57.482417
  0
LINE
  5
22D
100
AcDbEntity
  8
0
100
AcDbLine
 62
7
  6
BYLAYER
 10
53.2787236983
 20
52.619218068
 11
52.0349388826
 21
51.9011228563
  0
LINE
  5
22E
100
AcDbEntity
  8
0
100
AcDbLine
 62
7
  6
BYLAYER
 10
56.984665674
 20
54.7588318936
 11
58.2284505451
 21
55.4769271372
  0
LINE
  5
22F
100
AcDbEntity
  8
0
100
AcDbLine
 62
7
  6
BYLAYER
 10
16.1545365443
 20
32.9057234311
 11
17.4803751986
 21
33.5617066381
  0
LINE
  5
230
100
AcDbEntity
  8
0
100
AcDbLine
 62
7
  6
BYLAYER
 10
54.6733588793
 20
55.0863376539
 11
54.3879601492
 21
55.0335742159
  0
LINE
  5
231
100
AcDbEntity
  8
0
100
AcDbLine
 62
7
  6
BYLAYER
 10
53.9364036421
 20
55.3005070279
 11
54.0355945086
 21
55.3188450602
  0
LINE
  5
232
100
AcDbEntity
  8
0
100
AcDbLine
 62
7
  6
BYLAYER
 10
39.5753101726
 20
54.9891811791
 11
39.5765149075
 21
54.9779190043
  0
LINE
  5
233
100
AcDbEntity
  8
0
100
AcDbLine
 62
7
  6
BYLAYER
 10
39.5753101726
 20
54.9891811791
 11
39.575944661
 21
54.9775897744
  0
LINE
  5
234
100
AcDbEntity
  8
0
100
AcDbLine
 62
7
  6
BYLAYER
 10
39.5753101726
 20
54.9891811791
 11
39.5753153486
 21
54.9772257165
  0
LINE
  5
235
100
AcDbEntity
  8
0
100
AcDbLine
 62
7
  6
BYLAYER
 10
53.4079428774
 20
57.3451847998
 11
53.2069381557
 21
57.1417727491
  0
LINE
  5
236
100
AcDbEntity
  8
0
100
AcDbLine
 62
7
  6
BYLAYER
 10
53.2774306592
 20
56.6722152126
 11
53.2075710894
 21
56.601518971
  0
LINE
  5
237
100
AcDbEntity
  8
0
100
AcDbLine
 62
7
  6
BYLAYER
 10
27.579720365
 20
35.3499208227
 11
22.1350208184
 21
32.2064408379
  0
LINE
  5
238
100
AcDbEntity
  8
0
100
AcDbLine
 62
7
  6
BYLAYER
 10
22.0643104347
 20
32.1656164225
 11
20.6501027603
 21
31.3491281148
  0
LINE
  5
239
100
AcDbEntity
  8
0
100
AcDbLine
 62
7
  6
BYLAYER
 10
49.4337496664
 20
46.8125763921
 11
28.7868219637
 21
34.8921382804
  0
LINE
  5
23A
100
AcDbEntity
  8
0
100
AcDbLine
 62
7
  6
BYLAYER
 10
44.7457918617
 20
60.4889383236
 11
44.7439563541
 21
60.4770831728
  0
LINE
  5
23B
100
AcDbEntity
  8
0
100
AcDbLine
 62
7
  6
BYLAYER
 10
44.755134703
 20
60.4922102674
 11
44.7530157351
 21
60.4802636605
  0
LINE
  5
23C
100
AcDbEntity
  8
0
100
AcDbLine
 62
7
  6
BYLAYER
 10
54.7958261776
 20
53.2486302468
 11
54.6865382797
 21
53.2577878119
  0
LINE
  5
23D
100
AcDbEntity
  8
0
100
AcDbLine
 62
7
  6
BYLAYER
 10
55.1089667976
 20
53.9001177133
 11
54.7945161997
 21
53.9264664846
  0
LINE
  5
23E
100
AcDbEntity
  8
0
100
AcDbLine
 62
7
  6
BYLAYER
 10
54.4086264576
 20
54.1690332963
 11
54.5179143555
 21
54.1598757311
  0
LINE
  5
23F
100
AcDbEntity
  8
0
100
AcDbLine
 62
7
  6
BYLAYER
 10
51.8486456618
 20
58.323604611
 11
51.9002136984
 21
58.4174806284
  0
LINE
  5
240
100
AcDbEntity
  8
0
100
AcDbLine
 62
7
  6
BYLAYER
 10
52.6188063052
 20
58.3452107992
 11
52.4704312314
 21
58.0751043157
  0
LINE
  5
241
100
AcDbEntity
  8
0
100
AcDbLine
 62
7
  6
BYLAYER
 10
52.5372975469
 20
57.6954012963
 11
52.4857295104
 21
57.6015252788
  0
LINE
  5
242
100
AcDbEntity
  8
0
100
AcDbLine
 62
7
  6
BYLAYER
 10
53.2787236983
 20
45.4217863497
 11
52.0349388273
 21
44.703691106
  0
LINE
  5
243
100
AcDbEntity
  8
0
100
AcDbLine
 62
7
  6
BYLAYER
 10
56.9846656741
 20
47.5614001752
 11
58.2284504898
 21
48.279495387
  0
LINE
  5
244
100
AcDbEntity
  8
0
100
AcDbLine
 62
7
  6
BYLAYER
 10
53.0567604757
 20
44.9750399021
 11
51.889477045
 21
44.301112522
  0
LINE
  5
245
100
AcDbEntity
  8
0
100
AcDbLine
 62
7
  6
BYLAYER
 10
56.8392039055
 20
47.1588215991
 11
58.0064873421
 21
47.8327489826
  0
LINE
  5
246
100
AcDbEntity
  8
0
100
AcDbLine
 62
7
  6
BYLAYER
 10
55.0136730414
 20
52.1118219128
 11
54.8978007151
 21
52.1481807437
  0
LINE
  5
247
100
AcDbEntity
  8
0
100
AcDbLine
 62
7
  6
BYLAYER
 10
51.0036686334
 20
59.099451413
 11
51.0352876975
 21
59.2134899538
  0
LINE
  5
248
100
AcDbEntity
  8
0
100
AcDbLine
 62
7
  6
BYLAYER
 10
51.7581642005
 20
59.2150659589
 11
51.6671876715
 21
58.8869464871
  0
LINE
  5
249
100
AcDbEntity
  8
0
100
AcDbLine
 62
7
  6
BYLAYER
 10
51.716915211
 20
58.6027413008
 11
51.6852961469
 21
58.48870276
  0
LINE
  5
24A
100
AcDbEntity
  8
0
100
AcDbLine
 62
7
  6
BYLAYER
 10
47.5770259111
 20
60.4233616746
 11
47.5952645112
 21
60.4249726876
  0
LINE
  5
24B
100
AcDbEntity
  8
0
100
AcDbLine
 62
7
  6
BYLAYER
 10
55.3930333761
 20
52.7265958822
 11
55.0596376115
 21
52.8312099917
  0
LINE
  5
24C
100
AcDbEntity
  8
0
100
AcDbLine
 62
7
  6
BYLAYER
 10
54.7404539987
 20
53.0350538545
 11
54.856326325
 21
52.9986950236
  0
LINE
  5
24D
100
AcDbEntity
  8
0
100
AcDbLine
 62
7
  6
BYLAYER
 10
55.0716779357
 20
51.0386283352
 11
54.9529454128
 21
51.1010198292
  0
LINE
  5
24E
100
AcDbEntity
  8
0
100
AcDbLine
 62
7
  6
BYLAYER
 10
50.1277344766
 20
59.7143248098
 11
50.1383883055
 21
59.8448605815
  0
LINE
  5
24F
100
AcDbEntity
  8
0
100
AcDbLine
 62
7
  6
BYLAYER
 10
50.8536783086
 20
59.9267924183
 11
50.8230243848
 21
59.5512059881
  0
LINE
  5
250
100
AcDbEntity
  8
0
100
AcDbLine
 62
7
  6
BYLAYER
 10
50.8426514148
 20
59.3650725718
 11
50.8319975858
 21
59.2345368001
  0
LINE
  5
251
100
AcDbEntity
  8
0
100
AcDbLine
 62
7
  6
BYLAYER
 10
55.5164284814
 20
51.6034901177
 11
55.1748031642
 21
51.7830071818
  0
LINE
  5
252
100
AcDbEntity
  8
0
100
AcDbLine
 62
7
  6
BYLAYER
 10
54.921221055
 20
51.9350157349
 11
55.0399535778
 21
51.872624241
  0
LINE
  5
253
100
AcDbEntity
  8
0
100
AcDbLine
 62
7
  6
BYLAYER
 10
54.9679765353
 20
50.0635428387
 11
54.8501999769
 21
50.1499616817
  0
LINE
  5
254
100
AcDbEntity
  8
0
100
AcDbLine
 62
7
  6
BYLAYER
 10
54.9451176246
 20
50.9042750677
 11
55.062894183
 21
50.8178562247
  0
LINE
  5
255
100
AcDbEntity
  8
0
100
AcDbLine
 62
7
  6
BYLAYER
 10
49.2489964358
 20
60.1484622645
 11
49.2383426068
 21
60.29129974
  0
LINE
  5
256
100
AcDbEntity
  8
0
100
AcDbLine
 62
7
  6
BYLAYER
 10
49.9426057161
 20
59.9578931551
 11
49.953259545
 21
59.8150556796
  0
LINE
  5
257
100
AcDbEntity
  8
0
100
AcDbLine
 62
7
  6
BYLAYER
 10
54.7059018887
 20
49.2179054733
 11
54.5928667303
 21
49.3255740927
  0
LINE
  5
258
100
AcDbEntity
  8
0
100
AcDbLine
 62
7
  6
BYLAYER
 10
54.8113756522
 20
49.9759607061
 11
54.9244108106
 21
49.8682920867
  0
LINE
  5
259
100
AcDbEntity
  8
0
100
AcDbLine
 62
7
  6
BYLAYER
 10
54.2938772906
 20
48.5288957197
 11
54.1892165751
 21
48.6543535575
  0
LINE
  5
25A
100
AcDbEntity
  8
0
100
AcDbLine
 62
7
  6
BYLAYER
 10
54.5242937148
 20
49.1799094375
 11
54.6289544303
 21
49.0544515997
  0
LINE
  5
25B
100
AcDbEntity
  8
0
100
AcDbLine
 62
7
  6
BYLAYER
 10
53.7451455506
 20
48.0186589185
 11
53.6616579382
 21
48.1437386324
  0
LINE
  5
25C
100
AcDbEntity
  8
0
100
AcDbLine
 62
7
  6
BYLAYER
 10
54.093098862
 20
48.5417070045
 11
54.186021253
 21
48.4024922666
  0
LINE
  5
25D
100
AcDbEntity
  8
0
100
AcDbLine
 62
7
  6
BYLAYER
 10
47.5952645112
 20
60.4249726876
 11
47.5436964747
 21
60.5783929975
  0
LINE
  5
25E
100
AcDbEntity
  8
0
100
AcDbLine
 62
7
  6
BYLAYER
 10
48.3956978747
 20
60.3879102421
 11
48.3640788106
 21
60.5384585074
  0
LINE
  5
25F
100
AcDbEntity
  8
0
100
AcDbLine
 62
7
  6
BYLAYER
 10
49.0457063241
 20
60.3621493092
 11
49.0773253882
 21
60.211601044
  0
LINE
  5
260
100
AcDbEntity
  8
0
100
AcDbLine
 62
7
  6
BYLAYER
 10
47.3756271469
 20
60.5594740542
 11
47.4454867168
 21
60.4081127546
  0
LINE
  5
261
100
AcDbEntity
  8
0
100
AcDbLine
 62
7
  6
BYLAYER
 10
48.1807803232
 20
60.5648479088
 11
48.2323483598
 21
60.4114275989
  0
ARC
  5
262
100
AcDbEntity
  8
0
100
AcDbCircle
 62
7
  6
BYLAYER
 10
35.9090680675
 20
53.7732790784
 40
19.2730995828
100
AcDbArc
 50
332.8382802534
 51
334.3213175259
  0
ARC
  5
263
100
AcDbEntity
  8
0
100
AcDbCircle
 62
7
  6
BYLAYER
 10
41.2320153774
 20
56.4455553416
 40
18.8563873282
100
AcDbArc
 50
332.8218937549
 51
334.3377068914
  0
ARC
  5
264
100
AcDbEntity
  8
0
100
AcDbCircle
 62
7
  6
BYLAYER
 10
35.8311701636
 20
46.6665429795
 40
18.4350607554
100
AcDbArc
 50
18.838375767
 51
20.869712189
  0
ARC
  5
265
100
AcDbEntity
  8
0
100
AcDbCircle
 62
7
  6
BYLAYER
 10
40.8063756949
 20
49.533452763
 40
18.4079759811
100
AcDbArc
 50
18.836879244
 51
20.871204821
  0
ARC
  5
266
100
AcDbEntity
  8
0
100
AcDbCircle
 62
7
  6
BYLAYER
 10
41.490538067
 20
48.8403980244
 40
12.8589102722
100
AcDbArc
 50
62.5721574893
 51
64.8171959236
  0
ARC
  5
267
100
AcDbEntity
  8
0
100
AcDbCircle
 62
7
  6
BYLAYER
 10
42.967063398
 20
50.0086494727
 40
12.2762690354
100
AcDbArc
 50
31.5841724858
 51
32.8744895515
  0
ARC
  5
268
100
AcDbEntity
  8
0
100
AcDbCircle
 62
7
  6
BYLAYER
 10
43.0686754362
 20
50.0576066416
 40
12.1636320084
100
AcDbArc
 50
25.6287641424
 51
26.9275388216
  0
ARC
  5
269
100
AcDbEntity
  8
0
100
AcDbCircle
 62
7
  6
BYLAYER
 10
43.1420100863
 20
50.1100751918
 40
11.9772434493
100
AcDbArc
 50
31.6400351267
 51
32.8186269107
  0
ARC
  5
26A
100
AcDbEntity
  8
0
100
AcDbCircle
 62
7
  6
BYLAYER
 10
43.2179423647
 20
50.1452133331
 40
11.8937994449
100
AcDbArc
 50
25.6863120839
 51
26.8699908801
  0
ARC
  5
26B
100
AcDbEntity
  8
0
100
AcDbCircle
 62
7
  6
BYLAYER
 10
43.5026701047
 20
50.3932264753
 40
11.6166367824
100
AcDbArc
 50
37.608440521
 51
38.946635357
  0
ARC
  5
26C
100
AcDbEntity
  8
0
100
AcDbCircle
 62
7
  6
BYLAYER
 10
43.6837459758
 20
50.5017404598
 40
11.308486133
100
AcDbArc
 50
37.6650145678
 51
38.8900613101
  0
ARC
  5
26D
100
AcDbEntity
  8
0
100
AcDbCircle
 62
7
  6
BYLAYER
 10
43.8649223729
 20
50.3912004634
 40
11.2999624538
100
AcDbArc
 50
19.4820905911
 51
20.8467593306
  0
ARC
  5
26E
100
AcDbEntity
  8
0
100
AcDbCircle
 62
7
  6
BYLAYER
 10
43.9727579744
 20
50.4644891619
 40
11.0738881267
100
AcDbArc
 50
19.5439399312
 51
20.7849099905
  0
ARC
  5
26F
100
AcDbEntity
  8
0
100
AcDbCircle
 62
7
  6
BYLAYER
 10
44.4815627006
 20
51.2607130153
 40
10.3080408078
100
AcDbArc
 50
43.9706506063
 51
45.419277144
  0
ARC
  5
270
100
AcDbEntity
  8
0
100
AcDbCircle
 62
7
  6
BYLAYER
 10
44.6499894822
 20
51.3645516416
 40
10.0124457064
100
AcDbArc
 50
44.030426313
 51
45.3595014373
  0
ARC
  5
271
100
AcDbEntity
  8
0
100
AcDbCircle
 62
7
  6
BYLAYER
 10
45.2576790181
 20
50.8075047314
 40
9.8455748953
100
AcDbArc
 50
12.8591948707
 51
14.3557275653
  0
ARC
  5
272
100
AcDbEntity
  8
0
100
AcDbCircle
 62
7
  6
BYLAYER
 10
45.3157381158
 20
50.8715684214
 40
9.6698468804
100
AcDbArc
 50
12.9285163916
 51
14.2864060444
  0
ARC
  5
273
100
AcDbEntity
  8
0
100
AcDbCircle
 62
7
  6
BYLAYER
 10
45.6295540823
 20
52.541897732
 40
8.586739701
100
AcDbArc
 50
50.9834851979
 51
52.6191557252
  0
ARC
  5
274
100
AcDbEntity
  8
0
100
AcDbCircle
 62
7
  6
BYLAYER
 10
45.7715979005
 20
52.6269855376
 40
8.3227026057
100
AcDbArc
 50
51.049374828
 51
52.5532660951
  0
ARC
  5
275
100
AcDbEntity
  8
0
100
AcDbCircle
 62
7
  6
BYLAYER
 10
15.2259446567
 20
34.0882843406
 40
7.9238429473
100
AcDbArc
 50
39.6148157042
 51
39.7908851525
  0
ARC
  5
276
100
AcDbEntity
  8
0
100
AcDbCircle
 62
7
  6
BYLAYER
 10
15.2678292027
 20
34.1109421312
 40
7.8474678907
100
AcDbArc
 50
39.6148096025
 51
39.8065322154
  0
ARC
  5
277
100
AcDbEntity
  8
0
100
AcDbCircle
 62
7
  6
BYLAYER
 10
20.6726603833
 20
36.2256629967
 40
5.2710100239
100
AcDbArc
 50
234.4453251844
 51
235.3841478997
  0
ARC
  5
278
100
AcDbEntity
  8
0
100
AcDbCircle
 62
7
  6
BYLAYER
 10
17.5639055626
 20
37.0803364489
 40
4.0995555316
100
AcDbArc
 50
64.3297888638
 51
64.7468751291
  0
ARC
  5
279
100
AcDbEntity
  8
0
100
AcDbCircle
 62
7
  6
BYLAYER
 10
17.9822169504
 20
39.3957238059
 40
1.6974689071
100
AcDbArc
 50
107.2624345579
 51
119.9386355206
  0
ARC
  5
27A
100
AcDbEntity
  8
0
100
AcDbCircle
 62
7
  6
BYLAYER
 10
21.2280418028
 20
33.6139464599
 40
1.6723985778
100
AcDbArc
 50
302.6468254423
 51
303.0499995262
  0
ARC
  5
27B
100
AcDbEntity
  8
0
100
AcDbCircle
 62
7
  6
BYLAYER
 10
17.8996613667
 20
39.3784721079
 40
1.6711482528
100
AcDbArc
 50
117.0064519257
 51
118.1619962486
  0
ARC
  5
27C
100
AcDbEntity
  8
0
100
AcDbCircle
 62
7
  6
BYLAYER
 10
21.2290194647
 20
33.6124124602
 40
1.6705795233
100
AcDbArc
 50
300.761071889
 51
302.6469738538
  0
ARC
  5
27D
100
AcDbEntity
  8
0
100
AcDbCircle
 62
7
  6
BYLAYER
 10
21.2999337681
 20
33.6529581281
 40
1.6702357991
100
AcDbArc
 50
297.955893078
 51
299.9982146559
  0
ARC
  5
27E
100
AcDbEntity
  8
0
100
AcDbCircle
 62
7
  6
BYLAYER
 10
17.9696978135
 20
39.4209566658
 40
1.669356068
100
AcDbArc
 50
119.9985080143
 51
120.9748839455
  0
ARC
  5
27F
100
AcDbEntity
  8
0
100
AcDbCircle
 62
7
  6
BYLAYER
 10
21.300366208
 20
33.6521919709
 40
1.6693560674
100
AcDbArc
 50
299.9985080142
 51
300.3987851207
  0
ARC
  5
280
100
AcDbEntity
  8
0
100
AcDbCircle
 62
7
  6
BYLAYER
 10
21.2296565547
 20
33.6113580851
 40
1.6693476444
100
AcDbArc
 50
299.9986489728
 51
300.7607785742
  0
ARC
  5
281
100
AcDbEntity
  8
0
100
AcDbCircle
 62
7
  6
BYLAYER
 10
17.8979905279
 20
39.3815915291
 40
1.6676095397
100
AcDbArc
 50
118.1619695073
 51
119.9939130668
  0
ARC
  5
282
100
AcDbEntity
  8
0
100
AcDbCircle
 62
7
  6
BYLAYER
 10
40.6323930863
 20
62.8636893972
 40
18.663509784
100
AcDbArc
 50
321.4741821622
 51
322.891450411
  0
ARC
  5
283
100
AcDbEntity
  8
0
100
AcDbCircle
 62
7
  6
BYLAYER
 10
37.3244928785
 20
57.2158694237
 40
18.6588778954
100
AcDbArc
 50
340.8696760211
 51
341.7106799629
  0
ARC
  5
284
100
AcDbEntity
  8
0
100
AcDbCircle
 62
7
  6
BYLAYER
 10
40.9254197747
 20
62.6309412964
 40
18.2892957696
100
AcDbArc
 50
320.6667034003
 51
321.4728304953
  0
ARC
  5
285
100
AcDbEntity
  8
0
100
AcDbCircle
 62
7
  6
BYLAYER
 10
37.783096324
 20
57.0655263289
 40
18.176261314
100
AcDbArc
 50
341.7069965882
 51
343.1044801117
  0
ARC
  5
286
100
AcDbEntity
  8
0
100
AcDbCircle
 62
7
  6
BYLAYER
 10
62.6094393035
 20
43.2987199242
 40
25.6016453917
100
AcDbArc
 50
132.6313624802
 51
133.4518226761
  0
ARC
  5
287
100
AcDbEntity
  8
0
100
AcDbCircle
 62
7
  6
BYLAYER
 10
57.1562630743
 20
40.9801085617
 40
24.8640419106
100
AcDbArc
 50
132.6191917721
 51
133.4639917904
  0
ARC
  5
288
100
AcDbEntity
  8
0
100
AcDbCircle
 62
7
  6
BYLAYER
 10
46.3781528719
 20
51.5724612176
 40
12.9990435534
100
AcDbArc
 50
62.5842621732
 51
64.8050954807
  0
ARC
  5
289
100
AcDbEntity
  8
0
100
AcDbCircle
 62
7
  6
BYLAYER
 10
63.4189472395
 20
40.3627932049
 40
12.183556218
100
AcDbArc
 50
159.1273798761
 51
161.1404902737
  0
ARC
  5
28A
100
AcDbEntity
  8
0
100
AcDbCircle
 62
7
  6
BYLAYER
 10
68.1494109219
 20
43.2997280221
 40
11.9504554721
100
AcDbArc
 50
159.1077463294
 51
161.1601277196
  0
ARC
  5
28B
100
AcDbEntity
  8
0
100
AcDbCircle
 62
7
  6
BYLAYER
 10
48.9368046888
 20
53.5400667425
 40
9.6716679974
100
AcDbArc
 50
38.2684752751
 51
39.2721074838
  0
ARC
  5
28C
100
AcDbEntity
  8
0
100
AcDbCircle
 62
7
  6
BYLAYER
 10
49.0239416408
 20
53.6111845105
 40
9.5591932236
100
AcDbArc
 50
39.2727208621
 51
39.6146424464
  0
ARC
  5
28D
100
AcDbEntity
  8
0
100
AcDbCircle
 62
7
  6
BYLAYER
 10
49.3050830065
 20
53.7605847655
 40
9.2897108827
100
AcDbArc
 50
38.573999846
 51
39.6139274502
  0
ARC
  5
28E
100
AcDbEntity
  8
0
100
AcDbCircle
 62
7
  6
BYLAYER
 10
47.0169669785
 20
51.1121850052
 40
8.0589442115
100
AcDbArc
 50
5.4144654741
 51
7.1253595574
  0
ARC
  5
28F
100
AcDbEntity
  8
0
100
AcDbCircle
 62
7
  6
BYLAYER
 10
47.0259603291
 20
51.1754362254
 40
7.9317150075
100
AcDbArc
 50
5.4953432899
 51
7.0444817416
  0
ARC
  5
290
100
AcDbEntity
  8
0
100
AcDbCircle
 62
7
  6
BYLAYER
 10
46.7023617378
 20
54.1194261706
 40
6.6773406209
100
AcDbArc
 50
59.0306079509
 51
60.9705145754
  0
ARC
  5
291
100
AcDbEntity
  8
0
100
AcDbCircle
 62
7
  6
BYLAYER
 10
46.7504206044
 20
54.065981829
 40
6.5810354368
100
AcDbArc
 50
59.1235295131
 51
60.8775930132
  0
ARC
  5
292
100
AcDbEntity
  8
0
100
AcDbCircle
 62
7
  6
BYLAYER
 10
48.8407808951
 20
51.1759732147
 40
6.2324105726
100
AcDbArc
 50
356.7059455225
 51
358.7372592166
  0
ARC
  5
293
100
AcDbEntity
  8
0
100
AcDbCircle
 62
7
  6
BYLAYER
 10
48.8097228437
 20
51.2469091389
 40
6.1449546153
100
AcDbArc
 50
356.8036097685
 51
358.6395949705
  0
ARC
  5
294
100
AcDbEntity
  8
0
100
AcDbCircle
 62
7
  6
BYLAYER
 10
52.7841271164
 20
54.1307958116
 40
5.8123563164
100
AcDbArc
 50
0.0114927265
 51
1.4893690622
  0
ARC
  5
295
100
AcDbEntity
  8
0
100
AcDbCircle
 62
7
  6
BYLAYER
 10
53.1465670796
 20
54.1306681071
 40
5.4499163898
100
AcDbArc
 50
357.1472202481
 51
0.0135996124
  0
ARC
  5
296
100
AcDbEntity
  8
0
100
AcDbCircle
 62
7
  6
BYLAYER
 10
47.3993054304
 20
55.5883623839
 40
5.0497205379
100
AcDbArc
 50
68.6425078916
 51
70.9715249308
  0
ARC
  5
297
100
AcDbEntity
  8
0
100
AcDbCircle
 62
7
  6
BYLAYER
 10
47.4793122634
 20
55.6017350231
 40
4.8789866445
100
AcDbArc
 50
68.7329407157
 51
70.8810921067
  0
ARC
  5
298
100
AcDbEntity
  8
0
100
AcDbCircle
 62
7
  6
BYLAYER
 10
50.4342855734
 20
50.9726462153
 40
4.6239401691
100
AcDbArc
 50
346.1822676479
 51
348.6613293795
  0
ARC
  5
299
100
AcDbEntity
  8
0
100
AcDbCircle
 62
7
  6
BYLAYER
 10
50.377570509
 20
51.0565944427
 40
4.5635947805
100
AcDbArc
 50
346.302579221
 51
348.5410178063
  0
ARC
  5
29A
100
AcDbEntity
  8
0
100
AcDbCircle
 62
7
  6
BYLAYER
 10
53.2350658256
 20
50.0532220162
 40
3.4354729941
100
AcDbArc
 50
274.2676757973
 51
275.1037874103
  0
ARC
  5
29B
100
AcDbEntity
  8
0
100
AcDbCircle
 62
7
  6
BYLAYER
 10
51.5861656395
 20
50.5867120386
 40
3.406814594
100
AcDbArc
 50
333.271496477
 51
336.310193043
  0
ARC
  5
29C
100
AcDbEntity
  8
0
100
AcDbCircle
 62
7
  6
BYLAYER
 10
51.5193128612
 20
50.6835056487
 40
3.3601653973
100
AcDbArc
 50
333.4180841679
 51
336.1636053522
  0
ARC
  5
29D
100
AcDbEntity
  8
0
100
AcDbCircle
 62
7
  6
BYLAYER
 10
52.2207417517
 20
50.1886194092
 40
2.6556682187
100
AcDbArc
 50
317.7341427729
 51
321.3197180856
  0
ARC
  5
29E
100
AcDbEntity
  8
0
100
AcDbCircle
 62
7
  6
BYLAYER
 10
52.1560191755
 20
50.2918857249
 40
2.6106327327
100
AcDbArc
 50
317.9017438504
 51
321.1521170081
  0
ARC
  5
29F
100
AcDbEntity
  8
0
100
AcDbCircle
 62
7
  6
BYLAYER
 10
52.5448988765
 20
50.7402294278
 40
2.5517626354
100
AcDbArc
 50
320.5511681459
 51
321.6023023882
  0
ARC
  5
2A0
100
AcDbEntity
  8
0
100
AcDbCircle
 62
7
  6
BYLAYER
 10
52.9303628689
 20
50.2580825722
 40
2.5417307429
100
AcDbArc
 50
286.4881074335
 51
289.4757139034
  0
ARC
  5
2A1
100
AcDbEntity
  8
0
100
AcDbCircle
 62
7
  6
BYLAYER
 10
52.6020541346
 20
50.6923420019
 40
2.477200735
100
AcDbArc
 50
317.0759716945
 51
320.566490998
  0
ARC
  5
2A2
100
AcDbEntity
  8
0
100
AcDbCircle
 62
7
  6
BYLAYER
 10
52.9640891281
 20
50.1698891072
 40
2.4473400416
100
AcDbArc
 50
289.4197090716
 51
307.2657516572
  0
ARC
  5
2A3
100
AcDbEntity
  8
0
100
AcDbCircle
 62
7
  6
BYLAYER
 10
52.4095007671
 20
49.987402197
 40
2.3790538212
100
AcDbArc
 50
301.4998560642
 51
304.1539520526
  0
ARC
  5
2A4
100
AcDbEntity
  8
0
100
AcDbCircle
 62
7
  6
BYLAYER
 10
63.3840758789
 20
65.7879209791
 40
27.94166501
100
AcDbArc
 50
229.7927117039
 51
230.7846350251
  0
ARC
  5
2A5
100
AcDbEntity
  8
0
100
AcDbCircle
 62
7
  6
BYLAYER
 10
71.7923819644
 20
56.6085293744
 40
20.310495704
100
AcDbArc
 50
191.4978997006
 51
193.4014260554
  0
ARC
  5
2A6
100
AcDbEntity
  8
0
100
AcDbCircle
 62
7
  6
BYLAYER
 10
76.5958406324
 20
59.4339457086
 40
20.1607259897
100
AcDbArc
 50
191.4908267646
 51
193.4084953435
  0
ARC
  5
2A7
100
AcDbEntity
  8
0
100
AcDbCircle
 62
7
  6
BYLAYER
 10
56.2901527861
 20
59.8677181927
 40
18.9510710705
100
AcDbArc
 50
236.0928351295
 51
237.9959151178
  0
ARC
  5
2A8
100
AcDbEntity
  8
0
100
AcDbCircle
 62
7
  6
BYLAYER
 10
56.6170313149
 20
79.2912012377
 40
17.7038962491
100
AcDbArc
 50
250.3650032572
 51
252.1699596432
  0
ARC
  5
2A9
100
AcDbEntity
  8
0
100
AcDbCircle
 62
7
  6
BYLAYER
 10
51.5790260329
 20
76.1731697573
 40
17.4290475734
100
AcDbArc
 50
250.3507686531
 51
252.1841907961
  0
ARC
  5
2AA
100
AcDbEntity
  8
0
100
AcDbCircle
 62
7
  6
BYLAYER
 10
52.1245133301
 20
62.4826354595
 40
15.9144010471
100
AcDbArc
 50
274.8923482699
 51
275.1053248258
  0
ARC
  5
2AB
100
AcDbEntity
  8
0
100
AcDbCircle
 62
7
  6
BYLAYER
 10
51.4683315041
 20
56.4835426163
 40
5.7701321549
100
AcDbArc
 50
58.4217070095
 51
59.9937912834
  0
ARC
  5
2AC
100
AcDbEntity
  8
0
100
AcDbCircle
 62
7
  6
BYLAYER
 10
51.6951238777
 20
56.8843392381
 40
5.3096378841
100
AcDbArc
 50
59.9501932898
 51
63.5491433306
  0
ARC
  5
2AD
100
AcDbEntity
  8
0
100
AcDbCircle
 62
7
  6
BYLAYER
 10
47.744073378
 20
56.8817370781
 40
3.7089106686
100
AcDbArc
 50
80.3768888114
 51
83.2380024987
  0
ARC
  5
2AE
100
AcDbEntity
  8
0
100
AcDbCircle
 62
7
  6
BYLAYER
 10
47.8034478098
 20
56.8532572467
 40
3.5839268878
100
AcDbArc
 50
80.4881425837
 51
83.1267487264
  0
ARC
  5
2AF
100
AcDbEntity
  8
0
100
AcDbCircle
 62
7
  6
BYLAYER
 10
47.7751727104
 20
57.7660441795
 40
2.8218588061
100
AcDbArc
 50
94.7052426188
 51
98.1398339226
  0
ARC
  5
2B0
100
AcDbEntity
  8
0
100
AcDbCircle
 62
7
  6
BYLAYER
 10
47.82525517
 20
57.7071422406
 40
2.7275384132
100
AcDbArc
 50
95.2216296953
 51
98.0035738341
  0
ARC
  5
2B1
100
AcDbEntity
  8
0
100
AcDbCircle
 62
7
  6
BYLAYER
 10
48.1152343322
 20
58.5723899066
 40
2.461495759
100
AcDbArc
 50
126.042438297
 51
126.4941215928
  0
ARC
  5
2B2
100
AcDbEntity
  8
0
100
AcDbCircle
 62
7
  6
BYLAYER
 10
48.3154919425
 20
58.2182027653
 40
2.2583679084
100
AcDbArc
 50
112.8490695735
 51
114.0351814067
  0
SPLINE
  5
2B3
100
AcDbEntity
  8
0
100
AcDbSpline
 62
7
  6
BYLAYER
 70
0
 71
3
 72
11
 73
7
 74
0
 42
0.0000001
 43
0.0000001
 44
0.0000000001
 40
0.0
 40
0.0
 40
0.0
 40
0.0
 40
0.2369356325
 40
0.4817765987
 40
0.7358511538
 40
1.0
 40
1.0
 40
1.0
 40
1.0
 10
58.2284504914
 20
55.4769271063
 30
0.0
 10
58.2970002149
 20
55.2186674831
 30
0.0
 10
58.421665751
 20
54.6894696105
 30
0.0
 10
58.5612429359
 20
53.8708528736
 30
0.0
 10
58.6482831083
 20
53.0140640149
 30
0.0
 10
58.6672138722
 20
52.4294217384
 30
0.0
 10
58.6672138722
 20
52.131529891
 30
0.0
  0
SPLINE
  5
2B4
100
AcDbEntity
  8
0
100
AcDbSpline
 62
7
  6
BYLAYER
 70
0
 71
3
 72
11
 73
7
 74
0
 42
0.0000001
 43
0.0000001
 44
0.0000000001
 40
0.0
 40
0.0
 40
0.0
 40
0.0
 40
0.2543807273
 40
0.505829437
 40
0.7542971546
 40
1.0
 40
1.0
 40
1.0
 40
1.0
 10
55.6619975488
 20
59.8770036889
 30
0.0
 10
55.8990515162
 20
59.5821071628
 30
0.0
 10
56.3513217546
 20
58.9800522295
 30
0.0
 10
56.9661201109
 20
58.0407231636
 30
0.0
 10
57.5172332759
 20
57.077664869
 30
0.0
 10
57.8488805913
 20
56.4213578249
 30
0.0
 10
58.0064873134
 20
56.0916338267
 30
0.0
  0
SPLINE
  5
2B5
100
AcDbEntity
  8
0
100
AcDbSpline
 62
7
  6
BYLAYER
 70
0
 71
3
 72
9
 73
5
 74
0
 42
0.0000001
 43
0.0000001
 44
0.0000000001
 40
0.0
 40
0.0
 40
0.0
 40
0.0
 40
0.2524683542
 40
1.0
 40
1.0
 40
1.0
 40
1.0
 10
45.0020510736
 20
61.8843091396
 30
0.0
 10
44.9775730319
 20
61.7674449844
 30
0.0
 10
44.8832142136
 20
61.3040246897
 30
0.0
 10
44.7999752964
 20
60.8382925977
 30
0.0
 10
44.7457918617
 20
60.4889383236
 30
0.0
  0
SPLINE
  5
2B6
100
AcDbEntity
  8
0
100
AcDbSpline
 62
7
  6
BYLAYER
 70
0
 71
3
 72
11
 73
7
 74
0
 42
0.0000001
 43
0.0000001
 44
0.0000000001
 40
0.0
 40
0.0
 40
0.0
 40
0.0
 40
0.2389836203
 40
0.4861217523
 40
0.7402452716
 40
1.0
 40
1.0
 40
1.0
 40
1.0
 10
58.6672138722
 20
52.131529891
 30
0.0
 10
58.6672138722
 20
51.8222016829
 30
0.0
 10
58.6460746935
 20
51.1928506828
 30
0.0
 10
58.5574583698
 20
50.238371543
 30
0.0
 10
58.4171230831
 20
49.2630544985
 30
0.0
 10
58.2953888901
 20
48.6089777296
 30
0.0
 10
58.2284504898
 20
48.279495387
 30
0.0
  0
SPLINE
  5
2B7
100
AcDbEntity
  8
0
100
AcDbSpline
 62
7
  6
BYLAYER
 70
0
 71
3
 72
11
 73
7
 74
0
 42
0.0000001
 43
0.0000001
 44
0.0000000001
 40
0.0
 40
0.0
 40
0.0
 40
0.0
 40
0.2248549924
 40
0.4683868949
 40
0.7278139538
 40
1.0
 40
1.0
 40
1.0
 40
1.0
 10
53.5406859764
 20
46.6313700298
 30
0.0
 10
53.7901871455
 20
46.6536583297
 30
0.0
 10
54.3088708805
 20
46.7120898172
 30
0.0
 10
55.1109794562
 20
46.8313297462
 30
0.0
 10
55.9613744639
 20
46.9818779928
 30
0.0
 10
56.5422754051
 20
47.0973598495
 30
0.0
 10
56.8392039055
 20
47.1588215991
 30
0.0
  0
SPLINE
  5
2B8
100
AcDbEntity
  8
0
100
AcDbSpline
 62
7
  6
BYLAYER
 70
0
 71
3
 72
11
 73
7
 74
0
 42
0.0000001
 43
0.0000001
 44
0.0000000001
 40
0.0
 40
0.0
 40
0.0
 40
0.0
 40
0.251702205
 40
0.5026362332
 40
0.7522736644
 40
1.0
 40
1.0
 40
1.0
 40
1.0
 10
52.3634796412
 20
63.1115684644
 30
0.0
 10
52.6659897871
 20
62.8680845497
 30
0.0
 10
53.2608925884
 20
62.3702454443
 30
0.0
 10
54.1157908867
 20
61.5845558008
 30
0.0
 10
54.9218358572
 20
60.7571704348
 30
0.0
 10
55.4225448041
 20
60.174884308
 30
0.0
 10
55.6619975488
 20
59.8770036889
 30
0.0
  0
SPLINE
  5
2B9
100
AcDbEntity
  8
0
100
AcDbSpline
 62
7
  6
BYLAYER
 70
0
 71
3
 72
11
 73
7
 74
0
 42
0.0000001
 43
0.0000001
 44
0.0000000001
 40
0.0
 40
0.0
 40
0.0
 40
0.0
 40
0.2890263467
 40
0.5505041444
 40
0.7863800259
 40
1.0
 40
1.0
 40
1.0
 40
1.0
 10
49.6515648754
 20
63.3470501126
 30
0.0
 10
49.8688594329
 20
63.3664613502
 30
0.0
 10
50.2835661969
 20
63.3951022022
 30
0.0
 10
50.8772934385
 20
63.4066594651
 30
0.0
 10
51.4138762568
 20
63.3872798125
 30
0.0
 10
51.7518675748
 20
63.3551129496
 30
0.0
 10
51.9118303999
 20
63.3348396613
 30
0.0
  0
SPLINE
  5
2BA
100
AcDbEntity
  8
0
100
AcDbSpline
 62
7
  6
BYLAYER
 70
0
 71
3
 72
11
 73
7
 74
0
 42
0.0000001
 43
0.0000001
 44
0.0000000001
 40
0.0
 40
0.0
 40
0.0
 40
0.0
 40
0.271759837
 40
0.5308670315
 40
0.7744622337
 40
1.0
 40
1.0
 40
1.0
 40
1.0
 10
46.5137727239
 20
62.8526233527
 30
0.0
 10
46.7958525468
 20
62.9101468902
 30
0.0
 10
47.3477812508
 20
63.0181802118
 30
0.0
 10
48.1561176669
 20
63.1589083433
 30
0.0
 10
48.9195384526
 20
63.270676725
 30
0.0
 10
49.413591917
 20
63.3257916436
 30
0.0
 10
49.6515648754
 20
63.3470501126
 30
0.0
  0
SPLINE
  5
2BB
100
AcDbEntity
  8
0
100
AcDbSpline
 62
7
  6
BYLAYER
 70
0
 71
3
 72
20
 73
16
 74
0
 42
0.0000001
 43
0.0000001
 44
0.0000000001
 40
0.0
 40
0.0
 40
0.0
 40
0.0
 40
0.0583200429
 40
0.115328286
 40
0.1714029017
 40
0.2269993562
 40
0.2825983503
 40
0.3386705206
 40
0.3956661547
 40
0.4539997027
 40
0.5759539205
 40
0.6402638395
 40
0.7070129713
 40
0.8482026031
 40
1.0
 40
1.0
 40
1.0
 40
1.0
 10
53.5406859764
 20
46.6313700298
 30
0.0
 10
53.6526442177
 20
46.6413714199
 30
0.0
 10
53.8732497504
 20
46.6721277154
 30
0.0
 10
54.1944251645
 20
46.7520522856
 30
0.0
 10
54.5000162898
 20
46.8649799302
 30
0.0
 10
54.7885454589
 20
47.0103502487
 30
0.0
 10
55.0586894755
 20
47.1875585222
 30
0.0
 10
55.3092599003
 20
47.3957141541
 30
0.0
 10
55.5390952592
 20
47.6339307558
 30
0.0
 10
55.8206833935
 20
47.99517242
 30
0.0
 10
56.0522666776
 20
48.4096211923
 30
0.0
 10
56.233323669
 20
48.8627916099
 30
0.0
 10
56.3879912004
 20
49.3647863671
 30
0.0
 10
56.515132341
 20
50.0488585898
 30
0.0
 10
56.5459023606
 20
50.6142282746
 30
0.0
 10
56.5459023606
 20
50.9067974294
 30
0.0
  0
SPLINE
  5
2BC
100
AcDbEntity
  8
0
100
AcDbSpline
 62
7
  6
BYLAYER
 70
0
 71
3
 72
15
 73
11
 74
0
 42
0.0000001
 43
0.0000001
 44
0.0000000001
 40
0.0
 40
0.0
 40
0.0
 40
0.0
 40
0.127430857
 40
0.2517376526
 40
0.3740156999
 40
0.4955633814
 40
0.6177093166
 40
0.741730666
 40
0.868813025
 40
1.0
 40
1.0
 40
1.0
 40
1.0
 10
47.530253365
 20
62.1223176511
 30
0.0
 10
47.4043421578
 20
62.1110698219
 30
0.0
 10
47.1565723168
 20
62.0749726381
 30
0.0
 10
46.7975585947
 20
61.9778530472
 30
0.0
 10
46.4587714422
 20
61.8388890283
 30
0.0
 10
46.1423292497
 20
61.6589176058
 30
0.0
 10
45.8500644152
 20
61.4390108087
 30
0.0
 10
45.5836866585
 20
61.1804761864
 30
0.0
 10
45.3446755476
 20
60.8849667592
 30
0.0
 10
45.2068645203
 20
60.6682677284
 30
0.0
 10
45.1428158421
 20
60.5549811473
 30
0.0
  0
SPLINE
  5
2BD
100
AcDbEntity
  8
0
100
AcDbSpline
 62
7
  6
BYLAYER
 70
0
 71
3
 72
16
 73
12
 74
0
 42
0.0000001
 43
0.0000001
 44
0.0000000001
 40
0.0
 40
0.0
 40
0.0
 40
0.0
 40
0.1491232976
 40
0.2932350963
 40
0.4309609536
 40
0.5611954099
 40
0.6831905483
 40
0.7966605164
 40
0.8503030767
 40
0.9019889226
 40
1.0
 40
1.0
 40
1.0
 40
1.0
 10
53.5406860289
 20
58.6522712375
 30
0.0
 10
53.3166250015
 20
58.9310044695
 30
0.0
 10
52.8544661033
 20
59.4622407481
 30
0.0
 10
52.1127026619
 20
60.1837049298
 30
0.0
 10
51.3440220097
 20
60.80711106
 30
0.0
 10
50.5611848935
 20
61.3219237077
 30
0.0
 10
49.777145985
 20
61.7193911836
 30
0.0
 10
49.1211002233
 20
61.9513366787
 30
0.0
 10
48.609027487
 20
62.0683969205
 30
0.0
 10
48.126090493
 20
62.1381566302
 30
0.0
 10
47.7643695377
 20
62.1432315855
 30
0.0
 10
47.530253365
 20
62.1223176511
 30
0.0
  0
SPLINE
  5
2BE
100
AcDbEntity
  8
0
100
AcDbSpline
 62
7
  6
BYLAYER
 70
0
 71
3
 72
15
 73
11
 74
0
 42
0.0000001
 43
0.0000001
 44
0.0000000001
 40
0.0
 40
0.0
 40
0.0
 40
0.0
 40
0.1468515224
 40
0.2868799902
 40
0.4199819104
 40
0.5464294693
 40
0.666728295
 40
0.7816540062
 40
0.8922926672
 40
1.0
 40
1.0
 40
1.0
 40
1.0
 10
55.700906239
 20
51.394645131
 30
0.0
 10
55.700906239
 20
51.2217611967
 30
0.0
 10
55.6881918024
 20
50.8838395659
 30
0.0
 10
55.6280529375
 20
50.3924535779
 30
0.0
 10
55.52756647
 20
49.9321243846
 30
0.0
 10
55.3874181401
 20
49.5065458366
 30
0.0
 10
55.2085758819
 20
49.1190182687
 30
0.0
 10
54.9921367345
 20
48.7727170673
 30
0.0
 10
54.7397476276
 20
48.4706769911
 30
0.0
 10
54.5469068523
 20
48.2989757319
 30
0.0
 10
54.4459848508
 20
48.2222088598
 30
0.0
  0
SPLINE
  5
2BF
100
AcDbEntity
  8
0
100
AcDbSpline
 62
7
  6
BYLAYER
 70
0
 71
3
 72
11
 73
7
 74
0
 42
0.0000001
 43
0.0000001
 44
0.0000000001
 40
0.0
 40
0.0
 40
0.0
 40
0.0
 40
0.2389823475
 40
0.4861216341
 40
0.7402440796
 40
1.0
 40
1.0
 40
1.0
 40
1.0
 10
56.5459023606
 20
50.9067974294
 30
0.0
 10
56.5459023606
 20
51.2161240586
 30
0.0
 10
56.5670254183
 20
51.845475841
 30
0.0
 10
56.6556640092
 20
52.7999516229
 30
0.0
 10
56.7959759412
 20
53.775273735
 30
0.0
 10
56.917726948
 20
54.4293479666
 30
0.0
 10
56.9846656741
 20
54.7588318936
 30
0.0
  0
SPLINE
  5
2C0
100
AcDbEntity
  8
0
100
AcDbSpline
 62
7
  6
BYLAYER
 70
0
 71
3
 72
11
 73
7
 74
0
 42
0.0000001
 43
0.0000001
 44
0.0000000001
 40
0.0
 40
0.0
 40
0.0
 40
0.0
 40
0.2517023723
 40
0.5026362512
 40
0.7522740779
 40
1.0
 40
1.0
 40
1.0
 40
1.0
 10
56.8392039062
 20
55.4177064602
 30
0.0
 10
56.5366934666
 20
55.6611906094
 30
0.0
 10
55.9417765824
 20
56.1590138645
 30
0.0
 10
55.0868968614
 20
56.9447248503
 30
0.0
 10
54.2808302838
 20
57.7720894155
 30
0.0
 10
53.7801384469
 20
58.3543910253
 30
0.0
 10
53.5406860289
 20
58.6522712375
 30
0.0
  0
SPLINE
  5
2C1
100
AcDbEntity
  8
0
100
AcDbSpline
 62
7
  6
BYLAYER
 70
0
 71
3
 72
11
 73
7
 74
0
 42
0.0000001
 43
0.0000001
 44
0.0000000001
 40
0.0
 40
0.0
 40
0.0
 40
0.0
 40
0.2543807302
 40
0.505829444
 40
0.7542971572
 40
1.0
 40
1.0
 40
1.0
 40
1.0
 10
53.5406860289
 20
58.6522712375
 30
0.0
 10
53.303632057
 20
58.9471677687
 30
0.0
 10
52.8513617622
 20
59.5492226752
 30
0.0
 10
52.2365632611
 20
60.4885516655
 30
0.0
 10
51.6854502319
 20
61.4516100455
 30
0.0
 10
51.353802953
 20
62.1079170995
 30
0.0
 10
51.1961962329
 20
62.4376410972
 30
0.0
  0
SPLINE
  5
2C2
100
AcDbEntity
  8
0
100
AcDbSpline
 62
7
  6
BYLAYER
 70
0
 71
3
 72
11
 73
7
 74
0
 42
0.0000001
 43
0.0000001
 44
0.0000000001
 40
0.0
 40
0.0
 40
0.0
 40
0.0
 40
0.271759837
 40
0.5308670307
 40
0.7744622315
 40
1.0
 40
1.0
 40
1.0
 40
1.0
 10
50.6680455202
 20
62.6167444126
 30
0.0
 10
50.3859657006
 20
62.5592208734
 30
0.0
 10
49.8340370023
 20
62.4511875553
 30
0.0
 10
49.0257005966
 20
62.3104594238
 30
0.0
 10
48.2622798179
 20
62.1986910477
 30
0.0
 10
47.768226358
 20
62.1435761238
 30
0.0
 10
47.5302533997
 20
62.1223176542
 30
0.0
  0
SPLINE
  5
2C3
100
AcDbEntity
  8
0
100
AcDbSpline
 62
7
  6
BYLAYER
 70
0
 71
3
 72
11
 73
7
 74
0
 42
0.0000001
 43
0.0000001
 44
0.0000000001
 40
0.0
 40
0.0
 40
0.0
 40
0.0
 40
0.2890263485
 40
0.5505041456
 40
0.7863800255
 40
1.0
 40
1.0
 40
1.0
 40
1.0
 10
47.5302533997
 20
62.1223176542
 30
0.0
 10
47.3129588375
 20
62.1029064158
 30
0.0
 10
46.8982520662
 20
62.0742655603
 30
0.0
 10
46.3045248152
 20
62.0627082959
 30
0.0
 10
45.7679419902
 20
62.0820879541
 30
0.0
 10
45.4299506665
 20
62.114254808
 30
0.0
 10
45.2699878392
 20
62.1345281011
 30
0.0
  0
SPLINE
  5
2C4
100
AcDbEntity
  8
0
100
AcDbSpline
 62
7
  6
BYLAYER
 70
0
 71
3
 72
11
 73
7
 74
0
 42
0.0000001
 43
0.0000001
 44
0.0000000001
 40
0.0
 40
0.0
 40
0.0
 40
0.0
 40
0.2369335903
 40
0.4817766357
 40
0.735849183
 40
1.0
 40
1.0
 40
1.0
 40
1.0
 10
56.9846656741
 20
47.5614001752
 30
0.0
 10
56.9161165028
 20
47.8196576979
 30
0.0
 10
56.7914250607
 20
48.3488503529
 30
0.0
 10
56.6518865889
 20
49.1674717505
 30
0.0
 10
56.5648089918
 20
50.0242592173
 30
0.0
 10
56.5459023606
 20
50.6089032131
 30
0.0
 10
56.5459023606
 20
50.9067974294
 30
0.0
  0
SPLINE
  5
2C5
100
AcDbEntity
  8
0
100
AcDbSpline
 62
7
  6
BYLAYER
 70
0
 71
3
 72
9
 73
5
 74
0
 42
0.0000001
 43
0.0000001
 44
0.0000000001
 40
0.0
 40
0.0
 40
0.0
 40
0.0
 40
0.5063390873
 40
1.0
 40
1.0
 40
1.0
 40
1.0
 10
48.0964907741
 20
60.4701307198
 30
0.0
 10
47.9822526162
 20
60.456795913
 30
0.0
 10
47.758062857
 20
60.4155732345
 30
0.0
 10
47.5418911471
 20
60.3429015118
 30
0.0
 10
47.4385565015
 20
60.2993586561
 30
0.0
  0
SPLINE
  5
2C6
100
AcDbEntity
  8
0
100
AcDbSpline
 62
7
  6
BYLAYER
 70
0
 71
3
 72
29
 73
25
 74
0
 42
0.0000001
 43
0.0000001
 44
0.0000000001
 40
0.0
 40
0.0
 40
0.0
 40
0.0
 40
0.021484304
 40
0.0430154011
 40
0.064834071
 40
0.0871650175
 40
0.1102073273
 40
0.1341264648
 40
0.1590520543
 40
0.1850769677
 40
0.2405831869
 40
0.2701310458
 40
0.3008336258
 40
0.3654590617
 40
0.433884935
 40
0.50527995
 40
0.5786576786
 40
0.6529356449
 40
0.7269897096
 40
0.7997053885
 40
0.8700328829
 40
0.9370376264
 40
0.96907276
 40
1.0
 40
1.0
 40
1.0
 40
1.0
 10
46.6669288234
 20
60.5627096108
 30
0.0
 10
46.752824041
 20
60.6252132709
 30
0.0
 10
46.9331655718
 20
60.7393185644
 30
0.0
 10
47.2249766483
 20
60.8741241678
 30
0.0
 10
47.5357506138
 20
60.9714144805
 30
0.0
 10
47.8634755671
 20
61.0306897852
 30
0.0
 10
48.2061910328
 20
61.0516896272
 30
0.0
 10
48.5618732438
 20
61.0344403932
 30
0.0
 10
48.9285170102
 20
60.9791457562
 30
0.0
 10
49.4400658611
 20
60.8525256183
 30
0.0
 10
49.9541374682
 20
60.6516287884
 30
0.0
 10
50.462700696
 20
60.388481073
 30
0.0
 10
50.9914298448
 20
60.0687518217
 30
0.0
 10
51.6437016983
 20
59.5857101103
 30
0.0
 10
52.3879886628
 20
58.8991738965
 30
0.0
 10
53.0906271676
 20
58.111219556
 30
0.0
 10
53.7358739405
 20
57.239528619
 30
0.0
 10
54.3093123003
 20
56.3036021996
 30
0.0
 10
54.7980659463
 20
55.3244495141
 30
0.0
 10
55.1911955245
 20
54.3239879163
 30
0.0
 10
55.4798370841
 20
53.3247132208
 30
0.0
 10
55.6302415135
 20
52.4990599042
 30
0.0
 10
55.6905317061
 20
51.8589628329
 30
0.0
 10
55.700906239
 20
51.5475653129
 30
0.0
 10
55.700906239
 20
51.394645131
 30
0.0
  0
SPLINE
  5
2C7
100
AcDbEntity
  8
0
100
AcDbSpline
 62
7
  6
BYLAYER
 70
0
 71
3
 72
11
 73
7
 74
0
 42
0.0000001
 43
0.0000001
 44
0.0000000001
 40
0.0
 40
0.0
 40
0.0
 40
0.0
 40
0.2483095957
 40
0.4966411221
 40
0.7466666282
 40
1.0
 40
1.0
 40
1.0
 40
1.0
 10
53.6850693971
 20
48.4773235936
 30
0.0
 10
53.7535102616
 20
48.5082381933
 30
0.0
 10
53.8873965647
 20
48.5769838557
 30
0.0
 10
54.0771622654
 20
48.7000781048
 30
0.0
 10
54.2547935376
 20
48.8425479068
 30
0.0
 10
54.3638180383
 20
48.9491993877
 30
0.0
 10
54.4160026011
 20
49.0052988955
 30
0.0
  0
SPLINE
  5
2C8
100
AcDbEntity
  8
0
100
AcDbSpline
 62
7
  6
BYLAYER
 70
0
 71
3
 72
15
 73
11
 74
0
 42
0.0000001
 43
0.0000001
 44
0.0000000001
 40
0.0
 40
0.0
 40
0.0
 40
0.0
 40
0.1108410465
 40
0.2280578197
 40
0.3507094003
 40
0.477625969
 40
0.60747378
 40
0.7388131746
 40
0.8701524765
 40
1.0
 40
1.0
 40
1.0
 40
1.0
 10
56.5459023606
 20
50.9067974294
 30
0.0
 10
56.5459023606
 20
51.2191260336
 30
0.0
 10
56.5084921241
 20
51.8621135914
 30
0.0
 10
56.3529449615
 20
52.8394049486
 30
0.0
 10
56.0989910377
 20
53.8426053433
 30
0.0
 10
55.7509374987
 20
54.854706001
 30
0.0
 10
55.3146682022
 20
55.8587011385
 30
0.0
 10
54.7975413317
 20
56.8376361586
 30
0.0
 10
54.2083601853
 20
57.7748863293
 30
0.0
 10
53.7699223368
 20
58.3670999261
 30
0.0
 10
53.5406860289
 20
58.6522712375
 30
0.0
  0
SPLINE
  5
2C9
100
AcDbEntity
  8
0
100
AcDbSpline
 62
7
  6
BYLAYER
 70
0
 71
3
 72
11
 73
7
 74
0
 42
0.0000001
 43
0.0000001
 44
0.0000000001
 40
0.0
 40
0.0
 40
0.0
 40
0.0
 40
0.2599651079
 40
0.5142400111
 40
0.7613523657
 40
1.0
 40
1.0
 40
1.0
 40
1.0
 10
40.0523242131
 20
59.0266000625
 30
0.0
 10
39.9799799626
 20
58.6812109176
 30
0.0
 10
39.8480933788
 20
57.9955531764
 30
0.0
 10
39.6953776882
 20
56.9730387807
 30
0.0
 10
39.5985014866
 20
55.9726714768
 30
0.0
 10
39.5753101726
 20
55.3131285417
 30
0.0
 10
39.5753101726
 20
54.9891811791
 30
0.0
  0
SPLINE
  5
2CA
100
AcDbEntity
  8
0
100
AcDbSpline
 62
7
  6
BYLAYER
 70
0
 71
3
 72
11
 73
7
 74
0
 42
0.0000001
 43
0.0000001
 44
0.0000000001
 40
0.0
 40
0.0
 40
0.0
 40
0.0
 40
0.2121783879
 40
0.4472959255
 40
0.7091458974
 40
1.0
 40
1.0
 40
1.0
 40
1.0
 10
46.2464693732
 20
43.7970144747
 30
0.0
 10
46.4110719572
 20
43.7743158862
 30
0.0
 10
46.7597120559
 20
43.737770321
 30
0.0
 10
47.3148758109
 20
43.7140813091
 30
0.0
 10
47.9320678499
 20
43.7239407477
 30
0.0
 10
48.3640901118
 20
43.753394416
 30
0.0
 10
48.5909591695
 20
43.7736609575
 30
0.0
  0
SPLINE
  5
2CB
100
AcDbEntity
  8
0
100
AcDbSpline
 62
7
  6
BYLAYER
 70
0
 71
3
 72
11
 73
7
 74
0
 42
0.0000001
 43
0.0000001
 44
0.0000000001
 40
0.0
 40
0.0
 40
0.0
 40
0.0
 40
0.2717564874
 40
0.5308671086
 40
0.7744586298
 40
1.0
 40
1.0
 40
1.0
 40
1.0
 10
41.5640458634
 20
59.9949142756
 30
0.0
 10
41.8461221879
 20
60.0524371021
 30
0.0
 10
42.3980526728
 20
60.160460989
 30
0.0
 10
43.2063828067
 20
60.3012031894
 30
0.0
 10
43.9698091768
 20
60.412957141
 30
0.0
 10
44.4638613076
 20
60.4680822322
 30
0.0
 10
44.7018380508
 20
60.4893410387
 30
0.0
  0
SPLINE
  5
2CC
100
AcDbEntity
  8
0
100
AcDbSpline
 62
7
  6
BYLAYER
 70
0
 71
3
 72
11
 73
7
 74
0
 42
0.0000001
 43
0.0000001
 44
0.0000000001
 40
0.0
 40
0.0
 40
0.0
 40
0.0
 40
0.2890303328
 40
0.5505046353
 40
0.7863847496
 40
1.0
 40
1.0
 40
1.0
 40
1.0
 10
44.7018380508
 20
60.4893410387
 30
0.0
 10
44.9191356622
 20
60.5087525486
 30
0.0
 10
45.3338425186
 20
60.53740267
 30
0.0
 10
45.9275735076
 20
60.548945798
 30
0.0
 10
46.4641541867
 20
60.5295824684
 30
0.0
 10
46.8021442101
 20
60.497403434
 30
0.0
 10
46.9621035394
 20
60.4771305842
 30
0.0
  0
SPLINE
  5
2CD
100
AcDbEntity
  8
0
100
AcDbSpline
 62
7
  6
BYLAYER
 70
0
 71
3
 72
11
 73
7
 74
0
 42
0.0000001
 43
0.0000001
 44
0.0000000001
 40
0.0
 40
0.0
 40
0.0
 40
0.0
 40
0.2517022063
 40
0.5026362362
 40
0.7522736658
 40
1.0
 40
1.0
 40
1.0
 40
1.0
 10
47.4137528031
 20
60.2538594002
 30
0.0
 10
47.7162629511
 20
60.0103754857
 30
0.0
 10
48.3111657729
 20
59.5125364023
 30
0.0
 10
49.1660641795
 20
58.7268468714
 30
0.0
 10
49.9721090375
 20
57.8994613952
 30
0.0
 10
50.4728179368
 20
57.3171752389
 30
0.0
 10
50.7122706801
 20
57.019294622
 30
0.0
  0
SPLINE
  5
2CE
100
AcDbEntity
  8
0
100
AcDbSpline
 62
7
  6
BYLAYER
 70
0
 71
3
 72
11
 73
7
 74
0
 42
0.0000001
 43
0.0000001
 44
0.0000000001
 40
0.0
 40
0.0
 40
0.0
 40
0.0
 40
0.2543811448
 40
0.5058295928
 40
0.7542977158
 40
1.0
 40
1.0
 40
1.0
 40
1.0
 10
50.7122706801
 20
57.019294622
 30
0.0
 10
50.9493251215
 20
56.7243975066
 30
0.0
 10
51.4016147552
 20
56.1223559551
 30
0.0
 10
52.0163879216
 20
55.1830089179
 30
0.0
 10
52.5675264713
 20
54.2199656159
 30
0.0
 10
52.8991540579
 20
53.5636481261
 30
0.0
 10
53.0567604749
 20
53.2339247623
 30
0.0
  0
SPLINE
  5
2CF
100
AcDbEntity
  8
0
100
AcDbSpline
 62
7
  6
BYLAYER
 70
0
 71
3
 72
11
 73
7
 74
0
 42
0.0000001
 43
0.0000001
 44
0.0000000001
 40
0.0
 40
0.0
 40
0.0
 40
0.0
 40
0.2369335903
 40
0.4817766357
 40
0.735849183
 40
1.0
 40
1.0
 40
1.0
 40
1.0
 10
53.2787236983
 20
52.619218068
 30
0.0
 10
53.3472728695
 20
52.3609605454
 30
0.0
 10
53.4719643116
 20
51.8317678904
 30
0.0
 10
53.6115027835
 20
51.0131464928
 30
0.0
 10
53.6985803806
 20
50.1563590259
 30
0.0
 10
53.7174870117
 20
49.5717150302
 30
0.0
 10
53.7174870117
 20
49.2738208139
 30
0.0
  0
SPLINE
  5
2D0
100
AcDbEntity
  8
0
100
AcDbSpline
 62
7
  6
BYLAYER
 70
0
 71
3
 72
11
 73
7
 74
0
 42
0.0000001
 43
0.0000001
 44
0.0000000001
 40
0.0
 40
0.0
 40
0.0
 40
0.0
 40
0.2248516958
 40
0.4683862881
 40
0.7278113078
 40
1.0
 40
1.0
 40
1.0
 40
1.0
 10
48.5909591695
 20
43.7736609575
 30
0.0
 10
48.8404566976
 20
43.795948933
 30
0.0
 10
49.3591408747
 20
43.8543712448
 30
0.0
 10
50.161244953
 20
43.9736222639
 30
0.0
 10
51.0116453859
 20
44.1241607707
 30
0.0
 10
51.5925456376
 20
44.2396501713
 30
0.0
 10
51.889477045
 20
44.301112522
 30
0.0
  0
SPLINE
  5
2D1
100
AcDbEntity
  8
0
100
AcDbSpline
 62
7
  6
BYLAYER
 70
0
 71
3
 72
11
 73
7
 74
0
 42
0.0000001
 43
0.0000001
 44
0.0000000001
 40
0.0
 40
0.0
 40
0.0
 40
0.0
 40
0.2389823475
 40
0.4861216341
 40
0.7402440796
 40
1.0
 40
1.0
 40
1.0
 40
1.0
 10
53.7174870117
 20
49.2738208139
 30
0.0
 10
53.7174870117
 20
48.9644941847
 30
0.0
 10
53.696363954
 20
48.3351424022
 30
0.0
 10
53.6077253631
 20
47.3806666203
 30
0.0
 10
53.4674134311
 20
46.4053445083
 30
0.0
 10
53.3456624243
 20
45.7512702766
 30
0.0
 10
53.2787236983
 20
45.4217863497
 30
0.0
  0
SPLINE
  5
2D2
100
AcDbEntity
  8
0
100
AcDbSpline
 62
7
  6
BYLAYER
 70
0
 71
3
 72
11
 73
7
 74
0
 42
0.0000001
 43
0.0000001
 44
0.0000000001
 40
0.0
 40
0.0
 40
0.0
 40
0.0
 40
0.2717564871
 40
0.5308671076
 40
0.7744586285
 40
1.0
 40
1.0
 40
1.0
 40
1.0
 10
45.7183186597
 20
59.7590353355
 30
0.0
 10
45.4362423377
 20
59.7015125119
 30
0.0
 10
44.88431186
 20
59.5934886221
 30
0.0
 10
44.075981735
 20
59.4527464249
 30
0.0
 10
43.3125553721
 20
59.3409924747
 30
0.0
 10
42.8185032454
 20
59.2858673809
 30
0.0
 10
42.5805265032
 20
59.2646085739
 30
0.0
  0
SPLINE
  5
2D3
100
AcDbEntity
  8
0
100
AcDbSpline
 62
7
  6
BYLAYER
 70
0
 71
3
 72
11
 73
7
 74
0
 42
0.0000001
 43
0.0000001
 44
0.0000000001
 40
0.0
 40
0.0
 40
0.0
 40
0.0
 40
0.2543807275
 40
0.5058294372
 40
0.7542971548
 40
1.0
 40
1.0
 40
1.0
 40
1.0
 10
48.5909591766
 20
55.7945621501
 30
0.0
 10
48.3539052072
 20
56.0894586779
 30
0.0
 10
47.9016349592
 20
56.6915136102
 30
0.0
 10
47.2868366015
 20
57.6308426839
 30
0.0
 10
46.7357234323
 20
58.5939009837
 30
0.0
 10
46.4040761177
 20
59.250208033
 30
0.0
 10
46.2464693947
 20
59.579932033
 30
0.0
  0
SPLINE
  5
2D4
100
AcDbEntity
  8
0
100
AcDbSpline
 62
7
  6
BYLAYER
 70
0
 71
3
 72
11
 73
7
 74
0
 42
0.0000001
 43
0.0000001
 44
0.0000000001
 40
0.0
 40
0.0
 40
0.0
 40
0.0
 40
0.2890303358
 40
0.5505046362
 40
0.7863847496
 40
1.0
 40
1.0
 40
1.0
 40
1.0
 10
42.5805265032
 20
59.2646085739
 30
0.0
 10
42.3632288861
 20
59.2451970631
 30
0.0
 10
41.9485220229
 20
59.2165469347
 30
0.0
 10
41.3547910243
 20
59.2050038117
 30
0.0
 10
40.8182103386
 20
59.2243671383
 30
0.0
 10
40.4802203111
 20
59.2565461785
 30
0.0
 10
40.3202609787
 20
59.276819024
 30
0.0
  0
SPLINE
  5
2D5
100
AcDbEntity
  8
0
100
AcDbSpline
 62
7
  6
BYLAYER
 70
0
 71
3
 72
11
 73
7
 74
0
 42
0.0000001
 43
0.0000001
 44
0.0000000001
 40
0.0
 40
0.0
 40
0.0
 40
0.0
 40
0.251702205
 40
0.5026362331
 40
0.7522736643
 40
1.0
 40
1.0
 40
1.0
 40
1.0
 10
51.8894770678
 20
52.5599973958
 30
0.0
 10
51.5869669238
 20
52.803481309
 30
0.0
 10
50.992064128
 20
53.3013204135
 30
0.0
 10
50.1371658342
 20
54.0870100515
 30
0.0
 10
49.3311208707
 20
54.9143954148
 30
0.0
 10
48.8304119205
 20
55.496681533
 30
0.0
 10
48.5909591766
 20
55.7945621501
 30
0.0
  0
SPLINE
  5
2D6
100
AcDbEntity
  8
0
100
AcDbSpline
 62
7
  6
BYLAYER
 70
0
 71
3
 72
11
 73
7
 74
0
 42
0.0000001
 43
0.0000001
 44
0.0000000001
 40
0.0
 40
0.0
 40
0.0
 40
0.0
 40
0.2389836203
 40
0.4861217523
 40
0.7402452716
 40
1.0
 40
1.0
 40
1.0
 40
1.0
 10
51.5961755001
 20
48.0490883523
 30
0.0
 10
51.5961755001
 20
48.3584165604
 30
0.0
 10
51.6173146788
 20
48.9877675605
 30
0.0
 10
51.7059310025
 20
49.9422467002
 30
0.0
 10
51.8462662893
 20
50.9175637448
 30
0.0
 10
51.9680004823
 20
51.5716405137
 30
0.0
 10
52.0349388826
 20
51.9011228563
 30
0.0
  0
SPLINE
  5
2D7
100
AcDbEntity
  8
0
100
AcDbSpline
 62
7
  6
BYLAYER
 70
0
 71
3
 72
16
 73
12
 74
0
 42
0.0000001
 43
0.0000001
 44
0.0000000001
 40
0.0
 40
0.0
 40
0.0
 40
0.0
 40
0.1491232976
 40
0.2932350963
 40
0.4309609537
 40
0.5611954099
 40
0.6831905483
 40
0.7966605164
 40
0.8503030767
 40
0.9019889226
 40
1.0
 40
1.0
 40
1.0
 40
1.0
 10
48.5909591766
 20
55.7945621501
 30
0.0
 10
48.3668981491
 20
56.0732953829
 30
0.0
 10
47.9047392505
 20
56.6045316629
 30
0.0
 10
47.1629758084
 20
57.3259958466
 30
0.0
 10
46.3942951552
 20
57.9494019786
 30
0.0
 10
45.6114580378
 20
58.4642146279
 30
0.0
 10
44.827419128
 20
58.8616821049
 30
0.0
 10
44.1713733655
 20
59.093627601
 30
0.0
 10
43.6593006282
 20
59.2106878428
 30
0.0
 10
43.1763636335
 20
59.2804475527
 30
0.0
 10
42.8146426773
 20
59.2855225109
 30
0.0
 10
42.5805265045
 20
59.264608574
 30
0.0
  0
SPLINE
  5
2D8
100
AcDbEntity
  8
0
100
AcDbSpline
 62
7
  6
BYLAYER
 70
0
 71
3
 72
20
 73
16
 74
0
 42
0.0000001
 43
0.0000001
 44
0.0000000001
 40
0.0
 40
0.0
 40
0.0
 40
0.0
 40
0.0583200426
 40
0.1153282856
 40
0.1714029011
 40
0.2269993556
 40
0.2825983496
 40
0.3386705201
 40
0.3956661542
 40
0.4539997023
 40
0.5759539202
 40
0.6402638394
 40
0.7070129713
 40
0.8482026032
 40
1.0
 40
1.0
 40
1.0
 40
1.0
 10
42.5805265045
 20
59.264608574
 30
0.0
 10
42.4685682649
 20
59.2546071823
 30
0.0
 10
42.2479627355
 20
59.2238508838
 30
0.0
 10
41.9267873266
 20
59.1439263098
 30
0.0
 10
41.6211962064
 20
59.030998662
 30
0.0
 10
41.3326670422
 20
58.8856283411
 30
0.0
 10
41.0625230303
 20
58.7084200659
 30
0.0
 10
40.81195261
 20
58.5002644329
 30
0.0
 10
40.5821172552
 20
58.2620478308
 30
0.0
 10
40.300529126
 20
57.900806167
 30
0.0
 10
40.0689458463
 20
57.4863573964
 30
0.0
 10
39.8878888583
 20
57.0331869815
 30
0.0
 10
39.7332213298
 20
56.5311922278
 30
0.0
 10
39.6060801916
 20
55.8471200109
 30
0.0
 10
39.5753101726
 20
55.2817503312
 30
0.0
 10
39.5753101726
 20
54.9891811791
 30
0.0
  0
SPLINE
  5
2D9
100
AcDbEntity
  8
0
100
AcDbSpline
 62
7
  6
BYLAYER
 70
0
 71
3
 72
12
 73
8
 74
0
 42
0.0000001
 43
0.0000001
 44
0.0000000001
 40
0.0
 40
0.0
 40
0.0
 40
0.0
 40
0.2780924402
 40
0.5367090798
 40
0.6589498354
 40
0.7767175943
 40
1.0
 40
1.0
 40
1.0
 40
1.0
 10
45.5764999356
 20
44.5842110491
 30
0.0
 10
45.8305999795
 20
44.4370578453
 30
0.0
 10
46.3370913833
 20
44.1794711326
 30
0.0
 10
46.9951485702
 20
43.9460516284
 30
0.0
 10
47.5088658815
 20
43.8281722885
 30
0.0
 10
47.9932803941
 20
43.7578880066
 30
0.0
 10
48.3561334783
 20
43.7526836383
 30
0.0
 10
48.5909591695
 20
43.7736609575
 30
0.0
  0
SPLINE
  5
2DA
100
AcDbEntity
  8
0
100
AcDbSpline
 62
7
  6
BYLAYER
 70
0
 71
3
 72
20
 73
16
 74
0
 42
0.0000001
 43
0.0000001
 44
0.0000000001
 40
0.0
 40
0.0
 40
0.0
 40
0.0
 40
0.0583200426
 40
0.1153282856
 40
0.1714029011
 40
0.2269993556
 40
0.2825983496
 40
0.33867052
 40
0.3956661542
 40
0.4539997023
 40
0.5759539202
 40
0.6402638394
 40
0.7070129713
 40
0.8482026032
 40
1.0
 40
1.0
 40
1.0
 40
1.0
 10
48.5909591695
 20
43.7736609575
 30
0.0
 10
48.702917409
 20
43.7836623492
 30
0.0
 10
48.9235229383
 20
43.8144186478
 30
0.0
 10
49.2446983471
 20
43.8943432219
 30
0.0
 10
49.5502894672
 20
44.0072708697
 30
0.0
 10
49.8388186312
 20
44.1526411908
 30
0.0
 10
50.1089626431
 20
44.329849466
 30
0.0
 10
50.3595330633
 20
44.538005099
 30
0.0
 10
50.5893684179
 20
44.7762217011
 30
0.0
 10
50.870956547
 20
45.1374633649
 30
0.0
 10
51.1025398266
 20
45.5519121354
 30
0.0
 10
51.2835968146
 20
46.0050825503
 30
0.0
 10
51.438264343
 20
46.5070773039
 30
0.0
 10
51.5654054811
 20
47.1911495206
 30
0.0
 10
51.5961755001
 20
47.7565192003
 30
0.0
 10
51.5961755001
 20
48.0490883523
 30
0.0
  0
SPLINE
  5
2DB
100
AcDbEntity
  8
0
100
AcDbSpline
 62
7
  6
BYLAYER
 70
0
 71
3
 72
15
 73
11
 74
0
 42
0.0000001
 43
0.0000001
 44
0.0000000001
 40
0.0
 40
0.0
 40
0.0
 40
0.0
 40
0.1108410465
 40
0.2280578197
 40
0.3507094003
 40
0.477625969
 40
0.6074737799
 40
0.7388131746
 40
0.8701524765
 40
1.0
 40
1.0
 40
1.0
 40
1.0
 10
51.5961755001
 20
48.0490883523
 30
0.0
 10
51.5961755001
 20
48.361416956
 30
0.0
 10
51.5587652637
 20
49.0044045128
 30
0.0
 10
51.4032181016
 20
49.9816958685
 30
0.0
 10
51.1492641786
 20
50.9848962616
 30
0.0
 10
50.8012106406
 20
51.9969969177
 30
0.0
 10
50.3649413452
 20
53.0009920539
 30
0.0
 10
49.8478144762
 20
53.9799270728
 30
0.0
 10
49.2586333313
 20
54.9171772426
 30
0.0
 10
48.8201954839
 20
55.509390839
 30
0.0
 10
48.5909591766
 20
55.7945621501
 30
0.0
  0
SPLINE
  5
2DC
100
AcDbEntity
  8
0
100
AcDbSpline
 62
7
  6
BYLAYER
 70
0
 71
3
 72
11
 73
7
 74
0
 42
0.0000001
 43
0.0000001
 44
0.0000000001
 40
0.0
 40
0.0
 40
0.0
 40
0.0
 40
0.2369356325
 40
0.4817765987
 40
0.7358511538
 40
1.0
 40
1.0
 40
1.0
 40
1.0
 10
52.0349388809
 20
44.703691137
 30
0.0
 10
51.9663891574
 20
44.9619507601
 30
0.0
 10
51.8417236214
 20
45.4911486328
 30
0.0
 10
51.7021464365
 20
46.3097653696
 30
0.0
 10
51.615106264
 20
47.1665542283
 30
0.0
 10
51.5961755001
 20
47.7511965049
 30
0.0
 10
51.5961755001
 20
48.0490883523
 30
0.0
  0
SPLINE
  5
2DD
100
AcDbEntity
  8
0
100
AcDbSpline
 62
7
  6
BYLAYER
 70
0
 71
3
 72
17
 73
13
 74
0
 42
0.0000001
 43
0.0000001
 44
0.0000000001
 40
0.0
 40
0.0
 40
0.0
 40
0.0
 40
0.128688864
 40
0.2702797703
 40
0.4174318348
 40
0.5617733576
 40
0.6954455149
 40
0.8127096012
 40
0.8646749146
 40
0.9125085807
 40
0.9571389861
 40
1.0
 40
1.0
 40
1.0
 40
1.0
 10
7.5663322091
 20
30.3852121974
 30
0.0
 10
7.5663322091
 20
30.2997372871
 30
0.0
 10
7.5902452099
 20
30.1200133028
 30
0.0
 10
7.6794921647
 20
29.8561284925
 30
0.0
 10
7.8170216109
 20
29.6019259552
 30
0.0
 10
7.9917719308
 20
29.3782474144
 30
0.0
 10
8.1894666657
 20
29.2031599313
 30
0.0
 10
8.3684078674
 20
29.105314809
 30
0.0
 10
8.5083844943
 20
29.0680820981
 30
0.0
 10
8.6047229272
 20
29.0609882683
 30
0.0
 10
8.6944299423
 20
29.0741355704
 30
0.0
 10
8.7487805862
 20
29.0967190313
 30
0.0
 10
8.7734291579
 20
29.110962864
 30
0.0
  0
SPLINE
  5
2DE
100
AcDbEntity
  8
0
100
AcDbSpline
 62
7
  6
BYLAYER
 70
0
 71
3
 72
20
 73
16
 74
0
 42
0.0000001
 43
0.0000001
 44
0.0000000001
 40
0.0
 40
0.0
 40
0.0
 40
0.0
 40
0.1478371436
 40
0.2969524346
 40
0.4422503453
 40
0.5120096518
 40
0.5791184883
 40
0.6431541309
 40
0.7038005011
 40
0.7608773086
 40
0.8143766527
 40
0.8644865155
 40
0.9116370066
 40
0.9565044573
 40
1.0
 40
1.0
 40
1.0
 40
1.0
 10
21.259353931
 20
39.0998861002
 30
0.0
 10
21.4989654288
 20
38.8103983024
 30
0.0
 10
21.9400232796
 20
38.1944994445
 30
0.0
 10
22.471674237
 20
37.2007533609
 30
0.0
 10
22.79811863
 20
36.3309736344
 30
0.0
 10
22.9749596891
 20
35.6352662913
 30
0.0
 10
23.0617942003
 20
35.1314357507
 30
0.0
 10
23.103568872
 20
34.6450701697
 30
0.0
 10
23.0996520407
 20
34.1823080975
 30
0.0
 10
23.0499603245
 20
33.7490048391
 30
0.0
 10
22.9550077741
 20
33.350597011
 30
0.0
 10
22.8155376887
 20
32.9922051192
 30
0.0
 10
22.6329681086
 20
32.6785075536
 30
0.0
 10
22.4092015773
 20
32.4142035563
 30
0.0
 10
22.2327912097
 20
32.2724474392
 30
0.0
 10
22.1401189837
 20
32.212150391
 30
0.0
  0
SPLINE
  5
2DF
100
AcDbEntity
  8
0
100
AcDbSpline
 62
7
  6
BYLAYER
 70
0
 71
3
 72
11
 73
7
 74
0
 42
0.0000001
 43
0.0000001
 44
0.0000000001
 40
0.0
 40
0.0
 40
0.0
 40
0.0
 40
0.2325802766
 40
0.4780002557
 40
0.734607181
 40
1.0
 40
1.0
 40
1.0
 40
1.0
 10
54.4953561998
 20
61.3986568765
 30
0.0
 10
54.6713606031
 20
61.2970286586
 30
0.0
 10
55.0216884635
 20
61.0679827814
 30
0.0
 10
55.523577377
 20
60.666426921
 30
0.0
 10
56.0094380369
 20
60.2031014633
 30
0.0
 10
56.3136164953
 20
59.8624615665
 30
0.0
 10
56.4614886581
 20
59.683809093
 30
0.0
  0
SPLINE
  5
2E0
100
AcDbEntity
  8
0
100
AcDbSpline
 62
7
  6
BYLAYER
 70
0
 71
3
 72
14
 73
10
 74
0
 42
0.0000001
 43
0.0000001
 44
0.0000000001
 40
0.0
 40
0.0
 40
0.0
 40
0.0
 40
0.2612526553
 40
0.392598751
 40
0.5224335893
 40
0.6493156872
 40
0.7719341079
 40
0.8891399359
 40
1.0
 40
1.0
 40
1.0
 40
1.0
 10
56.5678114997
 20
59.5529506998
 30
0.0
 10
56.8790724199
 20
59.1627145858
 30
0.0
 10
57.3015583878
 20
58.5382587925
 30
0.0
 10
57.765885506
 20
57.6539682052
 30
0.0
 10
58.0603175172
 20
56.9726033603
 30
0.0
 10
58.2950917285
 20
56.2860965022
 30
0.0
 10
58.4663579937
 20
55.6057825999
 30
0.0
 10
58.5712737958
 20
54.9430809515
 30
0.0
 10
58.5964668119
 20
54.5070766849
 30
0.0
 10
58.5964774115
 20
54.2952599921
 30
0.0
  0
SPLINE
  5
2E1
100
AcDbEntity
  8
0
100
AcDbSpline
 62
7
  6
BYLAYER
 70
0
 71
3
 72
13
 73
9
 74
0
 42
0.0000001
 43
0.0000001
 44
0.0000000001
 40
0.0
 40
0.0
 40
0.0
 40
0.0
 40
0.276642473
 40
0.5316794697
 40
0.6527123859
 40
0.7704135402
 40
0.8858001216
 40
1.0
 40
1.0
 40
1.0
 40
1.0
 10
26.6506433354
 20
34.7931947035
 30
0.0
 10
26.8431360365
 20
34.7282742312
 30
0.0
 10
27.2233567834
 20
34.6308902732
 30
0.0
 10
27.7051474045
 20
34.5992880925
 30
0.0
 10
28.066638399
 20
34.6353523413
 30
0.0
 10
28.3213266373
 20
34.690856141
 30
0.0
 10
28.5626867555
 20
34.7750771898
 30
0.0
 10
28.7141953327
 20
34.8502116033
 30
0.0
 10
28.7868216959
 20
34.8921387443
 30
0.0
  0
SPLINE
  5
2E2
100
AcDbEntity
  8
0
100
AcDbSpline
 62
7
  6
BYLAYER
 70
0
 71
3
 72
16
 73
12
 74
0
 42
0.0000001
 43
0.0000001
 44
0.0000000001
 40
0.0
 40
0.0
 40
0.0
 40
0.0
 40
0.0473967195
 40
0.0955791612
 40
0.1961281948
 40
0.3050940432
 40
0.4243115852
 40
0.5543158367
 40
0.6945629794
 40
0.8437829993
 40
1.0
 40
1.0
 40
1.0
 40
1.0
 10
17.1408082683
 20
40.867390661
 30
0.0
 10
17.2083735274
 20
40.9018267486
 30
0.0
 10
17.3495554558
 20
40.9620423511
 30
0.0
 10
17.6527417037
 20
41.0459248445
 30
0.0
 10
18.0683036496
 20
41.0772770611
 30
0.0
 10
18.5919927159
 20
40.999617369
 30
0.0
 10
19.1364352984
 20
40.8120965241
 30
0.0
 10
19.6892965488
 20
40.5201613131
 30
0.0
 10
20.2383002899
 20
40.13121791
 30
0.0
 10
20.7704936028
 20
39.6546059091
 30
0.0
 10
21.099981711
 20
39.292432424
 30
0.0
 10
21.259353931
 20
39.0998861002
 30
0.0
  0
SPLINE
  5
2E3
100
AcDbEntity
  8
0
100
AcDbSpline
 62
7
  6
BYLAYER
 70
0
 71
3
 72
11
 73
7
 74
0
 42
0.0000001
 43
0.0000001
 44
0.0000000001
 40
0.0
 40
0.0
 40
0.0
 40
0.0
 40
0.2390934366
 40
0.4816799562
 40
0.7341959618
 40
1.0
 40
1.0
 40
1.0
 40
1.0
 10
16.1545365443
 20
32.9057234311
 30
0.0
 10
16.1034028362
 20
32.8804240828
 30
0.0
 10
15.9924842583
 20
32.8441175822
 30
0.0
 10
15.8157633498
 20
32.8356380917
 30
0.0
 10
15.6359110315
 20
32.8688465475
 30
0.0
 10
15.5201865188
 20
32.9145336717
 30
0.0
 10
15.4632098592
 20
32.9423940732
 30
0.0
  0
SPLINE
  5
2E4
100
AcDbEntity
  8
0
100
AcDbSpline
 62
7
  6
BYLAYER
 70
0
 71
3
 72
17
 73
13
 74
0
 42
0.0000001
 43
0.0000001
 44
0.0000000001
 40
0.0
 40
0.0
 40
0.0
 40
0.0
 40
0.0500763756
 40
0.1005455182
 40
0.1518860278
 40
0.2045193648
 40
0.3148008901
 40
0.4336740876
 40
0.5621404727
 40
0.7001178569
 40
0.846627173
 40
1.0
 40
1.0
 40
1.0
 40
1.0
 10
15.6501251447
 20
40.0093950762
 30
0.0
 10
15.5791843351
 20
39.9684376252
 30
0.0
 10
15.4422268505
 20
39.8762825328
 30
0.0
 10
15.256099414
 20
39.7106529951
 30
0.0
 10
15.0904380458
 20
39.5189775518
 30
0.0
 10
14.8951308712
 20
39.2270488373
 30
0.0
 10
14.707923765
 20
38.801580208
 30
0.0
 10
14.5792517576
 20
38.2279744825
 30
0.0
 10
14.5413099164
 20
37.5965007924
 30
0.0
 10
14.5927889707
 20
36.921158415
 30
0.0
 10
14.731125054
 20
36.2169461433
 30
0.0
 10
14.8761619964
 20
35.7472992753
 30
0.0
 10
14.9615939005
 20
35.5114045429
 30
0.0
  0
SPLINE
  5
2E5
100
AcDbEntity
  8
0
100
AcDbSpline
 62
7
  6
BYLAYER
 70
0
 71
3
 72
17
 73
13
 74
0
 42
0.0000001
 43
0.0000001
 44
0.0000000001
 40
0.0
 40
0.0
 40
0.0
 40
0.0
 40
0.1533979781
 40
0.2999809861
 40
0.4380186273
 40
0.5665382404
 40
0.685421898
 40
0.7956656612
 40
0.8482640641
 40
0.8995607255
 40
0.9499787952
 40
1.0
 40
1.0
 40
1.0
 40
1.0
 10
16.3931241623
 20
33.0225399439
 30
0.0
 10
16.5549459039
 20
32.8289609198
 30
0.0
 10
16.8898952288
 20
32.4653160819
 30
0.0
 10
17.4322274172
 20
31.9888860219
 30
0.0
 10
17.9935084906
 20
31.6026507127
 30
0.0
 10
18.5617923001
 20
31.3164225948
 30
0.0
 10
19.125528436
 20
31.1385245761
 30
0.0
 10
19.589929107
 20
31.0865226164
 30
0.0
 10
19.9421813898
 20
31.1091668289
 30
0.0
 10
20.1922369873
 20
31.1566624849
 30
0.0
 10
20.4298797478
 20
31.235181747
 30
0.0
 10
20.5788509193
 20
31.3079910908
 30
0.0
 10
20.6501027603
 20
31.3491281148
 30
0.0
  0
SPLINE
  5
2E6
100
AcDbEntity
  8
0
100
AcDbSpline
 62
7
  6
BYLAYER
 70
0
 71
3
 72
11
 73
7
 74
0
 42
0.0000001
 43
0.0000001
 44
0.0000000001
 40
0.0
 40
0.0
 40
0.0
 40
0.0
 40
0.2667076236
 40
0.5195053432
 40
0.7617565518
 40
1.0
 40
1.0
 40
1.0
 40
1.0
 10
14.435028973
 20
34.6951764521
 30
0.0
 10
14.4381925868
 20
34.7610049707
 30
0.0
 10
14.4544949111
 20
34.8891282967
 30
0.0
 10
14.5148166072
 20
35.0689529099
 30
0.0
 10
14.6119175688
 20
35.2241686508
 30
0.0
 10
14.7013984221
 20
35.3051473441
 30
0.0
 10
14.750390575
 20
35.3377901086
 30
0.0
  0
SPLINE
  5
2E7
100
AcDbEntity
  8
0
100
AcDbSpline
 62
7
  6
BYLAYER
 70
0
 71
3
 72
11
 73
7
 74
0
 42
0.0000001
 43
0.0000001
 44
0.0000000001
 40
0.0
 40
0.0
 40
0.0
 40
0.0
 40
0.2177660095
 40
0.4508968553
 40
0.7103699668
 40
1.0
 40
1.0
 40
1.0
 40
1.0
 10
7.7734547105
 20
30.8429800219
 30
0.0
 10
7.7404784208
 20
30.8239237958
 30
0.0
 10
7.6787285829
 20
30.7720896814
 30
0.0
 10
7.613032851
 20
30.6646254719
 30
0.0
 10
7.5740321371
 20
30.5322279659
 30
0.0
 10
7.5663322091
 20
30.4358673538
 30
0.0
 10
7.5663322091
 20
30.3852121974
 30
0.0
  0
SPLINE
  5
2E8
100
AcDbEntity
  8
0
100
AcDbSpline
 62
7
  6
BYLAYER
 70
0
 71
3
 72
11
 73
7
 74
0
 42
0.0000001
 43
0.0000001
 44
0.0000000001
 40
0.0
 40
0.0
 40
0.0
 40
0.0
 40
0.2691492005
 40
0.5273846721
 40
0.7716553047
 40
1.0
 40
1.0
 40
1.0
 40
1.0
 10
21.3145094546
 20
39.1594445387
 30
0.0
 10
21.1669870808
 20
39.3365634932
 30
0.0
 10
20.8626932959
 20
39.671319308
 30
0.0
 10
20.3734633413
 20
40.1171858596
 30
0.0
 10
19.8687682326
 20
40.4893719417
 30
0.0
 10
19.516055215
 20
40.6905614162
 30
0.0
 10
19.3397942521
 20
40.7752755444
 30
0.0
  0
SPLINE
  5
2E9
100
AcDbEntity
  8
0
100
AcDbSpline
 62
7
  6
BYLAYER
 70
0
 71
3
 72
9
 73
5
 74
0
 42
0.0000001
 43
0.0000001
 44
0.0000000001
 40
0.0
 40
0.0
 40
0.0
 40
0.0
 40
0.2686986739
 40
1.0
 40
1.0
 40
1.0
 40
1.0
 10
19.3128500215
 20
40.7881051629
 30
0.0
 10
19.2174111764
 20
40.833122487
 30
0.0
 10
18.8562761593
 20
40.9867737009
 30
0.0
 10
18.4667488413
 20
41.0813024477
 30
0.0
 10
18.1800020347
 20
41.0973607021
 30
0.0
  0
SPLINE
  5
2EA
100
AcDbEntity
  8
0
100
AcDbSpline
 62
7
  6
BYLAYER
 70
0
 71
3
 72
9
 73
5
 74
0
 42
0.0000001
 43
0.0000001
 44
0.0000000001
 40
0.0
 40
0.0
 40
0.0
 40
0.0
 40
0.5121279413
 40
1.0
 40
1.0
 40
1.0
 40
1.0
 10
18.1800020347
 20
41.0973607021
 30
0.0
 10
18.0591628387
 20
41.1041278796
 30
0.0
 10
17.8216386233
 20
41.0989128787
 30
0.0
 10
17.5885778583
 20
41.0510094856
 30
0.0
 10
17.4784950378
 20
41.0167311857
 30
0.0
  0
SPLINE
  5
2EB
100
AcDbEntity
  8
0
100
AcDbSpline
 62
7
  6
BYLAYER
 70
0
 71
3
 72
11
 73
7
 74
0
 42
0.0000001
 43
0.0000001
 44
0.0000000001
 40
0.0
 40
0.0
 40
0.0
 40
0.0
 40
0.2341529001
 40
0.4799808632
 40
0.7359903922
 40
1.0
 40
1.0
 40
1.0
 40
1.0
 10
54.4899372813
 20
61.3992647008
 30
0.0
 10
54.6597647932
 20
61.2949137862
 30
0.0
 10
54.9973195746
 20
61.0634516399
 30
0.0
 10
55.481455446
 20
60.6646960904
 30
0.0
 10
55.9501940773
 20
60.210673784
 30
0.0
 10
56.2445690552
 20
59.8794544571
 30
0.0
 10
56.3878691828
 20
59.7063257101
 30
0.0
  0
SPLINE
  5
2EC
100
AcDbEntity
  8
0
100
AcDbSpline
 62
7
  6
BYLAYER
 70
0
 71
3
 72
18
 73
14
 74
0
 42
0.0000001
 43
0.0000001
 44
0.0000000001
 40
0.0
 40
0.0
 40
0.0
 40
0.0
 40
0.1412834968
 40
0.2842108334
 40
0.4250880019
 40
0.5603808632
 40
0.6249902298
 40
0.6871198467
 40
0.746515235
 40
0.803009262
 40
0.8565208882
 40
0.9070902922
 40
1.0
 40
1.0
 40
1.0
 40
1.0
 10
21.3131139917
 20
39.1146691536
 30
0.0
 10
21.5182343206
 20
38.8668520294
 30
0.0
 10
21.9009221509
 20
38.3428508547
 30
0.0
 10
22.3805906544
 20
37.4998984985
 30
0.0
 10
22.7562097996
 20
36.6204071072
 30
0.0
 10
22.974045758
 20
35.8732596392
 30
0.0
 10
23.0818895924
 20
35.2860183982
 30
0.0
 10
23.1281930407
 20
34.8643258409
 30
0.0
 10
23.1405550699
 20
34.4587089684
 30
0.0
 10
23.1189988509
 20
34.0730967631
 30
0.0
 10
23.0633922891
 20
33.7109608323
 30
0.0
 10
22.9483239709
 20
33.2770626178
 30
0.0
 10
22.80827131
 20
32.9762012036
 30
0.0
 10
22.6902847266
 20
32.800608596
 30
0.0
  0
SPLINE
  5
2ED
100
AcDbEntity
  8
0
100
AcDbSpline
 62
7
  6
BYLAYER
 70
0
 71
3
 72
20
 73
16
 74
0
 42
0.0000001
 43
0.0000001
 44
0.0000000001
 40
0.0
 40
0.0
 40
0.0
 40
0.0
 40
0.1519980537
 40
0.3083693605
 40
0.4587343288
 40
0.5288049322
 40
0.5942005555
 40
0.654427139
 40
0.7094260847
 40
0.7597441571
 40
0.8066234054
 40
0.8519629681
 40
0.8980078455
 40
0.9468361453
 40
1.0
 40
1.0
 40
1.0
 40
1.0
 10
16.1503212925
 20
33.9148186384
 30
0.0
 10
16.1197164709
 20
34.0350419121
 30
0.0
 10
16.031226955
 20
34.2727086327
 30
0.0
 10
15.8385500515
 20
34.595771287
 30
0.0
 10
15.6341616228
 20
34.8286231441
 30
0.0
 10
15.4534125728
 20
34.9768421295
 30
0.0
 10
15.318060942
 20
35.062510756
 30
0.0
 10
15.1830899512
 20
35.1232341325
 30
0.0
 10
15.05152324
 20
35.1572407569
 30
0.0
 10
14.9264196988
 20
35.1633286469
 30
0.0
 10
14.8109849224
 20
35.1405183127
 30
0.0
 10
14.7090765947
 20
35.0886764002
 30
0.0
 10
14.6243565217
 20
35.0096502694
 30
0.0
 10
14.5593459849
 20
34.9064831524
 30
0.0
 10
14.5311206181
 20
34.8274858501
 30
0.0
 10
14.5201401494
 20
34.7855069608
 30
0.0
  0
SPLINE
  5
2EE
100
AcDbEntity
  8
0
100
AcDbSpline
 62
7
  6
BYLAYER
 70
0
 71
3
 72
9
 73
5
 74
0
 42
0.0000001
 43
0.0000001
 44
0.0000000001
 40
0.0
 40
0.0
 40
0.0
 40
0.0
 40
0.2372407711
 40
1.0
 40
1.0
 40
1.0
 40
1.0
 10
16.1968243664
 20
33.5673232936
 30
0.0
 10
16.1968243664
 20
33.5950895601
 30
0.0
 10
16.1925300643
 20
33.7121191013
 30
0.0
 10
16.1723445762
 20
33.828305758
 30
0.0
 10
16.1503212925
 20
33.9148186384
 30
0.0
  0
SPLINE
  5
2EF
100
AcDbEntity
  8
0
100
AcDbSpline
 62
7
  6
BYLAYER
 70
0
 71
3
 72
20
 73
16
 74
0
 42
0.0000001
 43
0.0000001
 44
0.0000000001
 40
0.0
 40
0.0
 40
0.0
 40
0.0
 40
0.1486274282
 40
0.2984709858
 40
0.4442431208
 40
0.5140957908
 40
0.5811826991
 40
0.6450766865
 40
0.7054702933
 40
0.7622002554
 40
0.8152937587
 40
0.8649920817
 40
0.9117949268
 40
0.9564658503
 40
1.0
 40
1.0
 40
1.0
 40
1.0
 10
26.7747638613
 20
42.2841905004
 30
0.0
 10
27.0184550015
 20
41.9897738627
 30
0.0
 10
27.46623972
 20
41.3629347039
 30
0.0
 10
28.0032335555
 20
40.3512695856
 30
0.0
 10
28.3296987981
 20
39.466259279
 30
0.0
 10
28.5031274527
 20
38.7596238819
 30
0.0
 10
28.5857156945
 20
38.2492113744
 30
0.0
 10
28.6215762411
 20
37.7577204891
 30
0.0
 10
28.6101924977
 20
37.2915576412
 30
0.0
 10
28.551492319
 20
36.8568071607
 30
0.0
 10
28.4461272013
 20
36.4591075949
 30
0.0
 10
28.2949642505
 20
36.1037591325
 30
0.0
 10
28.0995176431
 20
35.7956714909
 30
0.0
 10
27.8620581805
 20
35.539673274
 30
0.0
 10
27.6766599091
 20
35.4059075127
 30
0.0
 10
27.5797107224
 20
35.3499375245
 30
0.0
  0
SPLINE
  5
2F0
100
AcDbEntity
  8
0
100
AcDbSpline
 62
7
  6
BYLAYER
 70
0
 71
3
 72
10
 73
6
 74
0
 42
0.0000001
 43
0.0000001
 44
0.0000000001
 40
0.0
 40
0.0
 40
0.0
 40
0.0
 40
0.527133373
 40
0.7678446626
 40
1.0
 40
1.0
 40
1.0
 40
1.0
 10
15.5553211949
 20
32.9840874588
 30
0.0
 10
15.620576563
 20
32.9656635256
 30
0.0
 10
15.7209244382
 20
32.9513518021
 30
0.0
 10
15.8487277333
 20
32.9714398391
 30
0.0
 10
15.9060133977
 20
32.9935927976
 30
0.0
 10
15.9324706238
 20
33.0074417847
 30
0.0
  0
SPLINE
  5
2F1
100
AcDbEntity
  8
0
100
AcDbSpline
 62
7
  6
BYLAYER
 70
0
 71
3
 72
11
 73
7
 74
0
 42
0.0000001
 43
0.0000001
 44
0.0000000001
 40
0.0
 40
0.0
 40
0.0
 40
0.0
 40
0.2179124239
 40
0.4503803908
 40
0.7095727193
 40
1.0
 40
1.0
 40
1.0
 40
1.0
 10
15.9324706238
 20
33.0074417847
 30
0.0
 10
15.9742383009
 20
33.0293049996
 30
0.0
 10
16.052957995
 20
33.0906280105
 30
0.0
 10
16.1371348735
 20
33.2217730307
 30
0.0
 10
16.1870305405
 20
33.3851522275
 30
0.0
 10
16.1968243664
 20
33.504491405
 30
0.0
 10
16.1968243664
 20
33.5673232936
 30
0.0
  0
SPLINE
  5
2F2
100
AcDbEntity
  8
0
100
AcDbSpline
 62
7
  6
BYLAYER
 70
0
 71
3
 72
11
 73
7
 74
0
 42
0.0000001
 43
0.0000001
 44
0.0000000001
 40
0.0
 40
0.0
 40
0.0
 40
0.0
 40
0.2896413964
 40
0.5491107671
 40
0.7822355978
 40
1.0
 40
1.0
 40
1.0
 40
1.0
 10
16.0515900315
 20
33.6511722271
 30
0.0
 10
16.0515900315
 20
33.6005150112
 30
0.0
 10
16.0438901159
 20
33.5041529961
 30
0.0
 10
16.0048887413
 20
33.3717546844
 30
0.0
 10
15.9391910709
 20
33.2642946263
 30
0.0
 10
15.8774451054
 20
33.2124580191
 30
0.0
 10
15.8444690979
 20
33.1934017581
 30
0.0
  0
SPLINE
  5
2F3
100
AcDbEntity
  8
0
100
AcDbSpline
 62
7
  6
BYLAYER
 70
0
 71
3
 72
20
 73
16
 74
0
 42
0.0000001
 43
0.0000001
 44
0.0000000001
 40
0.0
 40
0.0
 40
0.0
 40
0.0
 40
0.0435345262
 40
0.0882047632
 40
0.1350077917
 40
0.1847069576
 40
0.2377988579
 40
0.2945304704
 40
0.3549231553
 40
0.4188169367
 40
0.4859047283
 40
0.5557568282
 40
0.7015284593
 40
0.8513725962
 40
1.0
 40
1.0
 40
1.0
 40
1.0
 10
28.7868216959
 20
34.8921387443
 30
0.0
 10
28.9031624485
 20
34.9593021672
 30
0.0
 10
29.1256050797
 20
35.1198677996
 30
0.0
 10
29.4105872127
 20
35.4270281704
 30
0.0
 10
29.6451341314
 20
35.7967359234
 30
0.0
 10
29.8264763296
 20
36.2231711196
 30
0.0
 10
29.9529875025
 20
36.7003938773
 30
0.0
 10
30.0233663163
 20
37.2221032969
 30
0.0
 10
30.0370529876
 20
37.7814962273
 30
0.0
 10
29.9940351524
 20
38.3712884597
 30
0.0
 10
29.8948918004
 20
38.9837772403
 30
0.0
 10
29.6868195064
 20
39.8317489549
 30
0.0
 10
29.2950351131
 20
40.8937539056
 30
0.0
 10
28.6506456878
 20
42.1077518587
 30
0.0
 10
28.1133035964
 20
42.8599618452
 30
0.0
 10
27.8208741594
 20
43.2132618937
 30
0.0
  0
SPLINE
  5
2F4
100
AcDbEntity
  8
0
100
AcDbSpline
 62
7
  6
BYLAYER
 70
0
 71
3
 72
17
 73
13
 74
0
 42
0.0000001
 43
0.0000001
 44
0.0000000001
 40
0.0
 40
0.0
 40
0.0
 40
0.0
 40
0.128688864
 40
0.2702797703
 40
0.4174318348
 40
0.5617733576
 40
0.6954455149
 40
0.8127096012
 40
0.8646749146
 40
0.9125085807
 40
0.9571389861
 40
1.0
 40
1.0
 40
1.0
 40
1.0
 10
8.9805516594
 20
29.5687306884
 30
0.0
 10
8.9805516594
 20
29.6542055988
 30
0.0
 10
8.9566386585
 20
29.8339295831
 30
0.0
 10
8.8673917038
 20
30.0978143933
 30
0.0
 10
8.7298622575
 20
30.3520169307
 30
0.0
 10
8.5551119377
 20
30.5756954715
 30
0.0
 10
8.3574172027
 20
30.7507829546
 30
0.0
 10
8.178476001
 20
30.8486280769
 30
0.0
 10
8.0384993741
 20
30.8858607878
 30
0.0
 10
7.9421609413
 20
30.8929546176
 30
0.0
 10
7.8524539261
 20
30.8798073154
 30
0.0
 10
7.7981032822
 20
30.8572238546
 30
0.0
 10
7.7734547105
 20
30.8429800219
 30
0.0
  0
SPLINE
  5
2F5
100
AcDbEntity
  8
0
100
AcDbSpline
 62
7
  6
BYLAYER
 70
0
 71
3
 72
14
 73
10
 74
0
 42
0.0000001
 43
0.0000001
 44
0.0000000001
 40
0.0
 40
0.0
 40
0.0
 40
0.0
 40
0.2069115195
 40
0.3217196349
 40
0.4442040384
 40
0.5740346635
 40
0.7105735643
 40
0.8529832738
 40
1.0
 40
1.0
 40
1.0
 40
1.0
 10
18.088143737
 20
41.0552084372
 30
0.0
 10
18.3532746043
 20
41.0529812181
 30
0.0
 10
18.7661752046
 20
40.9742864049
 30
0.0
 10
19.2957599404
 20
40.7646168064
 30
0.0
 10
19.7117357138
 20
40.5425039388
 30
0.0
 10
20.1260270991
 20
40.2644200583
 30
0.0
 10
20.5333943779
 20
39.9340563094
 30
0.0
 10
20.927972348
 20
39.556113844
 30
0.0
 10
21.1757299387
 20
39.279592837
 30
0.0
 10
21.2963367529
 20
39.1348697792
 30
0.0
  0
SPLINE
  5
2F6
100
AcDbEntity
  8
0
100
AcDbSpline
 62
7
  6
BYLAYER
 70
0
 71
3
 72
14
 73
10
 74
0
 42
0.0000001
 43
0.0000001
 44
0.0000000001
 40
0.0
 40
0.0
 40
0.0
 40
0.0
 40
0.2604014876
 40
0.3912721868
 40
0.5207579742
 40
0.6475246383
 40
0.7703467651
 40
0.8881391731
 40
1.0
 40
1.0
 40
1.0
 40
1.0
 10
56.5301981714
 20
59.5301867138
 30
0.0
 10
56.8381512405
 20
59.1398418565
 30
0.0
 10
57.2574256096
 20
58.5172657451
 30
0.0
 10
57.7216331067
 20
57.637356671
 30
0.0
 10
58.0184071424
 20
56.959597139
 30
0.0
 10
58.2583390783
 20
56.2760031743
 30
0.0
 10
58.4377962145
 20
55.5970573773
 30
0.0
 10
58.5539892143
 20
54.9333296633
 30
0.0
 10
58.5889789688
 20
54.4953765294
 30
0.0
 10
58.594519814
 20
54.2818674765
 30
0.0
  0
SPLINE
  5
2F7
100
AcDbEntity
  8
0
100
AcDbSpline
 62
7
  6
BYLAYER
 70
0
 71
3
 72
9
 73
5
 74
0
 42
0.0000001
 43
0.0000001
 44
0.0000000001
 40
0.0
 40
0.0
 40
0.0
 40
0.0
 40
0.5146649569
 40
1.0
 40
1.0
 40
1.0
 40
1.0
 10
16.4319577685
 20
33.0372748581
 30
0.0
 10
16.6106083489
 20
32.8259386359
 30
0.0
 10
16.9803405652
 20
32.4337680091
 30
0.0
 10
17.3953668806
 20
32.0891128376
 30
0.0
 10
17.6076757651
 20
31.9373747645
 30
0.0
  0
SPLINE
  5
2F8
100
AcDbEntity
  8
0
100
AcDbSpline
 62
7
  6
BYLAYER
 70
0
 71
3
 72
28
 73
24
 74
0
 42
0.0000001
 43
0.0000001
 44
0.0000000001
 40
0.0
 40
0.0
 40
0.0
 40
0.0
 40
0.0653196024
 40
0.1249516661
 40
0.1790087873
 40
0.2042417281
 40
0.2284933861
 40
0.2520163065
 40
0.2751065326
 40
0.2980915099
 40
0.3213051386
 40
0.345065768
 40
0.3696544597
 40
0.422103132
 40
0.4503423203
 40
0.4799999952
 40
0.5435596078
 40
0.6125192737
 40
0.6860595998
 40
0.7630222173
 40
0.8420099591
 40
0.9215275652
 40
1.0
 40
1.0
 40
1.0
 40
1.0
 10
17.6783500151
 20
31.8877312209
 30
0.0
 10
17.8632769262
 20
31.7600985663
 30
0.0
 10
18.2334767339
 20
31.5381875596
 30
0.0
 10
18.8074679076
 20
31.3075713725
 30
0.0
 10
19.28085031
 20
31.2167674104
 30
0.0
 10
19.6378498369
 20
31.2133374575
 30
0.0
 10
19.8879631737
 20
31.243254935
 30
0.0
 10
20.1245316889
 20
31.3053775487
 30
0.0
 10
20.3456087051
 20
31.3995149247
 30
0.0
 10
20.5494129585
 20
31.5247979384
 30
0.0
 10
20.7342067894
 20
31.6802902219
 30
0.0
 10
20.8986009975
 20
31.8646147929
 30
0.0
 10
21.0930676138
 20
32.1527376704
 30
0.0
 10
21.2366427437
 20
32.4892944112
 30
0.0
 10
21.3315172791
 20
32.8571541017
 30
0.0
 10
21.3979645177
 20
33.2702325503
 30
0.0
 10
21.4148700265
 20
33.8303219407
 30
0.0
 10
21.3367862048
 20
34.5367298022
 30
0.0
 10
21.1632654304
 20
35.2731806696
 30
0.0
 10
20.8993062128
 20
36.0186906897
 30
0.0
 10
20.5524942722
 20
36.7521859881
 30
0.0
 10
20.132751693
 20
37.4524473629
 30
0.0
 10
19.8080445826
 20
37.8896354318
 30
0.0
 10
19.635924197
 20
38.0975835138
 30
0.0
  0
SPLINE
  5
2F9
100
AcDbEntity
  8
0
100
AcDbSpline
 62
7
  6
BYLAYER
 70
0
 71
3
 72
10
 73
6
 74
0
 42
0.0000001
 43
0.0000001
 44
0.0000000001
 40
0.0
 40
0.0
 40
0.0
 40
0.0
 40
0.2330968102
 40
0.4787484136
 40
1.0
 40
1.0
 40
1.0
 40
1.0
 10
14.6145665043
 20
37.5571683864
 30
0.0
 10
14.6145665043
 20
37.3962007525
 30
0.0
 10
14.6321744972
 20
37.0654038046
 30
0.0
 10
14.7322466655
 20
36.381491365
 30
0.0
 10
14.8757321454
 20
35.8686572997
 30
0.0
 10
14.9967900724
 20
35.5296684784
 30
0.0
  0
SPLINE
  5
2FA
100
AcDbEntity
  8
0
100
AcDbSpline
 62
7
  6
BYLAYER
 70
0
 71
3
 72
20
 73
16
 74
0
 42
0.0000001
 43
0.0000001
 44
0.0000000001
 40
0.0
 40
0.0
 40
0.0
 40
0.0
 40
0.0435251461
 40
0.0882188942
 40
0.1350654021
 40
0.1848166006
 40
0.2379629234
 40
0.2947383467
 40
0.3551653383
 40
0.4190786396
 40
0.4861690266
 40
0.5560093422
 40
0.701720706
 40
0.8514728098
 40
1.0
 40
1.0
 40
1.0
 40
1.0
 10
22.1450862123
 20
32.2123316326
 30
0.0
 10
22.2414764791
 20
32.26888072
 30
0.0
 10
22.4256985481
 20
32.4037210282
 30
0.0
 10
22.6613500766
 20
32.6608457023
 30
0.0
 10
22.8550922538
 20
32.9696992932
 30
0.0
 10
23.0047073041
 20
33.3254697125
 30
0.0
 10
23.1086916601
 20
33.7232805961
 30
0.0
 10
23.1661970615
 20
34.1578552943
 30
0.0
 10
23.1765921293
 20
34.6235835722
 30
0.0
 10
23.1399435738
 20
35.1144110321
 30
0.0
 10
23.0567925833
 20
35.6239654544
 30
0.0
 10
22.8829079374
 20
36.3291712394
 30
0.0
 10
22.5564367799
 20
37.2121917127
 30
0.0
 10
22.0201352305
 20
38.2215206321
 30
0.0
 10
21.5732241884
 20
38.8469357301
 30
0.0
 10
21.3300643148
 20
39.1407105156
 30
0.0
  0
SPLINE
  5
2FB
100
AcDbEntity
  8
0
100
AcDbSpline
 62
7
  6
BYLAYER
 70
0
 71
3
 72
23
 73
19
 74
0
 42
0.0000001
 43
0.0000001
 44
0.0000000001
 40
0.0
 40
0.0
 40
0.0
 40
0.0
 40
0.0825837767
 40
0.1623183951
 40
0.2383951213
 40
0.3102808336
 40
0.377594428
 40
0.4402149882
 40
0.4983465018
 40
0.5525764202
 40
0.6039140349
 40
0.6537480324
 40
0.7036947067
 40
0.7553543464
 40
0.810068231
 40
0.8687825742
 40
0.9320640227
 40
1.0
 40
1.0
 40
1.0
 40
1.0
 10
19.635924197
 20
38.0975835138
 30
0.0
 10
19.5092872918
 20
38.2505805075
 30
0.0
 10
19.2485644367
 20
38.5417786016
 30
0.0
 10
18.8314683853
 20
38.9361343814
 30
0.0
 10
18.4005331201
 20
39.2753448323
 30
0.0
 10
17.9629076786
 20
39.5537805456
 30
0.0
 10
17.5255094799
 20
39.7668779359
 30
0.0
 10
17.0952328404
 20
39.9109632889
 30
0.0
 10
16.6787711898
 20
39.983211942
 30
0.0
 10
16.2827639758
 20
39.9815890648
 30
0.0
 10
15.9141182022
 20
39.9049840519
 30
0.0
 10
15.5802602652
 20
39.7537346019
 30
0.0
 10
15.288500373
 20
39.5306586674
 30
0.0
 10
15.0446445066
 20
39.2409563672
 30
0.0
 10
14.852480089
 20
38.8909582386
 30
0.0
 10
14.7142782597
 20
38.4871630432
 30
0.0
 10
14.6316235301
 20
38.0365239567
 30
0.0
 10
14.6145665043
 20
37.7205491756
 30
0.0
 10
14.6145665043
 20
37.5571683864
 30
0.0
  0
SPLINE
  5
2FC
100
AcDbEntity
  8
0
100
AcDbSpline
 62
7
  6
BYLAYER
 70
0
 71
3
 72
13
 73
9
 74
0
 42
0.0000001
 43
0.0000001
 44
0.0000000001
 40
0.0
 40
0.0
 40
0.0
 40
0.0
 40
0.2904081422
 40
0.5489692364
 40
0.6678879865
 40
0.7814452777
 40
0.8914504951
 40
1.0
 40
1.0
 40
1.0
 40
1.0
 10
17.8193525685
 20
34.2635401576
 30
0.0
 10
17.8193525685
 20
34.1841585472
 30
0.0
 10
17.8068909852
 20
34.0336004478
 30
0.0
 10
17.7518830128
 20
33.8572981356
 30
0.0
 10
17.685170735
 20
33.74028231
 30
0.0
 10
17.6264109935
 20
33.6668590892
 30
0.0
 10
17.5582534833
 20
33.6062378038
 30
0.0
 10
17.5069683365
 20
33.5748664884
 30
0.0
 10
17.4803715782
 20
33.5617132313
 30
0.0
  0
SPLINE
  5
2FD
100
AcDbEntity
  8
0
100
AcDbSpline
 62
7
  6
BYLAYER
 70
0
 71
3
 72
17
 73
13
 74
0
 42
0.0000001
 43
0.0000001
 44
0.0000000001
 40
0.0
 40
0.0
 40
0.0
 40
0.0
 40
0.0475140974
 40
0.0956323613
 40
0.1449220894
 40
0.1958807205
 40
0.304205247
 40
0.4229329719
 40
0.5527655672
 40
0.6932107996
 40
0.842980548
 40
1.0
 40
1.0
 40
1.0
 40
1.0
 10
22.5797523919
 20
44.0101710823
 30
0.0
 10
22.6467913074
 20
44.0488734938
 30
0.0
 10
22.7873549085
 20
44.1174430056
 30
0.0
 10
23.0124625095
 20
44.1909096298
 30
0.0
 10
23.2508356985
 20
44.2349459371
 30
0.0
 10
23.5908336183
 20
44.2545480289
 30
0.0
 10
24.044340279
 20
44.1998298807
 30
0.0
 10
24.6000307745
 20
44.0193965856
 30
0.0
 10
25.1659302058
 20
43.7290004859
 30
0.0
 10
25.7285858654
 20
43.3363434459
 30
0.0
 10
26.2742367255
 20
42.851329969
 30
0.0
 10
26.6116523441
 20
42.4812544742
 30
0.0
 10
26.7747638613
 20
42.2841905004
 30
0.0
  0
SPLINE
  5
2FE
100
AcDbEntity
  8
0
100
AcDbSpline
 62
7
  6
BYLAYER
 70
0
 71
3
 72
17
 73
13
 74
0
 42
0.0000001
 43
0.0000001
 44
0.0000000001
 40
0.0
 40
0.0
 40
0.0
 40
0.0
 40
0.1570274606
 40
0.3067858387
 40
0.4472364023
 40
0.577067081
 40
0.6957938793
 40
0.8041185875
 40
0.8550779632
 40
0.9043677096
 40
0.952485714
 40
1.0
 40
1.0
 40
1.0
 40
1.0
 10
27.8208741594
 20
43.2132618937
 30
0.0
 10
27.6251303528
 20
43.4497507268
 30
0.0
 10
27.2202451734
 20
43.8938458089
 30
0.0
 10
26.565447189
 20
44.4758478786
 30
0.0
 10
25.890284064
 20
44.9470429182
 30
0.0
 10
25.2111915335
 20
45.2955063891
 30
0.0
 10
24.5443664828
 20
45.5120140386
 30
0.0
 10
24.000158684
 20
45.5776857337
 30
0.0
 10
23.592161522
 20
45.5541655261
 30
0.0
 10
23.30610346
 20
45.5013527656
 30
0.0
 10
23.035998198
 20
45.4131280001
 30
0.0
 10
22.8672965793
 20
45.3309004395
 30
0.0
 10
22.7868490928
 20
45.2844581703
 30
0.0
  0
SPLINE
  5
2FF
100
AcDbEntity
  8
0
100
AcDbSpline
 62
7
  6
BYLAYER
 70
0
 71
3
 72
9
 73
5
 74
0
 42
0.0000001
 43
0.0000001
 44
0.0000000001
 40
0.0
 40
0.0
 40
0.0
 40
0.0
 40
0.492572535
 40
1.0
 40
1.0
 40
1.0
 40
1.0
 10
16.1545338015
 20
32.9057284266
 30
0.0
 10
16.1895951138
 20
32.9230665607
 30
0.0
 10
16.2565540661
 20
32.9675110575
 30
0.0
 10
16.3104298631
 20
33.0269617816
 30
0.0
 10
16.3340971692
 20
33.0595721169
 30
0.0
  0
SPLINE
  5
300
100
AcDbEntity
  8
0
100
AcDbSpline
 62
7
  6
BYLAYER
 70
0
 71
3
 72
10
 73
6
 74
0
 42
0.0000001
 43
0.0000001
 44
0.0000000001
 40
0.0
 40
0.0
 40
0.0
 40
0.0
 40
0.4616402091
 40
0.7211273946
 40
1.0
 40
1.0
 40
1.0
 40
1.0
 10
16.3340971692
 20
33.0595721169
 30
0.0
 10
16.3819204907
 20
33.1254661626
 30
0.0
 10
16.4340558383
 20
33.2453921303
 30
0.0
 10
16.466717612
 20
33.4188180114
 30
0.0
 10
16.472071886
 20
33.5139778167
 30
0.0
 10
16.472071886
 20
33.5631624409
 30
0.0
  0
SPLINE
  5
301
100
AcDbEntity
  8
0
100
AcDbSpline
 62
7
  6
BYLAYER
 70
0
 71
3
 72
17
 73
13
 74
0
 42
0.0000001
 43
0.0000001
 44
0.0000000001
 40
0.0
 40
0.0
 40
0.0
 40
0.0
 40
0.1570252328
 40
0.306786764
 40
0.4472356851
 40
0.5770668961
 40
0.6957938928
 40
0.8041188315
 40
0.8550776979
 40
0.9043677855
 40
0.9524856469
 40
1.0
 40
1.0
 40
1.0
 40
1.0
 10
19.8451462566
 20
38.2833977925
 30
0.0
 10
19.6820287372
 20
38.4804690179
 30
0.0
 10
19.3446213461
 20
38.8505471933
 30
0.0
 10
18.7989605356
 20
39.3355521927
 30
0.0
 10
18.2363189785
 20
39.728212041
 30
0.0
 10
17.6704118777
 20
40.0186021868
 30
0.0
 10
17.1147235186
 20
40.1990239317
 30
0.0
 10
16.6612166755
 20
40.2537614137
 30
0.0
 10
16.3212201604
 20
40.2341440658
 30
0.0
 10
16.0828377591
 20
40.1901435593
 30
0.0
 10
15.8577485365
 20
40.1166216061
 30
0.0
 10
15.71717013
 20
40.0480878038
 30
0.0
 10
15.6501281471
 20
40.0093898754
 30
0.0
  0
SPLINE
  5
302
100
AcDbEntity
  8
0
100
AcDbSpline
 62
7
  6
BYLAYER
 70
0
 71
3
 72
20
 73
16
 74
0
 42
0.0000001
 43
0.0000001
 44
0.0000000001
 40
0.0
 40
0.0
 40
0.0
 40
0.0
 40
0.0435341497
 40
0.0882050732
 40
0.1350079183
 40
0.1847062413
 40
0.2377997446
 40
0.2945297067
 40
0.3549233135
 40
0.4188173009
 40
0.4859042092
 40
0.5557568792
 40
0.7015290142
 40
0.8513725718
 40
1.0
 40
1.0
 40
1.0
 40
1.0
 10
20.6500931177
 20
31.3491448166
 30
0.0
 10
20.7470423044
 20
31.4051148048
 30
0.0
 10
20.9324405758
 20
31.5388805661
 30
0.0
 10
21.1699000384
 20
31.7948787829
 30
0.0
 10
21.3653466458
 20
32.1029664246
 30
0.0
 10
21.5165095966
 20
32.458314887
 30
0.0
 10
21.6218747143
 20
32.8560144528
 30
0.0
 10
21.680574893
 20
33.2907649333
 30
0.0
 10
21.6919586364
 20
33.7569277812
 30
0.0
 10
21.6560980898
 20
34.2484186664
 30
0.0
 10
21.573509848
 20
34.758831174
 30
0.0
 10
21.4000811935
 20
35.4654665711
 30
0.0
 10
21.0736159508
 20
36.3504768776
 30
0.0
 10
20.5366221153
 20
37.3621419959
 30
0.0
 10
20.0888373968
 20
37.9889811547
 30
0.0
 10
19.8451462566
 20
38.2833977925
 30
0.0
  0
SPLINE
  5
303
100
AcDbEntity
  8
0
100
AcDbSpline
 62
7
  6
BYLAYER
 70
0
 71
3
 72
9
 73
5
 74
0
 42
0.0000001
 43
0.0000001
 44
0.0000000001
 40
0.0
 40
0.0
 40
0.0
 40
0.0
 40
0.2372406965
 40
1.0
 40
1.0
 40
1.0
 40
1.0
 10
16.472071886
 20
33.5631624409
 30
0.0
 10
16.472071886
 20
33.5955294201
 30
0.0
 10
16.4670662273
 20
33.7319501415
 30
0.0
 10
16.4435359541
 20
33.8673882982
 30
0.0
 10
16.4178635268
 20
33.9682359128
 30
0.0
  0
SPLINE
  5
304
100
AcDbEntity
  8
0
100
AcDbSpline
 62
7
  6
BYLAYER
 70
0
 71
3
 72
20
 73
16
 74
0
 42
0.0000001
 43
0.0000001
 44
0.0000000001
 40
0.0
 40
0.0
 40
0.0
 40
0.0
 40
0.0428750209
 40
0.0871465051
 40
0.1344092688
 40
0.1857319022
 40
0.2416485888
 40
0.3022008997
 40
0.3670604511
 40
0.4356110668
 40
0.5801697694
 40
0.7280086956
 40
0.8704270046
 40
0.9372742003
 40
1.0
 40
1.0
 40
1.0
 40
1.0
 10
15.9814185676
 20
36.1579918181
 30
0.0
 10
16.017361765
 20
36.1819562477
 30
0.0
 10
16.0972292452
 20
36.2211851669
 30
0.0
 10
16.2312191537
 20
36.2483582045
 30
0.0
 10
16.3761954351
 20
36.2439705212
 30
0.0
 10
16.528722785
 20
36.2089613998
 30
0.0
 10
16.6856793989
 20
36.1444363052
 30
0.0
 10
16.8438718729
 20
36.0520469985
 30
0.0
 10
17.0000314985
 20
35.9338472031
 30
0.0
 10
17.2045420314
 20
35.7418873827
 30
0.0
 10
17.4324274743
 20
35.4556297067
 30
0.0
 10
17.6443358648
 20
35.0700465748
 30
0.0
 10
17.7619201754
 20
34.7275051883
 30
0.0
 10
17.8106009374
 20
34.4573873988
 30
0.0
 10
17.8193525685
 20
34.3267408458
 30
0.0
 10
17.8193525685
 20
34.2635401576
 30
0.0
  0
SPLINE
  5
305
100
AcDbEntity
  8
0
100
AcDbSpline
 62
7
  6
BYLAYER
 70
0
 71
3
 72
18
 73
14
 74
0
 42
0.0000001
 43
0.0000001
 44
0.0000000001
 40
0.0
 40
0.0
 40
0.0
 40
0.0
 40
0.0428466426
 40
0.0874623676
 40
0.1352823221
 40
0.1872320218
 40
0.2437228455
 40
0.304726044
 40
0.43835816
 40
0.5826623131
 40
0.7297821897
 40
0.8713439803
 40
1.0
 40
1.0
 40
1.0
 40
1.0
 10
14.8444915148
 20
34.9254242052
 30
0.0
 10
14.8691382848
 20
34.9396671447
 30
0.0
 10
14.9234865514
 20
34.9622437888
 30
0.0
 10
15.0131886645
 20
34.9754021157
 30
0.0
 10
15.1095178521
 20
34.9682951245
 30
0.0
 10
15.2103363086
 20
34.9415275698
 30
0.0
 10
15.3136593508
 20
34.8958540874
 30
0.0
 10
15.4563077756
 20
34.8085679556
 30
0.0
 10
15.6262261327
 20
34.6580696842
 30
0.0
 10
15.800857181
 20
34.4345083094
 30
0.0
 10
15.9384309077
 20
34.1802665087
 30
0.0
 10
16.0276736074
 20
33.9163799165
 30
0.0
 10
16.0515900315
 20
33.7366479582
 30
0.0
 10
16.0515900315
 20
33.6511722271
 30
0.0
  0
SPLINE
  5
306
100
AcDbEntity
  8
0
100
AcDbSpline
 62
7
  6
BYLAYER
 70
0
 71
3
 72
17
 73
13
 74
0
 42
0.0000001
 43
0.0000001
 44
0.0000000001
 40
0.0
 40
0.0
 40
0.0
 40
0.0
 40
0.143951925
 40
0.2928256468
 40
0.4401288921
 40
0.5795768569
 40
0.7060363329
 40
0.8166428194
 40
0.8662586078
 40
0.9126756035
 40
0.9568364901
 40
1.0
 40
1.0
 40
1.0
 40
1.0
 10
16.4178635268
 20
33.9682359128
 30
0.0
 10
16.3891971026
 20
34.0808446843
 30
0.0
 10
16.3108759618
 20
34.3051283099
 30
0.0
 10
16.1444465563
 20
34.6203589727
 30
0.0
 10
15.935912542
 20
34.9051383249
 30
0.0
 10
15.6982696529
 20
35.1414534485
 30
0.0
 10
15.446278118
 20
35.3146078369
 30
0.0
 10
15.2278011089
 20
35.4001835096
 30
0.0
 10
15.0617212945
 20
35.4223803215
 30
0.0
 10
14.9479630431
 20
35.4169392797
 30
0.0
 10
14.8426872921
 20
35.3896775226
 30
0.0
 10
14.7793832307
 20
35.3571137488
 30
0.0
 10
14.7503916447
 20
35.3377883445
 30
0.0
  0
SPLINE
  5
307
100
AcDbEntity
  8
0
100
AcDbSpline
 62
7
  6
BYLAYER
 70
0
 71
3
 72
11
 73
7
 74
0
 42
0.0000001
 43
0.0000001
 44
0.0000000001
 40
0.0
 40
0.0
 40
0.0
 40
0.0
 40
0.2177660095
 40
0.4508968553
 40
0.7103699668
 40
1.0
 40
1.0
 40
1.0
 40
1.0
 10
8.7734291579
 20
29.110962864
 30
0.0
 10
8.8064054476
 20
29.1300190901
 30
0.0
 10
8.8681552855
 20
29.1818532044
 30
0.0
 10
8.9338510174
 20
29.289317414
 30
0.0
 10
8.9728517313
 20
29.42171492
 30
0.0
 10
8.9805516594
 20
29.5180755321
 30
0.0
 10
8.9805516594
 20
29.5687306884
 30
0.0
  0
ELLIPSE
  5
308
100
AcDbEntity
  8
0
100
AcDbEllipse
 62
7
  6
BYLAYER
 10
49.6381136434
 20
54.2258823172
 30
0.0
 11
-4.2759427145
 21
5.9268932562
 31
0.0
 40
0.2483422675
 41
-2.9826804414
 42
-2.9147182734
  0
ELLIPSE
  5
309
100
AcDbEntity
  8
0
100
AcDbEllipse
 62
7
  6
BYLAYER
 10
50.7595387543
 20
54.668786705
 30
0.0
 11
-3.3740024651
 21
6.7436145253
 31
0.0
 40
0.2453828282
 41
-3.3785806106
 42
-3.3283357449
  0
ELLIPSE
  5
30A
100
AcDbEntity
  8
0
100
AcDbEllipse
 62
7
  6
BYLAYER
 10
50.9513447643
 20
54.3462941958
 30
0.0
 11
-4.4109633676
 21
6.1460825721
 31
0.0
 40
0.2404175762
 41
-3.6202440928
 42
-3.5531369984
  0
ELLIPSE
  5
30B
100
AcDbEntity
  8
0
100
AcDbEllipse
 62
7
  6
BYLAYER
 10
51.1728130866
 20
54.0496261641
 30
0.0
 11
5.4011693516
 21
-5.5896518241
 31
0.0
 40
0.1991620239
 41
-0.6902016038
 42
-0.6230945094
  0
ELLIPSE
  5
30C
100
AcDbEntity
  8
0
100
AcDbEllipse
 62
7
  6
BYLAYER
 10
51.4168255471
 20
53.7883177645
 30
0.0
 11
6.3024493374
 21
-5.1097615801
 31
0.0
 40
0.1341060615
 41
-0.8761945596
 42
-0.8090874652
  0
ELLIPSE
  5
30D
100
AcDbEntity
  8
0
100
AcDbEllipse
 62
7
  6
BYLAYER
 10
51.6755393845
 20
53.5707676639
 30
0.0
 11
7.1142564966
 21
-4.70234739
 31
0.0
 40
0.0584246483
 41
-1.0363458969
 42
-0.9692388025
  0
ELLIPSE
  5
30E
100
AcDbEntity
  8
0
100
AcDbEllipse
 62
7
  6
BYLAYER
 10
46.5773264651
 20
53.1744759304
 30
0.0
 11
10.5704021986
 21
2.799134662
 31
0.0
 40
0.6390782992
 41
1.2499333882
 42
1.3080572814
  0
ELLIPSE
  5
30F
100
AcDbEntity
  8
0
100
AcDbEllipse
 62
7
  6
BYLAYER
 10
46.4508479916
 20
53.6366326958
 30
0.0
 11
10.8794799091
 21
1.5502875646
 31
0.0
 40
0.6043250266
 41
1.2449711471
 42
1.305834783
  0
ELLIPSE
  5
310
100
AcDbEntity
  8
0
100
AcDbEllipse
 62
7
  6
BYLAYER
 10
46.3865758755
 20
54.0826992171
 30
0.0
 11
11.016843684
 21
0.4750259304
 31
0.0
 40
0.5613395524
 41
1.2181827146
 42
1.2838378304
  0
ELLIPSE
  5
311
100
AcDbEntity
  8
0
100
AcDbEllipse
 62
7
  6
BYLAYER
 10
46.3865758755
 20
54.4983385495
 30
0.0
 11
11.0177892736
 21
-0.4369177764
 31
0.0
 40
0.5131467208
 41
1.1768102277
 42
1.2447723956
  0
ELLIPSE
  5
312
100
AcDbEntity
  8
0
100
AcDbEllipse
 62
7
  6
BYLAYER
 10
46.4508479916
 20
54.8701917028
 30
0.0
 11
10.9054740445
 21
-1.2090984509
 31
0.0
 40
0.461570943
 41
1.1238939704
 42
1.1918561384
  0
ELLIPSE
  5
313
100
AcDbEntity
  8
0
100
AcDbEllipse
 62
7
  6
BYLAYER
 10
46.5773264651
 20
55.1863070106
 30
0.0
 11
10.6937505983
 21
-1.8643796999
 31
0.0
 40
0.407481034
 41
1.0597207915
 42
1.1276829595
  0
ELLIPSE
  5
314
100
AcDbEntity
  8
0
100
AcDbEllipse
 62
7
  6
BYLAYER
 10
46.7619461738
 20
55.4365242669
 30
0.0
 11
10.3913727562
 21
-2.4216306063
 31
0.0
 40
0.3510770395
 41
0.9860308763
 42
1.0539930442
  0
ELLIPSE
  5
315
100
AcDbEntity
  8
0
100
AcDbEllipse
 62
7
  6
BYLAYER
 10
46.9987732883
 20
55.6128012832
 30
0.0
 11
10.0047792394
 21
-2.8965016967
 31
0.0
 40
0.2921092051
 41
0.9037651667
 42
0.9717273346
  0
ELLIPSE
  5
316
100
AcDbEntity
  8
0
100
AcDbEllipse
 62
7
  6
BYLAYER
 10
47.2801959904
 20
55.7094723711
 30
0.0
 11
9.5394905467
 21
-3.3032410725
 31
0.0
 40
0.2300402229
 41
0.8131375798
 42
0.8810997477
  0
ELLIPSE
  5
317
100
AcDbEntity
  8
0
100
AcDbEllipse
 62
7
  6
BYLAYER
 10
47.5971691228
 20
55.7234304423
 30
0.0
 11
9.000558137
 21
-3.6566024356
 31
0.0
 40
0.1641978692
 41
0.7136312492
 42
0.7815934171
  0
ELLIPSE
  5
318
100
AcDbEntity
  8
0
100
AcDbEllipse
 62
7
  6
BYLAYER
 10
47.9395049082
 20
55.6542268729
 30
0.0
 11
8.3923257446
 21
-3.9737169771
 31
0.0
 40
0.0939892371
 41
0.6038789591
 42
0.6718411271
  0
ELLIPSE
  5
319
100
AcDbEntity
  8
0
100
AcDbEllipse
 62
7
  6
BYLAYER
 10
48.2962003929
 20
55.5040859227
 30
0.0
 11
7.7175274803
 21
-4.2760189642
 31
0.0
 40
0.0192961543
 41
0.481403731
 42
0.5493658989
  0
ELLIPSE
  5
31A
100
AcDbEntity
  8
0
100
AcDbEllipse
 62
7
  6
BYLAYER
 10
47.7658393062
 20
51.289290499
 30
0.0
 11
7.0090208562
 21
8.4471231253
 31
0.0
 40
0.6139267242
 41
-1.3083056882
 42
-1.2482385449
  0
ELLIPSE
  5
31B
100
AcDbEntity
  8
0
100
AcDbEllipse
 62
7
  6
BYLAYER
 10
50.8513238372
 20
54.5049445598
 30
0.0
 11
-3.8934988389
 21
6.4431617429
 31
0.0
 40
0.247895524
 41
0.2430130202
 42
0.2539264778
  0
ELLIPSE
  5
31C
100
AcDbEntity
  8
0
100
AcDbEllipse
 62
7
  6
BYLAYER
 10
50.0106125923
 20
53.5609482669
 30
0.0
 11
-2.7465583171
 21
6.8153301483
 31
0.0
 40
0.2405101662
 41
6.1130906793
 42
6.1810528472
  0
ELLIPSE
  5
31D
100
AcDbEntity
  8
0
100
AcDbEllipse
 62
7
  6
BYLAYER
 10
48.1167676757
 20
50.9941980415
 30
0.0
 11
6.1284291672
 21
9.1593799314
 31
0.0
 40
0.5726664211
 41
-1.2910639015
 42
-1.2265738977
  0
ELLIPSE
  5
31E
100
AcDbEntity
  8
0
100
AcDbEllipse
 62
7
  6
BYLAYER
 10
50.6767285153
 20
54.836501471
 30
0.0
 11
-2.8643947307
 21
7.0409650709
 31
0.0
 40
0.2331297805
 41
0.46637588
 42
0.5334829744
  0
ELLIPSE
  5
31F
100
AcDbEntity
  8
0
100
AcDbEllipse
 62
7
  6
BYLAYER
 10
50.540621898
 20
55.1781271945
 30
0.0
 11
-1.912660775
 21
7.6112895702
 31
0.0
 40
0.1845627073
 41
0.6721415873
 42
0.7392486817
  0
ELLIPSE
  5
320
100
AcDbEntity
  8
0
100
AcDbEllipse
 62
7
  6
BYLAYER
 10
50.4473785639
 20
55.5188415985
 30
0.0
 11
-1.0751607847
 21
8.1416906414
 31
0.0
 40
0.1157674235
 41
0.8513759714
 42
0.9184830658
  0
ELLIPSE
  5
321
100
AcDbEntity
  8
0
100
AcDbEllipse
 62
7
  6
BYLAYER
 10
50.3999954303
 20
55.8476938417
 30
0.0
 11
-0.3391924446
 21
8.6302845254
 31
0.0
 40
0.0389576821
 41
1.0057702097
 42
1.072877304
  0
ELLIPSE
  5
322
100
AcDbEntity
  8
0
100
AcDbEllipse
 62
7
  6
BYLAYER
 10
50.3859828905
 20
51.7736927371
 30
0.0
 11
0.3085078082
 21
8.935214268
 31
0.0
 40
0.0383524312
 41
-0.5813528443
 42
-0.5133906764
  0
ELLIPSE
  5
323
100
AcDbEntity
  8
0
100
AcDbEllipse
 62
7
  6
BYLAYER
 10
50.3217107744
 20
51.4018395839
 30
0.0
 11
0.9006478083
 21
9.3534518231
 31
0.0
 40
0.1119639309
 41
-0.7003421395
 42
-0.6323799716
  0
ELLIPSE
  5
324
100
AcDbEntity
  8
0
100
AcDbEllipse
 62
7
  6
BYLAYER
 10
50.195232301
 20
51.085724276
 30
0.0
 11
1.4771861294
 21
9.7033083755
 31
0.0
 40
0.1810423233
 41
-0.8073508947
 42
-0.7393887268
  0
ELLIPSE
  5
325
100
AcDbEntity
  8
0
100
AcDbEllipse
 62
7
  6
BYLAYER
 10
50.0106125923
 20
50.8355070197
 30
0.0
 11
2.0539640848
 21
9.9718714548
 31
0.0
 40
0.2458782248
 41
-0.9045467619
 42
-0.836584594
  0
ELLIPSE
  5
326
100
AcDbEntity
  8
0
100
AcDbEllipse
 62
7
  6
BYLAYER
 10
49.7737854777
 20
50.6592300035
 30
0.0
 11
2.6428608948
 21
10.1469966812
 31
0.0
 40
0.3071116086
 41
-0.9930658223
 42
-0.9251036544
  0
ELLIPSE
  5
327
100
AcDbEntity
  8
0
100
AcDbEllipse
 62
7
  6
BYLAYER
 10
49.4923627757
 20
50.5625589156
 30
0.0
 11
3.253808938
 21
10.2169839541
 31
0.0
 40
0.3653971198
 41
-1.073236153
 42
-1.0052739851
  0
ELLIPSE
  5
328
100
AcDbEntity
  8
0
100
AcDbEllipse
 62
7
  6
BYLAYER
 10
49.1753896433
 20
50.5486008444
 30
0.0
 11
3.8964556486
 21
10.1697077964
 31
0.0
 40
0.4212138972
 41
-1.1446656173
 42
-1.0767034494
  0
ELLIPSE
  5
329
100
AcDbEntity
  8
0
100
AcDbEllipse
 62
7
  6
BYLAYER
 10
48.8330538578
 20
50.6178044137
 30
0.0
 11
4.5814961133
 21
9.9910948704
 31
0.0
 40
0.4747160608
 41
-1.2062219652
 42
-1.1382597973
  0
ELLIPSE
  5
32A
100
AcDbEntity
  8
0
100
AcDbEllipse
 62
7
  6
BYLAYER
 10
52.9889225811
 20
55.6307597669
 30
0.0
 11
9.7266271527
 21
4.9020510178
 31
0.0
 40
0.6899187507
 41
-1.8414305838
 42
-1.8297334279
  0
ELLIPSE
  5
32B
100
AcDbEntity
  8
0
100
AcDbEllipse
 62
7
  6
BYLAYER
 10
52.7971165711
 20
55.9532522761
 30
0.0
 11
8.8829208525
 21
6.3120085096
 31
0.0
 40
0.6876505957
 41
-1.9292687886
 42
-1.8621616943
  0
ELLIPSE
  5
32C
100
AcDbEntity
  8
0
100
AcDbEllipse
 62
7
  6
BYLAYER
 10
47.1344451227
 20
52.0461489694
 30
0.0
 11
8.8804407554
 21
6.288635291
 31
0.0
 40
0.6648111395
 41
-1.2831193781
 42
-1.2166267382
  0
ELLIPSE
  5
32D
100
AcDbEntity
  8
0
100
AcDbEllipse
 62
7
  6
BYLAYER
 10
52.5756482488
 20
56.2499203078
 30
0.0
 11
7.9342576885
 21
7.5284043461
 31
0.0
 40
0.6681503389
 41
-1.9518871635
 42
-1.8847800691
  0
ELLIPSE
  5
32E
100
AcDbEntity
  8
0
100
AcDbEllipse
 62
7
  6
BYLAYER
 10
46.7619461738
 20
52.7110830198
 30
0.0
 11
10.0511802232
 21
4.1881405121
 31
0.0
 40
0.6615770194
 41
1.2231557623
 42
1.2542756584
  0
ELLIPSE
  5
32F
100
AcDbEntity
  8
0
100
AcDbEllipse
 62
7
  6
BYLAYER
 10
47.4348523912
 20
51.6437382221
 30
0.0
 11
7.9465950403
 21
7.491950522
 31
0.0
 40
0.6460156164
 41
-1.3054667168
 42
-1.2478313872
  0
ELLIPSE
  5
330
100
AcDbEntity
  8
0
100
AcDbEllipse
 62
7
  6
BYLAYER
 10
52.3316357883
 20
56.5112287074
 30
0.0
 11
6.9937935585
 21
8.4808138823
 31
0.0
 40
0.6349518649
 41
-1.9546056184
 42
-1.887498524
  0
ELLIPSE
  5
331
100
AcDbEntity
  8
0
100
AcDbEllipse
 62
7
  6
BYLAYER
 10
52.0729219509
 20
56.728778808
 30
0.0
 11
6.1231897514
 21
9.1819444265
 31
0.0
 40
0.5923285981
 41
-1.9357600999
 42
-1.8686530055
  0
ELLIPSE
  5
332
100
AcDbEntity
  8
0
100
AcDbEllipse
 62
7
  6
BYLAYER
 10
51.9406393233
 20
53.4039681017
 30
0.0
 11
7.8470839417
 21
-4.3411465608
 31
0.0
 40
0.0193745784
 41
1.1084034071
 42
1.1755105015
  0
ELLIPSE
  5
333
100
AcDbEntity
  8
0
100
AcDbEllipse
 62
7
  6
BYLAYER
 10
52.2036048332
 20
53.2932801529
 30
0.0
 11
8.5079971396
 21
-3.9971619844
 31
0.0
 40
0.0951330741
 41
1.2316034705
 42
1.2987105649
  0
ELLIPSE
  5
334
100
AcDbEntity
  8
0
100
AcDbEllipse
 62
7
  6
BYLAYER
 10
52.4559839864
 20
53.2422614193
 30
0.0
 11
9.0991621308
 21
-3.6458986634
 31
0.0
 40
0.1672994674
 41
1.3425521994
 42
1.4096592937
  0
ELLIPSE
  5
335
100
AcDbEntity
  8
0
100
AcDbEllipse
 62
7
  6
BYLAYER
 10
52.6896651093
 20
53.252551685
 30
0.0
 11
9.6195499264
 21
-3.2678204922
 31
0.0
 40
0.2356155066
 41
1.4436328327
 42
1.5107399271
  0
ELLIPSE
  5
336
100
AcDbEntity
  8
0
100
AcDbEllipse
 62
7
  6
BYLAYER
 10
52.8971374983
 20
53.3238202124
 30
0.0
 11
10.0664482757
 21
-2.8468185966
 31
0.0
 40
0.3003714379
 41
1.5361711941
 42
1.6032782885
  0
ELLIPSE
  5
337
100
AcDbEntity
  8
0
100
AcDbEllipse
 62
7
  6
BYLAYER
 10
50.3999954303
 20
56.1541143423
 30
0.0
 11
0.3248539743
 21
9.0718202652
 31
0.0
 40
0.0385908566
 41
-1.2076251125
 42
-1.1405180181
  0
ELLIPSE
  5
338
100
AcDbEntity
  8
0
100
AcDbEllipse
 62
7
  6
BYLAYER
 10
53.0717328201
 20
53.4537763724
 30
0.0
 11
10.4362911019
 21
-2.3683541554
 31
0.0
 40
0.3620131256
 41
1.6206526796
 42
1.687759774
  0
ELLIPSE
  5
339
100
AcDbEntity
  8
0
100
AcDbEllipse
 62
7
  6
BYLAYER
 10
53.2078394374
 20
53.638243267
 30
0.0
 11
10.7248537358
 21
-1.8175584226
 31
0.0
 40
0.4209211904
 41
1.6968203838
 42
1.7639274781
  0
ELLIPSE
  5
33A
100
AcDbEntity
  8
0
100
AcDbEllipse
 62
7
  6
BYLAYER
 10
50.4473785639
 20
56.4282544934
 30
0.0
 11
0.9442437823
 21
9.4571898106
 31
0.0
 40
0.1135291806
 41
-1.3274715513
 42
-1.2603644569
  0
ELLIPSE
  5
33B
100
AcDbEntity
  8
0
100
AcDbEllipse
 62
7
  6
BYLAYER
 10
53.3010827716
 20
53.8712919785
 30
0.0
 11
10.9267648027
 21
-1.1772180412
 31
0.0
 40
0.4772521871
 41
1.7636596284
 42
1.8307667227
  0
ELLIPSE
  5
33C
100
AcDbEntity
  8
0
100
AcDbEllipse
 62
7
  6
BYLAYER
 10
53.3484659051
 20
54.1454321296
 30
0.0
 11
11.0340370908
 21
-0.4257165239
 31
0.0
 40
0.5307714873
 41
1.8192944692
 42
1.8864015636
  0
ELLIPSE
  5
33D
100
AcDbEntity
  8
0
100
AcDbEllipse
 62
7
  6
BYLAYER
 10
50.540621898
 20
56.6613032049
 30
0.0
 11
1.5396389673
 21
9.7758418948
 31
0.0
 40
0.1847269141
 41
-1.4357768445
 42
-1.3686697502
  0
ELLIPSE
  5
33E
100
AcDbEntity
  8
0
100
AcDbEllipse
 62
7
  6
BYLAYER
 10
53.3484659051
 20
54.4518526302
 30
0.0
 11
11.0330588088
 21
0.4642013731
 31
0.0
 40
0.580625743
 41
1.860876915
 42
1.9279840094
  0
ELLIPSE
  5
33F
100
AcDbEntity
  8
0
100
AcDbEllipse
 62
7
  6
BYLAYER
 10
50.6767285153
 20
56.8457700995
 30
0.0
 11
2.1262880436
 21
10.0171657786
 31
0.0
 40
0.2521150975
 41
-1.5346341116
 42
-1.4675270173
  0
ELLIPSE
  5
340
100
AcDbEntity
  8
0
100
AcDbEllipse
 62
7
  6
BYLAYER
 10
53.3010827716
 20
54.7807048734
 30
0.0
 11
10.8997285067
 21
1.5226683116
 31
0.0
 40
0.6250306916
 41
1.8847385249
 42
1.9518456192
  0
ELLIPSE
  5
341
100
AcDbEntity
  8
0
100
AcDbEllipse
 62
7
  6
BYLAYER
 10
53.2078394374
 20
55.1214192774
 30
0.0
 11
10.5952882612
 21
2.7681628704
 31
0.0
 40
0.660965281
 41
1.8875136536
 42
1.9546207479
  0
ELLIPSE
  5
342
100
AcDbEntity
  8
0
100
AcDbEllipse
 62
7
  6
BYLAYER
 10
50.8513238372
 20
56.9757262595
 30
0.0
 11
2.7161609272
 21
10.1708122546
 31
0.0
 40
0.3160505287
 41
-1.6251432709
 42
-1.5580361765
  0
ELLIPSE
  5
343
100
AcDbEntity
  8
0
100
AcDbEllipse
 62
7
  6
BYLAYER
 10
53.0717328201
 20
55.4630450009
 30
0.0
 11
10.074700082
 21
4.1723692842
 31
0.0
 40
0.6842910997
 41
1.8692829677
 42
1.9249513735
  0
ELLIPSE
  5
344
100
AcDbEntity
  8
0
100
AcDbEllipse
 62
7
  6
BYLAYER
 10
52.8971374983
 20
55.7946019121
 30
0.0
 11
9.3255843659
 21
5.6226968877
 31
0.0
 40
0.691060192
 41
1.8379037458
 42
1.8415438889
  0
ELLIPSE
  5
345
100
AcDbEntity
  8
0
100
AcDbEllipse
 62
7
  6
BYLAYER
 10
51.0587962262
 20
57.0469947869
 30
0.0
 11
3.3199009018
 21
10.2263353778
 31
0.0
 40
0.3769795809
 41
-1.7075997127
 42
-1.6404926184
  0
ELLIPSE
  5
346
100
AcDbEntity
  8
0
100
AcDbEllipse
 62
7
  6
BYLAYER
 10
51.292477349
 20
57.0572850526
 30
0.0
 11
3.9485061624
 21
10.1722647431
 31
0.0
 40
0.4352410711
 41
-1.7815626651
 42
-1.7144555707
  0
ELLIPSE
  5
347
100
AcDbEntity
  8
0
100
AcDbEllipse
 62
7
  6
BYLAYER
 10
51.5448565023
 20
57.006266319
 30
0.0
 11
4.6147565415
 21
9.9944802635
 31
0.0
 40
0.4909110334
 41
-1.8458143494
 42
-1.778707255
  0
ENDSEC
  0
SECTION
  2
OBJECTS
  0
DICTIONARY
  5
C
100
AcDbDictionary
280
0
281
1
  3
ACAD_GROUP
350
D
  3
ACAD_MLINESTYLE
350
17
  3
ACAD_LAYOUT
350
1A
  3
ACAD_PLOTSETTINGS
350
19
  3
ACAD_PLOTSTYLENAME
350
E
  0
DICTIONARY
  5
D
102
{ACAD_REACTORS
330
C
102
}
100
AcDbDictionary
280
0
281
1
  0
ACDBDICTIONARYWDFLT
  5
E
102
{ACAD_REACTORS
330
C
102
}
100
AcDbDictionary
281
1
  3
Normal
350
F
100
AcDbDictionaryWithDefault
340
F
  0
DICTIONARY
  5
17
102
{ACAD_REACTORS
330
C
102
}
100
AcDbDictionary
280
0
281
1
  3
Standard
350
18
  0
DICTIONARY
  5
19
102
{ACAD_REACTORS
330
C
102
}
100
AcDbDictionary
281
1
  0
DICTIONARY
  5
1A
102
{ACAD_REACTORS
330
C
102
}
100
AcDbDictionary
281
1
  3
Model
350
348
  3
Layout1
350
349
  0
ACDBPLACEHOLDER
  5
F
102
{ACAD_REACTORS
330
E
102
}
  0
MLINESTYLE
  5
18
102
{ACAD_REACTORS
330
17
102
}
100
AcDbMlineStyle
  2
STANDARD
 70
0
  3

 62
256
 51
90.0
 52
90.0
 71
2
 49
0.5
 62
256
  6
BYLAYER
 49
-0.5
 62
256
  6
BYLAYER
  0
LAYOUT
  5
348
102
{ACAD_REACTORS
330
1A
102
}
100
AcDbPlotSettings
  1

  2
none_device
  4

  6

 40
0.0
 41
0.0
 42
0.0
 43
0.0
 44
210.0
 45
297.0
 46
0.0
 47
0.0
 48
0.0
 49
0.0
140
0.0
141
0.0
142
1.0
143
1.0
 70
1024
 72
1
 73
0
 74
0
  7

 75
0
147
1.0
148
0.0
149
0.0
100
AcDbLayout
  1
Model
 70
0
 71
0
 10
0.0
 20
0.0
 11
210.0
 21
297.0
 12
0.0
 22
0.0
 32
0.0
 14
0.0
 24
0.0
 34
0.0
 15
0.0
 25
0.0
 35
0.0
146
0.0
 13
0.0
 23
0.0
 33
0.0
 16
1.0
 26
0.0
 36
0.0
 17
0.0
 27
1.0
 37
0.0
 76
0
330
210
345
0
346
0
  0
LAYOUT
  5
349
102
{ACAD_REACTORS
330
1A
102
}
100
AcDbPlotSettings
  1

  2
none_device
  4

  6

 40
0.0
 41
0.0
 42
0.0
 43
0.0
 44
210.0
 45
297.0
 46
0.0
 47
0.0
 48
0.0
 49
0.0
140
0.0
141
0.0
142
1.0
143
1.0
 70
0
 72
1
 73
0
 74
0
  7

 75
0
147
1.0
148
0.0
149
0.0
100
AcDbLayout
  1
Layout1
 70
0
 71
1
 10
0.0
 20
0.0
 11
210.0
 21
297.0
 12
0.0
 22
0.0
 32
0.0
 14
0.0
 24
0.0
 34
0.0
 15
0.0
 25
0.0
 35
0.0
146
0.0
 13
0.0
 23
0.0
 33
0.0
 16
1.0
 26
0.0
 36
0.0
 17
0.0
 27
1.0
 37
0.0
 76
0
330
211
345
0
346
0
  0
ENDSEC
  0
EOF
