999
DXF file: Y:\001_SCHNEIDER_PARIS\maxime fuentes - génération CAD 2D\TRAVAIL\XALD251H29H7_2D-Views\xald251h29h7_2d-views_5.dxf
999
Pro/ENGINEER 2018260 by Parametric Technology Corporation
  0
SECTION
  2
HEADER
  9
$ACADVER
  1
AC1027
  9
$DWGCODEPAGE
  3
ANSI_1252
  9
$EXTMAX
 10
558.8
 20
431.8
 30
0.0
  9
$EXTMIN
 10
0.0
 20
0.0
 30
0.0
  9
$LIMMIN
 10
0.0
 20
0.0
  9
$LIMMAX
 10
558.8
 20
431.8
  9
$VIEWCTR
 10
279.4
 20
215.9
  9
$VIEWSIZE
 40
431.8
  9
$CLAYER
  8
0
  9
$LTSCALE
 40
30.734
  9
$CELTYPE
  6
BYLAYER
  9
$DIMSCALE
 40
1.0
  9
$DIMASZ
 40
3.5
  9
$DIMEXO
 40
1.0
  9
$DIMDLI
 40
21.2344
  9
$DIMEXE
 40
3.0
  9
$DIMCEN
 40
5.0292
  9
$DIMLFAC
 40
1.0
  9
$DIMBLK
  1
_FILLED
  9
$DIMALT
 70
0
  9
$DIMALTF
 40
0.0393700787
  9
$DIMTXT
 40
4.0
  9
$DIMTOL
 70
1
  9
$DIMLIM
 70
0
  9
$DIMTFAC
 40
1.0
  9
$DIMTP
 40
0.0001
  9
$DIMTM
 40
0.0001
  9
$DIMGAP
 40
0.625
  9
$DIMDSEP
 70
46
  9
$AUNITS
 70
0
  9
$PDMODE
 70
0
  9
$PDSIZE
 40
0.01
  9
$HANDSEED
  5
2EF
  9
$TILEMODE
 70
1
  9
$MEASUREMENT
 70
1
  9
$INSUNITS
 70
4
  0
ENDSEC
  0
SECTION
  2
CLASSES
  0
CLASS
  1
ACDBDICTIONARYWDFLT
  2
AcDbDictionaryWithDefault
  3
AutoCAD 2000
 90
0
 91
1
280
0
281
0
  0
CLASS
  1
ACDBPLACEHOLDER
  2
AcDbPlaceHolder
  3
AutoCAD 2000
 90
0
 91
1
280
0
281
0
  0
CLASS
  1
LAYOUT
  2
AcDbLayout
  3
AutoCAD 2000
 90
0
 91
0
280
0
281
0
  0
ENDSEC
  0
SECTION
  2
TABLES
  0
TABLE
  2
VPORT
  5
8
100
AcDbSymbolTable
 70
2
  0
VPORT
  5
1F4
100
AcDbSymbolTableRecord
100
AcDbViewportTableRecord
  2
*ACTIVE
 70
0
 10
0.0
 20
0.0
 11
1.0
 21
1.0
 12
279.4
 22
215.9
 13
0.0
 23
0.0
 14
1.0
 24
1.0
 15
0.0
 25
0.0
 16
0.0
 26
0.0
 36
1.0
 17
0.0
 27
0.0
 37
0.0
 40
431.8
 41
1.2941176471
 42
50.0
 43
0.0
 44
0.0
 50
0.0
 51
0.0
 71
0
 72
100
 73
1
 74
1
 75
0
 76
0
 77
0
 78
0
  0
ENDTAB
  0
TABLE
  2
LTYPE
  5
5
100
AcDbSymbolTable
 70
6
  0
LTYPE
  5
14
100
AcDbSymbolTableRecord
100
AcDbLinetypeTableRecord
  2
BYBLOCK
 70
0
  3

 72
65
 73
0
 40
0.0
  0
LTYPE
  5
15
100
AcDbSymbolTableRecord
100
AcDbLinetypeTableRecord
  2
BYLAYER
 70
0
  3

 72
65
 73
0
 40
0.0
  0
LTYPE
  5
16
100
AcDbSymbolTableRecord
100
AcDbLinetypeTableRecord
  2
CONTINUOUS
 70
64
  3
Solid line
 72
65
 73
0
 40
0.0
  0
LTYPE
  5
1F5
100
AcDbSymbolTableRecord
100
AcDbLinetypeTableRecord
  2
CENTER
 70
64
  3
____ _ ____ _ ____ _ ____ _ ____ _ ____ _ ____
 72
65
 73
4
 40
0.6
 49
0.375
 74
0
 49
-0.075
 74
0
 49
0.075
 74
0
 49
-0.075
 74
0
  0
LTYPE
  5
1F6
100
AcDbSymbolTableRecord
100
AcDbLinetypeTableRecord
  2
HIDDEN
 70
64
  3
- - - - - - - - - - - - - - - - - - - -
 72
65
 73
2
 40
0.2
 49
0.1
 74
0
 49
-0.1
 74
0
  0
LTYPE
  5
1F7
100
AcDbSymbolTableRecord
100
AcDbLinetypeTableRecord
  2
PHANTOM
 70
64
  3
_____ _ _ _____ _ _ _____ _ _ _____
 72
65
 73
6
 40
0.8
 49
0.45
 74
0
 49
-0.05
 74
0
 49
0.1
 74
0
 49
-0.05
 74
0
 49
0.1
 74
0
 49
-0.05
 74
0
  0
LTYPE
  5
1F8
100
AcDbSymbolTableRecord
100
AcDbLinetypeTableRecord
  2
DOT
 70
64
  3
. . . . . . . . . . . . . . . . . . . .
 72
65
 73
2
 40
0.2
 49
0.1
 74
0
 49
-0.1
 74
0
  0
LTYPE
  5
1F9
100
AcDbSymbolTableRecord
100
AcDbLinetypeTableRecord
  2
DASHED
 70
64
  3
- - - - - - - - - - - - - - - - - - - -
 72
65
 73
2
 40
0.2
 49
0.1
 74
0
 49
-0.1
 74
0
  0
ENDTAB
  0
TABLE
  2
LAYER
  5
2
100
AcDbSymbolTable
 70
36
  0
LAYER
  5
10
100
AcDbSymbolTableRecord
100
AcDbLayerTableRecord
  2
0
 70
0
 62
7
  6
CONTINUOUS
370
-3
390
F
  0
LAYER
  5
1FA
100
AcDbSymbolTableRecord
100
AcDbLayerTableRecord
  2
DEFAULT_1
 70
0
 62
7
  6
CENTER
370
-3
390
F
  0
LAYER
  5
1FB
100
AcDbSymbolTableRecord
100
AcDbLayerTableRecord
  2
DEFAULT_2
 70
0
 62
8
  6
HIDDEN
370
-3
390
F
  0
LAYER
  5
1FC
100
AcDbSymbolTableRecord
100
AcDbLayerTableRecord
  2
DEFAULT_3
 70
0
 62
7
  6
PHANTOM
370
-3
390
F
  0
LAYER
  5
1FD
100
AcDbSymbolTableRecord
100
AcDbLayerTableRecord
  2
01_ALL_DTM_PLN
 70
0
 62
7
  6
CONTINUOUS
370
-3
390
F
  0
LAYER
  5
1FE
100
AcDbSymbolTableRecord
100
AcDbLayerTableRecord
  2
01__ASM_ALL_DTM_PLN
 70
0
 62
7
  6
CONTINUOUS
370
-3
390
F
  0
LAYER
  5
1FF
100
AcDbSymbolTableRecord
100
AcDbLayerTableRecord
  2
01__ASM_DEF_DTM_PLN
 70
0
 62
7
  6
CONTINUOUS
370
-3
390
F
  0
LAYER
  5
200
100
AcDbSymbolTableRecord
100
AcDbLayerTableRecord
  2
01___PRT_ALL_DTM_PLN
 70
0
 62
7
  6
CONTINUOUS
370
-3
390
F
  0
LAYER
  5
201
100
AcDbSymbolTableRecord
100
AcDbLayerTableRecord
  2
01___PRT_DEF_DTM_PLN
 70
0
 62
7
  6
CONTINUOUS
370
-3
390
F
  0
LAYER
  5
202
100
AcDbSymbolTableRecord
100
AcDbLayerTableRecord
  2
02_ALL_AXES
 70
0
 62
7
  6
CONTINUOUS
370
-3
390
F
  0
LAYER
  5
203
100
AcDbSymbolTableRecord
100
AcDbLayerTableRecord
  2
02__ASM_ALL_AXES
 70
0
 62
7
  6
CONTINUOUS
370
-3
390
F
  0
LAYER
  5
204
100
AcDbSymbolTableRecord
100
AcDbLayerTableRecord
  2
02___PRT_ALL_AXES
 70
0
 62
7
  6
CONTINUOUS
370
-3
390
F
  0
LAYER
  5
205
100
AcDbSymbolTableRecord
100
AcDbLayerTableRecord
  2
03_ALL_CURVES
 70
0
 62
7
  6
CONTINUOUS
370
-3
390
F
  0
LAYER
  5
206
100
AcDbSymbolTableRecord
100
AcDbLayerTableRecord
  2
03__ASM_ALL_CURVES
 70
0
 62
7
  6
CONTINUOUS
370
-3
390
F
  0
LAYER
  5
207
100
AcDbSymbolTableRecord
100
AcDbLayerTableRecord
  2
03___PRT_ALL_CURVES
 70
0
 62
7
  6
CONTINUOUS
370
-3
390
F
  0
LAYER
  5
208
100
AcDbSymbolTableRecord
100
AcDbLayerTableRecord
  2
04_ALL_DTM_PNT
 70
0
 62
7
  6
CONTINUOUS
370
-3
390
F
  0
LAYER
  5
209
100
AcDbSymbolTableRecord
100
AcDbLayerTableRecord
  2
04__ASM_ALL_DTM_PNT
 70
0
 62
7
  6
CONTINUOUS
370
-3
390
F
  0
LAYER
  5
20A
100
AcDbSymbolTableRecord
100
AcDbLayerTableRecord
  2
04___PRT_ALL_DTM_PNT
 70
0
 62
7
  6
CONTINUOUS
370
-3
390
F
  0
LAYER
  5
20B
100
AcDbSymbolTableRecord
100
AcDbLayerTableRecord
  2
05_ALL_DTM_CSYS
 70
0
 62
7
  6
CONTINUOUS
370
-3
390
F
  0
LAYER
  5
20C
100
AcDbSymbolTableRecord
100
AcDbLayerTableRecord
  2
05__ASM_ALL_DTM_CSYS
 70
0
 62
7
  6
CONTINUOUS
370
-3
390
F
  0
LAYER
  5
20D
100
AcDbSymbolTableRecord
100
AcDbLayerTableRecord
  2
05__ASM_DEF_DTM_CSYS
 70
0
 62
7
  6
CONTINUOUS
370
-3
390
F
  0
LAYER
  5
20E
100
AcDbSymbolTableRecord
100
AcDbLayerTableRecord
  2
05___PRT_ALL_DTM_CSYS
 70
0
 62
7
  6
CONTINUOUS
370
-3
390
F
  0
LAYER
  5
20F
100
AcDbSymbolTableRecord
100
AcDbLayerTableRecord
  2
05___PRT_DEF_DTM_CSYS
 70
0
 62
7
  6
CONTINUOUS
370
-3
390
F
  0
LAYER
  5
210
100
AcDbSymbolTableRecord
100
AcDbLayerTableRecord
  2
06_ALL_SURFS
 70
0
 62
7
  6
CONTINUOUS
370
-3
390
F
  0
LAYER
  5
211
100
AcDbSymbolTableRecord
100
AcDbLayerTableRecord
  2
06__ASM_ALL_SURFS
 70
0
 62
7
  6
CONTINUOUS
370
-3
390
F
  0
LAYER
  5
212
100
AcDbSymbolTableRecord
100
AcDbLayerTableRecord
  2
06___PRT_ALL_SURFS
 70
0
 62
7
  6
CONTINUOUS
370
-3
390
F
  0
LAYER
  5
213
100
AcDbSymbolTableRecord
100
AcDbLayerTableRecord
  2
07__ASM_ALL_SKELETONS
 70
0
 62
7
  6
CONTINUOUS
370
-3
390
F
  0
LAYER
  5
214
100
AcDbSymbolTableRecord
100
AcDbLayerTableRecord
  2
CLOSED_SHELL
 70
0
 62
7
  6
CONTINUOUS
370
-3
390
F
  0
ENDTAB
  0
TABLE
  2
STYLE
  5
3
100
AcDbSymbolTable
 70
1
  0
STYLE
  5
11
100
AcDbSymbolTableRecord
100
AcDbTextStyleTableRecord
  2
STANDARD
 70
0
 40
0.0
 41
0.6
 50
0.0
 71
0
 42
0.2
  3
txt
  4

  0
STYLE
  5
215
100
AcDbSymbolTableRecord
100
AcDbTextStyleTableRecord
  2
TEXTSTYLE_1
 70
0
 40
0.0
 41
0.8
 50
0.0
 71
0
 42
0.2
  3
gdt
  4

  0
ENDTAB
  0
TABLE
  2
VIEW
  5
6
100
AcDbSymbolTable
 70
0
  0
ENDTAB
  0
TABLE
  2
UCS
  5
7
100
AcDbSymbolTable
 70
0
  0
ENDTAB
  0
TABLE
  2
APPID
  5
9
100
AcDbSymbolTable
 70
1
  0
APPID
  5
216
100
AcDbSymbolTableRecord
100
AcDbRegAppTableRecord
  2
ACAD
 70
0
  0
ENDTAB
  0
TABLE
  2
BLOCK_RECORD
  5
1
100
AcDbSymbolTable
 70
0
  0
BLOCK_RECORD
  5
217
100
AcDbSymbolTableRecord
100
AcDbBlockTableRecord
  2
*Model_Space
  0
BLOCK_RECORD
  5
218
100
AcDbSymbolTableRecord
100
AcDbBlockTableRecord
  2
*Paper_Space
  0
BLOCK_RECORD
  5
219
100
AcDbSymbolTableRecord
100
AcDbBlockTableRecord
  2
_FILLED
  0
ENDTAB
  0
TABLE
  2
DIMSTYLE
  5
A
100
AcDbSymbolTable
 70
1
100
AcDbDimStyleTable
 71
0
  0
DIMSTYLE
105
21A
100
AcDbSymbolTableRecord
100
AcDbDimStyleTableRecord
  2
STANDARD
 70
0
  3

  4

 40
1.0
 41
3.5
 42
1.0
 43
0.38
 44
3.0
 45
0.0
 46
0.0
 47
0.0001
 48
0.0001
140
4.0
141
0.09
142
0.0
143
25.4
144
1.0
145
0.0
146
1.0
147
0.625
 71
1.0
 72
0.0
 73
0
 74
0
 75
0
 76
0
 77
1
 78
8
 79
2
170
0
171
3
172
0
173
0
174
0
175
0
176
0
177
0
178
0
270
2
179
4
271
4
272
4
273
2
274
2
275
0
280
0
281
0
282
0
283
1
284
8
285
0
286
0
287
3
288
0
340
11
278
46
341
219
342
219
343
219
344
219
  0
ENDTAB
  0
ENDSEC
  0
SECTION
  2
BLOCKS
  0
BLOCK
  5
20
100
AcDbEntity
  8
0
100
AcDbBlockBegin
  2
*Model_Space
 70
0
 10
0.0
 20
0.0
 30
0.0
  3
*Model_Space
  1

  0
ENDBLK
  5
21
100
AcDbEntity
  8
0
100
AcDbBlockEnd
  0
BLOCK
  5
1C
100
AcDbEntity
  8
0
100
AcDbBlockBegin
  2
*Paper_Space
 70
0
 10
0.0
 20
0.0
 30
0.0
  3
*Paper_Space
  1

  0
ENDBLK
  5
1D
100
AcDbEntity
  8
0
100
AcDbBlockEnd
  0
BLOCK
  5
21B
100
AcDbEntity
  8
0
100
AcDbBlockBegin
  2
_FILLED
 70
64
 10
0.0
 20
0.0
  3
_FILLED
  1

  0
SOLID
  5
21C
100
AcDbEntity
  8
0
  6
BYBLOCK
 62
0
100
AcDbTrace
 10
0.0
 20
0.0
 11
-1.0
 21
0.2857142857
 12
-1.0
 22
-0.2857142857
 13
-1.0
 23
-0.2857142857
  0
ENDBLK
  5
21D
100
AcDbEntity
  8
0
  6
BYBLOCK
 62
0
100
AcDbBlockEnd
  0
ENDSEC
  0
SECTION
  2
ENTITIES
  0
LINE
  5
21E
100
AcDbEntity
  8
0
100
AcDbLine
 62
6
  6
CONTINUOUS
 10
429.205071722
 20
139.7022890132
 11
429.224747082
 21
139.7028180541
  0
LINE
  5
21F
100
AcDbEntity
  8
0
100
AcDbLine
 62
9
  6
CONTINUOUS
 10
429.224747082
 20
139.7028180541
 11
442.4702291154
 21
140.0495866922
  0
LINE
  5
220
100
AcDbEntity
  8
0
100
AcDbLine
 62
9
  6
CONTINUOUS
 10
428.0881096647
 20
139.7905356278
 11
442.5554495122
 21
140.1658984354
  0
LINE
  5
221
100
AcDbEntity
  8
0
100
AcDbLine
 62
6
  6
CONTINUOUS
 10
429.0896017039
 20
139.7006533171
 11
429.0738885497
 21
139.7006440305
  0
LINE
  5
222
100
AcDbEntity
  8
0
100
AcDbLine
 62
6
  6
CONTINUOUS
 10
429.0885561448
 20
139.7032809479
 11
429.0727891694
 21
139.7034151773
  0
LINE
  5
223
100
AcDbEntity
  8
0
100
AcDbLine
 62
6
  6
CONTINUOUS
 10
393.2547515966
 20
140.6329213837
 11
428.8002075532
 21
139.702309829
  0
LINE
  5
224
100
AcDbEntity
  8
0
100
AcDbLine
 62
9
  6
CONTINUOUS
 10
443.4591799841
 20
141.6102538939
 11
419.8070422238
 21
141.0039789906
  0
LINE
  5
225
100
AcDbEntity
  8
0
100
AcDbLine
 62
9
  6
CONTINUOUS
 10
443.1073336516
 20
142.5993570561
 11
417.3570665012
 21
141.943217377
  0
LINE
  5
226
100
AcDbEntity
  8
0
100
AcDbLine
 62
9
  6
CONTINUOUS
 10
442.9664995569
 20
142.7257426515
 11
417.3570665012
 21
142.0739219783
  0
LINE
  5
227
100
AcDbEntity
  8
0
100
AcDbLine
 62
9
  6
CONTINUOUS
 10
417.3570665021
 20
141.9219585352
 11
393.2547119329
 21
142.5362197492
  0
LINE
  5
228
100
AcDbEntity
  8
0
100
AcDbLine
 62
9
  6
CONTINUOUS
 10
417.3570665021
 20
142.0739212883
 11
393.2547119329
 21
142.6873832512
  0
LINE
  5
229
100
AcDbEntity
  8
0
100
AcDbLine
 62
9
  6
CONTINUOUS
 10
393.2547446497
 20
141.6693201317
 11
419.785782525
 21
140.9884361215
  0
LINE
  5
22A
100
AcDbEntity
  8
0
100
AcDbLine
 62
9
  6
CONTINUOUS
 10
427.9402797635
 20
139.7904196239
 11
393.2695631211
 21
140.6899184843
  0
LINE
  5
22B
100
AcDbEntity
  8
0
100
AcDbLine
 62
6
  6
CONTINUOUS
 10
414.183450604
 20
140.0926718663
 11
428.0882374123
 21
139.7286236795
  0
LINE
  5
22C
100
AcDbEntity
  8
0
100
AcDbLine
 62
6
  6
CONTINUOUS
 10
414.125903913
 20
140.0943269001
 11
393.2546810584
 21
140.6406580326
  0
LINE
  5
22D
100
AcDbEntity
  8
0
100
AcDbLine
 62
6
  6
CONTINUOUS
 10
442.4702310753
 20
140.0495834831
 11
442.4704924333
 21
140.0495669279
  0
LINE
  5
22E
100
AcDbEntity
  8
0
100
AcDbLine
 62
6
  6
CONTINUOUS
 10
419.785737067
 20
140.9881748149
 11
419.8054275643
 21
140.9858300338
  0
LINE
  5
22F
100
AcDbEntity
  8
0
100
AcDbLine
 62
6
  6
CONTINUOUS
 10
419.785737067
 20
140.9881748149
 11
419.8047003241
 21
140.9857140528
  0
LINE
  5
230
100
AcDbEntity
  8
0
100
AcDbLine
 62
6
  6
CONTINUOUS
 10
413.3124698562
 20
140.1155231945
 11
413.3121928863
 21
140.1156283163
  0
LWPOLYLINE
  5
231
100
AcDbEntity
  8
0
100
AcDbPolyline
 62
6
  6
CONTINUOUS
 90
4
 70
0
 10
393.2548516927
 20
243.3575768592
 10
393.2549245487
 20
243.3577265768
 10
393.2546680004
 20
243.3504531982
 10
393.2547693989
 20
243.3514751352
  0
LINE
  5
232
100
AcDbEntity
  8
0
100
AcDbLine
 62
9
  6
CONTINUOUS
 10
445.2070658294
 20
148.8419966543
 11
442.8869032641
 21
148.757541489
  0
LINE
  5
233
100
AcDbEntity
  8
0
100
AcDbLine
 62
9
  6
CONTINUOUS
 10
442.6899197732
 20
146.367231617
 11
417.3570658295
 21
146.3532904492
  0
LINE
  5
234
100
AcDbEntity
  8
0
100
AcDbLine
 62
9
  6
CONTINUOUS
 10
417.3570658295
 20
146.3532907217
 11
393.254711933
 21
146.366554721
  0
LINE
  5
235
100
AcDbEntity
  8
0
100
AcDbLine
 62
9
  6
CONTINUOUS
 10
393.2549248084
 20
244.7454119423
 11
393.2544734776
 21
244.7416277814
  0
LINE
  5
236
100
AcDbEntity
  8
0
100
AcDbLine
 62
6
  6
CONTINUOUS
 10
393.2546398554
 20
243.5191634068
 11
393.2552608164
 21
243.4503917783
  0
LINE
  5
237
100
AcDbEntity
  8
0
100
AcDbLine
 62
6
  6
CONTINUOUS
 10
393.2545733414
 20
243.699225852
 11
393.2548031646
 21
243.6491807962
  0
LINE
  5
238
100
AcDbEntity
  8
0
100
AcDbLine
 62
6
  6
CONTINUOUS
 10
393.2552608164
 20
243.4503917783
 11
393.2553804654
 21
243.4203919794
  0
LINE
  5
239
100
AcDbEntity
  8
0
100
AcDbLine
 62
6
  6
CONTINUOUS
 10
393.2546836985
 20
140.6329290344
 11
393.2546802662
 21
140.6406309498
  0
LINE
  5
23A
100
AcDbEntity
  8
0
100
AcDbLine
 62
6
  6
CONTINUOUS
 10
393.2546910423
 20
245.4561680378
 11
393.2546874538
 21
245.4638746209
  0
LINE
  5
23B
100
AcDbEntity
  8
0
100
AcDbLine
 62
6
  6
CONTINUOUS
 10
391.3070658296
 20
142.6322477629
 11
391.3070658296
 21
243.4184003624
  0
LINE
  5
23C
100
AcDbEntity
  8
0
100
AcDbLine
 62
9
  6
CONTINUOUS
 10
393.2546868874
 20
245.4178466462
 11
393.2546882925
 21
245.4561681544
  0
LINE
  5
23D
100
AcDbEntity
  8
0
100
AcDbLine
 62
9
  6
CONTINUOUS
 10
393.2547119329
 20
142.5362197492
 11
393.2547600141
 21
243.3514938641
  0
LINE
  5
23E
100
AcDbEntity
  8
0
100
AcDbLine
 62
6
  6
CONTINUOUS
 10
393.2547231787
 20
244.6326730855
 11
393.2547602622
 21
243.3514928995
  0
LINE
  5
23F
100
AcDbEntity
  8
0
100
AcDbLine
 62
9
  6
CONTINUOUS
 10
393.2547161881
 20
244.7416301878
 11
393.2547288211
 21
244.6326730746
  0
LINE
  5
240
100
AcDbEntity
  8
0
100
AcDbLine
 62
6
  6
CONTINUOUS
 10
393.2547855296
 20
243.6054433689
 11
393.2546970891
 21
243.5857070574
  0
LINE
  5
241
100
AcDbEntity
  8
0
100
AcDbLine
 62
6
  6
CONTINUOUS
 10
393.2553470739
 20
243.3993975399
 11
393.2552776154
 21
243.3876969945
  0
LWPOLYLINE
  5
242
100
AcDbEntity
  8
0
100
AcDbPolyline
 62
6
  6
CONTINUOUS
 90
3
 70
0
 10
393.2552776154
 20
243.3876969945
 10
393.2552065843
 20
243.3807495227
 10
393.2551015673
 20
243.3694202786
  0
LWPOLYLINE
  5
243
100
AcDbEntity
  8
0
100
AcDbPolyline
 62
6
  6
CONTINUOUS
 90
3
 70
0
 10
393.2551015673
 20
243.3694202786
 10
393.2550462195
 20
243.3660475925
 10
393.2548516927
 20
243.3575768592
  0
LINE
  5
244
100
AcDbEntity
  8
0
100
AcDbLine
 62
7
  6
CONTINUOUS
 10
445.2070658296
 20
162.6025165429
 11
448.2070658296
 21
162.6025165429
  0
LINE
  5
245
100
AcDbEntity
  8
0
100
AcDbLine
 62
9
  6
CONTINUOUS
 10
448.2070658296
 20
163.5815006819
 11
445.2070658296
 21
163.5815006819
  0
LINE
  5
246
100
AcDbEntity
  8
0
100
AcDbLine
 62
7
  6
CONTINUOUS
 10
448.2070658296
 20
163.7517256842
 11
453.4570658295
 21
163.7517256842
  0
LINE
  5
247
100
AcDbEntity
  8
0
100
AcDbLine
 62
6
  6
CONTINUOUS
 10
413.3121928863
 20
140.1156283163
 11
413.312547762
 21
140.1133097732
  0
LINE
  5
248
100
AcDbEntity
  8
0
100
AcDbLine
 62
9
  6
CONTINUOUS
 10
408.2570658295
 20
245.8106856182
 11
408.2564228213
 21
245.1381706915
  0
LINE
  5
249
100
AcDbEntity
  8
0
100
AcDbLine
 62
9
  6
CONTINUOUS
 10
413.3124712868
 20
245.9812863909
 11
413.3124277634
 21
245.9880856087
  0
LINE
  5
24A
100
AcDbEntity
  8
0
100
AcDbLine
 62
9
  6
CONTINUOUS
 10
413.3124396299
 20
245.262877098
 11
413.3124726902
 21
245.266748977
  0
LINE
  5
24B
100
AcDbEntity
  8
0
100
AcDbLine
 62
6
  6
CONTINUOUS
 10
417.3570665021
 20
141.9432177285
 11
417.3570658295
 21
242.888169647
  0
LINE
  5
24C
100
AcDbEntity
  8
0
100
AcDbLine
 62
9
  6
CONTINUOUS
 10
445.2070658296
 20
191.3753608419
 11
448.2070658296
 21
191.3753608419
  0
LINE
  5
24D
100
AcDbEntity
  8
0
100
AcDbLine
 62
7
  6
CONTINUOUS
 10
448.2070658296
 20
192.2517256842
 11
453.4570658295
 21
192.2517256842
  0
LINE
  5
24E
100
AcDbEntity
  8
0
100
AcDbLine
 62
9
  6
CONTINUOUS
 10
448.2070658296
 20
192.3961558446
 11
445.2070658296
 21
192.3961558446
  0
LINE
  5
24F
100
AcDbEntity
  8
0
100
AcDbLine
 62
7
  6
CONTINUOUS
 10
448.2070658296
 20
192.5613512057
 11
446.2070658296
 21
192.5613512057
  0
LINE
  5
250
100
AcDbEntity
  8
0
100
AcDbLine
 62
7
  6
CONTINUOUS
 10
445.2070658296
 20
192.6958687297
 11
448.2070658296
 21
192.6958687297
  0
LINE
  5
251
100
AcDbEntity
  8
0
100
AcDbLine
 62
9
  6
CONTINUOUS
 10
448.2070658296
 20
193.6748528687
 11
445.2070658296
 21
193.6748528687
  0
LINE
  5
252
100
AcDbEntity
  8
0
100
AcDbLine
 62
7
  6
CONTINUOUS
 10
448.2070658296
 20
193.845077871
 11
453.4570658295
 21
193.845077871
  0
LINE
  5
253
100
AcDbEntity
  8
0
100
AcDbLine
 62
6
  6
CONTINUOUS
 10
434.3570658295
 20
245.9952202001
 11
434.3570658295
 21
246.0367074095
  0
LINE
  5
254
100
AcDbEntity
  8
0
100
AcDbLine
 62
6
  6
CONTINUOUS
 10
442.8869032641
 20
235.938282709
 11
442.8869032641
 21
148.757541489
  0
LINE
  5
255
100
AcDbEntity
  8
0
100
AcDbLine
 62
6
  6
CONTINUOUS
 10
445.2070658296
 20
241.4760546056
 11
445.2070658296
 21
144.6197964265
  0
LINE
  5
256
100
AcDbEntity
  8
0
100
AcDbLine
 62
6
  6
CONTINUOUS
 10
446.2070658296
 20
223.6578105641
 11
446.2070658296
 21
223.0261099814
  0
LINE
  5
257
100
AcDbEntity
  8
0
100
AcDbLine
 62
7
  6
CONTINUOUS
 10
446.2070658296
 20
192.5611303481
 11
446.2070658296
 21
192.6958687297
  0
LINE
  5
258
100
AcDbEntity
  8
0
100
AcDbLine
 62
7
  6
CONTINUOUS
 10
446.2070658296
 20
222.6544825349
 11
446.2070658296
 21
223.0261099814
  0
LINE
  5
259
100
AcDbEntity
  8
0
100
AcDbLine
 62
7
  6
CONTINUOUS
 10
448.2070658296
 20
162.6026066928
 11
448.2070658296
 21
192.5611303481
  0
LINE
  5
25A
100
AcDbEntity
  8
0
100
AcDbLine
 62
7
  6
CONTINUOUS
 10
448.2070658296
 20
192.6959588796
 11
448.2070658296
 21
222.6544825349
  0
LINE
  5
25B
100
AcDbEntity
  8
0
100
AcDbLine
 62
7
  6
CONTINUOUS
 10
454.0595609853
 20
196.1993191654
 11
453.9297690134
 21
195.7450763742
  0
LINE
  5
25C
100
AcDbEntity
  8
0
100
AcDbLine
 62
9
  6
CONTINUOUS
 10
445.2070658296
 20
221.4687130287
 11
448.2070658296
 21
221.4687130287
  0
LINE
  5
25D
100
AcDbEntity
  8
0
100
AcDbLine
 62
7
  6
CONTINUOUS
 10
448.2070658296
 20
222.345077871
 11
453.4570658295
 21
222.345077871
  0
LINE
  5
25E
100
AcDbEntity
  8
0
100
AcDbLine
 62
9
  6
CONTINUOUS
 10
448.2070658296
 20
222.4895080314
 11
445.2070658296
 21
222.4895080314
  0
LINE
  5
25F
100
AcDbEntity
  8
0
100
AcDbLine
 62
7
  6
CONTINUOUS
 10
454.0595609853
 20
189.8974843898
 11
453.9297690134
 21
190.351727181
  0
LINE
  5
260
100
AcDbEntity
  8
0
100
AcDbLine
 62
7
  6
CONTINUOUS
 10
453.9297694498
 20
165.3553829108
 11
453.9297868877
 21
165.3526523716
  0
LINE
  5
261
100
AcDbEntity
  8
0
100
AcDbLine
 62
7
  6
CONTINUOUS
 10
453.9297694498
 20
195.4487350976
 11
453.9297868878
 21
195.4460045584
  0
LINE
  5
262
100
AcDbEntity
  8
0
100
AcDbLine
 62
7
  6
CONTINUOUS
 10
453.4570616031
 20
222.345077871
 11
453.4570655102
 21
193.8450778713
  0
LINE
  5
263
100
AcDbEntity
  8
0
100
AcDbLine
 62
7
  6
CONTINUOUS
 10
453.4570616031
 20
192.2517256842
 11
453.4570655102
 21
163.7517256846
  0
LINE
  5
264
100
AcDbEntity
  8
0
100
AcDbLine
 62
7
  6
CONTINUOUS
 10
454.0595609853
 20
219.9908365766
 11
454.0595609853
 21
196.1993191654
  0
LINE
  5
265
100
AcDbEntity
  8
0
100
AcDbLine
 62
7
  6
CONTINUOUS
 10
454.0595609853
 20
189.8974843898
 11
454.0595609853
 21
166.1059669786
  0
LINE
  5
266
100
AcDbEntity
  8
0
100
AcDbLine
 62
7
  6
CONTINUOUS
 10
454.4297678822
 20
168.8567125211
 11
454.4297678822
 21
187.1467388473
  0
LINE
  5
267
100
AcDbEntity
  8
0
100
AcDbLine
 62
7
  6
CONTINUOUS
 10
454.4297678822
 20
198.9500647079
 11
454.4297678822
 21
217.2400910341
  0
LINE
  5
268
100
AcDbEntity
  8
0
100
AcDbLine
 62
7
  6
CONTINUOUS
 10
453.9297694498
 20
190.6480684576
 11
453.9297698562
 21
190.6508606445
  0
LINE
  5
269
100
AcDbEntity
  8
0
100
AcDbLine
 62
7
  6
CONTINUOUS
 10
453.9297868963
 20
195.4460045899
 11
453.9297698562
 21
220.7442128312
  0
LINE
  5
26A
100
AcDbEntity
  8
0
100
AcDbLine
 62
7
  6
CONTINUOUS
 10
453.9297868963
 20
165.3526524031
 11
453.9297694498
 21
190.6480684576
  0
LINE
  5
26B
100
AcDbEntity
  8
0
100
AcDbLine
 62
7
  6
CONTINUOUS
 10
448.2070658296
 20
222.6547033924
 11
446.2070658296
 21
222.6547033924
  0
LINE
  5
26C
100
AcDbEntity
  8
0
100
AcDbLine
 62
9
  6
CONTINUOUS
 10
445.2070658296
 20
223.0233108835
 11
446.2070658296
 21
223.0233108835
  0
LINE
  5
26D
100
AcDbEntity
  8
0
100
AcDbLine
 62
7
  6
CONTINUOUS
 10
445.2070658296
 20
223.0262703751
 11
446.2070658296
 21
223.0262703751
  0
LINE
  5
26E
100
AcDbEntity
  8
0
100
AcDbLine
 62
6
  6
CONTINUOUS
 10
445.2070658296
 20
223.357013955
 11
446.2070658296
 21
223.357013955
  0
LINE
  5
26F
100
AcDbEntity
  8
0
100
AcDbLine
 62
6
  6
CONTINUOUS
 10
446.2070658296
 20
223.6578105641
 11
445.2070658296
 21
223.6578105641
  0
LINE
  5
270
100
AcDbEntity
  8
0
100
AcDbLine
 62
7
  6
CONTINUOUS
 10
454.0595609853
 20
166.1059669786
 11
453.9297690134
 21
165.6517241874
  0
LINE
  5
271
100
AcDbEntity
  8
0
100
AcDbLine
 62
7
  6
CONTINUOUS
 10
454.0595609853
 20
219.9908365766
 11
453.9297690134
 21
220.4450793678
  0
LINE
  5
272
100
AcDbEntity
  8
0
100
AcDbLine
 62
9
  6
CONTINUOUS
 10
443.3961765851
 20
141.4848883411
 11
445.2070658296
 21
144.6207488952
  0
LINE
  5
273
100
AcDbEntity
  8
0
100
AcDbLine
 62
6
  6
CONTINUOUS
 10
443.3744466447
 20
141.4472604542
 11
443.3969518829
 21
141.4845871035
  0
LINE
  5
274
100
AcDbEntity
  8
0
100
AcDbLine
 62
9
  6
CONTINUOUS
 10
442.8869032641
 20
235.938282709
 11
445.2070658294
 21
236.0227378761
  0
LINE
  5
275
100
AcDbEntity
  8
0
100
AcDbLine
 62
9
  6
CONTINUOUS
 10
417.3570658295
 20
238.3144346048
 11
442.6899197732
 21
238.3283757726
  0
LINE
  5
276
100
AcDbEntity
  8
0
100
AcDbLine
 62
9
  6
CONTINUOUS
 10
393.254711933
 20
238.3276986037
 11
417.3570658295
 21
238.3144346043
  0
LINE
  5
277
100
AcDbEntity
  8
0
100
AcDbLine
 62
6
  6
CONTINUOUS
 10
443.3744463803
 20
244.6495435587
 11
443.396952501
 21
244.612215381
  0
LINE
  5
278
100
AcDbEntity
  8
0
100
AcDbLine
 62
9
  6
CONTINUOUS
 10
445.2070658296
 20
240.4252615897
 11
443.3744596639
 21
243.5987257376
  0
LINE
  5
279
100
AcDbEntity
  8
0
100
AcDbLine
 62
9
  6
CONTINUOUS
 10
443.3744448137
 20
244.6495460473
 11
445.2070658296
 21
241.4760543812
  0
LINE
  5
27A
100
AcDbEntity
  8
0
100
AcDbLine
 62
9
  6
CONTINUOUS
 10
393.2547119329
 20
242.1279515274
 11
417.3570658295
 21
242.7346379269
  0
LINE
  5
27B
100
AcDbEntity
  8
0
100
AcDbLine
 62
9
  6
CONTINUOUS
 10
393.2547119329
 20
242.3055670168
 11
417.3570658295
 21
242.9131925277
  0
LINE
  5
27C
100
AcDbEntity
  8
0
100
AcDbLine
 62
9
  6
CONTINUOUS
 10
417.3570658295
 20
242.7346339784
 11
442.9664985999
 21
242.0900125404
  0
LINE
  5
27D
100
AcDbEntity
  8
0
100
AcDbLine
 62
9
  6
CONTINUOUS
 10
417.3570658295
 20
242.8881696469
 11
443.1073304731
 21
242.2391405592
  0
LINE
  5
27E
100
AcDbEntity
  8
0
100
AcDbLine
 62
6
  6
CONTINUOUS
 10
442.4702310753
 20
246.0472200711
 11
442.4704924335
 21
246.0472366264
  0
LINE
  5
27F
100
AcDbEntity
  8
0
100
AcDbLine
 62
9
  6
CONTINUOUS
 10
429.0757934311
 20
245.6794357085
 11
414.1783742134
 21
245.2894189949
  0
LINE
  5
280
100
AcDbEntity
  8
0
100
AcDbLine
 62
9
  6
CONTINUOUS
 10
413.3124726902
 20
245.266748977
 11
393.2547160845
 21
244.7416341436
  0
LINE
  5
281
100
AcDbEntity
  8
0
100
AcDbLine
 62
6
  6
CONTINUOUS
 10
393.255091152
 20
244.7453897359
 11
408.2570662114
 21
245.1381700763
  0
LINE
  5
282
100
AcDbEntity
  8
0
100
AcDbLine
 62
6
  6
CONTINUOUS
 10
408.2570658295
 20
245.8106856182
 11
393.2552136837
 21
245.4179018972
  0
LINE
  5
283
100
AcDbEntity
  8
0
100
AcDbLine
 62
9
  6
CONTINUOUS
 10
423.0441574278
 20
246.2360799448
 11
429.0743520538
 21
246.394016003
  0
LINE
  5
284
100
AcDbEntity
  8
0
100
AcDbLine
 62
6
  6
CONTINUOUS
 10
393.2546864769
 20
245.4561679183
 11
413.3124712868
 21
245.9812863909
  0
LINE
  5
285
100
AcDbEntity
  8
0
100
AcDbLine
 62
6
  6
CONTINUOUS
 10
414.1781215216
 20
246.0039426359
 11
423.0441574278
 21
246.2360799448
  0
LINE
  5
286
100
AcDbEntity
  8
0
100
AcDbLine
 62
6
  6
CONTINUOUS
 10
428.7982588489
 20
246.3944421851
 11
393.2546871085
 21
245.4638770994
  0
LINE
  5
287
100
AcDbEntity
  8
0
100
AcDbLine
 62
9
  6
CONTINUOUS
 10
393.2547263837
 20
244.6326835412
 11
427.9381657601
 21
245.52684241
  0
LINE
  5
288
100
AcDbEntity
  8
0
100
AcDbLine
 62
6
  6
CONTINUOUS
 10
393.2547693989
 20
243.3514751352
 11
419.7817114565
 21
244.0266888869
  0
LINE
  5
289
100
AcDbEntity
  8
0
100
AcDbLine
 62
6
  6
CONTINUOUS
 10
428.7982588504
 20
246.3944421028
 11
429.0742321659
 21
246.3940151633
  0
LINE
  5
28A
100
AcDbEntity
  8
0
100
AcDbLine
 62
9
  6
CONTINUOUS
 10
419.8070547971
 20
244.0081921617
 11
443.4592770356
 21
243.4075024215
  0
LINE
  5
28B
100
AcDbEntity
  8
0
100
AcDbLine
 62
9
  6
CONTINUOUS
 10
442.5554583561
 20
245.1538558735
 11
428.0880663135
 21
245.526759217
  0
LINE
  5
28C
100
AcDbEntity
  8
0
100
AcDbLine
 62
9
  6
CONTINUOUS
 10
442.4702230482
 20
245.3326420161
 11
429.2248136759
 21
245.6794086168
  0
LINE
  5
28D
100
AcDbEntity
  8
0
100
AcDbLine
 62
9
  6
CONTINUOUS
 10
429.224716076
 20
246.3939863126
 11
442.4702291168
 21
246.0472168629
  0
LINE
  5
28E
100
AcDbEntity
  8
0
100
AcDbLine
 62
6
  6
CONTINUOUS
 10
429.224716076
 20
246.3939863126
 11
429.2050717028
 21
246.3945448696
  0
LINE
  5
28F
100
AcDbEntity
  8
0
100
AcDbLine
 62
6
  6
CONTINUOUS
 10
429.0896974438
 20
246.3935422219
 11
429.0742321659
 21
246.3940151633
  0
LINE
  5
290
100
AcDbEntity
  8
0
100
AcDbLine
 62
6
  6
CONTINUOUS
 10
429.0880282985
 20
246.393518112
 11
429.0742321659
 21
246.3940151633
  0
ARC
  5
291
100
AcDbEntity
  8
0
100
AcDbCircle
 62
6
  6
CONTINUOUS
 10
553.396597034
 20
302.5350220771
 40
124.8132915106
100
AcDbArc
 50
207.3700746262
 51
208.1769171476
  0
ARC
  5
292
100
AcDbEntity
  8
0
100
AcDbCircle
 62
9
  6
CONTINUOUS
 10
417.4585230182
 20
124.1350082215
 40
121.1988062071
100
AcDbArc
 50
91.550853836
 51
91.9604107032
  0
ARC
  5
293
100
AcDbEntity
  8
0
100
AcDbCircle
 62
7
  6
CONTINUOUS
 10
408.1449537622
 20
178.0017256842
 40
47.5
100
AcDbArc
 50
15.4440712018
 51
17.4576031233
  0
ARC
  5
294
100
AcDbEntity
  8
0
100
AcDbCircle
 62
7
  6
CONTINUOUS
 10
408.1449537622
 20
178.0017256842
 40
47.5
100
AcDbArc
 50
342.5423968767
 51
344.5559287982
  0
ARC
  5
295
100
AcDbEntity
  8
0
100
AcDbCircle
 62
7
  6
CONTINUOUS
 10
408.1449537622
 20
208.095077871
 40
47.5
100
AcDbArc
 50
15.4440712018
 51
17.4576031233
  0
ARC
  5
296
100
AcDbEntity
  8
0
100
AcDbCircle
 62
7
  6
CONTINUOUS
 10
408.1449537622
 20
208.095077871
 40
47.5
100
AcDbArc
 50
342.5423968767
 51
344.5559287982
  0
ARC
  5
297
100
AcDbEntity
  8
0
100
AcDbCircle
 62
6
  6
CONTINUOUS
 10
414.3413219459
 20
167.0665504775
 40
26.9734030051
100
AcDbArc
 50
269.2450027905
 51
269.3623628686
  0
ARC
  5
298
100
AcDbEntity
  8
0
100
AcDbCircle
 62
6
  6
CONTINUOUS
 10
413.7788085221
 20
114.104236494
 40
25.9919052247
100
AcDbArc
 50
89.2342687104
 51
89.4217041082
  0
ARC
  5
299
100
AcDbEntity
  8
0
100
AcDbCircle
 62
7
  6
CONTINUOUS
 10
444.4296986511
 20
187.2017217765
 40
10.0000692311
100
AcDbArc
 50
0.0
 51
15.6389424525
  0
ARC
  5
29A
100
AcDbEntity
  8
0
100
AcDbCircle
 62
7
  6
CONTINUOUS
 10
444.4296986511
 20
168.801729592
 40
10.0000692311
100
AcDbArc
 50
344.3610575475
 51
360.0
  0
ARC
  5
29B
100
AcDbEntity
  8
0
100
AcDbCircle
 62
7
  6
CONTINUOUS
 10
444.4296986511
 20
217.2950739632
 40
10.0000692311
100
AcDbArc
 50
0.0
 51
15.6389424525
  0
ARC
  5
29C
100
AcDbEntity
  8
0
100
AcDbCircle
 62
7
  6
CONTINUOUS
 10
444.4296986511
 20
198.8950817787
 40
10.0000692311
100
AcDbArc
 50
344.3610575475
 51
360.0
  0
ARC
  5
29D
100
AcDbEntity
  8
0
100
AcDbCircle
 62
6
  6
CONTINUOUS
 10
429.5558002635
 20
238.358708771
 40
7.3483922888
100
AcDbArc
 50
101.5425168228
 51
102.7169040389
  0
ARC
  5
29E
100
AcDbEntity
  8
0
100
AcDbCircle
 62
6
  6
CONTINUOUS
 10
414.0283128517
 20
133.2860936102
 40
6.8084301792
100
AcDbArc
 50
88.7380928091
 51
89.1764811443
  0
ARC
  5
29F
100
AcDbEntity
  8
0
100
AcDbCircle
 62
6
  6
CONTINUOUS
 10
429.4481517914
 20
238.892938439
 40
6.8034268426
100
AcDbArc
 50
99.3975094004
 51
101.5545198424
  0
ARC
  5
2A0
100
AcDbEntity
  8
0
100
AcDbCircle
 62
6
  6
CONTINUOUS
 10
429.0837952563
 20
146.4260277181
 40
6.7334184171
100
AcDbArc
 50
260.2185690145
 51
262.7367918832
  0
ARC
  5
2A1
100
AcDbEntity
  8
0
100
AcDbCircle
 62
6
  6
CONTINUOUS
 10
429.1896389691
 20
146.1379907762
 40
6.4423274642
100
AcDbArc
 50
260.170727336
 51
263.7374121531
  0
ARC
  5
2A2
100
AcDbEntity
  8
0
100
AcDbCircle
 62
6
  6
CONTINUOUS
 10
429.0113890347
 20
145.8827191406
 40
6.185316086
100
AcDbArc
 50
262.765841225
 51
263.9548157017
  0
ARC
  5
2A3
100
AcDbEntity
  8
0
100
AcDbCircle
 62
6
  6
CONTINUOUS
 10
428.9764777411
 20
240.478931237
 40
5.918435052
100
AcDbArc
 50
91.7256280583
 51
96.2519622939
  0
ARC
  5
2A4
100
AcDbEntity
  8
0
100
AcDbCircle
 62
6
  6
CONTINUOUS
 10
429.1033232604
 20
145.3117070905
 40
5.6115606143
100
AcDbArc
 50
263.6931528524
 51
267.5735661465
  0
ARC
  5
2A5
100
AcDbEntity
  8
0
100
AcDbCircle
 62
6
  6
CONTINUOUS
 10
429.0815380284
 20
144.8198238639
 40
5.119196182
100
AcDbArc
 50
267.5840985285
 51
269.5547520837
  0
ARC
  5
2A6
100
AcDbEntity
  8
0
100
AcDbCircle
 62
6
  6
CONTINUOUS
 10
429.0789448944
 20
144.6108342358
 40
4.9101928086
100
AcDbArc
 50
269.5660591517
 51
269.9409988007
  0
ARC
  5
2A7
100
AcDbEntity
  8
0
100
AcDbCircle
 62
6
  6
CONTINUOUS
 10
429.0795796056
 20
144.4384304128
 40
4.7377876958
100
AcDbArc
 50
270.1212009484
 51
271.5177991642
  0
ARC
  5
2A8
100
AcDbEntity
  8
0
100
AcDbCircle
 62
6
  6
CONTINUOUS
 10
393.3073936912
 20
243.4182294187
 40
2.000336451
100
AcDbArc
 50
91.4947527388
 51
179.9951036266
  0
ARC
  5
2A9
100
AcDbEntity
  8
0
100
AcDbCircle
 62
6
  6
CONTINUOUS
 10
393.3070762244
 20
242.7460236855
 40
2.0000256295
100
AcDbArc
 50
91.4893992607
 51
179.9960854716
  0
ARC
  5
2AA
100
AcDbEntity
  8
0
100
AcDbCircle
 62
6
  6
CONTINUOUS
 10
393.3070631736
 20
142.6322429359
 40
1.9999999216
100
AcDbArc
 50
180.0
 51
268.4992669199
  0
ARC
  5
2AB
100
AcDbEntity
  8
0
100
AcDbCircle
 62
6
  6
CONTINUOUS
 10
393.3070631311
 20
243.4645606357
 40
1.9999999057
100
AcDbArc
 50
91.5006242562
 51
180.0
  0
ARC
  5
2AC
100
AcDbEntity
  8
0
100
AcDbCircle
 62
6
  6
CONTINUOUS
 10
393.3070587304
 20
242.7423173793
 40
1.999997862
100
AcDbArc
 50
91.4996762147
 51
180.0003980993
  0
ARC
  5
2AD
100
AcDbEntity
  8
0
100
AcDbCircle
 62
9
  6
CONTINUOUS
 10
393.3062833485
 20
243.4575021977
 40
1.9992797986
100
AcDbArc
 50
91.4788676972
 51
179.9738823275
  0
ARC
  5
2AE
100
AcDbEntity
  8
0
100
AcDbCircle
 62
9
  6
CONTINUOUS
 10
393.3062045785
 20
142.6392139898
 40
1.9991906336
100
AcDbArc
 50
180.0224149963
 51
268.5232178538
  0
ARC
  5
2AF
100
AcDbEntity
  8
0
100
AcDbCircle
 62
9
  6
CONTINUOUS
 10
393.2098701071
 20
144.6322156699
 40
1.9028048884
100
AcDbArc
 50
180.0459104583
 51
195.0903860493
  0
ARC
  5
2B0
100
AcDbEntity
  8
0
100
AcDbCircle
 62
9
  6
CONTINUOUS
 10
393.1906721226
 20
144.4825517793
 40
1.8836064527
100
AcDbArc
 50
180.0150013746
 51
185.2544766014
  0
ARC
  5
2B1
100
AcDbEntity
  8
0
100
AcDbCircle
 62
9
  6
CONTINUOUS
 10
393.176898885
 20
240.3791832343
 40
1.8697425874
100
AcDbArc
 50
164.7843754403
 51
167.035437488
  0
ARC
  5
2B2
100
AcDbEntity
  8
0
100
AcDbCircle
 62
9
  6
CONTINUOUS
 10
393.1688204174
 20
240.3796987061
 40
1.8617548637
100
AcDbArc
 50
166.9951202246
 51
179.9676777277
  0
ARC
  5
2B3
100
AcDbEntity
  8
0
100
AcDbCircle
 62
6
  6
CONTINUOUS
 10
442.4548283164
 20
244.0678497537
 40
1.0880863119
100
AcDbArc
 50
25.7988898611
 51
30.0175523038
  0
ARC
  5
2B4
100
AcDbEntity
  8
0
100
AcDbCircle
 62
6
  6
CONTINUOUS
 10
442.4554968241
 20
142.0285916259
 40
1.0873262777
100
AcDbArc
 50
329.9812191842
 51
334.2013509604
  0
ARC
  5
2B5
100
AcDbEntity
  8
0
100
AcDbCircle
 62
6
  6
CONTINUOUS
 10
442.535030927
 20
141.9906345878
 40
0.999200235
100
AcDbArc
 50
334.1761089849
 51
337.6500351597
  0
SPLINE
  5
2B6
100
AcDbEntity
  8
0
100
AcDbSpline
 62
6
  6
CONTINUOUS
 70
0
 71
3
 72
9
 73
5
 74
0
 42
0.0000001
 43
0.0000001
 44
0.0000000001
 40
0.0
 40
0.0
 40
0.0
 40
0.0
 40
0.2852825397
 40
1.0
 40
1.0
 40
1.0
 40
1.0
 10
443.3744448137
 20
244.6495460473
 30
0.0
 10
443.2975026193
 20
244.7719916379
 30
0.0
 10
443.0270656149
 20
245.2007372587
 30
0.0
 10
442.7536968889
 20
245.6276495155
 30
0.0
 10
442.5554493223
 20
245.9308965417
 30
0.0
  0
SPLINE
  5
2B7
100
AcDbEntity
  8
0
100
AcDbSpline
 62
6
  6
CONTINUOUS
 70
0
 71
3
 72
25
 73
21
 74
0
 42
0.0000001
 43
0.0000001
 44
0.0000000001
 40
0.0
 40
0.0
 40
0.0
 40
0.0
 40
0.19483171
 40
0.3822173323
 40
0.4708331158
 40
0.5549233874
 40
0.6336753739
 40
0.7063316668
 40
0.7721939648
 40
0.8306286355
 40
0.881078848
 40
0.9230535416
 40
0.9407370846
 40
0.9561619089
 40
0.9692878418
 40
0.980087949
 40
0.9885449924
 40
0.9946477482
 40
0.998408339
 40
1.0
 40
1.0
 40
1.0
 40
1.0
 10
408.2557889937
 20
245.1381387279
 30
0.0
 10
409.2961254179
 20
245.1653745046
 30
0.0
 10
411.3370171715
 20
245.2196269542
 30
0.0
 10
413.8510067524
 20
245.2892905202
 30
0.0
 10
415.773612839
 20
245.345542581
 30
0.0
 10
417.1161462509
 20
245.386655822
 30
0.0
 10
418.3734011631
 20
245.4274162127
 30
0.0
 10
419.5332487141
 20
245.4678409476
 30
0.0
 10
420.5845135226
 20
245.5078665459
 30
0.0
 10
421.5170971098
 20
245.547329179
 30
0.0
 10
422.3219772801
 20
245.5860949082
 30
0.0
 10
422.9092147491
 20
245.619308948
 30
0.0
 10
423.3093476029
 20
245.6461014751
 30
0.0
 10
423.555678819
 20
245.6647637392
 30
0.0
 10
423.7648699493
 20
245.6829894328
 30
0.0
 10
423.9375160314
 20
245.7010424795
 30
0.0
 10
424.0703662224
 20
245.7178861289
 30
0.0
 10
424.1703561812
 20
245.7354952974
 30
0.0
 10
424.2232972977
 20
245.7486728044
 30
0.0
 10
424.257000005
 20
245.7638553743
 30
0.0
 10
424.256996633
 20
245.7723572251
 30
0.0
  0
SPLINE
  5
2B8
100
AcDbEntity
  8
0
100
AcDbSpline
 62
6
  6
CONTINUOUS
 70
0
 71
3
 72
9
 73
5
 74
0
 42
0.0000001
 43
0.0000001
 44
0.0000000001
 40
0.0
 40
0.0
 40
0.0
 40
0.0
 40
0.2600089048
 40
1.0
 40
1.0
 40
1.0
 40
1.0
 10
428.0898621772
 20
245.5271698786
 30
0.0
 10
428.1866285993
 20
245.549003699
 30
0.0
 10
428.5603474173
 20
245.6255534928
 30
0.0
 10
428.941146282
 20
245.6706498963
 30
0.0
 10
429.2233362933
 20
245.6793064964
 30
0.0
  0
SPLINE
  5
2B9
100
AcDbEntity
  8
0
100
AcDbSpline
 62
6
  6
CONTINUOUS
 70
0
 71
3
 72
9
 73
5
 74
0
 42
0.0000001
 43
0.0000001
 44
0.0000000001
 40
0.0
 40
0.0
 40
0.0
 40
0.0
 40
0.5389391833
 40
1.0
 40
1.0
 40
1.0
 40
1.0
 10
419.8070845988
 20
244.0081840507
 30
0.0
 10
421.3048937788
 20
244.2225793573
 30
0.0
 10
424.0758401655
 20
244.679944563
 30
0.0
 10
426.8271556478
 20
245.2423451165
 30
0.0
 10
428.0898621772
 20
245.5271698786
 30
0.0
  0
SPLINE
  5
2BA
100
AcDbEntity
  8
0
100
AcDbSpline
 62
6
  6
CONTINUOUS
 70
0
 71
3
 72
14
 73
10
 74
0
 42
0.0000001
 43
0.0000001
 44
0.0000000001
 40
0.0
 40
0.0
 40
0.0
 40
0.0
 40
0.064158777
 40
0.139288381
 40
0.2318778234
 40
0.3449199442
 40
0.479189533
 40
0.6342039885
 40
1.0
 40
1.0
 40
1.0
 40
1.0
 10
417.3578651002
 20
242.9131811414
 30
0.0
 10
417.3617063634
 20
242.9731842821
 30
0.0
 10
417.402508693
 20
243.1021679768
 30
0.0
 10
417.5433619092
 20
243.2719417496
 30
0.0
 10
417.7567504182
 20
243.4286334884
 30
0.0
 10
418.0415024031
 20
243.5734737031
 30
0.0
 10
418.3950647518
 20
243.7060300745
 30
0.0
 10
418.9861717138
 20
243.8735312925
 30
0.0
 10
419.4677554436
 20
243.9601326031
 30
0.0
 10
419.8070845988
 20
244.0088133965
 30
0.0
  0
SPLINE
  5
2BB
100
AcDbEntity
  8
0
100
AcDbSpline
 62
6
  6
CONTINUOUS
 70
0
 71
3
 72
8
 73
4
 74
0
 42
0.0000001
 43
0.0000001
 44
0.0000000001
 40
0.0
 40
0.0
 40
0.0
 40
0.0
 40
1.0
 40
1.0
 40
1.0
 40
1.0
 10
413.9858986525
 20
140.0954892459
 30
0.0
 10
413.8307607313
 20
140.0975430618
 30
0.0
 10
413.6756285229
 20
140.1000088035
 30
0.0
 10
413.5204946661
 20
140.102349577
 30
0.0
  0
LINE
  5
2BC
100
AcDbEntity
  8
0
100
AcDbLine
 62
6
  6
CONTINUOUS
 10
413.5204946661
 20
140.102349577
 11
413.312346073
 21
140.1055662487
  0
SPLINE
  5
2BD
100
AcDbEntity
  8
0
100
AcDbSpline
 62
6
  6
CONTINUOUS
 70
0
 71
3
 72
9
 73
5
 74
0
 42
0.0000001
 43
0.0000001
 44
0.0000000001
 40
0.0
 40
0.0
 40
0.0
 40
0.0
 40
0.2191253096
 40
1.0
 40
1.0
 40
1.0
 40
1.0
 10
428.0898503966
 20
139.7902314667
 30
0.0
 10
427.4872268021
 20
139.8939495732
 30
0.0
 10
424.7347951079
 20
140.3535422033
 30
0.0
 10
421.971085166
 20
140.7481556724
 30
0.0
 10
419.8070708331
 20
141.0039817965
 30
0.0
  0
SPLINE
  5
2BE
100
AcDbEntity
  8
0
100
AcDbSpline
 62
6
  6
CONTINUOUS
 70
0
 71
3
 72
9
 73
5
 74
0
 42
0.0000001
 43
0.0000001
 44
0.0000000001
 40
0.0
 40
0.0
 40
0.0
 40
0.0
 40
0.2852821113
 40
1.0
 40
1.0
 40
1.0
 40
1.0
 10
443.3744544932
 20
141.4472728704
 30
0.0
 10
443.2975114902
 20
141.3248260023
 30
0.0
 10
443.0270712451
 20
140.8960752599
 30
0.0
 10
442.7536993638
 20
140.4691578257
 30
0.0
 10
442.5554493084
 20
140.1659069917
 30
0.0
  0
SPLINE
  5
2BF
100
AcDbEntity
  8
0
100
AcDbSpline
 62
6
  6
CONTINUOUS
 70
0
 71
3
 72
14
 73
10
 74
0
 42
0.0000001
 43
0.0000001
 44
0.0000000001
 40
0.0
 40
0.0
 40
0.0
 40
0.0
 40
0.3755233864
 40
0.5336450117
 40
0.6695416716
 40
0.7824306907
 40
0.8727024853
 40
0.9429761731
 40
1.0
 40
1.0
 40
1.0
 40
1.0
 10
419.8070708331
 20
141.0033480888
 30
0.0
 10
419.4685367688
 20
141.0433790146
 30
0.0
 10
418.9884940088
 20
141.1147067444
 30
0.0
 10
418.3965274739
 20
141.2540849266
 30
0.0
 10
418.043588284
 20
141.3644169219
 30
0.0
 10
417.759602672
 20
141.4850721548
 30
0.0
 10
417.547112084
 20
141.6157470821
 30
0.0
 10
417.4051505753
 20
141.7573913473
 30
0.0
 10
417.361757079
 20
141.8703403798
 30
0.0
 10
417.3578657334
 20
141.9219590019
 30
0.0
  0
SPLINE
  5
2C0
100
AcDbEntity
  8
0
100
AcDbSpline
 62
6
  6
CONTINUOUS
 70
0
 71
3
 72
11
 73
7
 74
0
 42
0.0000001
 43
0.0000001
 44
0.0000000001
 40
0.0
 40
0.0
 40
0.0
 40
0.0
 40
0.0793518184
 40
0.2718490229
 40
0.578946241
 40
1.0
 40
1.0
 40
1.0
 40
1.0
 10
442.4704908104
 20
140.0495641158
 30
0.0
 10
442.4743106801
 20
140.0496662679
 30
0.0
 10
442.4828293215
 20
140.0627596206
 30
0.0
 10
442.4999078093
 20
140.0821420584
 30
0.0
 10
442.5249643597
 20
140.1201922628
 30
0.0
 10
442.5443587211
 20
140.1489329189
 30
0.0
 10
442.5554493084
 20
140.1659069917
 30
0.0
  0
SPLINE
  5
2C1
100
AcDbEntity
  8
0
100
AcDbSpline
 62
6
  6
CONTINUOUS
 70
0
 71
3
 72
11
 73
7
 74
0
 42
0.0000001
 43
0.0000001
 44
0.0000000001
 40
0.0
 40
0.0
 40
0.0
 40
0.0
 40
0.0793519174
 40
0.2718484024
 40
0.5789474378
 40
1.0
 40
1.0
 40
1.0
 40
1.0
 10
442.4704908107
 20
246.0472394382
 30
0.0
 10
442.4743106856
 20
246.0471372801
 30
0.0
 10
442.4828293001
 20
246.0340439554
 30
0.0
 10
442.4999078562
 20
246.0146614827
 30
0.0
 10
442.5249643612
 20
245.9766112407
 30
0.0
 10
442.544358744
 20
245.9478705556
 30
0.0
 10
442.5554493223
 20
245.9308965417
 30
0.0
  0
SPLINE
  5
2C2
100
AcDbEntity
  8
0
100
AcDbSpline
 62
6
  6
CONTINUOUS
 70
0
 71
3
 72
9
 73
5
 74
0
 42
0.0000001
 43
0.0000001
 44
0.0000000001
 40
0.0
 40
0.0
 40
0.0
 40
0.0
 40
0.3399176957
 40
1.0
 40
1.0
 40
1.0
 40
1.0
 10
434.507065829
 20
246.0366416201
 30
0.0
 10
434.5070659206
 20
246.0286771533
 30
0.0
 10
434.4864119353
 20
246.0100032816
 30
0.0
 10
434.4654156776
 20
246.0030659482
 30
0.0
 10
434.4507846581
 20
245.9980525916
 30
0.0
  0
SPLINE
  5
2C3
100
AcDbEntity
  8
0
100
AcDbSpline
 62
6
  6
CONTINUOUS
 70
0
 71
3
 72
9
 73
5
 74
0
 42
0.0000001
 43
0.0000001
 44
0.0000000001
 40
0.0
 40
0.0
 40
0.0
 40
0.0
 40
0.3982081695
 40
1.0
 40
1.0
 40
1.0
 40
1.0
 10
434.4507846581
 20
245.9980525916
 30
0.0
 10
434.41373957
 20
245.9853589968
 30
0.0
 10
434.3172693992
 20
245.964357999
 30
0.0
 10
434.2201783662
 20
245.9492773615
 30
0.0
 10
434.1615483817
 20
245.9412294648
 30
0.0
  0
SPLINE
  5
2C4
100
AcDbEntity
  8
0
100
AcDbSpline
 62
6
  6
CONTINUOUS
 70
0
 71
3
 72
11
 73
7
 74
0
 42
0.0000001
 43
0.0000001
 44
0.0000000001
 40
0.0
 40
0.0
 40
0.0
 40
0.0
 40
0.1419127876
 40
0.3577577219
 40
0.6450414539
 40
1.0
 40
1.0
 40
1.0
 40
1.0
 10
434.1615483817
 20
245.9412294648
 30
0.0
 10
433.9297412057
 20
245.9094102477
 30
0.0
 10
433.3415965212
 20
245.8590543739
 30
0.0
 10
432.2801591481
 20
245.7946783038
 30
0.0
 10
430.8665918373
 20
245.7330528444
 30
0.0
 10
429.808306693
 20
245.6971740375
 30
0.0
 10
429.2233362933
 20
245.6793064964
 30
0.0
  0
SPLINE
  5
2C5
100
AcDbEntity
  8
0
100
AcDbSpline
 62
6
  6
CONTINUOUS
 70
0
 71
3
 72
18
 73
14
 74
0
 42
0.0000001
 43
0.0000001
 44
0.0000000001
 40
0.0
 40
0.0
 40
0.0
 40
0.0
 40
0.0060469202
 40
0.0188726044
 40
0.0393511931
 40
0.0676379491
 40
0.1037673682
 40
0.1477094061
 40
0.2588085931
 40
0.4004168473
 40
0.5718033044
 40
0.7720944528
 40
1.0
 40
1.0
 40
1.0
 40
1.0
 10
434.3570658287
 20
246.0367074096
 30
0.0
 10
434.3570659807
 20
246.0471174555
 30
0.0
 10
434.324183127
 20
246.0696461645
 30
0.0
 10
434.2634580375
 20
246.087176444
 30
0.0
 10
434.1575655994
 20
246.110900911
 30
0.0
 10
434.0139947337
 20
246.1325146097
 30
0.0
 10
433.828455668
 20
246.155361158
 30
0.0
 10
433.5011164771
 20
246.1878866268
 30
0.0
 10
432.9917204056
 20
246.2265751005
 30
0.0
 10
432.2629318999
 20
246.2696661552
 30
0.0
 10
431.3802596375
 20
246.3118202855
 30
0.0
 10
430.3488581419
 20
246.3526791153
 30
0.0
 10
429.6121039583
 20
246.3773161791
 30
0.0
 10
429.2199441841
 20
246.3895219889
 30
0.0
  0
LINE
  5
2C6
100
AcDbEntity
  8
0
100
AcDbLine
 62
6
  6
CONTINUOUS
 10
429.2199441841
 20
246.3895219889
 11
429.0896974438
 21
246.3935422219
  0
SPLINE
  5
2C7
100
AcDbEntity
  8
0
100
AcDbSpline
 62
6
  6
CONTINUOUS
 70
0
 71
3
 72
8
 73
4
 74
0
 42
0.0000001
 43
0.0000001
 44
0.0000000001
 40
0.0
 40
0.0
 40
0.0
 40
0.0
 40
1.0
 40
1.0
 40
1.0
 40
1.0
 10
442.8869032641
 20
235.9382827009
 30
0.0
 10
442.8869032639
 20
236.7376815992
 30
0.0
 10
442.8174105048
 20
237.5392086725
 30
0.0
 10
442.6899197732
 20
238.3283757726
 30
0.0
  0
SPLINE
  5
2C8
100
AcDbEntity
  8
0
100
AcDbSpline
 62
6
  6
CONTINUOUS
 70
0
 71
3
 72
13
 73
9
 74
0
 42
0.0000001
 43
0.0000001
 44
0.0000000001
 40
0.0
 40
0.0
 40
0.0
 40
0.0
 40
0.0645098109
 40
0.1471769422
 40
0.250192848
 40
0.3730201421
 40
0.6672877709
 40
1.0
 40
1.0
 40
1.0
 40
1.0
 10
442.9664995204
 20
142.7257426429
 30
0.0
 10
442.9053832502
 20
142.7779594879
 30
0.0
 10
442.7945831884
 20
142.9295974461
 30
0.0
 10
442.6811154337
 20
143.2214669186
 30
0.0
 10
442.5987340808
 20
143.5981685961
 30
0.0
 10
442.5279816969
 20
144.2431442832
 30
0.0
 10
442.5362488067
 20
145.1803439055
 30
0.0
 10
442.6238109417
 20
145.9579454626
 30
0.0
 10
442.6899197732
 20
146.367231617
 30
0.0
  0
SPLINE
  5
2C9
100
AcDbEntity
  8
0
100
AcDbSpline
 62
6
  6
CONTINUOUS
 70
0
 71
3
 72
13
 73
9
 74
0
 42
0.0000001
 43
0.0000001
 44
0.0000000001
 40
0.0
 40
0.0
 40
0.0
 40
0.0
 40
0.325171054
 40
0.6173585917
 40
0.741226929
 40
0.8465060065
 40
0.9322969858
 40
1.0
 40
1.0
 40
1.0
 40
1.0
 10
442.6899197732
 20
238.3283757726
 30
0.0
 10
442.6233472299
 20
238.7404595395
 30
0.0
 10
442.5356935952
 20
239.5294497726
 30
0.0
 10
442.5284346588
 20
240.4837393845
 30
0.0
 10
442.5992337018
 20
241.1499233886
 30
0.0
 10
442.6820125755
 20
241.5467516044
 30
0.0
 10
442.795794973
 20
241.8600923129
 30
0.0
 10
442.9052516277
 20
242.0283493088
 30
0.0
 10
442.9664986053
 20
242.0900127535
 30
0.0
  0
SPLINE
  5
2CA
100
AcDbEntity
  8
0
100
AcDbSpline
 62
9
  6
CONTINUOUS
 70
0
 71
3
 72
20
 73
16
 74
0
 42
0.0000001
 43
0.0000001
 44
0.0000000001
 40
0.0
 40
0.0
 40
0.0
 40
0.0
 40
0.0015864413
 40
0.0053217023
 40
0.0197515539
 40
0.0434902345
 40
0.0763650575
 40
0.1180546283
 40
0.1682058559
 40
0.2263419062
 40
0.2919248578
 40
0.4429609456
 40
0.6156428362
 40
0.8037591845
 40
1.0
 40
1.0
 40
1.0
 40
1.0
 10
391.3070658296
 20
238.3697159228
 30
0.0
 10
391.307065829
 20
238.3686849652
 30
0.0
 10
391.3111422076
 20
238.3668533183
 30
0.0
 10
391.3224350567
 20
238.3641848303
 30
0.0
 10
391.3507369837
 20
238.360699798
 30
0.0
 10
391.3960386233
 20
238.3571272997
 30
0.0
 10
391.4601353381
 20
238.3534207732
 30
0.0
 10
391.5409838795
 20
238.3498581981
 30
0.0
 10
391.6384307349
 20
238.3464292117
 30
0.0
 10
391.751361419
 20
238.3431996974
 30
0.0
 10
391.9298696184
 20
238.3390018987
 30
0.0
 10
392.1828205258
 20
238.3346524757
 30
0.0
 10
392.5154195615
 20
238.3308385801
 30
0.0
 10
392.8774070802
 20
238.328406364
 30
0.0
 10
393.1271837775
 20
238.3277687862
 30
0.0
 10
393.254711933
 20
238.3276986049
 30
0.0
  0
SPLINE
  5
2CB
100
AcDbEntity
  8
0
100
AcDbSpline
 62
9
  6
CONTINUOUS
 70
0
 71
3
 72
11
 73
7
 74
0
 42
0.0000001
 43
0.0000001
 44
0.0000000001
 40
0.0
 40
0.0
 40
0.0
 40
0.0
 40
0.2545418687
 40
0.5063354561
 40
0.7544482009
 40
1.0
 40
1.0
 40
1.0
 40
1.0
 10
393.254711933
 20
242.1279531098
 30
0.0
 10
392.9994141284
 20
242.12152694
 30
0.0
 10
392.4888655511
 20
242.0132882259
 30
0.0
 10
391.8429608128
 20
241.5854331825
 30
0.0
 10
391.4090942673
 20
240.9532795228
 30
0.0
 10
391.3070657706
 20
240.4524665175
 30
0.0
 10
391.3070658296
 20
240.2061074725
 30
0.0
  0
SPLINE
  5
2CC
100
AcDbEntity
  8
0
100
AcDbSpline
 62
6
  6
CONTINUOUS
 70
0
 71
3
 72
14
 73
10
 74
0
 42
0.0000001
 43
0.0000001
 44
0.0000000001
 40
0.0
 40
0.0
 40
0.0
 40
0.0
 40
0.3684826531
 40
0.5239177444
 40
0.6579904314
 40
0.7702869433
 40
0.8617778685
 40
0.9359234892
 40
1.0
 40
1.0
 40
1.0
 40
1.0
 10
419.7817120661
 20
244.0266896918
 30
0.0
 10
419.4402756849
 20
243.9773647569
 30
0.0
 10
418.9563853984
 20
243.889408639
 30
0.0
 10
418.3640365205
 20
243.7184348939
 30
0.0
 10
418.0122103674
 20
243.5836333223
 30
0.0
 10
417.7310567784
 20
243.4364859781
 30
0.0
 10
417.5230732841
 20
243.2771618601
 30
0.0
 10
417.3896666511
 20
243.1036538598
 30
0.0
 10
417.3570645696
 20
242.9731749573
 30
0.0
 10
417.3570658296
 20
242.9131852517
 30
0.0
  0
SPLINE
  5
2CD
100
AcDbEntity
  8
0
100
AcDbSpline
 62
9
  6
CONTINUOUS
 70
0
 71
3
 72
11
 73
7
 74
0
 42
0.0000001
 43
0.0000001
 44
0.0000000001
 40
0.0
 40
0.0
 40
0.0
 40
0.0
 40
0.2425596626
 40
0.5030649098
 40
0.7616470156
 40
1.0
 40
1.0
 40
1.0
 40
1.0
 10
393.254760014
 20
243.3514935681
 30
0.0
 10
393.0089916582
 20
243.3451847331
 30
0.0
 10
392.4970105676
 20
243.2380273145
 30
0.0
 10
391.8379050514
 20
242.7984671281
 30
0.0
 10
391.4041009283
 20
242.1399785082
 30
0.0
 10
391.307072218
 20
241.6314143366
 30
0.0
 10
391.3070658325
 20
241.389828751
 30
0.0
  0
SPLINE
  5
2CE
100
AcDbEntity
  8
0
100
AcDbSpline
 62
6
  6
CONTINUOUS
 70
0
 71
3
 72
9
 73
5
 74
0
 42
0.0000001
 43
0.0000001
 44
0.0000000001
 40
0.0
 40
0.0
 40
0.0
 40
0.0
 40
0.278486202
 40
1.0
 40
1.0
 40
1.0
 40
1.0
 10
419.8054275643
 20
140.9858300338
 30
0.0
 10
420.5632165328
 20
140.8955364374
 30
0.0
 10
423.2816861004
 20
140.5491537431
 30
0.0
 10
425.9899682741
 20
140.1258818586
 30
0.0
 10
427.9385093418
 20
139.7904619811
 30
0.0
  0
SPLINE
  5
2CF
100
AcDbEntity
  8
0
100
AcDbSpline
 62
9
  6
CONTINUOUS
 70
0
 71
3
 72
11
 73
7
 74
0
 42
0.0000001
 43
0.0000001
 44
0.0000000001
 40
0.0
 40
0.0
 40
0.0
 40
0.0
 40
0.2475404851
 40
0.5056174563
 40
0.7610362279
 40
1.0
 40
1.0
 40
1.0
 40
1.0
 10
391.3727001995
 20
240.8699015308
 30
0.0
 10
391.4273812878
 20
241.0709298255
 30
0.0
 10
391.6111487802
 20
241.4650366172
 30
0.0
 10
392.0645521201
 20
241.9335819089
 30
0.0
 10
392.6367395872
 20
242.2290569444
 30
0.0
 10
393.05366164
 20
242.3004991074
 30
0.0
 10
393.2547119368
 20
242.3055676283
 30
0.0
  0
SPLINE
  5
2D0
100
AcDbEntity
  8
0
100
AcDbSpline
 62
9
  6
CONTINUOUS
 70
0
 71
3
 72
11
 73
7
 74
0
 42
0.0000001
 43
0.0000001
 44
0.0000000001
 40
0.0
 40
0.0
 40
0.0
 40
0.0
 40
0.2486610948
 40
0.4980695341
 40
0.748602685
 40
1.0
 40
1.0
 40
1.0
 40
1.0
 10
391.3070707749
 20
242.6572458216
 30
0.0
 10
391.307069084
 20
242.9101752998
 30
0.0
 10
391.4080805971
 20
243.4222475193
 30
0.0
 10
391.839898382
 20
244.0720308695
 30
0.0
 10
392.4859523831
 20
244.5138269168
 30
0.0
 10
392.9991011505
 20
244.6260805008
 30
0.0
 10
393.2547288211
 20
244.6326730746
 30
0.0
  0
SPLINE
  5
2D1
100
AcDbEntity
  8
0
100
AcDbSpline
 62
6
  6
CONTINUOUS
 70
0
 71
3
 72
11
 73
7
 74
0
 42
0.0000001
 43
0.0000001
 44
0.0000000001
 40
0.0
 40
0.0
 40
0.0
 40
0.0
 40
0.281877244
 40
0.532213993
 40
0.7626849567
 40
1.0
 40
1.0
 40
1.0
 40
1.0
 10
443.1073305404
 20
242.2391391034
 30
0.0
 10
443.187569173
 20
242.3289816917
 30
0.0
 10
443.3293597421
 20
242.5080928247
 30
0.0
 10
443.4790780783
 20
242.8012702693
 30
0.0
 10
443.532648107
 20
243.1094074211
 30
0.0
 10
443.4930217897
 20
243.3100319691
 30
0.0
 10
443.4595822347
 20
243.4057743038
 30
0.0
  0
SPLINE
  5
2D2
100
AcDbEntity
  8
0
100
AcDbSpline
 62
6
  6
CONTINUOUS
 70
0
 71
3
 72
8
 73
4
 74
0
 42
0.0000001
 43
0.0000001
 44
0.0000000001
 40
0.0
 40
0.0
 40
0.0
 40
0.0
 40
1.0
 40
1.0
 40
1.0
 40
1.0
 10
417.3570658295
 20
242.9131925277
 30
0.0
 10
417.3567845651
 20
242.9048563111
 30
0.0
 10
417.3570844235
 20
242.8965105865
 30
0.0
 10
417.3570658295
 20
242.888169647
 30
0.0
  0
SPLINE
  5
2D3
100
AcDbEntity
  8
0
100
AcDbSpline
 62
6
  6
CONTINUOUS
 70
0
 71
3
 72
9
 73
5
 74
0
 42
0.0000001
 43
0.0000001
 44
0.0000000001
 40
0.0
 40
0.0
 40
0.0
 40
0.0
 40
0.2208331419
 40
1.0
 40
1.0
 40
1.0
 40
1.0
 10
427.9381692178
 20
245.5268423516
 30
0.0
 10
427.367019831
 20
245.3980039716
 30
0.0
 10
424.7754876314
 20
244.8378687157
 30
0.0
 10
422.1623330112
 20
244.3775948793
 30
0.0
 10
420.1186806525
 20
244.075736233
 30
0.0
  0
SPLINE
  5
2D4
100
AcDbEntity
  8
0
100
AcDbSpline
 62
6
  6
CONTINUOUS
 70
0
 71
3
 72
15
 73
11
 74
0
 42
0.0000001
 43
0.0000001
 44
0.0000000001
 40
0.0
 40
0.0
 40
0.0
 40
0.0
 40
0.2492702781
 40
0.49910251
 40
0.6242167021
 40
0.749258112
 40
0.8118040157
 40
0.8745845259
 40
0.937350448
 40
1.0
 40
1.0
 40
1.0
 40
1.0
 10
420.1186806525
 20
244.075736233
 30
0.0
 10
420.0914351406
 20
244.0717119216
 30
0.0
 10
420.0368260512
 20
244.0640319154
 30
0.0
 10
419.9686284131
 20
244.0537867425
 30
0.0
 10
419.9140968147
 20
244.0448581656
 30
0.0
 10
419.8798000745
 20
244.0407939389
 30
0.0
 10
419.8522246169
 20
244.0380702296
 30
0.0
 10
419.8318083292
 20
244.0349165323
 30
0.0
 10
419.8115934368
 20
244.0267588696
 30
0.0
 10
419.7977010787
 20
244.0336309355
 30
0.0
 10
419.790877227
 20
244.0324696617
 30
0.0
  0
SPLINE
  5
2D5
100
AcDbEntity
  8
0
100
AcDbSpline
 62
6
  6
CONTINUOUS
 70
0
 71
3
 72
8
 73
4
 74
0
 42
0.0000001
 43
0.0000001
 44
0.0000000001
 40
0.0
 40
0.0
 40
0.0
 40
0.0
 40
1.0
 40
1.0
 40
1.0
 40
1.0
 10
419.790877227
 20
244.0324696617
 30
0.0
 10
419.787316537
 20
244.0318637083
 30
0.0
 10
419.7839736646
 20
244.0295066071
 30
0.0
 10
419.7817107927
 20
244.026691451
 30
0.0
  0
SPLINE
  5
2D6
100
AcDbEntity
  8
0
100
AcDbSpline
 62
6
  6
CONTINUOUS
 70
0
 71
3
 72
9
 73
5
 74
0
 42
0.0000001
 43
0.0000001
 44
0.0000000001
 40
0.0
 40
0.0
 40
0.0
 40
0.0
 40
0.2437012216
 40
1.0
 40
1.0
 40
1.0
 40
1.0
 10
429.07609835
 20
245.6794566796
 30
0.0
 10
429.0157790643
 20
245.6776157612
 30
0.0
 10
428.768413694
 20
245.6654258857
 30
0.0
 10
428.5220444531
 20
245.6355810233
 30
0.0
 10
428.337267325
 20
245.6050582609
 30
0.0
  0
SPLINE
  5
2D7
100
AcDbEntity
  8
0
100
AcDbSpline
 62
9
  6
CONTINUOUS
 70
0
 71
3
 72
9
 73
5
 74
0
 42
0.0000001
 43
0.0000001
 44
0.0000000001
 40
0.0
 40
0.0
 40
0.0
 40
0.0
 40
0.2516977448
 40
1.0
 40
1.0
 40
1.0
 40
1.0
 10
413.3124277634
 20
245.9880856087
 30
0.0
 10
413.3850525172
 20
245.9897301546
 30
0.0
 10
413.673595552
 20
245.9961565348
 30
0.0
 10
413.9621896207
 20
245.9998784072
 30
0.0
 10
414.1781215216
 20
246.0039426359
 30
0.0
  0
SPLINE
  5
2D8
100
AcDbEntity
  8
0
100
AcDbSpline
 62
9
  6
CONTINUOUS
 70
0
 71
3
 72
9
 73
5
 74
0
 42
0.0000001
 43
0.0000001
 44
0.0000000001
 40
0.0
 40
0.0
 40
0.0
 40
0.0
 40
0.5366466169
 40
1.0
 40
1.0
 40
1.0
 40
1.0
 10
393.2547645483
 20
141.6696725792
 30
0.0
 10
393.2581531291
 20
141.4944240247
 30
0.0
 10
393.2604458399
 20
141.1678017557
 30
0.0
 10
393.2690315768
 20
140.841255562
 30
0.0
 10
393.2695629865
 20
140.6899144641
 30
0.0
  0
SPLINE
  5
2D9
100
AcDbEntity
  8
0
100
AcDbSpline
 62
6
  6
CONTINUOUS
 70
0
 71
3
 72
9
 73
5
 74
0
 42
0.0000001
 43
0.0000001
 44
0.0000000001
 40
0.0
 40
0.0
 40
0.0
 40
0.0
 40
0.4908133632
 40
1.0
 40
1.0
 40
1.0
 40
1.0
 10
393.2585637862
 20
140.6617595541
 30
0.0
 10
393.2545293882
 20
140.6591535171
 30
0.0
 10
393.2547974537
 20
140.6468307118
 30
0.0
 10
393.2547038037
 20
140.6379116841
 30
0.0
 10
393.2546837005
 20
140.6329290368
 30
0.0
  0
SPLINE
  5
2DA
100
AcDbEntity
  8
0
100
AcDbSpline
 62
6
  6
CONTINUOUS
 70
0
 71
3
 72
8
 73
4
 74
0
 42
0.0000001
 43
0.0000001
 44
0.0000000001
 40
0.0
 40
0.0
 40
0.0
 40
0.0
 40
1.0
 40
1.0
 40
1.0
 40
1.0
 10
393.2695644597
 20
140.6899701606
 30
0.0
 10
393.2670378442
 20
140.6801983243
 30
0.0
 10
393.2658634022
 20
140.6687300761
 30
0.0
 10
393.2585637862
 20
140.6617595541
 30
0.0
  0
SPLINE
  5
2DB
100
AcDbEntity
  8
0
100
AcDbSpline
 62
6
  6
CONTINUOUS
 70
0
 71
3
 72
11
 73
7
 74
0
 42
0.0000001
 43
0.0000001
 44
0.0000000001
 40
0.0
 40
0.0
 40
0.0
 40
0.0
 40
0.2322718977
 40
0.4564528835
 40
0.7076291426
 40
1.0
 40
1.0
 40
1.0
 40
1.0
 10
443.4591697031
 20
141.6106758636
 30
0.0
 10
443.492117259
 20
141.6909750934
 30
0.0
 10
443.5332030578
 20
141.8620930124
 30
0.0
 10
443.4778266435
 20
142.1279088839
 30
0.0
 10
443.3263083388
 20
142.375549306
 30
0.0
 10
443.1866391253
 20
142.5242044705
 30
0.0
 10
443.1073363545
 20
142.5993538874
 30
0.0
  0
SPLINE
  5
2DC
100
AcDbEntity
  8
0
100
AcDbSpline
 62
6
  6
CONTINUOUS
 70
0
 71
3
 72
8
 73
4
 74
0
 42
0.0000001
 43
0.0000001
 44
0.0000000001
 40
0.0
 40
0.0
 40
0.0
 40
0.0
 40
1.0
 40
1.0
 40
1.0
 40
1.0
 10
417.3570665021
 20
141.9432177285
 30
0.0
 10
417.357079724
 20
141.9361313431
 30
0.0
 10
417.3567853004
 20
141.9290393515
 30
0.0
 10
417.3570665021
 20
141.9219585352
 30
0.0
  0
SPLINE
  5
2DD
100
AcDbEntity
  8
0
100
AcDbSpline
 62
6
  6
CONTINUOUS
 70
0
 71
3
 72
9
 73
5
 74
0
 42
0.0000001
 43
0.0000001
 44
0.0000000001
 40
0.0
 40
0.0
 40
0.0
 40
0.0
 40
0.2562298494
 40
1.0
 40
1.0
 40
1.0
 40
1.0
 10
442.9664988803
 20
142.7257415926
 30
0.0
 10
442.9787877321
 20
142.7152421847
 30
0.0
 10
443.0265259376
 20
142.6740075065
 30
0.0
 10
443.0732826567
 20
142.6316284889
 30
0.0
 10
443.1073363545
 20
142.5993538874
 30
0.0
  0
SPLINE
  5
2DE
100
AcDbEntity
  8
0
100
AcDbSpline
 62
6
  6
CONTINUOUS
 70
0
 71
3
 72
8
 73
4
 74
0
 42
0.0000001
 43
0.0000001
 44
0.0000000001
 40
0.0
 40
0.0
 40
0.0
 40
0.0
 40
1.0
 40
1.0
 40
1.0
 40
1.0
 10
442.8869032641
 20
148.7575414968
 30
0.0
 10
442.8869032641
 20
147.9580705733
 30
0.0
 10
442.817399901
 20
147.1564733889
 30
0.0
 10
442.6899197732
 20
146.367231617
 30
0.0
  0
SPLINE
  5
2DF
100
AcDbEntity
  8
0
100
AcDbSpline
 62
6
  6
CONTINUOUS
 70
0
 71
3
 72
13
 73
9
 74
0
 42
0.0000001
 43
0.0000001
 44
0.0000000001
 40
0.0
 40
0.0
 40
0.0
 40
0.0
 40
0.0596373211
 40
0.1297639379
 40
0.2181404361
 40
0.3266479426
 40
0.6094934524
 40
1.0
 40
1.0
 40
1.0
 40
1.0
 10
442.4702310753
 20
246.0472200711
 30
0.0
 10
442.4557958449
 20
246.0434818585
 30
0.0
 10
442.4274517195
 20
246.0230904747
 30
0.0
 10
442.4043085102
 20
245.9725097678
 30
0.0
 10
442.3913952859
 20
245.9067453386
 30
0.0
 10
442.3861006885
 20
245.7865848411
 30
0.0
 10
442.4078103269
 20
245.5914509488
 30
0.0
 10
442.4448791432
 20
245.4270014097
 30
0.0
 10
442.4702129229
 20
245.3327049764
 30
0.0
  0
SPLINE
  5
2E0
100
AcDbEntity
  8
0
100
AcDbSpline
 62
6
  6
CONTINUOUS
 70
0
 71
3
 72
9
 73
5
 74
0
 42
0.0000001
 43
0.0000001
 44
0.0000000001
 40
0.0
 40
0.0
 40
0.0
 40
0.0
 40
0.6014588262
 40
1.0
 40
1.0
 40
1.0
 40
1.0
 10
434.162703348
 20
246.1318950961
 30
0.0
 10
434.2210279155
 20
246.1238755234
 30
0.0
 10
434.3176684904
 20
246.1088453388
 30
0.0
 10
434.4136839352
 20
246.0879220481
 30
0.0
 10
434.4505949509
 20
246.0752956237
 30
0.0
  0
SPLINE
  5
2E1
100
AcDbEntity
  8
0
100
AcDbSpline
 62
6
  6
CONTINUOUS
 70
0
 71
3
 72
9
 73
5
 74
0
 42
0.0000001
 43
0.0000001
 44
0.0000000001
 40
0.0
 40
0.0
 40
0.0
 40
0.0
 40
0.6602612427
 40
1.0
 40
1.0
 40
1.0
 40
1.0
 10
434.4505949509
 20
246.0752956237
 30
0.0
 10
434.4652735529
 20
246.0702744057
 30
0.0
 10
434.4863258701
 20
246.0633318622
 30
0.0
 10
434.5070657373
 20
246.0446242108
 30
0.0
 10
434.507065829
 20
246.0366416201
 30
0.0
  0
SPLINE
  5
2E2
100
AcDbEntity
  8
0
100
AcDbSpline
 62
6
  6
CONTINUOUS
 70
0
 71
3
 72
9
 73
5
 74
0
 42
0.0000001
 43
0.0000001
 44
0.0000000001
 40
0.0
 40
0.0
 40
0.0
 40
0.0
 40
0.6716401336
 40
1.0
 40
1.0
 40
1.0
 40
1.0
 10
442.5554514737
 20
245.153856277
 30
0.0
 10
442.5350605338
 20
245.1932686018
 30
0.0
 10
442.5063206808
 20
245.252436103
 30
0.0
 10
442.4759546866
 20
245.3117840864
 30
0.0
 10
442.4702129229
 20
245.3327049764
 30
0.0
  0
SPLINE
  5
2E3
100
AcDbEntity
  8
0
100
AcDbSpline
 62
9
  6
CONTINUOUS
 70
0
 71
3
 72
11
 73
7
 74
0
 42
0.0000001
 43
0.0000001
 44
0.0000000001
 40
0.0
 40
0.0
 40
0.0
 40
0.0
 40
0.2507464995
 40
0.5010293271
 40
0.7507115863
 40
1.0
 40
1.0
 40
1.0
 40
1.0
 10
393.2695644597
 20
140.6899701606
 30
0.0
 10
393.0126030418
 20
140.6947910309
 30
0.0
 10
392.4956028429
 20
140.8052300959
 30
0.0
 10
391.8442838816
 20
141.2492422688
 30
0.0
 10
391.4088855589
 20
141.9047515223
 30
0.0
 10
391.3070708111
 20
142.4216913112
 30
0.0
 10
391.3070710677
 20
142.6772034589
 30
0.0
  0
SPLINE
  5
2E4
100
AcDbEntity
  8
0
100
AcDbSpline
 62
9
  6
CONTINUOUS
 70
0
 71
3
 72
11
 73
7
 74
0
 42
0.0000001
 43
0.0000001
 44
0.0000000001
 40
0.0
 40
0.0
 40
0.0
 40
0.0
 40
0.2417402366
 40
0.5018766349
 40
0.7608354943
 40
1.0
 40
1.0
 40
1.0
 40
1.0
 10
393.2547646074
 20
141.6696738173
 30
0.0
 10
393.0089197665
 20
141.6760306579
 30
0.0
 10
392.4962434818
 20
141.7842325287
 30
0.0
 10
391.83705044
 20
142.2276484333
 30
0.0
 10
391.4038649722
 20
142.8908988623
 30
0.0
 10
391.3070726987
 20
143.4025133006
 30
0.0
 10
391.3070657725
 20
143.6458199717
 30
0.0
  0
SPLINE
  5
2E5
100
AcDbEntity
  8
0
100
AcDbSpline
 62
9
  6
CONTINUOUS
 70
0
 71
3
 72
11
 73
7
 74
0
 42
0.0000001
 43
0.0000001
 44
0.0000000001
 40
0.0
 40
0.0
 40
0.0
 40
0.0
 40
0.2412561345
 40
0.4999343905
 40
0.7583509332
 40
1.0
 40
1.0
 40
1.0
 40
1.0
 10
393.2547119189
 20
142.5362188636
 30
0.0
 10
393.0248618252
 20
142.5420766987
 30
0.0
 10
392.5468492352
 20
142.6354163585
 30
0.0
 10
391.915708471
 20
143.0200408572
 30
0.0
 10
391.4682328939
 20
143.609972418
 30
0.0
 10
391.336022276
 20
144.0807162171
 30
0.0
 10
391.3149810073
 20
144.310052189
 30
0.0
  0
SPLINE
  5
2E6
100
AcDbEntity
  8
0
100
AcDbSpline
 62
9
  6
CONTINUOUS
 70
0
 71
3
 72
11
 73
7
 74
0
 42
0.0000001
 43
0.0000001
 44
0.0000000001
 40
0.0
 40
0.0
 40
0.0
 40
0.0
 40
0.2469555503
 40
0.4960264453
 40
0.7472620897
 40
1.0
 40
1.0
 40
1.0
 40
1.0
 10
391.3726809171
 20
144.1368346818
 30
0.0
 10
391.4270739275
 20
143.9353832005
 30
0.0
 10
391.6052173388
 20
143.546149327
 30
0.0
 10
392.0456512841
 20
143.0789937065
 30
0.0
 10
392.6142280772
 20
142.7709383944
 30
0.0
 10
393.0412297368
 20
142.692817425
 30
0.0
 10
393.254711933
 20
142.6873837979
 30
0.0
  0
SPLINE
  5
2E7
100
AcDbEntity
  8
0
100
AcDbSpline
 62
9
  6
CONTINUOUS
 70
0
 71
3
 72
20
 73
16
 74
0
 42
0.0000001
 43
0.0000001
 44
0.0000000001
 40
0.0
 40
0.0
 40
0.0
 40
0.0
 40
0.1962166405
 40
0.3842655571
 40
0.5569161201
 40
0.7079601855
 40
0.773554787
 40
0.8317157008
 40
0.8818839041
 40
0.9235956
 40
0.9564910216
 40
0.9802390089
 40
0.9946755987
 40
0.9984128876
 40
1.0
 40
1.0
 40
1.0
 40
1.0
 10
393.254711933
 20
146.3665544481
 30
0.0
 10
393.1271995241
 20
146.3666246207
 30
0.0
 10
392.8774824288
 20
146.3672617177
 30
0.0
 10
392.5155748973
 20
146.3696930513
 30
0.0
 10
392.183034948
 20
146.3735058489
 30
0.0
 10
391.9300916745
 20
146.3778528948
 30
0.0
 10
391.7515546147
 20
146.3820511767
 30
0.0
 10
391.6385891702
 20
146.3852795065
 30
0.0
 10
391.5411007311
 20
146.3887094278
 30
0.0
 10
391.4602135815
 20
146.3922729556
 30
0.0
 10
391.3960825922
 20
146.3959795878
 30
0.0
 10
391.3507581281
 20
146.3995548415
 30
0.0
 10
391.3224429948
 20
146.4030398362
 30
0.0
 10
391.3111455138
 20
146.4057092501
 30
0.0
 10
391.3070659941
 20
146.4075402311
 30
0.0
 10
391.3070658296
 20
146.4085716245
 30
0.0
  0
SPLINE
  5
2E8
100
AcDbEntity
  8
0
100
AcDbSpline
 62
9
  6
CONTINUOUS
 70
0
 71
3
 72
9
 73
5
 74
0
 42
0.0000001
 43
0.0000001
 44
0.0000000001
 40
0.0
 40
0.0
 40
0.0
 40
0.0
 40
0.3361264325
 40
1.0
 40
1.0
 40
1.0
 40
1.0
 10
393.2546793358
 20
142.536139014
 30
0.0
 10
393.2544646169
 20
142.4390144361
 30
0.0
 10
393.254197536
 20
142.1500629551
 30
0.0
 10
393.2542403118
 20
141.8611009815
 30
0.0
 10
393.2562082499
 20
141.6692826705
 30
0.0
  0
SPLINE
  5
2E9
100
AcDbEntity
  8
0
100
AcDbSpline
 62
6
  6
CONTINUOUS
 70
0
 71
3
 72
8
 73
4
 74
0
 42
0.0000001
 43
0.0000001
 44
0.0000000001
 40
0.0
 40
0.0
 40
0.0
 40
0.0
 40
1.0
 40
1.0
 40
1.0
 40
1.0
 10
443.4595822347
 20
243.4057743038
 30
0.0
 10
443.4363862615
 20
243.4722074455
 30
0.0
 10
443.4075116848
 20
243.5368389014
 30
0.0
 10
443.3743567123
 20
243.5989046994
 30
0.0
  0
SPLINE
  5
2EA
100
AcDbEntity
  8
0
100
AcDbSpline
 62
6
  6
CONTINUOUS
 70
0
 71
3
 72
14
 73
10
 74
0
 42
0.0000001
 43
0.0000001
 44
0.0000000001
 40
0.0
 40
0.0
 40
0.0
 40
0.0
 40
0.056698285
 40
0.1256715756
 40
0.2146620612
 40
0.3267610834
 40
0.4625403956
 40
0.6212724823
 40
1.0
 40
1.0
 40
1.0
 40
1.0
 10
417.3570658295
 20
141.9220629813
 30
0.0
 10
417.3570660933
 20
141.8706360646
 30
0.0
 10
417.3919924101
 20
141.7559425953
 30
0.0
 10
417.5273051521
 20
141.6108519415
 30
0.0
 10
417.7347103825
 20
141.478078083
 30
0.0
 10
418.0154936248
 20
141.3554227113
 30
0.0
 10
418.3672755209
 20
141.2432582669
 30
0.0
 10
418.9615918382
 20
141.1013295271
 30
0.0
 10
419.4446178721
 20
141.0289555062
 30
0.0
 10
419.7857370678
 20
140.9884439777
 30
0.0
  0
SPLINE
  5
2EB
100
AcDbEntity
  8
0
100
AcDbSpline
 62
6
  6
CONTINUOUS
 70
0
 71
3
 72
9
 73
5
 74
0
 42
0.0000001
 43
0.0000001
 44
0.0000000001
 40
0.0
 40
0.0
 40
0.0
 40
0.0
 40
0.2446440359
 40
1.0
 40
1.0
 40
1.0
 40
1.0
 10
443.1073305404
 20
242.2391391034
 30
0.0
 10
443.0961883874
 20
242.2266617942
 30
0.0
 10
443.0502515769
 20
242.1760108793
 30
0.0
 10
443.002894867
 20
242.1266547222
 30
0.0
 10
442.9664969864
 20
242.090009819
 30
0.0
  0
SPLINE
  5
2EC
100
AcDbEntity
  8
0
100
AcDbSpline
 62
6
  6
CONTINUOUS
 70
0
 71
3
 72
25
 73
21
 74
0
 42
0.0000001
 43
0.0000001
 44
0.0000000001
 40
0.0
 40
0.0
 40
0.0
 40
0.0
 40
0.0015739523
 40
0.0053121438
 40
0.0113932347
 40
0.0198307553
 40
0.0306129174
 40
0.0437219625
 40
0.0591322075
 40
0.0768029562
 40
0.1187517259
 40
0.1691789662
 40
0.2276037775
 40
0.2934696108
 40
0.3661297898
 40
0.4448869367
 40
0.5289899567
 40
0.6176249024
 40
0.8050549428
 40
1.0
 40
1.0
 40
1.0
 40
1.0
 10
424.256996633
 20
245.7723572251
 30
0.0
 10
424.2569933005
 20
245.7807593285
 30
0.0
 10
424.2231294955
 20
245.7953856801
 30
0.0
 10
424.17032163
 20
245.8070192836
 30
0.0
 10
424.0702856107
 20
245.8222969211
 30
0.0
 10
423.9374823549
 20
245.8357880501
 30
0.0
 10
423.7648269623
 20
245.8495455508
 30
0.0
 10
423.5556391242
 20
245.8624779084
 30
0.0
 10
423.3092985354
 20
245.8748489523
 30
0.0
 10
422.9091375441
 20
245.8912788817
 30
0.0
 10
422.3219148832
 20
245.9089458696
 30
0.0
 10
421.517080695
 20
245.9256409408
 30
0.0
 10
420.5844749648
 20
245.9383196023
 30
0.0
 10
419.5331364604
 20
245.9465533524
 30
0.0
 10
418.3732314856
 20
245.9499100579
 30
0.0
 10
417.1159698253
 20
245.9480012495
 30
0.0
 10
415.7734510321
 20
245.940460364
 30
0.0
 10
413.8508776341
 20
245.9221831351
 30
0.0
 10
411.336790265
 20
245.8838520245
 30
0.0
 10
409.2960843478
 20
245.8378925519
 30
0.0
 10
408.2557812351
 20
245.8106541402
 30
0.0
  0
ENDSEC
  0
SECTION
  2
OBJECTS
  0
DICTIONARY
  5
C
100
AcDbDictionary
280
0
281
1
  3
ACAD_GROUP
350
D
  3
ACAD_MLINESTYLE
350
17
  3
ACAD_LAYOUT
350
1A
  3
ACAD_PLOTSETTINGS
350
19
  3
ACAD_PLOTSTYLENAME
350
E
  0
DICTIONARY
  5
D
102
{ACAD_REACTORS
330
C
102
}
100
AcDbDictionary
280
0
281
1
  0
ACDBDICTIONARYWDFLT
  5
E
102
{ACAD_REACTORS
330
C
102
}
100
AcDbDictionary
281
1
  3
Normal
350
F
100
AcDbDictionaryWithDefault
340
F
  0
DICTIONARY
  5
17
102
{ACAD_REACTORS
330
C
102
}
100
AcDbDictionary
280
0
281
1
  3
Standard
350
18
  0
DICTIONARY
  5
19
102
{ACAD_REACTORS
330
C
102
}
100
AcDbDictionary
281
1
  0
DICTIONARY
  5
1A
102
{ACAD_REACTORS
330
C
102
}
100
AcDbDictionary
281
1
  3
Model
350
2ED
  3
Layout1
350
2EE
  0
ACDBPLACEHOLDER
  5
F
102
{ACAD_REACTORS
330
E
102
}
  0
MLINESTYLE
  5
18
102
{ACAD_REACTORS
330
17
102
}
100
AcDbMlineStyle
  2
STANDARD
 70
0
  3

 62
256
 51
90.0
 52
90.0
 71
2
 49
0.5
 62
256
  6
BYLAYER
 49
-0.5
 62
256
  6
BYLAYER
  0
LAYOUT
  5
2ED
102
{ACAD_REACTORS
330
1A
102
}
100
AcDbPlotSettings
  1

  2
none_device
  4
ANSI_C_(22.00_x_17.00_Inches)
  6

 40
0.0
 41
0.0
 42
0.0
 43
0.0
 44
558.8
 45
431.8
 46
0.0
 47
0.0
 48
0.0
 49
0.0
140
0.0
141
0.0
142
1.0
143
1.0
 70
1024
 72
1
 73
0
 74
0
  7

 75
0
147
1.0
148
0.0
149
0.0
100
AcDbLayout
  1
Model
 70
0
 71
0
 10
0.0
 20
0.0
 11
558.8
 21
431.8
 12
0.0
 22
0.0
 32
0.0
 14
0.0
 24
0.0
 34
0.0
 15
0.0
 25
0.0
 35
0.0
146
0.0
 13
0.0
 23
0.0
 33
0.0
 16
1.0
 26
0.0
 36
0.0
 17
0.0
 27
1.0
 37
0.0
 76
0
330
217
345
0
346
0
  0
LAYOUT
  5
2EE
102
{ACAD_REACTORS
330
1A
102
}
100
AcDbPlotSettings
  1

  2
none_device
  4
ANSI_C_(22.00_x_17.00_Inches)
  6

 40
0.0
 41
0.0
 42
0.0
 43
0.0
 44
558.8
 45
431.8
 46
0.0
 47
0.0
 48
0.0
 49
0.0
140
0.0
141
0.0
142
1.0
143
1.0
 70
0
 72
1
 73
0
 74
0
  7

 75
0
147
1.0
148
0.0
149
0.0
100
AcDbLayout
  1
Layout1
 70
0
 71
1
 10
0.0
 20
0.0
 11
558.8
 21
431.8
 12
0.0
 22
0.0
 32
0.0
 14
0.0
 24
0.0
 34
0.0
 15
0.0
 25
0.0
 35
0.0
146
0.0
 13
0.0
 23
0.0
 33
0.0
 16
1.0
 26
0.0
 36
0.0
 17
0.0
 27
1.0
 37
0.0
 76
0
330
218
345
0
346
0
  0
ENDSEC
  0
EOF
