999
DXF file: C:\Users\sesa63760\Dev\_Creo\CAD\MCADID0001850_3D-CAD\drw0001_1.dxf
999
Pro/ENGINEER 2019471 by Parametric Technology Corporation
  0
SECTION
  2
HEADER
  9
$ACADVER
  1
AC1024
  9
$DWGCODEPAGE
  3
ANSI_1252
  9
$EXTMAX
 10
112.2698286281
 20
158.7816147741
 30
0.0
  9
$EXTMIN
 10
0.0
 20
0.0
 30
0.0
  9
$LIMMIN
 10
0.0
 20
0.0
  9
$LIMMAX
 10
112.2698286281
 20
158.7816147741
  9
$VIEWCTR
 10
56.1349143141
 20
79.390807387
  9
$VIEWSIZE
 40
158.7816147741
  9
$CLAYER
  8
0
  9
$LTSCALE
 40
10.3502089631
  9
$CELTYPE
  6
BYLAYER
  9
$DIMSCALE
 40
1.0
  9
$DIMASZ
 40
1.3365455789
  9
$DIMEXO
 40
1.0
  9
$DIMDLI
 40
7.1510534654
  9
$DIMEXE
 40
1.0
  9
$DIMCEN
 40
1.6936705576
  9
$DIMLFAC
 40
1.0
  9
$DIMBLK
  1
_FILLED
  9
$DIMALT
 70
0
  9
$DIMALTF
 40
0.0393700787
  9
$DIMTXT
 40
1.8711638105
  9
$DIMTOL
 70
1
  9
$DIMLIM
 70
0
  9
$DIMTFAC
 40
1.0
  9
$DIMTP
 40
0.01
  9
$DIMTM
 40
0.01
  9
$DIMGAP
 40
0.625
  9
$DIMDSEP
 70
46
  9
$AUNITS
 70
0
  9
$PDMODE
 70
3
  9
$PDSIZE
 40
0.3125
  9
$HANDSEED
  5
72D
  9
$TILEMODE
 70
1
  9
$MEASUREMENT
 70
1
  9
$INSUNITS
 70
4
  0
ENDSEC
  0
SECTION
  2
CLASSES
  0
CLASS
  1
ACDBDICTIONARYWDFLT
  2
AcDbDictionaryWithDefault
  3
AutoCAD 2000
 90
0
 91
1
280
0
281
0
  0
CLASS
  1
ACDBPLACEHOLDER
  2
AcDbPlaceHolder
  3
AutoCAD 2000
 90
0
 91
1
280
0
281
0
  0
CLASS
  1
LAYOUT
  2
AcDbLayout
  3
AutoCAD 2000
 90
0
 91
0
280
0
281
0
  0
ENDSEC
  0
SECTION
  2
TABLES
  0
TABLE
  2
VPORT
  5
8
100
AcDbSymbolTable
 70
2
  0
VPORT
  5
1F4
100
AcDbSymbolTableRecord
100
AcDbViewportTableRecord
  2
*ACTIVE
 70
0
 10
0.0
 20
0.0
 11
1.0
 21
1.0
 12
56.1349143141
 22
79.390807387
 13
0.0
 23
0.0
 14
1.0
 24
1.0
 15
0.0
 25
0.0
 16
0.0
 26
0.0
 36
1.0
 17
0.0
 27
0.0
 37
0.0
 40
158.7816147741
 41
0.7070707071
 42
50.0
 43
0.0
 44
0.0
 50
0.0
 51
0.0
 71
0
 72
100
 73
1
 74
1
 75
0
 76
0
 77
0
 78
0
  0
ENDTAB
  0
TABLE
  2
LTYPE
  5
5
100
AcDbSymbolTable
 70
6
  0
LTYPE
  5
14
100
AcDbSymbolTableRecord
100
AcDbLinetypeTableRecord
  2
BYBLOCK
 70
0
  3

 72
65
 73
0
 40
0.0
  0
LTYPE
  5
15
100
AcDbSymbolTableRecord
100
AcDbLinetypeTableRecord
  2
BYLAYER
 70
0
  3

 72
65
 73
0
 40
0.0
  0
LTYPE
  5
16
100
AcDbSymbolTableRecord
100
AcDbLinetypeTableRecord
  2
CONTINUOUS
 70
64
  3
Solid line
 72
65
 73
0
 40
0.0
  0
LTYPE
  5
1F5
100
AcDbSymbolTableRecord
100
AcDbLinetypeTableRecord
  2
CENTER
 70
64
  3
____ _ ____ _ ____ _ ____ _ ____ _ ____ _ ____
 72
65
 73
4
 40
0.6
 49
0.375
 74
0
 49
-0.075
 74
0
 49
0.075
 74
0
 49
-0.075
 74
0
  0
LTYPE
  5
1F6
100
AcDbSymbolTableRecord
100
AcDbLinetypeTableRecord
  2
HIDDEN
 70
64
  3
- - - - - - - - - - - - - - - - - - - -
 72
65
 73
2
 40
0.2
 49
0.1
 74
0
 49
-0.1
 74
0
  0
LTYPE
  5
1F7
100
AcDbSymbolTableRecord
100
AcDbLinetypeTableRecord
  2
PHANTOM
 70
64
  3
_____ _ _ _____ _ _ _____ _ _ _____
 72
65
 73
6
 40
0.8
 49
0.45
 74
0
 49
-0.05
 74
0
 49
0.1
 74
0
 49
-0.05
 74
0
 49
0.1
 74
0
 49
-0.05
 74
0
  0
LTYPE
  5
1F8
100
AcDbSymbolTableRecord
100
AcDbLinetypeTableRecord
  2
DOT
 70
64
  3
. . . . . . . . . . . . . . . . . . . .
 72
65
 73
2
 40
0.2
 49
0.1
 74
0
 49
-0.1
 74
0
  0
LTYPE
  5
1F9
100
AcDbSymbolTableRecord
100
AcDbLinetypeTableRecord
  2
DASHED
 70
64
  3
- - - - - - - - - - - - - - - - - - - -
 72
65
 73
2
 40
0.2
 49
0.1
 74
0
 49
-0.1
 74
0
  0
ENDTAB
  0
TABLE
  2
LAYER
  5
2
100
AcDbSymbolTable
 70
36
  0
LAYER
  5
10
100
AcDbSymbolTableRecord
100
AcDbLayerTableRecord
  2
0
 70
0
 62
7
  6
CONTINUOUS
370
-3
390
F
  0
LAYER
  5
1FA
100
AcDbSymbolTableRecord
100
AcDbLayerTableRecord
  2
DEFAULT_1
 70
0
 62
7
  6
CENTER
370
-3
390
F
  0
LAYER
  5
1FB
100
AcDbSymbolTableRecord
100
AcDbLayerTableRecord
  2
DEFAULT_2
 70
0
 62
8
  6
HIDDEN
370
-3
390
F
  0
LAYER
  5
1FC
100
AcDbSymbolTableRecord
100
AcDbLayerTableRecord
  2
DEFAULT_3
 70
0
 62
7
  6
PHANTOM
370
-3
390
F
  0
LAYER
  5
1FD
100
AcDbSymbolTableRecord
100
AcDbLayerTableRecord
  2
00_COMPONENTS
 70
0
 62
7
  6
CONTINUOUS
370
-3
390
F
  0
LAYER
  5
1FE
100
AcDbSymbolTableRecord
100
AcDbLayerTableRecord
  2
01_1_DEFAULT_DATUMS
 70
0
 62
7
  6
CONTINUOUS
370
-3
390
F
  0
LAYER
  5
1FF
100
AcDbSymbolTableRecord
100
AcDbLayerTableRecord
  2
01_PLANES
 70
0
 62
7
  6
CONTINUOUS
370
-3
390
F
  0
LAYER
  5
200
100
AcDbSymbolTableRecord
100
AcDbLayerTableRecord
  2
02_COORD_SYS
 70
0
 62
7
  6
CONTINUOUS
370
-3
390
F
  0
LAYER
  5
201
100
AcDbSymbolTableRecord
100
AcDbLayerTableRecord
  2
03_AXES
 70
0
 62
7
  6
CONTINUOUS
370
-3
390
F
  0
LAYER
  5
202
100
AcDbSymbolTableRecord
100
AcDbLayerTableRecord
  2
04_POINTS
 70
0
 62
7
  6
CONTINUOUS
370
-3
390
F
  0
LAYER
  5
203
100
AcDbSymbolTableRecord
100
AcDbLayerTableRecord
  2
05_CURVES
 70
0
 62
7
  6
CONTINUOUS
370
-3
390
F
  0
LAYER
  5
204
100
AcDbSymbolTableRecord
100
AcDbLayerTableRecord
  2
06_SURFS
 70
0
 62
7
  6
CONTINUOUS
370
-3
390
F
  0
LAYER
  5
205
100
AcDbSymbolTableRecord
100
AcDbLayerTableRecord
  2
07_COSMETICS
 70
0
 62
7
  6
CONTINUOUS
370
-3
390
F
  0
LAYER
  5
206
100
AcDbSymbolTableRecord
100
AcDbLayerTableRecord
  2
10_NOTES
 70
0
 62
7
  6
CONTINUOUS
370
-3
390
F
  0
LAYER
  5
207
100
AcDbSymbolTableRecord
100
AcDbLayerTableRecord
  2
11_NOTES_PUB
 70
0
 62
7
  6
CONTINUOUS
370
-3
390
F
  0
LAYER
  5
208
100
AcDbSymbolTableRecord
100
AcDbLayerTableRecord
  2
13_REF_GTOL
 70
0
 62
7
  6
CONTINUOUS
370
-3
390
F
  0
LAYER
  5
209
100
AcDbSymbolTableRecord
100
AcDbLayerTableRecord
  2
16_MISC
 70
0
 62
7
  6
CONTINUOUS
370
-3
390
F
  0
LAYER
  5
20A
100
AcDbSymbolTableRecord
100
AcDbLayerTableRecord
  2
17_NO_PRINT
 70
0
 62
7
  6
CONTINUOUS
370
-3
390
F
  0
LAYER
  5
20B
100
AcDbSymbolTableRecord
100
AcDbLayerTableRecord
  2
18_DATUM_CAMS_JOINTS
 70
0
 62
7
  6
CONTINUOUS
370
-3
390
F
  0
LAYER
  5
20C
100
AcDbSymbolTableRecord
100
AcDbLayerTableRecord
  2
19_DATUM_FUNCTIONAL
 70
0
 62
7
  6
CONTINUOUS
370
-3
390
F
  0
LAYER
  5
20D
100
AcDbSymbolTableRecord
100
AcDbLayerTableRecord
  2
20_DATUM_KINEMATIC_SCHEME
 70
0
 62
7
  6
CONTINUOUS
370
-3
390
F
  0
ENDTAB
  0
TABLE
  2
STYLE
  5
3
100
AcDbSymbolTable
 70
1
  0
STYLE
  5
11
100
AcDbSymbolTableRecord
100
AcDbTextStyleTableRecord
  2
STANDARD
 70
0
 40
0.0
 41
0.8
 50
0.0
 71
0
 42
0.2
  3
txt
  4

  0
STYLE
  5
20E
100
AcDbSymbolTableRecord
100
AcDbTextStyleTableRecord
  2
TEXTSTYLE_1
 70
0
 40
0.0
 41
0.8
 50
0.0
 71
0
 42
0.2
  3
gdt
  4

  0
ENDTAB
  0
TABLE
  2
VIEW
  5
6
100
AcDbSymbolTable
 70
0
  0
ENDTAB
  0
TABLE
  2
UCS
  5
7
100
AcDbSymbolTable
 70
0
  0
ENDTAB
  0
TABLE
  2
APPID
  5
9
100
AcDbSymbolTable
 70
1
  0
APPID
  5
20F
100
AcDbSymbolTableRecord
100
AcDbRegAppTableRecord
  2
ACAD
 70
0
  0
ENDTAB
  0
TABLE
  2
BLOCK_RECORD
  5
1
100
AcDbSymbolTable
 70
0
  0
BLOCK_RECORD
  5
210
100
AcDbSymbolTableRecord
100
AcDbBlockTableRecord
  2
*Model_Space
  0
BLOCK_RECORD
  5
211
100
AcDbSymbolTableRecord
100
AcDbBlockTableRecord
  2
*Paper_Space
  0
BLOCK_RECORD
  5
212
100
AcDbSymbolTableRecord
100
AcDbBlockTableRecord
  2
_FILLED
  0
ENDTAB
  0
TABLE
  2
DIMSTYLE
  5
A
100
AcDbSymbolTable
 70
1
100
AcDbDimStyleTable
 71
0
  0
DIMSTYLE
105
213
100
AcDbSymbolTableRecord
100
AcDbDimStyleTableRecord
  2
STANDARD
 70
0
  3

  4

 40
1.0
 41
1.3365455789
 42
1.0
 43
0.38
 44
1.0
 45
0.0
 46
0.0
 47
0.01
 48
0.01
140
1.8711638105
141
0.09
142
0.0
143
25.4
144
1.0
145
0.0
146
1.0
147
0.625
 71
1
 72
0
 73
0
 74
0
 75
0
 76
0
 77
1
 78
8
 79
2
170
0
171
1
172
0
173
0
174
0
175
0
176
0
177
0
178
0
270
2
179
2
271
2
272
2
273
2
274
2
275
0
280
0
281
0
282
0
283
1
284
8
285
0
286
0
287
3
288
0
340
11
278
46
341
212
342
212
343
212
344
212
  0
ENDTAB
  0
ENDSEC
  0
SECTION
  2
BLOCKS
  0
BLOCK
  5
20
100
AcDbEntity
  8
0
100
AcDbBlockBegin
  2
*Model_Space
 70
0
 10
0.0
 20
0.0
 30
0.0
  3
*Model_Space
  1

  0
ENDBLK
  5
21
100
AcDbEntity
  8
0
100
AcDbBlockEnd
  0
BLOCK
  5
1C
100
AcDbEntity
  8
0
100
AcDbBlockBegin
  2
*Paper_Space
 70
0
 10
0.0
 20
0.0
 30
0.0
  3
*Paper_Space
  1

  0
ENDBLK
  5
1D
100
AcDbEntity
  8
0
100
AcDbBlockEnd
  0
BLOCK
  5
214
100
AcDbEntity
  8
0
100
AcDbBlockBegin
  2
_FILLED
 70
64
 10
0.0
 20
0.0
  3
_FILLED
  1

  0
SOLID
  5
215
100
AcDbEntity
  8
0
  6
BYBLOCK
 62
0
100
AcDbTrace
 10
0.0
 20
0.0
 11
-1.0
 21
0.25
 12
-1.0
 22
-0.25
 13
-1.0
 23
-0.25
  0
ENDBLK
  5
216
100
AcDbEntity
  8
0
  6
BYBLOCK
 62
0
100
AcDbBlockEnd
  0
ENDSEC
  0
SECTION
  2
ENTITIES
  0
LINE
  5
217
100
AcDbEntity
  8
0
100
AcDbLine
 62
7
  6
CONTINUOUS
 10
14.0852505157
 20
110.4087284076
 11
14.5865925076
 21
111.0432792713
  0
LINE
  5
218
100
AcDbEntity
  8
0
100
AcDbLine
 62
7
  6
CONTINUOUS
 10
18.4693308116
 20
107.8776357295
 11
18.9706728035
 21
108.5121865933
  0
LINE
  5
219
100
AcDbEntity
  8
0
100
AcDbLine
 62
7
  6
CONTINUOUS
 10
14.5865925076
 20
111.0432792713
 11
14.9660916066
 21
111.2623818704
  0
LINE
  5
21A
100
AcDbEntity
  8
0
100
AcDbLine
 62
7
  6
CONTINUOUS
 10
15.7499997258
 20
110.3716009971
 11
16.1294988232
 21
110.5907035952
  0
LINE
  5
21B
100
AcDbEntity
  8
0
100
AcDbLine
 62
7
  6
CONTINUOUS
 10
13.0245918159
 20
97.5488171655
 11
13.0245918159
 21
98.3653195826
  0
LINE
  5
21C
100
AcDbEntity
  8
0
100
AcDbLine
 62
7
  6
CONTINUOUS
 10
13.0245918159
 20
102.4478316682
 11
13.0245918159
 21
105.7138413367
  0
LINE
  5
21D
100
AcDbEntity
  8
0
100
AcDbLine
 62
7
  6
CONTINUOUS
 10
14.0852505157
 20
105.9179651134
 11
14.0852505157
 21
110.4087284076
  0
LINE
  5
21E
100
AcDbEntity
  8
0
100
AcDbLine
 62
7
  6
CONTINUOUS
 10
16.0651577461
 20
109.2656542949
 11
16.6308408159
 21
109.592249618
  0
LINE
  5
21F
100
AcDbEntity
  8
0
100
AcDbLine
 62
7
  6
CONTINUOUS
 10
14.0852505157
 20
106.3262092672
 11
13.0245918159
 21
105.7138413367
  0
LINE
  5
220
100
AcDbEntity
  8
0
100
AcDbLine
 62
7
  6
CONTINUOUS
 10
18.9706728035
 20
108.5121865933
 11
19.3501719025
 21
108.7312891924
  0
LINE
  5
221
100
AcDbEntity
  8
0
100
AcDbLine
 62
7
  6
CONTINUOUS
 10
20.1340800218
 20
107.840508319
 11
20.5135791191
 21
108.0596109172
  0
LINE
  5
222
100
AcDbEntity
  8
0
100
AcDbLine
 62
7
  6
CONTINUOUS
 10
14.2973787229
 20
101.7130044289
 11
14.2973787229
 21
99.263459543
  0
LINE
  5
223
100
AcDbEntity
  8
0
100
AcDbLine
 62
7
  6
CONTINUOUS
 10
16.0651577461
 20
109.2656542949
 11
16.0651577461
 21
104.7748910007
  0
LINE
  5
224
100
AcDbEntity
  8
0
100
AcDbLine
 62
7
  6
CONTINUOUS
 10
16.6308408159
 20
105.1014863238
 11
16.6308408159
 21
109.592249618
  0
LINE
  5
225
100
AcDbEntity
  8
0
100
AcDbLine
 62
7
  6
CONTINUOUS
 10
20.4923791018
 20
101.7447397355
 11
20.4855721538
 21
101.7147912452
  0
LINE
  5
226
100
AcDbEntity
  8
0
100
AcDbLine
 62
7
  6
CONTINUOUS
 10
21.6788897774
 20
102.6612114783
 11
21.6856967255
 21
102.6911599686
  0
LINE
  5
227
100
AcDbEntity
  8
0
100
AcDbLine
 62
7
  6
CONTINUOUS
 10
20.4855721538
 20
101.7147912452
 11
20.3726707512
 21
101.4715219595
  0
LINE
  5
228
100
AcDbEntity
  8
0
100
AcDbLine
 62
7
  6
CONTINUOUS
 10
21.6856967255
 20
102.6911599686
 11
21.7985981277
 21
102.9344292544
  0
LINE
  5
229
100
AcDbEntity
  8
0
100
AcDbLine
 62
7
  6
CONTINUOUS
 10
22.1827926684
 20
100.7353521006
 11
22.0697340914
 21
100.4917441496
  0
LINE
  5
22A
100
AcDbEntity
  8
0
100
AcDbLine
 62
7
  6
CONTINUOUS
 10
20.4855721538
 20
94.366269491
 11
20.3726707512
 21
94.1230002053
  0
LINE
  5
22B
100
AcDbEntity
  8
0
100
AcDbLine
 62
7
  6
CONTINUOUS
 10
22.8534111075
 20
105.3465430515
 11
23.3547530994
 21
105.9810939153
  0
LINE
  5
22C
100
AcDbEntity
  8
0
100
AcDbLine
 62
7
  6
CONTINUOUS
 10
16.0651577461
 20
104.7748910007
 11
16.6308408159
 21
105.1014863238
  0
LINE
  5
22D
100
AcDbEntity
  8
0
100
AcDbLine
 62
7
  6
CONTINUOUS
 10
20.449238042
 20
106.7345616169
 11
21.0149211118
 21
107.06115694
  0
LINE
  5
22E
100
AcDbEntity
  8
0
100
AcDbLine
 62
7
  6
CONTINUOUS
 10
23.3547530994
 20
105.9810939153
 11
23.7342521984
 21
106.2001965144
  0
LINE
  5
22F
100
AcDbEntity
  8
0
100
AcDbLine
 62
7
  6
CONTINUOUS
 10
18.4693308116
 20
103.3868724353
 11
18.4693308116
 21
107.8776357295
  0
LINE
  5
230
100
AcDbEntity
  8
0
100
AcDbLine
 62
7
  6
CONTINUOUS
 10
19.8187073835
 20
93.6263214523
 11
19.8187073835
 21
94.4428238694
  0
LINE
  5
231
100
AcDbEntity
  8
0
100
AcDbLine
 62
7
  6
CONTINUOUS
 10
19.8187073835
 20
98.5253359551
 11
19.8187073835
 21
101.7913456236
  0
LINE
  5
232
100
AcDbEntity
  8
0
100
AcDbLine
 62
7
  6
CONTINUOUS
 10
20.2408252733
 20
101.8566476423
 11
20.2408252733
 21
98.5906379738
  0
LINE
  5
233
100
AcDbEntity
  8
0
100
AcDbLine
 62
7
  6
CONTINUOUS
 10
20.2408252733
 20
94.5081258882
 11
20.2408252733
 21
93.6916234711
  0
LINE
  5
234
100
AcDbEntity
  8
0
100
AcDbLine
 62
7
  6
CONTINUOUS
 10
20.3726707512
 20
93.3064977882
 11
20.3726707512
 21
94.1230002053
  0
LINE
  5
235
100
AcDbEntity
  8
0
100
AcDbLine
 62
7
  6
CONTINUOUS
 10
20.3726707512
 20
98.205512291
 11
20.3726707512
 21
101.4715219595
  0
LINE
  5
236
100
AcDbEntity
  8
0
100
AcDbLine
 62
7
  6
CONTINUOUS
 10
20.449238042
 20
106.7345616169
 11
20.449238042
 21
102.2437983227
  0
LINE
  5
237
100
AcDbEntity
  8
0
100
AcDbLine
 62
7
  6
CONTINUOUS
 10
21.0149211118
 20
102.5703936458
 11
21.0149211118
 21
107.06115694
  0
LINE
  5
238
100
AcDbEntity
  8
0
100
AcDbLine
 62
7
  6
CONTINUOUS
 10
20.4923791018
 20
94.3962179814
 11
20.4855721538
 21
94.366269491
  0
LINE
  5
239
100
AcDbEntity
  8
0
100
AcDbLine
 62
7
  6
CONTINUOUS
 10
22.1895881251
 20
100.7652521888
 11
22.1827926684
 21
100.7353521006
  0
LINE
  5
23A
100
AcDbEntity
  8
0
100
AcDbLine
 62
7
  6
CONTINUOUS
 10
22.1895881251
 20
93.4167304346
 11
22.1827926684
 21
93.3868303464
  0
LINE
  5
23B
100
AcDbEntity
  8
0
100
AcDbLine
 62
7
  6
CONTINUOUS
 10
24.876760574
 20
99.2142427409
 11
24.8699780052
 21
99.1844000454
  0
LINE
  5
23C
100
AcDbEntity
  8
0
100
AcDbLine
 62
7
  6
CONTINUOUS
 10
24.8699780052
 20
99.1844000454
 11
24.756751045
 21
98.9404292827
  0
LINE
  5
23D
100
AcDbEntity
  8
0
100
AcDbLine
 62
7
  6
CONTINUOUS
 10
22.1827926684
 20
93.3868303464
 11
22.0697340914
 21
93.1432223954
  0
LINE
  5
23E
100
AcDbEntity
  8
0
100
AcDbLine
 62
7
  6
CONTINUOUS
 10
26.0694514656
 20
100.1593658125
 11
26.1826784254
 21
100.4033365754
  0
LINE
  5
23F
100
AcDbEntity
  8
0
100
AcDbLine
 62
7
  6
CONTINUOUS
 10
27.2374914034
 20
102.8154503735
 11
27.7388333953
 21
103.4500012372
  0
LINE
  5
240
100
AcDbEntity
  8
0
100
AcDbLine
 62
7
  6
CONTINUOUS
 10
24.5181603177
 20
105.309415641
 11
24.897659415
 21
105.5285182391
  0
LINE
  5
241
100
AcDbEntity
  8
0
100
AcDbLine
 62
7
  6
CONTINUOUS
 10
14.1559579555
 20
99.0185102288
 11
13.0245918159
 21
98.3653195826
  0
LINE
  5
242
100
AcDbEntity
  8
0
100
AcDbLine
 62
7
  6
CONTINUOUS
 10
20.449238042
 20
102.2437983227
 11
21.0149211118
 21
102.5703936458
  0
LINE
  5
243
100
AcDbEntity
  8
0
100
AcDbLine
 62
7
  6
CONTINUOUS
 10
24.8333183379
 20
104.2034689389
 11
25.3990014077
 21
104.530064262
  0
LINE
  5
244
100
AcDbEntity
  8
0
100
AcDbLine
 62
7
  6
CONTINUOUS
 10
21.515770726
 20
92.6465436402
 11
21.515770726
 21
93.4630460574
  0
LINE
  5
245
100
AcDbEntity
  8
0
100
AcDbLine
 62
7
  6
CONTINUOUS
 10
21.515770726
 20
97.545558143
 11
21.515770726
 21
100.8115678115
  0
LINE
  5
246
100
AcDbEntity
  8
0
100
AcDbLine
 62
7
  6
CONTINUOUS
 10
21.6854936113
 20
102.6612114783
 11
21.6854936113
 21
102.6907223174
  0
LINE
  5
247
100
AcDbEntity
  8
0
100
AcDbLine
 62
7
  6
CONTINUOUS
 10
21.7985981277
 20
102.5557057743
 11
21.7985981277
 21
102.9344292544
  0
LINE
  5
248
100
AcDbEntity
  8
0
100
AcDbLine
 62
7
  6
CONTINUOUS
 10
21.9378886158
 20
100.8768698303
 11
21.9378886158
 21
97.6108601618
  0
LINE
  5
249
100
AcDbEntity
  8
0
100
AcDbLine
 62
7
  6
CONTINUOUS
 10
21.9378886158
 20
93.5283480761
 11
21.9378886158
 21
92.711845659
  0
LINE
  5
24A
100
AcDbEntity
  8
0
100
AcDbLine
 62
7
  6
CONTINUOUS
 10
22.0697340914
 20
92.3267199783
 11
22.0697340914
 21
93.1432223954
  0
LINE
  5
24B
100
AcDbEntity
  8
0
100
AcDbLine
 62
7
  6
CONTINUOUS
 10
22.0697340914
 20
97.2257344811
 11
22.0697340914
 21
100.4917441496
  0
LINE
  5
24C
100
AcDbEntity
  8
0
100
AcDbLine
 62
7
  6
CONTINUOUS
 10
22.8534111075
 20
100.8557797573
 11
22.8534111075
 21
105.3465430515
  0
LINE
  5
24D
100
AcDbEntity
  8
0
100
AcDbLine
 62
7
  6
CONTINUOUS
 10
24.2027876812
 20
91.0952287733
 11
24.2027876812
 21
91.9117311904
  0
LINE
  5
24E
100
AcDbEntity
  8
0
100
AcDbLine
 62
7
  6
CONTINUOUS
 10
24.2027876812
 20
95.9942432761
 11
24.2027876812
 21
99.2602529446
  0
LINE
  5
24F
100
AcDbEntity
  8
0
100
AcDbLine
 62
7
  6
CONTINUOUS
 10
24.6249055709
 20
99.3255549642
 11
24.6249055709
 21
96.0595452957
  0
LINE
  5
250
100
AcDbEntity
  8
0
100
AcDbLine
 62
7
  6
CONTINUOUS
 10
24.6249055709
 20
91.9770332101
 11
24.6249055709
 21
91.1605307929
  0
LINE
  5
251
100
AcDbEntity
  8
0
100
AcDbLine
 62
7
  6
CONTINUOUS
 10
24.756751045
 20
90.7754051114
 11
24.756751045
 21
91.5919075285
  0
LINE
  5
252
100
AcDbEntity
  8
0
100
AcDbLine
 62
7
  6
CONTINUOUS
 10
24.756751045
 20
95.6744196142
 11
24.756751045
 21
98.9404292827
  0
LINE
  5
253
100
AcDbEntity
  8
0
100
AcDbLine
 62
7
  6
CONTINUOUS
 10
24.8333183379
 20
104.2034689389
 11
24.8333183379
 21
99.7127056446
  0
LINE
  5
254
100
AcDbEntity
  8
0
100
AcDbLine
 62
7
  6
CONTINUOUS
 10
26.0626688968
 20
100.129523117
 11
26.0694514656
 21
100.1593658125
  0
LINE
  5
255
100
AcDbEntity
  8
0
100
AcDbLine
 62
7
  6
CONTINUOUS
 10
24.876760574
 20
91.8657209867
 11
24.8699780052
 21
91.8358782912
  0
LINE
  5
256
100
AcDbEntity
  8
0
100
AcDbLine
 62
7
  6
CONTINUOUS
 10
26.5730020225
 20
98.2327968574
 11
26.5661589518
 21
98.2027209358
  0
LINE
  5
257
100
AcDbEntity
  8
0
100
AcDbLine
 62
7
  6
CONTINUOUS
 10
26.5730020225
 20
90.8842751032
 11
26.5661589518
 21
90.8541991816
  0
LINE
  5
258
100
AcDbEntity
  8
0
100
AcDbLine
 62
7
  6
CONTINUOUS
 10
26.5661589518
 20
98.2027209358
 11
26.4538143873
 21
97.9606514715
  0
LINE
  5
259
100
AcDbEntity
  8
0
100
AcDbLine
 62
7
  6
CONTINUOUS
 10
24.8699780052
 20
91.8358782912
 11
24.756751045
 21
91.5919075285
  0
LINE
  5
25A
100
AcDbEntity
  8
0
100
AcDbLine
 62
7
  6
CONTINUOUS
 10
29.2537327475
 20
96.6526058883
 11
29.140831345
 21
96.4093366026
  0
LINE
  5
25B
100
AcDbEntity
  8
0
100
AcDbLine
 62
7
  6
CONTINUOUS
 10
26.5661589518
 20
90.8541991816
 11
26.4538143873
 21
90.6121297174
  0
LINE
  5
25C
100
AcDbEntity
  8
0
100
AcDbLine
 62
7
  6
CONTINUOUS
 10
31.6215716994
 20
100.2843576955
 11
32.1229136912
 21
100.9189085592
  0
LINE
  5
25D
100
AcDbEntity
  8
0
100
AcDbLine
 62
7
  6
CONTINUOUS
 10
27.7388333953
 20
103.4500012372
 11
28.1183324943
 21
103.6691038363
  0
LINE
  5
25E
100
AcDbEntity
  8
0
100
AcDbLine
 62
7
  6
CONTINUOUS
 10
28.9022406136
 20
102.778322963
 11
29.2817397109
 21
102.9974255611
  0
LINE
  5
25F
100
AcDbEntity
  8
0
100
AcDbLine
 62
7
  6
CONTINUOUS
 10
24.8333183379
 20
99.7127056446
 11
25.3990014077
 21
100.0393009677
  0
LINE
  5
260
100
AcDbEntity
  8
0
100
AcDbLine
 62
7
  6
CONTINUOUS
 10
29.2173986339
 20
101.6723762608
 11
29.7830817036
 21
101.9989715839
  0
LINE
  5
261
100
AcDbEntity
  8
0
100
AcDbLine
 62
7
  6
CONTINUOUS
 10
92.0799997391
 20
52.2138718397
 11
91.6610554747
 21
52.1490607836
  0
LINE
  5
262
100
AcDbEntity
  8
0
100
AcDbLine
 62
7
  6
CONTINUOUS
 10
25.3990014077
 20
100.0393009677
 11
25.3990014077
 21
104.530064262
  0
LINE
  5
263
100
AcDbEntity
  8
0
100
AcDbLine
 62
7
  6
CONTINUOUS
 10
25.8998510219
 20
90.1154509622
 11
25.8998510219
 21
90.9319533793
  0
LINE
  5
264
100
AcDbEntity
  8
0
100
AcDbLine
 62
7
  6
CONTINUOUS
 10
25.8998510219
 20
95.014465465
 11
25.8998510219
 21
98.2804751335
  0
LINE
  5
265
100
AcDbEntity
  8
0
100
AcDbLine
 62
7
  6
CONTINUOUS
 10
26.0695739074
 20
100.129523117
 11
26.0695739074
 21
100.1596296385
  0
LINE
  5
266
100
AcDbEntity
  8
0
100
AcDbLine
 62
7
  6
CONTINUOUS
 10
26.1826784254
 20
100.0242878399
 11
26.1826784254
 21
100.4033365754
  0
LINE
  5
267
100
AcDbEntity
  8
0
100
AcDbLine
 62
7
  6
CONTINUOUS
 10
26.3219689121
 20
98.3457771523
 11
26.3219689121
 21
95.0797674838
  0
LINE
  5
268
100
AcDbEntity
  8
0
100
AcDbLine
 62
7
  6
CONTINUOUS
 10
26.3219689121
 20
90.9972553982
 11
26.3219689121
 21
90.180752981
  0
LINE
  5
269
100
AcDbEntity
  8
0
100
AcDbLine
 62
7
  6
CONTINUOUS
 10
26.4538143873
 20
89.7956273003
 11
26.4538143873
 21
90.6121297174
  0
LINE
  5
26A
100
AcDbEntity
  8
0
100
AcDbLine
 62
7
  6
CONTINUOUS
 10
26.4538143873
 20
94.694641803
 11
26.4538143873
 21
97.9606514715
  0
LINE
  5
26B
100
AcDbEntity
  8
0
100
AcDbLine
 62
7
  6
CONTINUOUS
 10
27.2374914034
 20
98.3246870793
 11
27.2374914034
 21
102.8154503735
  0
LINE
  5
26C
100
AcDbEntity
  8
0
100
AcDbLine
 62
7
  6
CONTINUOUS
 10
29.2605396956
 20
96.6825543786
 11
29.2537327475
 21
96.6526058883
  0
LINE
  5
26D
100
AcDbEntity
  8
0
100
AcDbLine
 62
7
  6
CONTINUOUS
 10
30.4470503707
 20
97.5990261211
 11
30.4538573188
 21
97.6289746114
  0
LINE
  5
26E
100
AcDbEntity
  8
0
100
AcDbLine
 62
7
  6
CONTINUOUS
 10
29.2605396956
 20
89.3340326245
 11
29.2537327475
 21
89.3040841341
  0
LINE
  5
26F
100
AcDbEntity
  8
0
100
AcDbLine
 62
7
  6
CONTINUOUS
 10
30.9577487189
 20
95.7030668319
 11
30.9509532621
 21
95.6731667437
  0
LINE
  5
270
100
AcDbEntity
  8
0
100
AcDbLine
 62
7
  6
CONTINUOUS
 10
30.4538573188
 20
97.6289746114
 11
30.566758721
 21
97.8722438973
  0
LINE
  5
271
100
AcDbEntity
  8
0
100
AcDbLine
 62
7
  6
CONTINUOUS
 10
30.9509532621
 20
95.6731667437
 11
30.8378946852
 21
95.4295587927
  0
LINE
  5
272
100
AcDbEntity
  8
0
100
AcDbLine
 62
7
  6
CONTINUOUS
 10
29.2537327475
 20
89.3040841341
 11
29.140831345
 21
89.0608148484
  0
LINE
  5
273
100
AcDbEntity
  8
0
100
AcDbLine
 62
7
  6
CONTINUOUS
 10
32.1229136912
 20
100.9189085592
 11
32.5024127902
 21
101.1380111583
  0
LINE
  5
274
100
AcDbEntity
  8
0
100
AcDbLine
 62
7
  6
CONTINUOUS
 10
33.2863209095
 20
100.2472302849
 11
33.6658200068
 21
100.4663328831
  0
LINE
  5
275
100
AcDbEntity
  8
0
100
AcDbLine
 62
7
  6
CONTINUOUS
 10
29.2173986339
 20
97.1816129666
 11
29.7830817036
 21
97.5082082897
  0
LINE
  5
276
100
AcDbEntity
  8
0
100
AcDbLine
 62
7
  6
CONTINUOUS
 10
33.6014789298
 20
99.1412835828
 11
34.1671619995
 21
99.4678789059
  0
LINE
  5
277
100
AcDbEntity
  8
0
100
AcDbLine
 62
7
  6
CONTINUOUS
 10
91.6610554747
 20
52.9655632008
 11
92.0799997391
 21
53.0303742568
  0
LINE
  5
278
100
AcDbEntity
  8
0
100
AcDbLine
 62
7
  6
CONTINUOUS
 10
90.3858432229
 20
53.1940993608
 11
89.9639921337
 21
53.1288385971
  0
LINE
  5
279
100
AcDbEntity
  8
0
100
AcDbLine
 62
7
  6
CONTINUOUS
 10
89.9639921337
 20
53.9453410142
 11
90.3858432229
 21
54.0106017779
  0
LINE
  5
27A
100
AcDbEntity
  8
0
100
AcDbLine
 62
7
  6
CONTINUOUS
 10
87.6962568487
 20
54.7450167169
 11
87.2769751783
 21
54.6801534639
  0
LINE
  5
27B
100
AcDbEntity
  8
0
100
AcDbLine
 62
7
  6
CONTINUOUS
 10
87.2769751783
 20
55.496655881
 11
87.6962568487
 21
55.5615191341
  0
LINE
  5
27C
100
AcDbEntity
  8
0
100
AcDbLine
 62
7
  6
CONTINUOUS
 10
100.1405005333
 20
53.4589465648
 11
100.2426132389
 21
53.4725143037
  0
LINE
  5
27D
100
AcDbEntity
  8
0
100
AcDbLine
 62
7
  6
CONTINUOUS
 10
15.749999725
 20
110.3716009966
 11
16.0651577461
 21
109.2656542949
  0
LINE
  5
27E
100
AcDbEntity
  8
0
100
AcDbLine
 62
7
  6
CONTINUOUS
 10
28.5868679773
 20
88.5641360954
 11
28.5868679773
 21
89.3806385125
  0
LINE
  5
27F
100
AcDbEntity
  8
0
100
AcDbLine
 62
7
  6
CONTINUOUS
 10
28.5868679773
 20
93.4631505982
 11
28.5868679773
 21
96.7291602667
  0
LINE
  5
280
100
AcDbEntity
  8
0
100
AcDbLine
 62
7
  6
CONTINUOUS
 10
29.0089858671
 20
96.7944622854
 11
29.0089858671
 21
93.5284526169
  0
LINE
  5
281
100
AcDbEntity
  8
0
100
AcDbLine
 62
7
  6
CONTINUOUS
 10
29.0089858671
 20
89.4459405313
 11
29.0089858671
 21
88.6294381142
  0
LINE
  5
282
100
AcDbEntity
  8
0
100
AcDbLine
 62
7
  6
CONTINUOUS
 10
29.140831345
 20
88.2443124313
 11
29.140831345
 21
89.0608148484
  0
LINE
  5
283
100
AcDbEntity
  8
0
100
AcDbLine
 62
7
  6
CONTINUOUS
 10
29.140831345
 20
93.1433269341
 11
29.140831345
 21
96.4093366026
  0
LINE
  5
284
100
AcDbEntity
  8
0
100
AcDbLine
 62
7
  6
CONTINUOUS
 10
29.2173986339
 20
101.6723762608
 11
29.2173986339
 21
97.1816129666
  0
LINE
  5
285
100
AcDbEntity
  8
0
100
AcDbLine
 62
7
  6
CONTINUOUS
 10
29.7830817036
 20
97.5082082897
 11
29.7830817036
 21
101.9989715839
  0
LINE
  5
286
100
AcDbEntity
  8
0
100
AcDbLine
 62
7
  6
CONTINUOUS
 10
30.2839313198
 20
87.5843582833
 11
30.2839313198
 21
88.4008607004
  0
LINE
  5
287
100
AcDbEntity
  8
0
100
AcDbLine
 62
7
  6
CONTINUOUS
 10
30.2839313198
 20
92.4833727861
 11
30.2839313198
 21
95.7493824546
  0
LINE
  5
288
100
AcDbEntity
  8
0
100
AcDbLine
 62
7
  6
CONTINUOUS
 10
30.4536542046
 20
97.5990261211
 11
30.4536542046
 21
97.6285369603
  0
LINE
  5
289
100
AcDbEntity
  8
0
100
AcDbLine
 62
7
  6
CONTINUOUS
 10
30.566758721
 20
97.4935204171
 11
30.566758721
 21
97.8722438973
  0
LINE
  5
28A
100
AcDbEntity
  8
0
100
AcDbLine
 62
7
  6
CONTINUOUS
 10
30.7060492096
 20
95.8146844734
 11
30.7060492096
 21
92.5486748049
  0
LINE
  5
28B
100
AcDbEntity
  8
0
100
AcDbLine
 62
7
  6
CONTINUOUS
 10
30.7060492096
 20
88.4661627192
 11
30.7060492096
 21
87.6496603021
  0
LINE
  5
28C
100
AcDbEntity
  8
0
100
AcDbLine
 62
7
  6
CONTINUOUS
 10
30.8378946852
 20
87.2645346214
 11
30.8378946852
 21
88.0810370385
  0
LINE
  5
28D
100
AcDbEntity
  8
0
100
AcDbLine
 62
7
  6
CONTINUOUS
 10
30.8378946852
 20
92.1635491242
 11
30.8378946852
 21
95.4295587927
  0
LINE
  5
28E
100
AcDbEntity
  8
0
100
AcDbLine
 62
7
  6
CONTINUOUS
 10
31.6215716994
 20
95.7935944013
 11
31.6215716994
 21
100.2843576955
  0
LINE
  5
28F
100
AcDbEntity
  8
0
100
AcDbLine
 62
7
  6
CONTINUOUS
 10
30.9577487189
 20
88.3545450777
 11
30.9509532621
 21
88.3246449895
  0
LINE
  5
290
100
AcDbEntity
  8
0
100
AcDbLine
 62
7
  6
CONTINUOUS
 10
33.6449211678
 20
94.152057384
 11
33.6381385989
 21
94.1222146885
  0
LINE
  5
291
100
AcDbEntity
  8
0
100
AcDbLine
 62
7
  6
CONTINUOUS
 10
34.8308294901
 20
95.0673377598
 11
34.8376120589
 21
95.0971804553
  0
LINE
  5
292
100
AcDbEntity
  8
0
100
AcDbLine
 62
7
  6
CONTINUOUS
 10
33.6381385989
 20
94.1222146885
 11
33.5249116388
 21
93.8782439258
  0
LINE
  5
293
100
AcDbEntity
  8
0
100
AcDbLine
 62
7
  6
CONTINUOUS
 10
30.9509532621
 20
88.3246449895
 11
30.8378946852
 21
88.0810370385
  0
LINE
  5
294
100
AcDbEntity
  8
0
100
AcDbLine
 62
7
  6
CONTINUOUS
 10
34.8376120589
 20
95.0971804553
 11
34.9508390187
 21
95.3411512182
  0
LINE
  5
295
100
AcDbEntity
  8
0
100
AcDbLine
 62
7
  6
CONTINUOUS
 10
35.3343195455
 20
93.1405355788
 11
35.2219749811
 21
92.8984661146
  0
LINE
  5
296
100
AcDbEntity
  8
0
100
AcDbLine
 62
7
  6
CONTINUOUS
 10
36.0056519953
 20
97.7532650174
 11
36.5069939872
 21
98.3878158812
  0
LINE
  5
297
100
AcDbEntity
  8
0
100
AcDbLine
 62
7
  6
CONTINUOUS
 10
36.5069939872
 20
98.3878158812
 11
36.8864930861
 21
98.6069184803
  0
LINE
  5
298
100
AcDbEntity
  8
0
100
AcDbLine
 62
7
  6
CONTINUOUS
 10
37.6704012054
 20
97.7161376069
 11
38.0499003027
 21
97.9352402051
  0
LINE
  5
299
100
AcDbEntity
  8
0
100
AcDbLine
 62
7
  6
CONTINUOUS
 10
86.0024866927
 20
55.7253039876
 11
85.5799118376
 21
55.659931275
  0
LINE
  5
29A
100
AcDbEntity
  8
0
100
AcDbLine
 62
7
  6
CONTINUOUS
 10
92.0799997391
 20
57.1128863425
 11
91.6610554747
 21
57.0480752864
  0
LINE
  5
29B
100
AcDbEntity
  8
0
100
AcDbLine
 62
7
  6
CONTINUOUS
 10
85.5799118376
 20
56.4764336921
 11
86.0024866927
 21
56.5418064047
  0
LINE
  5
29C
100
AcDbEntity
  8
0
100
AcDbLine
 62
7
  6
CONTINUOUS
 10
90.3858432229
 20
58.0931138635
 11
89.9639921337
 21
58.0278530999
  0
LINE
  5
29D
100
AcDbEntity
  8
0
100
AcDbLine
 62
7
  6
CONTINUOUS
 10
83.3148413224
 20
57.2765216372
 11
82.8928948824
 21
57.2112461419
  0
LINE
  5
29E
100
AcDbEntity
  8
0
100
AcDbLine
 62
7
  6
CONTINUOUS
 10
82.8928948824
 20
58.027748559
 11
83.3148413224
 21
58.0930240544
  0
LINE
  5
29F
100
AcDbEntity
  8
0
100
AcDbLine
 62
7
  6
CONTINUOUS
 10
81.6171913865
 20
58.2562087028
 11
81.1958315399
 21
58.191023954
  0
LINE
  5
2A0
100
AcDbEntity
  8
0
100
AcDbLine
 62
7
  6
CONTINUOUS
 10
20.1340800209
 20
107.8405083185
 11
20.449238042
 21
106.7345616169
  0
LINE
  5
2A1
100
AcDbEntity
  8
0
100
AcDbLine
 62
7
  6
CONTINUOUS
 10
32.9709482749
 20
86.0330434164
 11
32.9709482749
 21
86.8495458335
  0
LINE
  5
2A2
100
AcDbEntity
  8
0
100
AcDbLine
 62
7
  6
CONTINUOUS
 10
32.9709482749
 20
90.9320579192
 11
32.9709482749
 21
94.1980675877
  0
LINE
  5
2A3
100
AcDbEntity
  8
0
100
AcDbLine
 62
7
  6
CONTINUOUS
 10
33.3930661646
 20
94.2633696073
 11
33.3930661646
 21
90.9973599388
  0
LINE
  5
2A4
100
AcDbEntity
  8
0
100
AcDbLine
 62
7
  6
CONTINUOUS
 10
33.3930661646
 20
86.9148478532
 11
33.3930661646
 21
86.098345436
  0
LINE
  5
2A5
100
AcDbEntity
  8
0
100
AcDbLine
 62
7
  6
CONTINUOUS
 10
33.5249116388
 20
85.7132197545
 11
33.5249116388
 21
86.5297221716
  0
LINE
  5
2A6
100
AcDbEntity
  8
0
100
AcDbLine
 62
7
  6
CONTINUOUS
 10
33.5249116388
 20
90.6122342573
 11
33.5249116388
 21
93.8782439258
  0
LINE
  5
2A7
100
AcDbEntity
  8
0
100
AcDbLine
 62
7
  6
CONTINUOUS
 10
33.6014789298
 20
99.1412835828
 11
33.6014789298
 21
94.6505202886
  0
LINE
  5
2A8
100
AcDbEntity
  8
0
100
AcDbLine
 62
7
  6
CONTINUOUS
 10
34.1671619995
 20
94.9771156117
 11
34.1671619995
 21
99.4678789059
  0
LINE
  5
2A9
100
AcDbEntity
  8
0
100
AcDbLine
 62
7
  6
CONTINUOUS
 10
34.6680116157
 20
85.0532656053
 11
34.6680116157
 21
85.8697680224
  0
LINE
  5
2AA
100
AcDbEntity
  8
0
100
AcDbLine
 62
7
  6
CONTINUOUS
 10
34.6680116157
 20
89.9522801081
 11
34.6680116157
 21
93.2182897766
  0
LINE
  5
2AB
100
AcDbEntity
  8
0
100
AcDbLine
 62
7
  6
CONTINUOUS
 10
34.8377345007
 20
95.0673377598
 11
34.8377345007
 21
95.0974442813
  0
LINE
  5
2AC
100
AcDbEntity
  8
0
100
AcDbLine
 62
7
  6
CONTINUOUS
 10
34.9508390187
 20
94.9621024827
 11
34.9508390187
 21
95.3411512182
  0
LINE
  5
2AD
100
AcDbEntity
  8
0
100
AcDbLine
 62
7
  6
CONTINUOUS
 10
35.0901295059
 20
93.2835917954
 11
35.0901295059
 21
90.0175821269
  0
LINE
  5
2AE
100
AcDbEntity
  8
0
100
AcDbLine
 62
7
  6
CONTINUOUS
 10
35.0901295059
 20
85.9350700413
 11
35.0901295059
 21
85.1185676241
  0
LINE
  5
2AF
100
AcDbEntity
  8
0
100
AcDbLine
 62
7
  6
CONTINUOUS
 10
35.2219749811
 20
84.7334419433
 11
35.2219749811
 21
85.5499443605
  0
LINE
  5
2B0
100
AcDbEntity
  8
0
100
AcDbLine
 62
7
  6
CONTINUOUS
 10
35.2219749811
 20
89.6324564461
 11
35.2219749811
 21
92.8984661146
  0
LINE
  5
2B1
100
AcDbEntity
  8
0
100
AcDbLine
 62
7
  6
CONTINUOUS
 10
33.6449211678
 20
86.8035356298
 11
33.6381385989
 21
86.7736929343
  0
LINE
  5
2B2
100
AcDbEntity
  8
0
100
AcDbLine
 62
7
  6
CONTINUOUS
 10
35.3411626163
 20
93.1706115005
 11
35.3343195455
 21
93.1405355788
  0
LINE
  5
2B3
100
AcDbEntity
  8
0
100
AcDbLine
 62
7
  6
CONTINUOUS
 10
35.3411626163
 20
85.8220897463
 11
35.3343195455
 21
85.7920138247
  0
LINE
  5
2B4
100
AcDbEntity
  8
0
100
AcDbLine
 62
7
  6
CONTINUOUS
 10
33.6381385989
 20
86.7736929343
 11
33.5249116388
 21
86.5297221716
  0
LINE
  5
2B5
100
AcDbEntity
  8
0
100
AcDbLine
 62
7
  6
CONTINUOUS
 10
38.0218933413
 20
91.5904205314
 11
37.9089919388
 21
91.3471512457
  0
LINE
  5
2B6
100
AcDbEntity
  8
0
100
AcDbLine
 62
7
  6
CONTINUOUS
 10
35.3343195455
 20
85.7920138247
 11
35.2219749811
 21
85.5499443605
  0
LINE
  5
2B7
100
AcDbEntity
  8
0
100
AcDbLine
 62
7
  6
CONTINUOUS
 10
39.2220179121
 20
92.5667892543
 11
39.3349193143
 21
92.8100585401
  0
LINE
  5
2B8
100
AcDbEntity
  8
0
100
AcDbLine
 62
7
  6
CONTINUOUS
 10
40.3897322912
 20
95.2221723394
 11
40.8910742831
 21
95.8567232032
  0
LINE
  5
2B9
100
AcDbEntity
  8
0
100
AcDbLine
 62
7
  6
CONTINUOUS
 10
33.6014789298
 20
94.6505202886
 11
34.1671619995
 21
94.9771156117
  0
LINE
  5
2BA
100
AcDbEntity
  8
0
100
AcDbLine
 62
7
  6
CONTINUOUS
 10
37.9855592257
 20
96.6101909048
 11
38.5512422954
 21
96.9367862279
  0
LINE
  5
2BB
100
AcDbEntity
  8
0
100
AcDbLine
 62
7
  6
CONTINUOUS
 10
40.8910742831
 20
95.8567232032
 11
41.2705733821
 21
96.0758258023
  0
LINE
  5
2BC
100
AcDbEntity
  8
0
100
AcDbLine
 62
7
  6
CONTINUOUS
 10
87.6962568487
 20
59.6440312197
 11
87.2769751783
 21
59.5791679667
  0
LINE
  5
2BD
100
AcDbEntity
  8
0
100
AcDbLine
 62
7
  6
CONTINUOUS
 10
91.6610554747
 20
60.3140849549
 11
92.0799997391
 21
60.378896011
  0
LINE
  5
2BE
100
AcDbEntity
  8
0
100
AcDbLine
 62
7
  6
CONTINUOUS
 10
81.1958315399
 20
59.0075263711
 11
81.6171913865
 21
59.0727111199
  0
LINE
  5
2BF
100
AcDbEntity
  8
0
100
AcDbLine
 62
7
  6
CONTINUOUS
 10
86.0024866927
 20
60.6243184904
 11
85.5799118376
 21
60.5589457777
  0
LINE
  5
2C0
100
AcDbEntity
  8
0
100
AcDbLine
 62
7
  6
CONTINUOUS
 10
89.9639921337
 20
61.2938627684
 11
90.3858432229
 21
61.3591235321
  0
LINE
  5
2C1
100
AcDbEntity
  8
0
100
AcDbLine
 62
7
  6
CONTINUOUS
 10
78.9280962549
 20
59.8072020738
 11
78.5088145845
 21
59.7423388208
  0
LINE
  5
2C2
100
AcDbEntity
  8
0
100
AcDbLine
 62
7
  6
CONTINUOUS
 10
92.4978462138
 20
62.1171227513
 11
92.0759951254
 21
62.0518619851
  0
LINE
  5
2C3
100
AcDbEntity
  8
0
100
AcDbLine
 62
7
  6
CONTINUOUS
 10
78.5088145845
 20
60.5588412379
 11
78.9280962549
 21
60.623704491
  0
LINE
  5
2C4
100
AcDbEntity
  8
0
100
AcDbLine
 62
7
  6
CONTINUOUS
 10
77.234326099
 20
60.7874893445
 11
76.8117512438
 21
60.7221166319
  0
LINE
  5
2C5
100
AcDbEntity
  8
0
100
AcDbLine
 62
7
  6
CONTINUOUS
 10
83.3148413224
 20
62.17553614
 11
82.8928948824
 21
62.1102606447
  0
LINE
  5
2C6
100
AcDbEntity
  8
0
100
AcDbLine
 62
7
  6
CONTINUOUS
 10
16.6308408159
 20
109.592249618
 11
16.129498824
 21
110.5907035957
  0
LINE
  5
2C7
100
AcDbEntity
  8
0
100
AcDbLine
 62
7
  6
CONTINUOUS
 10
24.5181603168
 20
105.3094156405
 11
24.8333183379
 21
104.2034689389
  0
LINE
  5
2C8
100
AcDbEntity
  8
0
100
AcDbLine
 62
7
  6
CONTINUOUS
 10
36.0056519953
 20
93.2625017232
 11
36.0056519953
 21
97.7532650174
  0
LINE
  5
2C9
100
AcDbEntity
  8
0
100
AcDbLine
 62
7
  6
CONTINUOUS
 10
37.3550285711
 20
83.5019507385
 11
37.3550285711
 21
84.3184531556
  0
LINE
  5
2CA
100
AcDbEntity
  8
0
100
AcDbLine
 62
7
  6
CONTINUOUS
 10
37.3550285711
 20
88.4009652413
 11
37.3550285711
 21
91.6669749098
  0
LINE
  5
2CB
100
AcDbEntity
  8
0
100
AcDbLine
 62
7
  6
CONTINUOUS
 10
37.7771464609
 20
91.7322769285
 11
37.7771464609
 21
88.46626726
  0
LINE
  5
2CC
100
AcDbEntity
  8
0
100
AcDbLine
 62
7
  6
CONTINUOUS
 10
37.7771464609
 20
84.3837551744
 11
37.7771464609
 21
83.5672527572
  0
LINE
  5
2CD
100
AcDbEntity
  8
0
100
AcDbLine
 62
7
  6
CONTINUOUS
 10
37.9089919388
 20
83.1821270744
 11
37.9089919388
 21
83.9986294915
  0
LINE
  5
2CE
100
AcDbEntity
  8
0
100
AcDbLine
 62
7
  6
CONTINUOUS
 10
37.9089919388
 20
88.0811415772
 11
37.9089919388
 21
91.3471512457
  0
LINE
  5
2CF
100
AcDbEntity
  8
0
100
AcDbLine
 62
7
  6
CONTINUOUS
 10
37.9855592257
 20
96.6101909048
 11
37.9855592257
 21
92.1194276106
  0
LINE
  5
2D0
100
AcDbEntity
  8
0
100
AcDbLine
 62
7
  6
CONTINUOUS
 10
38.5512422954
 20
92.4460229337
 11
38.5512422954
 21
96.9367862279
  0
LINE
  5
2D1
100
AcDbEntity
  8
0
100
AcDbLine
 62
7
  6
CONTINUOUS
 10
39.0520919136
 20
82.5221729264
 11
39.0520919136
 21
83.3386753435
  0
LINE
  5
2D2
100
AcDbEntity
  8
0
100
AcDbLine
 62
7
  6
CONTINUOUS
 10
39.0520919136
 20
87.4211874292
 11
39.0520919136
 21
90.6871970977
  0
LINE
  5
2D3
100
AcDbEntity
  8
0
100
AcDbLine
 62
7
  6
CONTINUOUS
 10
39.2218147979
 20
92.5368407639
 11
39.2218147979
 21
92.5663516031
  0
LINE
  5
2D4
100
AcDbEntity
  8
0
100
AcDbLine
 62
7
  6
CONTINUOUS
 10
39.3349193143
 20
92.4313350599
 11
39.3349193143
 21
92.8100585401
  0
LINE
  5
2D5
100
AcDbEntity
  8
0
100
AcDbLine
 62
7
  6
CONTINUOUS
 10
38.0287002894
 20
91.6203690217
 11
38.0218933413
 21
91.5904205314
  0
LINE
  5
2D6
100
AcDbEntity
  8
0
100
AcDbLine
 62
7
  6
CONTINUOUS
 10
39.215210964
 20
92.5368407639
 11
39.2220179121
 21
92.5667892543
  0
LINE
  5
2D7
100
AcDbEntity
  8
0
100
AcDbLine
 62
7
  6
CONTINUOUS
 10
38.0287002894
 20
84.2718472676
 11
38.0218933413
 21
84.2418987772
  0
LINE
  5
2D8
100
AcDbEntity
  8
0
100
AcDbLine
 62
7
  6
CONTINUOUS
 10
39.7259093126
 20
90.640881475
 11
39.7191138559
 21
90.6109813868
  0
LINE
  5
2D9
100
AcDbEntity
  8
0
100
AcDbLine
 62
7
  6
CONTINUOUS
 10
39.7259093126
 20
83.2923597208
 11
39.7191138559
 21
83.2624596326
  0
LINE
  5
2DA
100
AcDbEntity
  8
0
100
AcDbLine
 62
7
  6
CONTINUOUS
 10
39.7191138559
 20
90.6109813868
 11
39.606055279
 21
90.3673734358
  0
LINE
  5
2DB
100
AcDbEntity
  8
0
100
AcDbLine
 62
7
  6
CONTINUOUS
 10
38.0218933413
 20
84.2418987772
 11
37.9089919388
 21
83.9986294915
  0
LINE
  5
2DC
100
AcDbEntity
  8
0
100
AcDbLine
 62
7
  6
CONTINUOUS
 10
44.7738125871
 20
92.6910796614
 11
45.275154579
 21
93.3256305251
  0
LINE
  5
2DD
100
AcDbEntity
  8
0
100
AcDbLine
 62
7
  6
CONTINUOUS
 10
42.0544815013
 20
95.1850449289
 11
42.4339805986
 21
95.404147527
  0
LINE
  5
2DE
100
AcDbEntity
  8
0
100
AcDbLine
 62
7
  6
CONTINUOUS
 10
37.9855592257
 20
92.1194276106
 11
38.5512422954
 21
92.4460229337
  0
LINE
  5
2DF
100
AcDbEntity
  8
0
100
AcDbLine
 62
7
  6
CONTINUOUS
 10
42.3696395216
 20
94.0790982268
 11
42.9353225914
 21
94.4056935499
  0
LINE
  5
2E0
100
AcDbEntity
  8
0
100
AcDbLine
 62
7
  6
CONTINUOUS
 10
45.275154579
 20
93.3256305251
 11
45.654653678
 21
93.5447331242
  0
LINE
  5
2E1
100
AcDbEntity
  8
0
100
AcDbLine
 62
7
  6
CONTINUOUS
 10
87.2769751783
 20
62.8451776352
 11
87.6962568487
 21
62.9100408882
  0
LINE
  5
2E2
100
AcDbEntity
  8
0
100
AcDbLine
 62
7
  6
CONTINUOUS
 10
76.8117512438
 20
61.538619049
 11
77.234326099
 21
61.6039917616
  0
LINE
  5
2E3
100
AcDbEntity
  8
0
100
AcDbLine
 62
7
  6
CONTINUOUS
 10
81.6171913865
 20
63.1552232055
 11
81.1958315399
 21
63.0900384568
  0
LINE
  5
2E4
100
AcDbEntity
  8
0
100
AcDbLine
 62
7
  6
CONTINUOUS
 10
85.5799118376
 20
63.8249554463
 11
86.0024866927
 21
63.8903281589
  0
LINE
  5
2E5
100
AcDbEntity
  8
0
100
AcDbLine
 62
7
  6
CONTINUOUS
 10
74.5466807287
 20
62.3387069941
 11
74.1247342886
 21
62.2734314988
  0
LINE
  5
2E6
100
AcDbEntity
  8
0
100
AcDbLine
 62
7
  6
CONTINUOUS
 10
88.1137659423
 20
64.6482154133
 11
87.6911910876
 21
64.5828427004
  0
LINE
  5
2E7
100
AcDbEntity
  8
0
100
AcDbLine
 62
7
  6
CONTINUOUS
 10
74.1247342886
 20
63.0899339159
 11
74.5466807287
 21
63.1552094113
  0
LINE
  5
2E8
100
AcDbEntity
  8
0
100
AcDbLine
 62
7
  6
CONTINUOUS
 10
72.8490307927
 20
63.3183940597
 11
72.4276709462
 21
63.2532093109
  0
LINE
  5
2E9
100
AcDbEntity
  8
0
100
AcDbLine
 62
7
  6
CONTINUOUS
 10
78.9280962549
 20
64.7062165766
 11
78.5088145845
 21
64.6413533236
  0
LINE
  5
2EA
100
AcDbEntity
  8
0
100
AcDbLine
 62
7
  6
CONTINUOUS
 10
82.8928948824
 20
65.3762703132
 11
83.3148413224
 21
65.4415458085
  0
LINE
  5
2EB
100
AcDbEntity
  8
0
100
AcDbLine
 62
7
  6
CONTINUOUS
 10
72.4276709462
 20
64.069711728
 11
72.8490307927
 21
64.1348964768
  0
LINE
  5
2EC
100
AcDbEntity
  8
0
100
AcDbLine
 62
7
  6
CONTINUOUS
 10
21.0149211118
 20
107.06115694
 11
20.5135791199
 21
108.0596109176
  0
LINE
  5
2ED
100
AcDbEntity
  8
0
100
AcDbLine
 62
7
  6
CONTINUOUS
 10
28.9022406127
 20
102.7783229625
 11
29.2173986339
 21
101.6723762608
  0
LINE
  5
2EE
100
AcDbEntity
  8
0
100
AcDbLine
 62
7
  6
CONTINUOUS
 10
39.4742098034
 20
90.7524991165
 11
39.4742098034
 21
87.486489448
  0
LINE
  5
2EF
100
AcDbEntity
  8
0
100
AcDbLine
 62
7
  6
CONTINUOUS
 10
39.4742098034
 20
83.4039773623
 11
39.4742098034
 21
82.5874749452
  0
LINE
  5
2F0
100
AcDbEntity
  8
0
100
AcDbLine
 62
7
  6
CONTINUOUS
 10
39.606055279
 20
82.2023492645
 11
39.606055279
 21
83.0188516816
  0
LINE
  5
2F1
100
AcDbEntity
  8
0
100
AcDbLine
 62
7
  6
CONTINUOUS
 10
39.606055279
 20
87.1013637672
 11
39.606055279
 21
90.3673734358
  0
LINE
  5
2F2
100
AcDbEntity
  8
0
100
AcDbLine
 62
7
  6
CONTINUOUS
 10
40.3897322912
 20
90.7314090452
 11
40.3897322912
 21
95.2221723394
  0
LINE
  5
2F3
100
AcDbEntity
  8
0
100
AcDbLine
 62
7
  6
CONTINUOUS
 10
41.7391088687
 20
80.9708580595
 11
41.7391088687
 21
81.7873604766
  0
LINE
  5
2F4
100
AcDbEntity
  8
0
100
AcDbLine
 62
7
  6
CONTINUOUS
 10
41.7391088687
 20
85.8698725623
 11
41.7391088687
 21
89.1358822308
  0
LINE
  5
2F5
100
AcDbEntity
  8
0
100
AcDbLine
 62
7
  6
CONTINUOUS
 10
42.1612267584
 20
89.2011842504
 11
42.1612267584
 21
85.9351745819
  0
LINE
  5
2F6
100
AcDbEntity
  8
0
100
AcDbLine
 62
7
  6
CONTINUOUS
 10
42.1612267584
 20
81.8526624963
 11
42.1612267584
 21
81.0361600791
  0
LINE
  5
2F7
100
AcDbEntity
  8
0
100
AcDbLine
 62
7
  6
CONTINUOUS
 10
42.2930722326
 20
80.6510343976
 11
42.2930722326
 21
81.4675368147
  0
LINE
  5
2F8
100
AcDbEntity
  8
0
100
AcDbLine
 62
7
  6
CONTINUOUS
 10
42.2930722326
 20
85.5500489004
 11
42.2930722326
 21
88.8160585689
  0
LINE
  5
2F9
100
AcDbEntity
  8
0
100
AcDbLine
 62
7
  6
CONTINUOUS
 10
42.3696395216
 20
94.0790982268
 11
42.3696395216
 21
89.5883349325
  0
LINE
  5
2FA
100
AcDbEntity
  8
0
100
AcDbLine
 62
7
  6
CONTINUOUS
 10
42.9353225914
 20
89.9149302556
 11
42.9353225914
 21
94.4056935499
  0
LINE
  5
2FB
100
AcDbEntity
  8
0
100
AcDbLine
 62
7
  6
CONTINUOUS
 10
42.4130817616
 20
89.0898720271
 11
42.4062991927
 21
89.0600293316
  0
LINE
  5
2FC
100
AcDbEntity
  8
0
100
AcDbLine
 62
7
  6
CONTINUOUS
 10
43.5989900833
 20
90.0051524026
 11
43.6057726522
 21
90.0349950982
  0
LINE
  5
2FD
100
AcDbEntity
  8
0
100
AcDbLine
 62
7
  6
CONTINUOUS
 10
42.4130817616
 20
81.7413502729
 11
42.4062991927
 21
81.7115075774
  0
LINE
  5
2FE
100
AcDbEntity
  8
0
100
AcDbLine
 62
7
  6
CONTINUOUS
 10
44.10932321
 20
88.1084261436
 11
44.1024801393
 21
88.0783502219
  0
LINE
  5
2FF
100
AcDbEntity
  8
0
100
AcDbLine
 62
7
  6
CONTINUOUS
 10
42.4062991927
 20
89.0600293316
 11
42.2930722326
 21
88.8160585689
  0
LINE
  5
300
100
AcDbEntity
  8
0
100
AcDbLine
 62
7
  6
CONTINUOUS
 10
39.7191138559
 20
83.2624596326
 11
39.606055279
 21
83.0188516816
  0
LINE
  5
301
100
AcDbEntity
  8
0
100
AcDbLine
 62
7
  6
CONTINUOUS
 10
43.6057726522
 20
90.0349950982
 11
43.7189996119
 21
90.2789658611
  0
LINE
  5
302
100
AcDbEntity
  8
0
100
AcDbLine
 62
7
  6
CONTINUOUS
 10
44.1024801393
 20
88.0783502219
 11
43.9901355749
 21
87.8362807577
  0
LINE
  5
303
100
AcDbEntity
  8
0
100
AcDbLine
 62
7
  6
CONTINUOUS
 10
42.4062991927
 20
81.7115075774
 11
42.2930722326
 21
81.4675368147
  0
LINE
  5
304
100
AcDbEntity
  8
0
100
AcDbLine
 62
7
  6
CONTINUOUS
 10
46.4385617972
 20
92.6539522509
 11
46.8180608945
 21
92.873054849
  0
LINE
  5
305
100
AcDbEntity
  8
0
100
AcDbLine
 62
7
  6
CONTINUOUS
 10
42.3696395216
 20
89.5883349325
 11
42.9353225914
 21
89.9149302556
  0
LINE
  5
306
100
AcDbEntity
  8
0
100
AcDbLine
 62
7
  6
CONTINUOUS
 10
46.7537198175
 20
91.5480055487
 11
47.3194028873
 21
91.8746008718
  0
LINE
  5
307
100
AcDbEntity
  8
0
100
AcDbLine
 62
7
  6
CONTINUOUS
 10
77.234326099
 20
65.6865038473
 11
76.8117512438
 21
65.6211311346
  0
LINE
  5
308
100
AcDbEntity
  8
0
100
AcDbLine
 62
7
  6
CONTINUOUS
 10
81.1958315399
 20
66.3560481253
 11
81.6171913865
 21
66.4212328741
  0
LINE
  5
309
100
AcDbEntity
  8
0
100
AcDbLine
 62
7
  6
CONTINUOUS
 10
70.1599356611
 20
64.8693874307
 11
69.7406539908
 21
64.8045241777
  0
LINE
  5
30A
100
AcDbEntity
  8
0
100
AcDbLine
 62
7
  6
CONTINUOUS
 10
83.7296856485
 20
67.1793080901
 11
83.3083258022
 21
67.1141233412
  0
LINE
  5
30B
100
AcDbEntity
  8
0
100
AcDbLine
 62
7
  6
CONTINUOUS
 10
69.7406539908
 20
65.6210265948
 11
70.1599356611
 21
65.6858898479
  0
LINE
  5
30C
100
AcDbEntity
  8
0
100
AcDbLine
 62
7
  6
CONTINUOUS
 10
68.4661655052
 20
65.8496747014
 11
68.04359065
 21
65.7843019888
  0
LINE
  5
30D
100
AcDbEntity
  8
0
100
AcDbLine
 62
7
  6
CONTINUOUS
 10
74.5466807287
 20
67.2377214969
 11
74.1247342886
 21
67.1724460016
  0
LINE
  5
30E
100
AcDbEntity
  8
0
100
AcDbLine
 62
7
  6
CONTINUOUS
 10
78.5088145845
 20
67.9073629921
 11
78.9280962549
 21
67.9722262451
  0
LINE
  5
30F
100
AcDbEntity
  8
0
100
AcDbLine
 62
7
  6
CONTINUOUS
 10
68.04359065
 20
66.6008044059
 11
68.4661655052
 21
66.6661771185
  0
LINE
  5
310
100
AcDbEntity
  8
0
100
AcDbLine
 62
7
  6
CONTINUOUS
 10
25.3990014077
 20
104.530064262
 11
24.8976594158
 21
105.5285182396
  0
LINE
  5
311
100
AcDbEntity
  8
0
100
AcDbLine
 62
7
  6
CONTINUOUS
 10
29.7830817036
 20
101.9989715839
 11
29.2817397117
 21
102.9974255616
  0
LINE
  5
312
100
AcDbEntity
  8
0
100
AcDbLine
 62
7
  6
CONTINUOUS
 10
33.2863209087
 20
100.2472302845
 11
33.6014789298
 21
99.1412835828
  0
LINE
  5
313
100
AcDbEntity
  8
0
100
AcDbLine
 62
7
  6
CONTINUOUS
 10
43.4361722095
 20
79.9910802484
 11
43.4361722095
 21
80.8075826655
  0
LINE
  5
314
100
AcDbEntity
  8
0
100
AcDbLine
 62
7
  6
CONTINUOUS
 10
43.4361722095
 20
84.8900947512
 11
43.4361722095
 21
88.1561044197
  0
LINE
  5
315
100
AcDbEntity
  8
0
100
AcDbLine
 62
7
  6
CONTINUOUS
 10
43.605895094
 20
90.0051524026
 11
43.605895094
 21
90.0352589241
  0
LINE
  5
316
100
AcDbEntity
  8
0
100
AcDbLine
 62
7
  6
CONTINUOUS
 10
43.7189996119
 20
89.8999171256
 11
43.7189996119
 21
90.2789658611
  0
LINE
  5
317
100
AcDbEntity
  8
0
100
AcDbLine
 62
7
  6
CONTINUOUS
 10
43.8582900997
 20
88.2214064385
 11
43.8582900997
 21
84.95539677
  0
LINE
  5
318
100
AcDbEntity
  8
0
100
AcDbLine
 62
7
  6
CONTINUOUS
 10
43.8582900997
 20
80.8728846843
 11
43.8582900997
 21
80.0563822672
  0
LINE
  5
319
100
AcDbEntity
  8
0
100
AcDbLine
 62
7
  6
CONTINUOUS
 10
43.9901355749
 20
79.6712565864
 11
43.9901355749
 21
80.4877590036
  0
LINE
  5
31A
100
AcDbEntity
  8
0
100
AcDbLine
 62
7
  6
CONTINUOUS
 10
43.9901355749
 20
84.5702710892
 11
43.9901355749
 21
87.8362807577
  0
LINE
  5
31B
100
AcDbEntity
  8
0
100
AcDbLine
 62
7
  6
CONTINUOUS
 10
44.7738125871
 20
88.2003163672
 11
44.7738125871
 21
92.6910796614
  0
LINE
  5
31C
100
AcDbEntity
  8
0
100
AcDbLine
 62
7
  6
CONTINUOUS
 10
46.1231891648
 20
78.4397653816
 11
46.1231891648
 21
79.2562677987
  0
LINE
  5
31D
100
AcDbEntity
  8
0
100
AcDbLine
 62
7
  6
CONTINUOUS
 10
46.1231891648
 20
83.3387798844
 11
46.1231891648
 21
86.6047895529
  0
LINE
  5
31E
100
AcDbEntity
  8
0
100
AcDbLine
 62
7
  6
CONTINUOUS
 10
46.5453070546
 20
86.6700915716
 11
46.5453070546
 21
83.4040819031
  0
LINE
  5
31F
100
AcDbEntity
  8
0
100
AcDbLine
 62
7
  6
CONTINUOUS
 10
46.5453070546
 20
79.3215698175
 11
46.5453070546
 21
78.5050674003
  0
LINE
  5
320
100
AcDbEntity
  8
0
100
AcDbLine
 62
7
  6
CONTINUOUS
 10
46.7968608831
 20
86.5581836648
 11
46.7900539351
 21
86.5282351745
  0
LINE
  5
321
100
AcDbEntity
  8
0
100
AcDbLine
 62
7
  6
CONTINUOUS
 10
47.9833715573
 20
87.4746554067
 11
47.9901785053
 21
87.5046038971
  0
LINE
  5
322
100
AcDbEntity
  8
0
100
AcDbLine
 62
7
  6
CONTINUOUS
 10
44.10932321
 20
80.7599043894
 11
44.1024801393
 21
80.7298284678
  0
LINE
  5
323
100
AcDbEntity
  8
0
100
AcDbLine
 62
7
  6
CONTINUOUS
 10
46.7900539351
 20
86.5282351745
 11
46.6771525326
 21
86.2849658888
  0
LINE
  5
324
100
AcDbEntity
  8
0
100
AcDbLine
 62
7
  6
CONTINUOUS
 10
44.1024801393
 20
80.7298284678
 11
43.9901355749
 21
80.4877590036
  0
LINE
  5
325
100
AcDbEntity
  8
0
100
AcDbLine
 62
7
  6
CONTINUOUS
 10
47.9901785053
 20
87.5046038971
 11
48.1030799076
 21
87.7478731829
  0
LINE
  5
326
100
AcDbEntity
  8
0
100
AcDbLine
 62
7
  6
CONTINUOUS
 10
49.157892883
 20
90.1599869834
 11
49.6592348749
 21
90.7945378471
  0
LINE
  5
327
100
AcDbEntity
  8
0
100
AcDbLine
 62
7
  6
CONTINUOUS
 10
49.6592348749
 20
90.7945378471
 11
50.0387339739
 21
91.0136404462
  0
LINE
  5
328
100
AcDbEntity
  8
0
100
AcDbLine
 62
7
  6
CONTINUOUS
 10
50.8226420931
 20
90.1228595728
 11
51.2021411905
 21
90.341962171
  0
LINE
  5
329
100
AcDbEntity
  8
0
100
AcDbLine
 62
7
  6
CONTINUOUS
 10
46.7537198175
 20
87.0572422545
 11
47.3194028873
 21
87.3838375776
  0
LINE
  5
32A
100
AcDbEntity
  8
0
100
AcDbLine
 62
7
  6
CONTINUOUS
 10
51.1378001134
 20
89.0169128707
 11
51.7034831832
 21
89.3435081938
  0
LINE
  5
32B
100
AcDbEntity
  8
0
100
AcDbLine
 62
7
  6
CONTINUOUS
 10
72.8490307927
 20
68.2174085624
 11
72.4276709462
 21
68.1522238137
  0
LINE
  5
32C
100
AcDbEntity
  8
0
100
AcDbLine
 62
7
  6
CONTINUOUS
 10
76.8117512438
 20
68.8871408032
 11
77.234326099
 21
68.9525135158
  0
LINE
  5
32D
100
AcDbEntity
  8
0
100
AcDbLine
 62
7
  6
CONTINUOUS
 10
65.7785201349
 20
67.400892351
 11
65.3565736949
 21
67.3356168557
  0
LINE
  5
32E
100
AcDbEntity
  8
0
100
AcDbLine
 62
7
  6
CONTINUOUS
 10
79.345605349
 20
69.7104007705
 11
78.9230304943
 21
69.6450280576
  0
LINE
  5
32F
100
AcDbEntity
  8
0
100
AcDbLine
 62
7
  6
CONTINUOUS
 10
65.3565736949
 20
68.1521192728
 11
65.7785201349
 21
68.2173947682
  0
LINE
  5
330
100
AcDbEntity
  8
0
100
AcDbLine
 62
7
  6
CONTINUOUS
 10
64.080870199
 20
68.3805794166
 11
63.6595103524
 21
68.3153946678
  0
LINE
  5
331
100
AcDbEntity
  8
0
100
AcDbLine
 62
7
  6
CONTINUOUS
 10
70.1599356611
 20
69.7684019335
 11
69.7406539908
 21
69.7035386805
  0
LINE
  5
332
100
AcDbEntity
  8
0
100
AcDbLine
 62
7
  6
CONTINUOUS
 10
74.1247342886
 20
70.4384556701
 11
74.5466807287
 21
70.5037311654
  0
LINE
  5
333
100
AcDbEntity
  8
0
100
AcDbLine
 62
7
  6
CONTINUOUS
 10
63.6595103524
 20
69.1318970849
 11
64.080870199
 21
69.1970818337
  0
LINE
  5
334
100
AcDbEntity
  8
0
100
AcDbLine
 62
7
  6
CONTINUOUS
 10
68.4661655052
 20
70.7486892042
 11
68.04359065
 21
70.6833164915
  0
LINE
  5
335
100
AcDbEntity
  8
0
100
AcDbLine
 62
7
  6
CONTINUOUS
 10
72.4276709462
 20
71.4182334822
 11
72.8490307927
 21
71.483418231
  0
LINE
  5
336
100
AcDbEntity
  8
0
100
AcDbLine
 62
7
  6
CONTINUOUS
 10
34.1671619995
 20
99.4678789059
 11
33.6658200076
 21
100.4663328836
  0
LINE
  5
337
100
AcDbEntity
  8
0
100
AcDbLine
 62
7
  6
CONTINUOUS
 10
37.6704012046
 20
97.7161376064
 11
37.9855592257
 21
96.6101909048
  0
LINE
  5
338
100
AcDbEntity
  8
0
100
AcDbLine
 62
7
  6
CONTINUOUS
 10
46.6771525326
 20
78.1199417175
 11
46.6771525326
 21
78.9364441346
  0
LINE
  5
339
100
AcDbEntity
  8
0
100
AcDbLine
 62
7
  6
CONTINUOUS
 10
46.6771525326
 20
83.0189562203
 11
46.6771525326
 21
86.2849658888
  0
LINE
  5
33A
100
AcDbEntity
  8
0
100
AcDbLine
 62
7
  6
CONTINUOUS
 10
46.7537198175
 20
91.5480055487
 11
46.7537198175
 21
87.0572422545
  0
LINE
  5
33B
100
AcDbEntity
  8
0
100
AcDbLine
 62
7
  6
CONTINUOUS
 10
47.3194028873
 20
87.3838375776
 11
47.3194028873
 21
91.8746008718
  0
LINE
  5
33C
100
AcDbEntity
  8
0
100
AcDbLine
 62
7
  6
CONTINUOUS
 10
47.8202525073
 20
77.4599875695
 11
47.8202525073
 21
78.2764899866
  0
LINE
  5
33D
100
AcDbEntity
  8
0
100
AcDbLine
 62
7
  6
CONTINUOUS
 10
47.8202525073
 20
82.3590020723
 11
47.8202525073
 21
85.6250117408
  0
LINE
  5
33E
100
AcDbEntity
  8
0
100
AcDbLine
 62
7
  6
CONTINUOUS
 10
47.9899753912
 20
87.4746554067
 11
47.9899753912
 21
87.5041662459
  0
LINE
  5
33F
100
AcDbEntity
  8
0
100
AcDbLine
 62
7
  6
CONTINUOUS
 10
48.1030799076
 20
87.3691497028
 11
48.1030799076
 21
87.7478731829
  0
LINE
  5
340
100
AcDbEntity
  8
0
100
AcDbLine
 62
7
  6
CONTINUOUS
 10
48.2423703971
 20
85.6903137596
 11
48.2423703971
 21
82.4243040911
  0
LINE
  5
341
100
AcDbEntity
  8
0
100
AcDbLine
 62
7
  6
CONTINUOUS
 10
48.2423703971
 20
78.3417920054
 11
48.2423703971
 21
77.5252895883
  0
LINE
  5
342
100
AcDbEntity
  8
0
100
AcDbLine
 62
7
  6
CONTINUOUS
 10
48.3742158727
 20
77.1401639076
 11
48.3742158727
 21
77.9566663247
  0
LINE
  5
343
100
AcDbEntity
  8
0
100
AcDbLine
 62
7
  6
CONTINUOUS
 10
48.3742158727
 20
82.0391784103
 11
48.3742158727
 21
85.3051880789
  0
LINE
  5
344
100
AcDbEntity
  8
0
100
AcDbLine
 62
7
  6
CONTINUOUS
 10
49.157892883
 20
85.6692236892
 11
49.157892883
 21
90.1599869834
  0
LINE
  5
345
100
AcDbEntity
  8
0
100
AcDbLine
 62
7
  6
CONTINUOUS
 10
46.7968608831
 20
79.2096619107
 11
46.7900539351
 21
79.1797134203
  0
LINE
  5
346
100
AcDbEntity
  8
0
100
AcDbLine
 62
7
  6
CONTINUOUS
 10
48.4940699064
 20
85.5786961181
 11
48.4872744497
 21
85.5487960298
  0
LINE
  5
347
100
AcDbEntity
  8
0
100
AcDbLine
 62
7
  6
CONTINUOUS
 10
48.4940699064
 20
78.2301743639
 11
48.4872744497
 21
78.2002742757
  0
LINE
  5
348
100
AcDbEntity
  8
0
100
AcDbLine
 62
7
  6
CONTINUOUS
 10
48.4872744497
 20
85.5487960298
 11
48.3742158727
 21
85.3051880789
  0
LINE
  5
349
100
AcDbEntity
  8
0
100
AcDbLine
 62
7
  6
CONTINUOUS
 10
46.7900539351
 20
79.1797134203
 11
46.6771525326
 21
78.9364441346
  0
LINE
  5
34A
100
AcDbEntity
  8
0
100
AcDbLine
 62
7
  6
CONTINUOUS
 10
51.1744597865
 20
83.9978439746
 11
51.0612328264
 21
83.753873212
  0
LINE
  5
34B
100
AcDbEntity
  8
0
100
AcDbLine
 62
7
  6
CONTINUOUS
 10
48.4872744497
 20
78.2002742757
 11
48.3742158727
 21
77.9566663247
  0
LINE
  5
34C
100
AcDbEntity
  8
0
100
AcDbLine
 62
7
  6
CONTINUOUS
 10
53.5419731789
 20
87.6288943053
 11
54.0433151708
 21
88.2634451691
  0
LINE
  5
34D
100
AcDbEntity
  8
0
100
AcDbLine
 62
7
  6
CONTINUOUS
 10
54.0433151708
 20
88.2634451691
 11
54.4228142698
 21
88.4825477682
  0
LINE
  5
34E
100
AcDbEntity
  8
0
100
AcDbLine
 62
7
  6
CONTINUOUS
 10
55.206722389
 20
87.5917668948
 11
55.5862214864
 21
87.810869493
  0
LINE
  5
34F
100
AcDbEntity
  8
0
100
AcDbLine
 62
7
  6
CONTINUOUS
 10
51.1378001134
 20
84.5261495765
 11
51.7034831832
 21
84.8527448996
  0
LINE
  5
350
100
AcDbEntity
  8
0
100
AcDbLine
 62
7
  6
CONTINUOUS
 10
61.3917750674
 20
69.9315727876
 11
60.972493397
 21
69.8667095346
  0
LINE
  5
351
100
AcDbEntity
  8
0
100
AcDbLine
 62
7
  6
CONTINUOUS
 10
74.9615250552
 20
72.2414934473
 11
74.5401652089
 21
72.1763086984
  0
LINE
  5
352
100
AcDbEntity
  8
0
100
AcDbLine
 62
7
  6
CONTINUOUS
 10
60.972493397
 20
70.6832119517
 11
61.3917750674
 21
70.7480752048
  0
LINE
  5
353
100
AcDbEntity
  8
0
100
AcDbLine
 62
7
  6
CONTINUOUS
 10
59.6980049114
 20
70.9118600583
 11
59.2754300562
 21
70.8464873457
  0
LINE
  5
354
100
AcDbEntity
  8
0
100
AcDbLine
 62
7
  6
CONTINUOUS
 10
65.7785201349
 20
72.2999068538
 11
65.3565736949
 21
72.2346313585
  0
LINE
  5
355
100
AcDbEntity
  8
0
100
AcDbLine
 62
7
  6
CONTINUOUS
 10
69.7406539908
 20
72.969548349
 11
70.1599356611
 21
73.034411602
  0
LINE
  5
356
100
AcDbEntity
  8
0
100
AcDbLine
 62
7
  6
CONTINUOUS
 10
59.2754300562
 20
71.6629897628
 11
59.6980049114
 21
71.7283624754
  0
LINE
  5
357
100
AcDbEntity
  8
0
100
AcDbLine
 62
7
  6
CONTINUOUS
 10
64.080870199
 20
73.2795939193
 11
63.6595103524
 21
73.2144091706
  0
LINE
  5
358
100
AcDbEntity
  8
0
100
AcDbLine
 62
7
  6
CONTINUOUS
 10
68.04359065
 20
73.9493261601
 11
68.4661655052
 21
74.0146988727
  0
LINE
  5
359
100
AcDbEntity
  8
0
100
AcDbLine
 62
7
  6
CONTINUOUS
 10
57.0103595411
 20
72.4630777079
 11
56.5884131011
 21
72.3978022126
  0
LINE
  5
35A
100
AcDbEntity
  8
0
100
AcDbLine
 62
7
  6
CONTINUOUS
 10
70.5774447557
 20
74.7725861277
 11
70.154869901
 21
74.7072134148
  0
LINE
  5
35B
100
AcDbEntity
  8
0
100
AcDbLine
 62
7
  6
CONTINUOUS
 10
38.5512422954
 20
96.9367862279
 11
38.0499003036
 21
97.9352402055
  0
LINE
  5
35C
100
AcDbEntity
  8
0
100
AcDbLine
 62
7
  6
CONTINUOUS
 10
42.0544815005
 20
95.1850449284
 11
42.3696395216
 21
94.0790982268
  0
LINE
  5
35D
100
AcDbEntity
  8
0
100
AcDbLine
 62
7
  6
CONTINUOUS
 10
50.5072694625
 20
75.9086727026
 11
50.5072694625
 21
76.7251751197
  0
LINE
  5
35E
100
AcDbEntity
  8
0
100
AcDbLine
 62
7
  6
CONTINUOUS
 10
50.5072694625
 20
80.8076872054
 11
50.5072694625
 21
84.0736968739
  0
LINE
  5
35F
100
AcDbEntity
  8
0
100
AcDbLine
 62
7
  6
CONTINUOUS
 10
50.9293873522
 20
84.1389988935
 11
50.9293873522
 21
80.872989225
  0
LINE
  5
360
100
AcDbEntity
  8
0
100
AcDbLine
 62
7
  6
CONTINUOUS
 10
50.9293873522
 20
76.7904771394
 11
50.9293873522
 21
75.9739747222
  0
LINE
  5
361
100
AcDbEntity
  8
0
100
AcDbLine
 62
7
  6
CONTINUOUS
 10
51.0612328264
 20
75.5888490407
 11
51.0612328264
 21
76.4053514578
  0
LINE
  5
362
100
AcDbEntity
  8
0
100
AcDbLine
 62
7
  6
CONTINUOUS
 10
51.0612328264
 20
80.4878635435
 11
51.0612328264
 21
83.753873212
  0
LINE
  5
363
100
AcDbEntity
  8
0
100
AcDbLine
 62
7
  6
CONTINUOUS
 10
51.1378001134
 20
89.0169128707
 11
51.1378001134
 21
84.5261495765
  0
LINE
  5
364
100
AcDbEntity
  8
0
100
AcDbLine
 62
7
  6
CONTINUOUS
 10
51.7034831832
 20
84.8527448996
 11
51.7034831832
 21
89.3435081938
  0
LINE
  5
365
100
AcDbEntity
  8
0
100
AcDbLine
 62
7
  6
CONTINUOUS
 10
52.2043328032
 20
74.9288948915
 11
52.2043328032
 21
75.7453973086
  0
LINE
  5
366
100
AcDbEntity
  8
0
100
AcDbLine
 62
7
  6
CONTINUOUS
 10
52.2043328032
 20
79.8279093943
 11
52.2043328032
 21
83.0939190628
  0
LINE
  5
367
100
AcDbEntity
  8
0
100
AcDbLine
 62
7
  6
CONTINUOUS
 10
52.3740556873
 20
84.9429670454
 11
52.3740556873
 21
84.9730735669
  0
LINE
  5
368
100
AcDbEntity
  8
0
100
AcDbLine
 62
7
  6
CONTINUOUS
 10
52.4871602052
 20
84.8377317684
 11
52.4871602052
 21
85.2167805039
  0
LINE
  5
369
100
AcDbEntity
  8
0
100
AcDbLine
 62
7
  6
CONTINUOUS
 10
52.6264506935
 20
83.1592210816
 11
52.6264506935
 21
79.8932114131
  0
LINE
  5
36A
100
AcDbEntity
  8
0
100
AcDbLine
 62
7
  6
CONTINUOUS
 10
52.6264506935
 20
75.8106993274
 11
52.6264506935
 21
74.9941969103
  0
LINE
  5
36B
100
AcDbEntity
  8
0
100
AcDbLine
 62
7
  6
CONTINUOUS
 10
52.7582961687
 20
74.6090712295
 11
52.7582961687
 21
75.4255736467
  0
LINE
  5
36C
100
AcDbEntity
  8
0
100
AcDbLine
 62
7
  6
CONTINUOUS
 10
52.7582961687
 20
79.5080857323
 11
52.7582961687
 21
82.7740954008
  0
LINE
  5
36D
100
AcDbEntity
  8
0
100
AcDbLine
 62
7
  6
CONTINUOUS
 10
53.5419731789
 20
83.1381310111
 11
53.5419731789
 21
87.6288943053
  0
LINE
  5
36E
100
AcDbEntity
  8
0
100
AcDbLine
 62
7
  6
CONTINUOUS
 10
51.1812423554
 20
84.0276866702
 11
51.1744597865
 21
83.9978439746
  0
LINE
  5
36F
100
AcDbEntity
  8
0
100
AcDbLine
 62
7
  6
CONTINUOUS
 10
52.3671506766
 20
84.9429670454
 11
52.3739332455
 21
84.972809741
  0
LINE
  5
370
100
AcDbEntity
  8
0
100
AcDbLine
 62
7
  6
CONTINUOUS
 10
51.1812423554
 20
76.679164916
 11
51.1744597865
 21
76.6493222205
  0
LINE
  5
371
100
AcDbEntity
  8
0
100
AcDbLine
 62
7
  6
CONTINUOUS
 10
52.8774838038
 20
83.0462407867
 11
52.8706407331
 21
83.016164865
  0
LINE
  5
372
100
AcDbEntity
  8
0
100
AcDbLine
 62
7
  6
CONTINUOUS
 10
52.8774838038
 20
75.6977190325
 11
52.8706407331
 21
75.6676431109
  0
LINE
  5
373
100
AcDbEntity
  8
0
100
AcDbLine
 62
7
  6
CONTINUOUS
 10
52.3739332455
 20
84.972809741
 11
52.4871602052
 21
85.2167805039
  0
LINE
  5
374
100
AcDbEntity
  8
0
100
AcDbLine
 62
7
  6
CONTINUOUS
 10
52.8706407331
 20
83.016164865
 11
52.7582961687
 21
82.7740954008
  0
LINE
  5
375
100
AcDbEntity
  8
0
100
AcDbLine
 62
7
  6
CONTINUOUS
 10
51.1744597865
 20
76.6493222205
 11
51.0612328264
 21
76.4053514578
  0
LINE
  5
376
100
AcDbEntity
  8
0
100
AcDbLine
 62
7
  6
CONTINUOUS
 10
55.5218804093
 20
86.4858201927
 11
56.0875634791
 21
86.8124155158
  0
LINE
  5
377
100
AcDbEntity
  8
0
100
AcDbLine
 62
7
  6
CONTINUOUS
 10
58.4273954667
 20
85.7323524911
 11
58.8068945657
 21
85.9514550902
  0
LINE
  5
378
100
AcDbEntity
  8
0
100
AcDbLine
 62
7
  6
CONTINUOUS
 10
59.590802685
 20
85.0606742168
 11
59.9703017823
 21
85.2797768149
  0
LINE
  5
379
100
AcDbEntity
  8
0
100
AcDbLine
 62
7
  6
CONTINUOUS
 10
56.5884131011
 20
73.2143046297
 11
57.0103595411
 21
73.2795801251
  0
LINE
  5
37A
100
AcDbEntity
  8
0
100
AcDbLine
 62
7
  6
CONTINUOUS
 10
55.3127096052
 20
73.4427647735
 11
54.8913497586
 21
73.3775800247
  0
LINE
  5
37B
100
AcDbEntity
  8
0
100
AcDbLine
 62
7
  6
CONTINUOUS
 10
61.3917750674
 20
74.8305872904
 11
60.972493397
 21
74.7657240374
  0
LINE
  5
37C
100
AcDbEntity
  8
0
100
AcDbLine
 62
7
  6
CONTINUOUS
 10
65.3565736949
 20
75.500641027
 11
65.7785201349
 21
75.5659165223
  0
LINE
  5
37D
100
AcDbEntity
  8
0
100
AcDbLine
 62
7
  6
CONTINUOUS
 10
54.8913497586
 20
74.1940824418
 11
55.3127096052
 21
74.2592671906
  0
LINE
  5
37E
100
AcDbEntity
  8
0
100
AcDbLine
 62
7
  6
CONTINUOUS
 10
59.6980049114
 20
75.8108745611
 11
59.2754300562
 21
75.7455018484
  0
LINE
  5
37F
100
AcDbEntity
  8
0
100
AcDbLine
 62
7
  6
CONTINUOUS
 10
63.6595103524
 20
76.4804188391
 11
64.080870199
 21
76.5456035879
  0
LINE
  5
380
100
AcDbEntity
  8
0
100
AcDbLine
 62
7
  6
CONTINUOUS
 10
52.6236144736
 20
74.9937581445
 11
52.2043328032
 21
74.9288948915
  0
LINE
  5
381
100
AcDbEntity
  8
0
100
AcDbLine
 62
7
  6
CONTINUOUS
 10
66.1933644619
 20
77.3036788045
 11
65.7720046156
 21
77.2384940555
  0
LINE
  5
382
100
AcDbEntity
  8
0
100
AcDbLine
 62
7
  6
CONTINUOUS
 10
99.0091343938
 20
47.9067414158
 11
92.2150188099
 21
51.8292371383
  0
LINE
  5
383
100
AcDbEntity
  8
0
100
AcDbLine
 62
7
  6
CONTINUOUS
 10
91.6610554747
 20
52.1490607836
 11
90.5179554696
 21
52.8090149492
  0
LINE
  5
384
100
AcDbEntity
  8
0
100
AcDbLine
 62
7
  6
CONTINUOUS
 10
89.9639921337
 20
53.1288385971
 11
87.8309385437
 21
54.3603298019
  0
LINE
  5
385
100
AcDbEntity
  8
0
100
AcDbLine
 62
7
  6
CONTINUOUS
 10
87.2769751783
 20
54.6801534639
 11
86.1338752014
 21
55.3401076131
  0
LINE
  5
386
100
AcDbEntity
  8
0
100
AcDbLine
 62
7
  6
CONTINUOUS
 10
85.5799118376
 20
55.659931275
 11
83.4468582478
 21
56.89142248
  0
LINE
  5
387
100
AcDbEntity
  8
0
100
AcDbLine
 62
7
  6
CONTINUOUS
 10
82.8928948824
 20
57.2112461419
 11
81.7497949076
 21
57.8712002899
  0
LINE
  5
388
100
AcDbEntity
  8
0
100
AcDbLine
 62
7
  6
CONTINUOUS
 10
81.1958315399
 20
58.191023954
 11
79.06277795
 21
59.4225151588
  0
LINE
  5
389
100
AcDbEntity
  8
0
100
AcDbLine
 62
7
  6
CONTINUOUS
 10
78.5088145845
 20
59.7423388208
 11
77.3657146077
 21
60.40229297
  0
LINE
  5
38A
100
AcDbEntity
  8
0
100
AcDbLine
 62
7
  6
CONTINUOUS
 10
76.8117512438
 20
60.7221166319
 11
74.6786976541
 21
61.9536078369
  0
LINE
  5
38B
100
AcDbEntity
  8
0
100
AcDbLine
 62
7
  6
CONTINUOUS
 10
74.1247342886
 20
62.2734314988
 11
72.9816343139
 21
62.9333856468
  0
LINE
  5
38C
100
AcDbEntity
  8
0
100
AcDbLine
 62
7
  6
CONTINUOUS
 10
72.4276709462
 20
63.2532093109
 11
70.2946173562
 21
64.4847005157
  0
LINE
  5
38D
100
AcDbEntity
  8
0
100
AcDbLine
 62
7
  6
CONTINUOUS
 10
69.7406539908
 20
64.8045241777
 11
68.5975540139
 21
65.4644783269
  0
LINE
  5
38E
100
AcDbEntity
  8
0
100
AcDbLine
 62
7
  6
CONTINUOUS
 10
68.04359065
 20
65.7843019888
 11
65.9105370603
 21
67.0157931938
  0
LINE
  5
38F
100
AcDbEntity
  8
0
100
AcDbLine
 62
7
  6
CONTINUOUS
 10
65.3565736949
 20
67.3356168557
 11
64.2134737201
 21
67.9955710037
  0
LINE
  5
390
100
AcDbEntity
  8
0
100
AcDbLine
 62
7
  6
CONTINUOUS
 10
63.6595103524
 20
68.3153946678
 11
61.5264567624
 21
69.5468858726
  0
LINE
  5
391
100
AcDbEntity
  8
0
100
AcDbLine
 62
7
  6
CONTINUOUS
 10
60.972493397
 20
69.8667095346
 11
59.8293934201
 21
70.5266636838
  0
LINE
  5
392
100
AcDbEntity
  8
0
100
AcDbLine
 62
7
  6
CONTINUOUS
 10
59.2754300562
 20
70.8464873457
 11
57.1423764665
 21
72.0779785507
  0
LINE
  5
393
100
AcDbEntity
  8
0
100
AcDbLine
 62
7
  6
CONTINUOUS
 10
56.5884131011
 20
72.3978022126
 11
55.4453131263
 21
73.0577563606
  0
LINE
  5
394
100
AcDbEntity
  8
0
100
AcDbLine
 62
7
  6
CONTINUOUS
 10
54.8913497586
 20
73.3775800247
 11
52.7582961687
 21
74.6090712295
  0
LINE
  5
395
100
AcDbEntity
  8
0
100
AcDbLine
 62
7
  6
CONTINUOUS
 10
52.2043328032
 20
74.9288948915
 11
51.0612328264
 21
75.5888490407
  0
LINE
  5
396
100
AcDbEntity
  8
0
100
AcDbLine
 62
7
  6
CONTINUOUS
 10
50.5072694625
 20
75.9086727026
 11
48.3742158727
 21
77.1401639076
  0
LINE
  5
397
100
AcDbEntity
  8
0
100
AcDbLine
 62
7
  6
CONTINUOUS
 10
47.8202525073
 20
77.4599875695
 11
46.6771525326
 21
78.1199417175
  0
LINE
  5
398
100
AcDbEntity
  8
0
100
AcDbLine
 62
7
  6
CONTINUOUS
 10
46.1231891648
 20
78.4397653816
 11
43.9901355749
 21
79.6712565864
  0
LINE
  5
399
100
AcDbEntity
  8
0
100
AcDbLine
 62
7
  6
CONTINUOUS
 10
43.4361722095
 20
79.9910802484
 11
42.2930722326
 21
80.6510343976
  0
LINE
  5
39A
100
AcDbEntity
  8
0
100
AcDbLine
 62
7
  6
CONTINUOUS
 10
41.7391088687
 20
80.9708580595
 11
39.606055279
 21
82.2023492645
  0
LINE
  5
39B
100
AcDbEntity
  8
0
100
AcDbLine
 62
7
  6
CONTINUOUS
 10
39.0520919136
 20
82.5221729264
 11
37.9089919388
 21
83.1821270744
  0
LINE
  5
39C
100
AcDbEntity
  8
0
100
AcDbLine
 62
7
  6
CONTINUOUS
 10
37.3550285711
 20
83.5019507385
 11
35.2219749811
 21
84.7334419433
  0
LINE
  5
39D
100
AcDbEntity
  8
0
100
AcDbLine
 62
7
  6
CONTINUOUS
 10
34.6680116157
 20
85.0532656053
 11
33.5249116388
 21
85.7132197545
  0
LINE
  5
39E
100
AcDbEntity
  8
0
100
AcDbLine
 62
7
  6
CONTINUOUS
 10
32.9709482749
 20
86.0330434164
 11
30.8378946852
 21
87.2645346214
  0
LINE
  5
39F
100
AcDbEntity
  8
0
100
AcDbLine
 62
7
  6
CONTINUOUS
 10
30.2839313198
 20
87.5843582833
 11
29.140831345
 21
88.2443124313
  0
LINE
  5
3A0
100
AcDbEntity
  8
0
100
AcDbLine
 62
7
  6
CONTINUOUS
 10
28.5868679773
 20
88.5641360954
 11
26.4538143873
 21
89.7956273003
  0
LINE
  5
3A1
100
AcDbEntity
  8
0
100
AcDbLine
 62
7
  6
CONTINUOUS
 10
25.8998510219
 20
90.1154509622
 11
24.756751045
 21
90.7754051114
  0
LINE
  5
3A2
100
AcDbEntity
  8
0
100
AcDbLine
 62
7
  6
CONTINUOUS
 10
24.2027876812
 20
91.0952287733
 11
22.0697340914
 21
92.3267199783
  0
LINE
  5
3A3
100
AcDbEntity
  8
0
100
AcDbLine
 62
7
  6
CONTINUOUS
 10
21.515770726
 20
92.6465436402
 11
20.3726707512
 21
93.3064977882
  0
LINE
  5
3A4
100
AcDbEntity
  8
0
100
AcDbLine
 62
7
  6
CONTINUOUS
 10
19.8187073835
 20
93.6263214523
 11
13.0245918159
 21
97.5488171655
  0
LINE
  5
3A5
100
AcDbEntity
  8
0
100
AcDbLine
 62
7
  6
CONTINUOUS
 10
13.0245918159
 20
98.3653195826
 11
19.8187073835
 21
94.4428238694
  0
LINE
  5
3A6
100
AcDbEntity
  8
0
100
AcDbLine
 62
7
  6
CONTINUOUS
 10
20.3726707512
 20
94.1230002053
 11
21.515770726
 21
93.4630460574
  0
LINE
  5
3A7
100
AcDbEntity
  8
0
100
AcDbLine
 62
7
  6
CONTINUOUS
 10
22.0697340914
 20
93.1432223954
 11
24.2027876812
 21
91.9117311904
  0
LINE
  5
3A8
100
AcDbEntity
  8
0
100
AcDbLine
 62
7
  6
CONTINUOUS
 10
24.756751045
 20
91.5919075285
 11
25.8998510219
 21
90.9319533793
  0
LINE
  5
3A9
100
AcDbEntity
  8
0
100
AcDbLine
 62
7
  6
CONTINUOUS
 10
26.4538143873
 20
90.6121297174
 11
28.5868679773
 21
89.3806385125
  0
LINE
  5
3AA
100
AcDbEntity
  8
0
100
AcDbLine
 62
7
  6
CONTINUOUS
 10
29.140831345
 20
89.0608148484
 11
30.2839313198
 21
88.4008607004
  0
LINE
  5
3AB
100
AcDbEntity
  8
0
100
AcDbLine
 62
7
  6
CONTINUOUS
 10
30.8378946852
 20
88.0810370385
 11
32.9709482749
 21
86.8495458335
  0
LINE
  5
3AC
100
AcDbEntity
  8
0
100
AcDbLine
 62
7
  6
CONTINUOUS
 10
33.5249116388
 20
86.5297221716
 11
34.6680116157
 21
85.8697680224
  0
LINE
  5
3AD
100
AcDbEntity
  8
0
100
AcDbLine
 62
7
  6
CONTINUOUS
 10
35.2219749811
 20
85.5499443605
 11
37.3550285711
 21
84.3184531556
  0
LINE
  5
3AE
100
AcDbEntity
  8
0
100
AcDbLine
 62
7
  6
CONTINUOUS
 10
37.9089919388
 20
83.9986294915
 11
39.0520919136
 21
83.3386753435
  0
LINE
  5
3AF
100
AcDbEntity
  8
0
100
AcDbLine
 62
7
  6
CONTINUOUS
 10
39.606055279
 20
83.0188516816
 11
41.7391088687
 21
81.7873604766
  0
LINE
  5
3B0
100
AcDbEntity
  8
0
100
AcDbLine
 62
7
  6
CONTINUOUS
 10
42.2930722326
 20
81.4675368147
 11
43.4361722095
 21
80.8075826655
  0
LINE
  5
3B1
100
AcDbEntity
  8
0
100
AcDbLine
 62
7
  6
CONTINUOUS
 10
43.9901355749
 20
80.4877590036
 11
46.1231891648
 21
79.2562677987
  0
LINE
  5
3B2
100
AcDbEntity
  8
0
100
AcDbLine
 62
7
  6
CONTINUOUS
 10
46.6771525326
 20
78.9364441346
 11
47.8202525073
 21
78.2764899866
  0
LINE
  5
3B3
100
AcDbEntity
  8
0
100
AcDbLine
 62
7
  6
CONTINUOUS
 10
48.3742158727
 20
77.9566663247
 11
50.5072694625
 21
76.7251751197
  0
LINE
  5
3B4
100
AcDbEntity
  8
0
100
AcDbLine
 62
7
  6
CONTINUOUS
 10
51.0612328264
 20
76.4053514578
 11
52.2043328032
 21
75.7453973086
  0
LINE
  5
3B5
100
AcDbEntity
  8
0
100
AcDbLine
 62
7
  6
CONTINUOUS
 10
52.7582961687
 20
75.4255736467
 11
54.8913497586
 21
74.1940824418
  0
LINE
  5
3B6
100
AcDbEntity
  8
0
100
AcDbLine
 62
7
  6
CONTINUOUS
 10
55.4453131263
 20
73.8742587777
 11
56.5884131011
 21
73.2143046297
  0
LINE
  5
3B7
100
AcDbEntity
  8
0
100
AcDbLine
 62
7
  6
CONTINUOUS
 10
57.1423764665
 20
72.8944809678
 11
59.2754300562
 21
71.6629897628
  0
LINE
  5
3B8
100
AcDbEntity
  8
0
100
AcDbLine
 62
7
  6
CONTINUOUS
 10
59.8293934201
 20
71.3431661009
 11
60.972493397
 21
70.6832119517
  0
LINE
  5
3B9
100
AcDbEntity
  8
0
100
AcDbLine
 62
7
  6
CONTINUOUS
 10
61.5264567624
 20
70.3633882898
 11
63.6595103524
 21
69.1318970849
  0
LINE
  5
3BA
100
AcDbEntity
  8
0
100
AcDbLine
 62
7
  6
CONTINUOUS
 10
64.2134737201
 20
68.8120734208
 11
65.3565736949
 21
68.1521192728
  0
LINE
  5
3BB
100
AcDbEntity
  8
0
100
AcDbLine
 62
7
  6
CONTINUOUS
 10
65.9105370603
 20
67.8322956109
 11
68.04359065
 21
66.6008044059
  0
LINE
  5
3BC
100
AcDbEntity
  8
0
100
AcDbLine
 62
7
  6
CONTINUOUS
 10
68.5975540139
 20
66.280980744
 11
69.7406539908
 21
65.6210265948
  0
LINE
  5
3BD
100
AcDbEntity
  8
0
100
AcDbLine
 62
7
  6
CONTINUOUS
 10
70.2946173562
 20
65.3012029329
 11
72.4276709462
 21
64.069711728
  0
LINE
  5
3BE
100
AcDbEntity
  8
0
100
AcDbLine
 62
7
  6
CONTINUOUS
 10
72.9816343139
 20
63.7498880639
 11
74.1247342886
 21
63.0899339159
  0
LINE
  5
3BF
100
AcDbEntity
  8
0
100
AcDbLine
 62
7
  6
CONTINUOUS
 10
74.6786976541
 20
62.770110254
 11
76.8117512438
 21
61.538619049
  0
LINE
  5
3C0
100
AcDbEntity
  8
0
100
AcDbLine
 62
7
  6
CONTINUOUS
 10
77.3657146077
 20
61.2187953871
 11
78.5088145845
 21
60.5588412379
  0
LINE
  5
3C1
100
AcDbEntity
  8
0
100
AcDbLine
 62
7
  6
CONTINUOUS
 10
79.06277795
 20
60.239017576
 11
81.1958315399
 21
59.0075263711
  0
LINE
  5
3C2
100
AcDbEntity
  8
0
100
AcDbLine
 62
7
  6
CONTINUOUS
 10
81.7497949076
 20
58.687702707
 11
82.8928948824
 21
58.027748559
  0
LINE
  5
3C3
100
AcDbEntity
  8
0
100
AcDbLine
 62
7
  6
CONTINUOUS
 10
83.4468582478
 20
57.7079248971
 11
85.5799118376
 21
56.4764336921
  0
LINE
  5
3C4
100
AcDbEntity
  8
0
100
AcDbLine
 62
7
  6
CONTINUOUS
 10
86.1338752014
 20
56.1566100302
 11
87.2769751783
 21
55.496655881
  0
LINE
  5
3C5
100
AcDbEntity
  8
0
100
AcDbLine
 62
7
  6
CONTINUOUS
 10
87.8309385437
 20
55.1768322191
 11
89.9639921337
 21
53.9453410142
  0
LINE
  5
3C6
100
AcDbEntity
  8
0
100
AcDbLine
 62
7
  6
CONTINUOUS
 10
90.5179554696
 20
53.6255173663
 11
91.6610554747
 21
52.9655632008
  0
LINE
  5
3C7
100
AcDbEntity
  8
0
100
AcDbLine
 62
7
  6
CONTINUOUS
 10
92.2150188099
 20
52.6457395555
 11
99.0091343938
 21
48.7232438329
  0
LINE
  5
3C8
100
AcDbEntity
  8
0
100
AcDbLine
 62
7
  6
CONTINUOUS
 10
14.1559579555
 20
99.0185102288
 11
100.1405005333
 21
49.3764344791
  0
LINE
  5
3C9
100
AcDbEntity
  8
0
100
AcDbLine
 62
7
  6
CONTINUOUS
 10
100.2819213008
 20
49.6213837933
 11
14.2973787229
 21
99.263459543
  0
LINE
  5
3CA
100
AcDbEntity
  8
0
100
AcDbLine
 62
7
  6
CONTINUOUS
 10
42.9353225914
 20
94.4056935499
 11
42.4339805995
 21
95.4041475275
  0
LINE
  5
3CB
100
AcDbEntity
  8
0
100
AcDbLine
 62
7
  6
CONTINUOUS
 10
47.3194028873
 20
91.8746008718
 11
46.8180608954
 21
92.8730548495
  0
LINE
  5
3CC
100
AcDbEntity
  8
0
100
AcDbLine
 62
7
  6
CONTINUOUS
 10
46.4385617964
 20
92.6539522504
 11
46.7537198175
 21
91.5480055487
  0
LINE
  5
3CD
100
AcDbEntity
  8
0
100
AcDbLine
 62
7
  6
CONTINUOUS
 10
54.8913497586
 20
73.3775800247
 11
54.8913497586
 21
74.1940824418
  0
LINE
  5
3CE
100
AcDbEntity
  8
0
100
AcDbLine
 62
7
  6
CONTINUOUS
 10
54.8913497586
 20
78.2765945275
 11
54.8913497586
 21
81.542604196
  0
LINE
  5
3CF
100
AcDbEntity
  8
0
100
AcDbLine
 62
7
  6
CONTINUOUS
 10
55.3134676484
 20
81.6079062147
 11
55.3134676484
 21
78.3418965462
  0
LINE
  5
3D0
100
AcDbEntity
  8
0
100
AcDbLine
 62
7
  6
CONTINUOUS
 10
55.3134676484
 20
74.2593844606
 11
55.3134676484
 21
73.4428820434
  0
LINE
  5
3D1
100
AcDbEntity
  8
0
100
AcDbLine
 62
7
  6
CONTINUOUS
 10
55.4453131263
 20
73.0577563606
 11
55.4453131263
 21
73.8742587777
  0
LINE
  5
3D2
100
AcDbEntity
  8
0
100
AcDbLine
 62
7
  6
CONTINUOUS
 10
55.4453131263
 20
77.9567708634
 11
55.4453131263
 21
81.2227805319
  0
LINE
  5
3D3
100
AcDbEntity
  8
0
100
AcDbLine
 62
7
  6
CONTINUOUS
 10
55.5218804093
 20
86.4858201927
 11
55.5218804093
 21
81.9950568985
  0
LINE
  5
3D4
100
AcDbEntity
  8
0
100
AcDbLine
 62
7
  6
CONTINUOUS
 10
56.0875634791
 20
82.3216522216
 11
56.0875634791
 21
86.8124155158
  0
LINE
  5
3D5
100
AcDbEntity
  8
0
100
AcDbLine
 62
7
  6
CONTINUOUS
 10
56.5884131011
 20
72.3978022126
 11
56.5884131011
 21
73.2143046297
  0
LINE
  5
3D6
100
AcDbEntity
  8
0
100
AcDbLine
 62
7
  6
CONTINUOUS
 10
56.5884131011
 20
77.2968167154
 11
56.5884131011
 21
80.5628263839
  0
LINE
  5
3D7
100
AcDbEntity
  8
0
100
AcDbLine
 62
7
  6
CONTINUOUS
 10
56.7581359845
 20
82.4124700496
 11
56.7581359845
 21
82.4419808887
  0
LINE
  5
3D8
100
AcDbEntity
  8
0
100
AcDbLine
 62
7
  6
CONTINUOUS
 10
56.8712405009
 20
82.3069643456
 11
56.8712405009
 21
82.6856878257
  0
LINE
  5
3D9
100
AcDbEntity
  8
0
100
AcDbLine
 62
7
  6
CONTINUOUS
 10
57.0105309909
 20
80.6281284027
 11
57.0105309909
 21
77.3621187342
  0
LINE
  5
3DA
100
AcDbEntity
  8
0
100
AcDbLine
 62
7
  6
CONTINUOUS
 10
57.0105309909
 20
73.2796066485
 11
57.0105309909
 21
72.4631042314
  0
LINE
  5
3DB
100
AcDbEntity
  8
0
100
AcDbLine
 62
7
  6
CONTINUOUS
 10
57.1423764665
 20
72.0779785507
 11
57.1423764665
 21
72.8944809678
  0
LINE
  5
3DC
100
AcDbEntity
  8
0
100
AcDbLine
 62
7
  6
CONTINUOUS
 10
57.1423764665
 20
76.9769930534
 11
57.1423764665
 21
80.243002722
  0
LINE
  5
3DD
100
AcDbEntity
  8
0
100
AcDbLine
 62
7
  6
CONTINUOUS
 10
55.5650214769
 20
81.4959983079
 11
55.5582145288
 21
81.4660498176
  0
LINE
  5
3DE
100
AcDbEntity
  8
0
100
AcDbLine
 62
7
  6
CONTINUOUS
 10
56.7515321506
 20
82.4124700496
 11
56.7583390986
 21
82.4424185399
  0
LINE
  5
3DF
100
AcDbEntity
  8
0
100
AcDbLine
 62
7
  6
CONTINUOUS
 10
55.5650214769
 20
74.1474765538
 11
55.5582145288
 21
74.1175280634
  0
LINE
  5
3E0
100
AcDbEntity
  8
0
100
AcDbLine
 62
7
  6
CONTINUOUS
 10
57.2622305002
 20
80.5165107612
 11
57.2554350435
 21
80.4866106729
  0
LINE
  5
3E1
100
AcDbEntity
  8
0
100
AcDbLine
 62
7
  6
CONTINUOUS
 10
55.5582145288
 20
81.4660498176
 11
55.4453131263
 21
81.2227805319
  0
LINE
  5
3E2
100
AcDbEntity
  8
0
100
AcDbLine
 62
7
  6
CONTINUOUS
 10
52.8706407331
 20
75.6676431109
 11
52.7582961687
 21
75.4255736467
  0
LINE
  5
3E3
100
AcDbEntity
  8
0
100
AcDbLine
 62
7
  6
CONTINUOUS
 10
56.7583390986
 20
82.4424185399
 11
56.8712405009
 21
82.6856878257
  0
LINE
  5
3E4
100
AcDbEntity
  8
0
100
AcDbLine
 62
7
  6
CONTINUOUS
 10
57.2554350435
 20
80.4866106729
 11
57.1423764665
 21
80.243002722
  0
LINE
  5
3E5
100
AcDbEntity
  8
0
100
AcDbLine
 62
7
  6
CONTINUOUS
 10
57.9260534748
 20
85.0978016273
 11
58.4273954667
 21
85.7323524911
  0
LINE
  5
3E6
100
AcDbEntity
  8
0
100
AcDbLine
 62
7
  6
CONTINUOUS
 10
55.5218804093
 20
81.9950568985
 11
56.0875634791
 21
82.3216522216
  0
LINE
  5
3E7
100
AcDbEntity
  8
0
100
AcDbLine
 62
7
  6
CONTINUOUS
 10
59.9059607052
 20
83.9547275147
 11
60.471643775
 21
84.2813228378
  0
LINE
  5
3E8
100
AcDbEntity
  8
0
100
AcDbLine
 62
7
  6
CONTINUOUS
 10
62.8114757626
 20
83.201259813
 11
63.1909748616
 21
83.4203624121
  0
LINE
  5
3E9
100
AcDbEntity
  8
0
100
AcDbLine
 62
7
  6
CONTINUOUS
 10
52.2043328032
 20
75.7453973086
 11
52.6236144736
 21
75.8102605617
  0
LINE
  5
3EA
100
AcDbEntity
  8
0
100
AcDbLine
 62
7
  6
CONTINUOUS
 10
50.9298443176
 20
75.9740454152
 11
50.5072694625
 21
75.9086727026
  0
LINE
  5
3EB
100
AcDbEntity
  8
0
100
AcDbLine
 62
7
  6
CONTINUOUS
 10
57.0103595411
 20
77.3620922107
 11
56.5884131011
 21
77.2968167154
  0
LINE
  5
3EC
100
AcDbEntity
  8
0
100
AcDbLine
 62
7
  6
CONTINUOUS
 10
60.972493397
 20
78.0317337059
 11
61.3917750674
 21
78.0965969589
  0
LINE
  5
3ED
100
AcDbEntity
  8
0
100
AcDbLine
 62
7
  6
CONTINUOUS
 10
50.5072694625
 20
76.7251751197
 11
50.9298443176
 21
76.7905478323
  0
LINE
  5
3EE
100
AcDbEntity
  8
0
100
AcDbLine
 62
7
  6
CONTINUOUS
 10
55.3127096052
 20
78.3417792763
 11
54.8913497586
 21
78.2765945275
  0
LINE
  5
3EF
100
AcDbEntity
  8
0
100
AcDbLine
 62
7
  6
CONTINUOUS
 10
59.2754300562
 20
79.011511517
 11
59.6980049114
 21
79.0768842296
  0
LINE
  5
3F0
100
AcDbEntity
  8
0
100
AcDbLine
 62
7
  6
CONTINUOUS
 10
48.2421989473
 20
77.5252630648
 11
47.8202525073
 21
77.4599875695
  0
LINE
  5
3F1
100
AcDbEntity
  8
0
100
AcDbLine
 62
7
  6
CONTINUOUS
 10
61.8092841624
 20
79.8347714848
 11
61.3867093077
 21
79.769398772
  0
LINE
  5
3F2
100
AcDbEntity
  8
0
100
AcDbLine
 62
7
  6
CONTINUOUS
 10
47.8202525073
 20
78.2764899866
 11
48.2421989473
 21
78.341765482
  0
LINE
  5
3F3
100
AcDbEntity
  8
0
100
AcDbLine
 62
7
  6
CONTINUOUS
 10
99.0091343938
 20
52.8057559186
 11
92.2150188099
 21
56.7282516411
  0
LINE
  5
3F4
100
AcDbEntity
  8
0
100
AcDbLine
 62
7
  6
CONTINUOUS
 10
91.6610554747
 20
57.0480752864
 11
90.5179554696
 21
57.708029452
  0
LINE
  5
3F5
100
AcDbEntity
  8
0
100
AcDbLine
 62
7
  6
CONTINUOUS
 10
89.9639921337
 20
58.0278530999
 11
87.8309385437
 21
59.2593443047
  0
LINE
  5
3F6
100
AcDbEntity
  8
0
100
AcDbLine
 62
7
  6
CONTINUOUS
 10
87.2769751783
 20
59.5791679667
 11
86.1338752014
 21
60.2391221159
  0
LINE
  5
3F7
100
AcDbEntity
  8
0
100
AcDbLine
 62
7
  6
CONTINUOUS
 10
85.5799118376
 20
60.5589457777
 11
83.4468582478
 21
61.7904369827
  0
LINE
  5
3F8
100
AcDbEntity
  8
0
100
AcDbLine
 62
7
  6
CONTINUOUS
 10
82.8928948824
 20
62.1102606447
 11
81.7497949076
 21
62.7702147927
  0
LINE
  5
3F9
100
AcDbEntity
  8
0
100
AcDbLine
 62
7
  6
CONTINUOUS
 10
81.1958315399
 20
63.0900384568
 11
79.06277795
 21
64.3215296616
  0
LINE
  5
3FA
100
AcDbEntity
  8
0
100
AcDbLine
 62
7
  6
CONTINUOUS
 10
78.5088145845
 20
64.6413533236
 11
77.3657146077
 21
65.3013074728
  0
LINE
  5
3FB
100
AcDbEntity
  8
0
100
AcDbLine
 62
7
  6
CONTINUOUS
 10
76.8117512438
 20
65.6211311346
 11
74.6786976541
 21
66.8526223396
  0
LINE
  5
3FC
100
AcDbEntity
  8
0
100
AcDbLine
 62
7
  6
CONTINUOUS
 10
74.1247342886
 20
67.1724460016
 11
72.9816343139
 21
67.8324001496
  0
LINE
  5
3FD
100
AcDbEntity
  8
0
100
AcDbLine
 62
7
  6
CONTINUOUS
 10
72.4276709462
 20
68.1522238137
 11
70.2946173562
 21
69.3837150185
  0
LINE
  5
3FE
100
AcDbEntity
  8
0
100
AcDbLine
 62
7
  6
CONTINUOUS
 10
69.7406539908
 20
69.7035386805
 11
68.5975540139
 21
70.3634928297
  0
LINE
  5
3FF
100
AcDbEntity
  8
0
100
AcDbLine
 62
7
  6
CONTINUOUS
 10
68.04359065
 20
70.6833164915
 11
65.9105370603
 21
71.9148076965
  0
LINE
  5
400
100
AcDbEntity
  8
0
100
AcDbLine
 62
7
  6
CONTINUOUS
 10
65.3565736949
 20
72.2346313585
 11
64.2134737201
 21
72.8945855065
  0
LINE
  5
401
100
AcDbEntity
  8
0
100
AcDbLine
 62
7
  6
CONTINUOUS
 10
63.6595103524
 20
73.2144091706
 11
61.5264567624
 21
74.4459003754
  0
LINE
  5
402
100
AcDbEntity
  8
0
100
AcDbLine
 62
7
  6
CONTINUOUS
 10
60.972493397
 20
74.7657240374
 11
59.8293934201
 21
75.4256781866
  0
LINE
  5
403
100
AcDbEntity
  8
0
100
AcDbLine
 62
7
  6
CONTINUOUS
 10
59.2754300562
 20
75.7455018484
 11
57.1423764665
 21
76.9769930534
  0
LINE
  5
404
100
AcDbEntity
  8
0
100
AcDbLine
 62
7
  6
CONTINUOUS
 10
56.5884131011
 20
77.2968167154
 11
55.4453131263
 21
77.9567708634
  0
LINE
  5
405
100
AcDbEntity
  8
0
100
AcDbLine
 62
7
  6
CONTINUOUS
 10
54.8913497586
 20
78.2765945275
 11
52.7582961687
 21
79.5080857323
  0
LINE
  5
406
100
AcDbEntity
  8
0
100
AcDbLine
 62
7
  6
CONTINUOUS
 10
52.2043328032
 20
79.8279093943
 11
51.0612328264
 21
80.4878635435
  0
LINE
  5
407
100
AcDbEntity
  8
0
100
AcDbLine
 62
7
  6
CONTINUOUS
 10
50.5072694625
 20
80.8076872054
 11
48.3742158727
 21
82.0391784103
  0
LINE
  5
408
100
AcDbEntity
  8
0
100
AcDbLine
 62
7
  6
CONTINUOUS
 10
47.8202525073
 20
82.3590020723
 11
46.6771525326
 21
83.0189562203
  0
LINE
  5
409
100
AcDbEntity
  8
0
100
AcDbLine
 62
7
  6
CONTINUOUS
 10
46.1231891648
 20
83.3387798844
 11
43.9901355749
 21
84.5702710892
  0
LINE
  5
40A
100
AcDbEntity
  8
0
100
AcDbLine
 62
7
  6
CONTINUOUS
 10
43.4361722095
 20
84.8900947512
 11
42.2930722326
 21
85.5500489004
  0
LINE
  5
40B
100
AcDbEntity
  8
0
100
AcDbLine
 62
7
  6
CONTINUOUS
 10
41.7391088687
 20
85.8698725623
 11
39.606055279
 21
87.1013637672
  0
LINE
  5
40C
100
AcDbEntity
  8
0
100
AcDbLine
 62
7
  6
CONTINUOUS
 10
39.0520919136
 20
87.4211874292
 11
37.9089919388
 21
88.0811415772
  0
LINE
  5
40D
100
AcDbEntity
  8
0
100
AcDbLine
 62
7
  6
CONTINUOUS
 10
37.3550285711
 20
88.4009652413
 11
35.2219749811
 21
89.6324564461
  0
LINE
  5
40E
100
AcDbEntity
  8
0
100
AcDbLine
 62
7
  6
CONTINUOUS
 10
34.6680116157
 20
89.9522801081
 11
33.5249116388
 21
90.6122342573
  0
LINE
  5
40F
100
AcDbEntity
  8
0
100
AcDbLine
 62
7
  6
CONTINUOUS
 10
32.9709482749
 20
90.9320579192
 11
30.8378946852
 21
92.1635491242
  0
LINE
  5
410
100
AcDbEntity
  8
0
100
AcDbLine
 62
7
  6
CONTINUOUS
 10
30.2839313198
 20
92.4833727861
 11
29.140831345
 21
93.1433269341
  0
LINE
  5
411
100
AcDbEntity
  8
0
100
AcDbLine
 62
7
  6
CONTINUOUS
 10
28.5868679773
 20
93.4631505982
 11
26.4538143873
 21
94.694641803
  0
LINE
  5
412
100
AcDbEntity
  8
0
100
AcDbLine
 62
7
  6
CONTINUOUS
 10
25.8998510219
 20
95.014465465
 11
24.756751045
 21
95.6744196142
  0
LINE
  5
413
100
AcDbEntity
  8
0
100
AcDbLine
 62
7
  6
CONTINUOUS
 10
24.2027876812
 20
95.9942432761
 11
22.0697340914
 21
97.2257344811
  0
LINE
  5
414
100
AcDbEntity
  8
0
100
AcDbLine
 62
7
  6
CONTINUOUS
 10
21.515770726
 20
97.545558143
 11
20.3726707512
 21
98.205512291
  0
LINE
  5
415
100
AcDbEntity
  8
0
100
AcDbLine
 62
7
  6
CONTINUOUS
 10
19.8187073835
 20
98.5253359551
 11
13.0245918159
 21
102.4478316682
  0
LINE
  5
416
100
AcDbEntity
  8
0
100
AcDbLine
 62
7
  6
CONTINUOUS
 10
100.1404987227
 20
53.4589434285
 11
100.2819213008
 21
53.3772949121
  0
LINE
  5
417
100
AcDbEntity
  8
0
100
AcDbLine
 62
7
  6
CONTINUOUS
 10
51.7034831832
 20
89.3435081938
 11
51.2021411913
 21
90.3419621715
  0
LINE
  5
418
100
AcDbEntity
  8
0
100
AcDbLine
 62
7
  6
CONTINUOUS
 10
50.8226420923
 20
90.1228595724
 11
51.1378001134
 21
89.0169128707
  0
LINE
  5
419
100
AcDbEntity
  8
0
100
AcDbLine
 62
7
  6
CONTINUOUS
 10
55.2067223882
 20
87.5917668943
 11
55.5218804093
 21
86.4858201927
  0
LINE
  5
41A
100
AcDbEntity
  8
0
100
AcDbLine
 62
7
  6
CONTINUOUS
 10
57.9260534748
 20
80.6070383331
 11
57.9260534748
 21
85.0978016273
  0
LINE
  5
41B
100
AcDbEntity
  8
0
100
AcDbLine
 62
7
  6
CONTINUOUS
 10
59.2754300562
 20
70.8464873457
 11
59.2754300562
 21
71.6629897628
  0
LINE
  5
41C
100
AcDbEntity
  8
0
100
AcDbLine
 62
7
  6
CONTINUOUS
 10
59.2754300562
 20
75.7455018484
 11
59.2754300562
 21
79.011511517
  0
LINE
  5
41D
100
AcDbEntity
  8
0
100
AcDbLine
 62
7
  6
CONTINUOUS
 10
59.697547946
 20
79.0768135366
 11
59.697547946
 21
75.8108038681
  0
LINE
  5
41E
100
AcDbEntity
  8
0
100
AcDbLine
 62
7
  6
CONTINUOUS
 10
59.697547946
 20
71.7282917825
 11
59.697547946
 21
70.9117893653
  0
LINE
  5
41F
100
AcDbEntity
  8
0
100
AcDbLine
 62
7
  6
CONTINUOUS
 10
59.8293934201
 20
70.5266636838
 11
59.8293934201
 21
71.3431661009
  0
LINE
  5
420
100
AcDbEntity
  8
0
100
AcDbLine
 62
7
  6
CONTINUOUS
 10
59.8293934201
 20
75.4256781866
 11
59.8293934201
 21
78.6916878551
  0
LINE
  5
421
100
AcDbEntity
  8
0
100
AcDbLine
 62
7
  6
CONTINUOUS
 10
59.9059607052
 20
83.9547275147
 11
59.9059607052
 21
79.4639642204
  0
LINE
  5
422
100
AcDbEntity
  8
0
100
AcDbLine
 62
7
  6
CONTINUOUS
 10
60.471643775
 20
79.7905595435
 11
60.471643775
 21
84.2813228378
  0
LINE
  5
423
100
AcDbEntity
  8
0
100
AcDbLine
 62
7
  6
CONTINUOUS
 10
60.972493397
 20
69.8667095346
 11
60.972493397
 21
70.6832119517
  0
LINE
  5
424
100
AcDbEntity
  8
0
100
AcDbLine
 62
7
  6
CONTINUOUS
 10
60.972493397
 20
74.7657240374
 11
60.972493397
 21
78.0317337059
  0
LINE
  5
425
100
AcDbEntity
  8
0
100
AcDbLine
 62
7
  6
CONTINUOUS
 10
57.2622305002
 20
73.167989007
 11
57.2554350435
 21
73.1380889188
  0
LINE
  5
426
100
AcDbEntity
  8
0
100
AcDbLine
 62
7
  6
CONTINUOUS
 10
59.9494029491
 20
78.9655013133
 11
59.9426203803
 21
78.9356586177
  0
LINE
  5
427
100
AcDbEntity
  8
0
100
AcDbLine
 62
7
  6
CONTINUOUS
 10
61.1353112699
 20
79.8807816883
 11
61.1420938388
 21
79.9106243838
  0
LINE
  5
428
100
AcDbEntity
  8
0
100
AcDbLine
 62
7
  6
CONTINUOUS
 10
55.5582145288
 20
74.1175280634
 11
55.4453131263
 21
73.8742587777
  0
LINE
  5
429
100
AcDbEntity
  8
0
100
AcDbLine
 62
7
  6
CONTINUOUS
 10
59.9426203803
 20
78.9356586177
 11
59.8293934201
 21
78.6916878551
  0
LINE
  5
42A
100
AcDbEntity
  8
0
100
AcDbLine
 62
7
  6
CONTINUOUS
 10
57.2554350435
 20
73.1380889188
 11
57.1423764665
 21
72.8944809678
  0
LINE
  5
42B
100
AcDbEntity
  8
0
100
AcDbLine
 62
7
  6
CONTINUOUS
 10
61.1420938388
 20
79.9106243838
 11
61.2553207985
 21
80.1545951467
  0
LINE
  5
42C
100
AcDbEntity
  8
0
100
AcDbLine
 62
7
  6
CONTINUOUS
 10
62.3101337707
 20
82.5667089493
 11
62.8114757626
 21
83.201259813
  0
LINE
  5
42D
100
AcDbEntity
  8
0
100
AcDbLine
 62
7
  6
CONTINUOUS
 10
63.9748829809
 20
82.5295815388
 11
64.3543820782
 21
82.7486841369
  0
LINE
  5
42E
100
AcDbEntity
  8
0
100
AcDbLine
 62
7
  6
CONTINUOUS
 10
59.9059607052
 20
79.4639642204
 11
60.471643775
 21
79.7905595435
  0
LINE
  5
42F
100
AcDbEntity
  8
0
100
AcDbLine
 62
7
  6
CONTINUOUS
 10
64.2900410011
 20
81.4236348366
 11
64.8557240709
 21
81.7502301597
  0
LINE
  5
430
100
AcDbEntity
  8
0
100
AcDbLine
 62
7
  6
CONTINUOUS
 10
46.5445490114
 20
78.5049501304
 11
46.1231891648
 21
78.4397653816
  0
LINE
  5
431
100
AcDbEntity
  8
0
100
AcDbLine
 62
7
  6
CONTINUOUS
 10
52.6236144736
 20
79.8927726473
 11
52.2043328032
 21
79.8279093943
  0
LINE
  5
432
100
AcDbEntity
  8
0
100
AcDbLine
 62
7
  6
CONTINUOUS
 10
56.5884131011
 20
80.5628263839
 11
57.0103595411
 21
80.6281018792
  0
LINE
  5
433
100
AcDbEntity
  8
0
100
AcDbLine
 62
7
  6
CONTINUOUS
 10
46.1231891648
 20
79.2562677987
 11
46.5445490114
 21
79.3214525475
  0
LINE
  5
434
100
AcDbEntity
  8
0
100
AcDbLine
 62
7
  6
CONTINUOUS
 10
50.9298443176
 20
80.873059918
 11
50.5072694625
 21
80.8076872054
  0
LINE
  5
435
100
AcDbEntity
  8
0
100
AcDbLine
 62
7
  6
CONTINUOUS
 10
54.8913497586
 20
81.542604196
 11
55.3127096052
 21
81.6077889448
  0
LINE
  5
436
100
AcDbEntity
  8
0
100
AcDbLine
 62
7
  6
CONTINUOUS
 10
43.8554538798
 20
80.0559435014
 11
43.4361722095
 21
79.9910802484
  0
LINE
  5
437
100
AcDbEntity
  8
0
100
AcDbLine
 62
7
  6
CONTINUOUS
 10
57.4252038686
 20
82.3658641616
 11
57.0038440223
 21
82.3006794127
  0
LINE
  5
438
100
AcDbEntity
  8
0
100
AcDbLine
 62
7
  6
CONTINUOUS
 10
43.4361722095
 20
80.8075826655
 11
43.8554538798
 21
80.8724459186
  0
LINE
  5
439
100
AcDbEntity
  8
0
100
AcDbLine
 62
7
  6
CONTINUOUS
 10
42.1616837239
 20
81.0362307721
 11
41.7391088687
 21
80.9708580595
  0
LINE
  5
43A
100
AcDbEntity
  8
0
100
AcDbLine
 62
7
  6
CONTINUOUS
 10
13.0245918159
 20
105.7138413367
 11
19.8187073835
 21
101.7913456236
  0
LINE
  5
43B
100
AcDbEntity
  8
0
100
AcDbLine
 62
7
  6
CONTINUOUS
 10
20.3726707512
 20
101.4715219595
 11
21.515770726
 21
100.8115678115
  0
LINE
  5
43C
100
AcDbEntity
  8
0
100
AcDbLine
 62
7
  6
CONTINUOUS
 10
22.0697340914
 20
100.4917441496
 11
24.2027876812
 21
99.2602529446
  0
LINE
  5
43D
100
AcDbEntity
  8
0
100
AcDbLine
 62
7
  6
CONTINUOUS
 10
24.756751045
 20
98.9404292827
 11
25.8998510219
 21
98.2804751335
  0
LINE
  5
43E
100
AcDbEntity
  8
0
100
AcDbLine
 62
7
  6
CONTINUOUS
 10
26.4538143873
 20
97.9606514715
 11
28.5868679773
 21
96.7291602667
  0
LINE
  5
43F
100
AcDbEntity
  8
0
100
AcDbLine
 62
7
  6
CONTINUOUS
 10
29.140831345
 20
96.4093366026
 11
30.2839313198
 21
95.7493824546
  0
LINE
  5
440
100
AcDbEntity
  8
0
100
AcDbLine
 62
7
  6
CONTINUOUS
 10
30.8378946852
 20
95.4295587927
 11
32.9709482749
 21
94.1980675877
  0
LINE
  5
441
100
AcDbEntity
  8
0
100
AcDbLine
 62
7
  6
CONTINUOUS
 10
33.5249116388
 20
93.8782439258
 11
34.6680116157
 21
93.2182897766
  0
LINE
  5
442
100
AcDbEntity
  8
0
100
AcDbLine
 62
7
  6
CONTINUOUS
 10
35.2219749811
 20
92.8984661146
 11
37.3550285711
 21
91.6669749098
  0
LINE
  5
443
100
AcDbEntity
  8
0
100
AcDbLine
 62
7
  6
CONTINUOUS
 10
37.9089919388
 20
91.3471512457
 11
39.0520919136
 21
90.6871970977
  0
LINE
  5
444
100
AcDbEntity
  8
0
100
AcDbLine
 62
7
  6
CONTINUOUS
 10
39.606055279
 20
90.3673734358
 11
41.7391088687
 21
89.1358822308
  0
LINE
  5
445
100
AcDbEntity
  8
0
100
AcDbLine
 62
7
  6
CONTINUOUS
 10
42.2930722326
 20
88.8160585689
 11
43.4361722095
 21
88.1561044197
  0
LINE
  5
446
100
AcDbEntity
  8
0
100
AcDbLine
 62
7
  6
CONTINUOUS
 10
43.9901355749
 20
87.8362807577
 11
46.1231891648
 21
86.6047895529
  0
LINE
  5
447
100
AcDbEntity
  8
0
100
AcDbLine
 62
7
  6
CONTINUOUS
 10
46.6771525326
 20
86.2849658888
 11
47.8202525073
 21
85.6250117408
  0
LINE
  5
448
100
AcDbEntity
  8
0
100
AcDbLine
 62
7
  6
CONTINUOUS
 10
48.3742158727
 20
85.3051880789
 11
50.5072694625
 21
84.0736968739
  0
LINE
  5
449
100
AcDbEntity
  8
0
100
AcDbLine
 62
7
  6
CONTINUOUS
 10
51.0612328264
 20
83.753873212
 11
52.2043328032
 21
83.0939190628
  0
LINE
  5
44A
100
AcDbEntity
  8
0
100
AcDbLine
 62
7
  6
CONTINUOUS
 10
52.7582961687
 20
82.7740954008
 11
54.8913497586
 21
81.542604196
  0
LINE
  5
44B
100
AcDbEntity
  8
0
100
AcDbLine
 62
7
  6
CONTINUOUS
 10
55.4453131263
 20
81.2227805319
 11
56.5884131011
 21
80.5628263839
  0
LINE
  5
44C
100
AcDbEntity
  8
0
100
AcDbLine
 62
7
  6
CONTINUOUS
 10
57.1423764665
 20
80.243002722
 11
59.2754300562
 21
79.011511517
  0
LINE
  5
44D
100
AcDbEntity
  8
0
100
AcDbLine
 62
7
  6
CONTINUOUS
 10
59.8293934201
 20
78.6916878551
 11
60.972493397
 21
78.0317337059
  0
LINE
  5
44E
100
AcDbEntity
  8
0
100
AcDbLine
 62
7
  6
CONTINUOUS
 10
61.5264567624
 20
77.7119100439
 11
63.6595103524
 21
76.4804188391
  0
LINE
  5
44F
100
AcDbEntity
  8
0
100
AcDbLine
 62
7
  6
CONTINUOUS
 10
64.2134737201
 20
76.160595175
 11
65.3565736949
 21
75.500641027
  0
LINE
  5
450
100
AcDbEntity
  8
0
100
AcDbLine
 62
7
  6
CONTINUOUS
 10
65.9105370603
 20
75.1808173651
 11
68.04359065
 21
73.9493261601
  0
LINE
  5
451
100
AcDbEntity
  8
0
100
AcDbLine
 62
7
  6
CONTINUOUS
 10
68.5975540139
 20
73.6295024982
 11
69.7406539908
 21
72.969548349
  0
LINE
  5
452
100
AcDbEntity
  8
0
100
AcDbLine
 62
7
  6
CONTINUOUS
 10
70.2946173562
 20
72.649724687
 11
72.4276709462
 21
71.4182334822
  0
LINE
  5
453
100
AcDbEntity
  8
0
100
AcDbLine
 62
7
  6
CONTINUOUS
 10
72.9816343139
 20
71.0984098181
 11
74.1247342886
 21
70.4384556701
  0
LINE
  5
454
100
AcDbEntity
  8
0
100
AcDbLine
 62
7
  6
CONTINUOUS
 10
77.3657146077
 20
68.5673171413
 11
78.5088145845
 21
67.9073629921
  0
LINE
  5
455
100
AcDbEntity
  8
0
100
AcDbLine
 62
7
  6
CONTINUOUS
 10
81.7497949076
 20
66.0362244612
 11
82.8928948824
 21
65.3762703132
  0
LINE
  5
456
100
AcDbEntity
  8
0
100
AcDbLine
 62
7
  6
CONTINUOUS
 10
86.1338752014
 20
63.5051317844
 11
87.2769751783
 21
62.8451776352
  0
LINE
  5
457
100
AcDbEntity
  8
0
100
AcDbLine
 62
7
  6
CONTINUOUS
 10
90.5179554696
 20
60.9740391205
 11
91.6610554747
 21
60.3140849549
  0
LINE
  5
458
100
AcDbEntity
  8
0
100
AcDbLine
 62
7
  6
CONTINUOUS
 10
92.2150188099
 20
59.9942613096
 11
99.0091343938
 21
56.0717655871
  0
LINE
  5
459
100
AcDbEntity
  8
0
100
AcDbLine
 62
7
  6
CONTINUOUS
 10
74.6786976541
 20
70.1186320082
 11
76.8117512438
 21
68.8871408032
  0
LINE
  5
45A
100
AcDbEntity
  8
0
100
AcDbLine
 62
7
  6
CONTINUOUS
 10
79.06277795
 20
67.5875393301
 11
81.1958315399
 21
66.3560481253
  0
LINE
  5
45B
100
AcDbEntity
  8
0
100
AcDbLine
 62
7
  6
CONTINUOUS
 10
83.4468582478
 20
65.0564466513
 11
85.5799118376
 21
63.8249554463
  0
LINE
  5
45C
100
AcDbEntity
  8
0
100
AcDbLine
 62
7
  6
CONTINUOUS
 10
87.8309385437
 20
62.5253539732
 11
89.9639921337
 21
61.2938627684
  0
LINE
  5
45D
100
AcDbEntity
  8
0
100
AcDbLine
 62
7
  6
CONTINUOUS
 10
99.3626833684
 20
56.6841301182
 11
97.382776138
 21
57.8272042309
  0
LINE
  5
45E
100
AcDbEntity
  8
0
100
AcDbLine
 62
7
  6
CONTINUOUS
 10
94.9786030725
 20
59.2152227962
 11
92.9986958421
 21
60.3582969089
  0
LINE
  5
45F
100
AcDbEntity
  8
0
100
AcDbLine
 62
7
  6
CONTINUOUS
 10
90.5945227766
 20
61.7463154743
 11
88.6146155462
 21
62.8893895869
  0
LINE
  5
460
100
AcDbEntity
  8
0
100
AcDbLine
 62
7
  6
CONTINUOUS
 10
86.2104424807
 20
64.2774081523
 11
84.2305352503
 21
65.4204822649
  0
LINE
  5
461
100
AcDbEntity
  8
0
100
AcDbLine
 62
7
  6
CONTINUOUS
 10
81.8263621848
 20
66.8085008303
 11
79.8464549544
 21
67.951574943
  0
LINE
  5
462
100
AcDbEntity
  8
0
100
AcDbLine
 62
7
  6
CONTINUOUS
 10
77.4422818889
 20
69.3395935083
 11
75.4623746585
 21
70.482667621
  0
LINE
  5
463
100
AcDbEntity
  8
0
100
AcDbLine
 62
7
  6
CONTINUOUS
 10
73.058201593
 20
71.8706861864
 11
71.0782943626
 21
73.013760299
  0
LINE
  5
464
100
AcDbEntity
  8
0
100
AcDbLine
 62
7
  6
CONTINUOUS
 10
68.6741212971
 20
74.4017788644
 11
66.6942140666
 21
75.544852977
  0
LINE
  5
465
100
AcDbEntity
  8
0
100
AcDbLine
 62
7
  6
CONTINUOUS
 10
64.2900410011
 20
76.9328715424
 11
62.3101337707
 21
78.0759456551
  0
LINE
  5
466
100
AcDbEntity
  8
0
100
AcDbLine
 62
7
  6
CONTINUOUS
 10
59.9059607052
 20
79.4639642204
 11
57.9260534748
 21
80.6070383331
  0
LINE
  5
467
100
AcDbEntity
  8
0
100
AcDbLine
 62
7
  6
CONTINUOUS
 10
55.5218804093
 20
81.9950568985
 11
53.5419731789
 21
83.1381310111
  0
LINE
  5
468
100
AcDbEntity
  8
0
100
AcDbLine
 62
7
  6
CONTINUOUS
 10
51.1378001134
 20
84.5261495765
 11
49.157892883
 21
85.6692236892
  0
LINE
  5
469
100
AcDbEntity
  8
0
100
AcDbLine
 62
7
  6
CONTINUOUS
 10
46.7537198175
 20
87.0572422545
 11
44.7738125871
 21
88.2003163672
  0
LINE
  5
46A
100
AcDbEntity
  8
0
100
AcDbLine
 62
7
  6
CONTINUOUS
 10
42.3696395216
 20
89.5883349325
 11
40.3897322912
 21
90.7314090452
  0
LINE
  5
46B
100
AcDbEntity
  8
0
100
AcDbLine
 62
7
  6
CONTINUOUS
 10
37.9855592257
 20
92.1194276106
 11
36.0056519953
 21
93.2625017232
  0
LINE
  5
46C
100
AcDbEntity
  8
0
100
AcDbLine
 62
7
  6
CONTINUOUS
 10
33.6014789298
 20
94.6505202886
 11
31.6215716994
 21
95.7935944013
  0
LINE
  5
46D
100
AcDbEntity
  8
0
100
AcDbLine
 62
7
  6
CONTINUOUS
 10
29.2173986339
 20
97.1816129666
 11
27.2374914034
 21
98.3246870793
  0
LINE
  5
46E
100
AcDbEntity
  8
0
100
AcDbLine
 62
7
  6
CONTINUOUS
 10
24.8333183379
 20
99.7127056446
 11
22.8534111075
 21
100.8557797573
  0
LINE
  5
46F
100
AcDbEntity
  8
0
100
AcDbLine
 62
7
  6
CONTINUOUS
 10
20.449238042
 20
102.2437983227
 11
18.4693308116
 21
103.3868724353
  0
LINE
  5
470
100
AcDbEntity
  8
0
100
AcDbLine
 62
7
  6
CONTINUOUS
 10
16.0651577461
 20
104.7748910007
 11
14.0852505157
 21
105.9179651134
  0
LINE
  5
471
100
AcDbEntity
  8
0
100
AcDbLine
 62
7
  6
CONTINUOUS
 10
100.989025138
 20
57.2148492179
 11
99.9283664382
 21
57.8272069504
  0
LINE
  5
472
100
AcDbEntity
  8
0
100
AcDbLine
 62
7
  6
CONTINUOUS
 10
97.382776138
 20
59.2968709472
 11
95.5442861423
 21
60.3582996284
  0
LINE
  5
473
100
AcDbEntity
  8
0
100
AcDbLine
 62
7
  6
CONTINUOUS
 10
92.9986958421
 20
61.8279636252
 11
92.4978462138
 21
62.1171227513
  0
LINE
  5
474
100
AcDbEntity
  8
0
100
AcDbLine
 62
7
  6
CONTINUOUS
 10
91.9438828741
 20
62.436946397
 11
91.1602058464
 21
62.889392304
  0
LINE
  5
475
100
AcDbEntity
  8
0
100
AcDbLine
 62
7
  6
CONTINUOUS
 10
88.6146155462
 20
64.3590563013
 11
88.1137659423
 21
64.6482154133
  0
LINE
  5
476
100
AcDbEntity
  8
0
100
AcDbLine
 62
7
  6
CONTINUOUS
 10
87.5598025784
 20
64.9680390752
 11
86.7761255505
 21
65.4204849822
  0
LINE
  5
477
100
AcDbEntity
  8
0
100
AcDbLine
 62
7
  6
CONTINUOUS
 10
84.2305352503
 20
66.8901489793
 11
83.7296856485
 21
67.1793080901
  0
LINE
  5
478
100
AcDbEntity
  8
0
100
AcDbLine
 62
7
  6
CONTINUOUS
 10
83.1757222808
 20
67.4991317542
 11
82.3920452546
 21
67.9515776604
  0
LINE
  5
479
100
AcDbEntity
  8
0
100
AcDbLine
 62
7
  6
CONTINUOUS
 10
79.8464549544
 20
69.4212416576
 11
79.345605349
 21
69.7104007705
  0
LINE
  5
47A
100
AcDbEntity
  8
0
100
AcDbLine
 62
7
  6
CONTINUOUS
 10
78.7916419851
 20
70.0302244324
 11
78.0079649586
 21
70.4826703386
  0
LINE
  5
47B
100
AcDbEntity
  8
0
100
AcDbLine
 62
7
  6
CONTINUOUS
 10
75.4623746585
 20
71.9523343357
 11
74.9615250552
 21
72.2414934473
  0
LINE
  5
47C
100
AcDbEntity
  8
0
100
AcDbLine
 62
7
  6
CONTINUOUS
 10
74.4075616875
 20
72.5613171114
 11
73.6238846627
 21
73.0137630167
  0
LINE
  5
47D
100
AcDbEntity
  8
0
100
AcDbLine
 62
7
  6
CONTINUOUS
 10
71.0782943626
 20
74.483427014
 11
70.5774447557
 21
74.7725861277
  0
LINE
  5
47E
100
AcDbEntity
  8
0
100
AcDbLine
 62
7
  6
CONTINUOUS
 10
70.0234813918
 20
75.0924097895
 11
69.2398043668
 21
75.5448556949
  0
LINE
  5
47F
100
AcDbEntity
  8
0
100
AcDbLine
 62
7
  6
CONTINUOUS
 10
66.6942140666
 20
77.014519692
 11
66.1933644619
 21
77.3036788045
  0
LINE
  5
480
100
AcDbEntity
  8
0
100
AcDbLine
 62
7
  6
CONTINUOUS
 10
65.6394010942
 20
77.6235024685
 11
64.8557240709
 21
78.075948373
  0
LINE
  5
481
100
AcDbEntity
  8
0
100
AcDbLine
 62
7
  6
CONTINUOUS
 10
62.3101337707
 20
79.5456123703
 11
61.8092841624
 21
79.8347714848
  0
LINE
  5
482
100
AcDbEntity
  8
0
100
AcDbLine
 62
7
  6
CONTINUOUS
 10
61.2553207985
 20
80.1545951467
 11
60.471643775
 21
80.6070410512
  0
LINE
  5
483
100
AcDbEntity
  8
0
100
AcDbLine
 62
7
  6
CONTINUOUS
 10
57.9260534748
 20
82.0767050483
 11
57.4252038686
 21
82.3658641616
  0
LINE
  5
484
100
AcDbEntity
  8
0
100
AcDbLine
 62
7
  6
CONTINUOUS
 10
56.8712405009
 20
82.6856878257
 11
56.0875634791
 21
83.1381337293
  0
LINE
  5
485
100
AcDbEntity
  8
0
100
AcDbLine
 62
7
  6
CONTINUOUS
 10
53.5419731789
 20
84.6077977266
 11
53.0411235691
 21
84.896956842
  0
LINE
  5
486
100
AcDbEntity
  8
0
100
AcDbLine
 62
7
  6
CONTINUOUS
 10
52.4871602052
 20
85.2167805039
 11
51.7034831832
 21
85.6692264075
  0
LINE
  5
487
100
AcDbEntity
  8
0
100
AcDbLine
 62
7
  6
CONTINUOUS
 10
49.157892883
 20
87.1388904047
 11
48.6570432753
 21
87.4280495188
  0
LINE
  5
488
100
AcDbEntity
  8
0
100
AcDbLine
 62
7
  6
CONTINUOUS
 10
48.1030799076
 20
87.7478731829
 11
47.3194028873
 21
88.2003190857
  0
LINE
  5
489
100
AcDbEntity
  8
0
100
AcDbLine
 62
7
  6
CONTINUOUS
 10
44.7738125871
 20
89.669983083
 11
44.2729629758
 21
89.9591421992
  0
LINE
  5
48A
100
AcDbEntity
  8
0
100
AcDbLine
 62
7
  6
CONTINUOUS
 10
43.7189996119
 20
90.2789658611
 11
42.9353225914
 21
90.7314117639
  0
LINE
  5
48B
100
AcDbEntity
  8
0
100
AcDbLine
 62
7
  6
CONTINUOUS
 10
40.3897322912
 20
92.201075761
 11
39.888882682
 21
92.490234876
  0
LINE
  5
48C
100
AcDbEntity
  8
0
100
AcDbLine
 62
7
  6
CONTINUOUS
 10
39.3349193143
 20
92.8100585401
 11
38.5512422954
 21
93.262504442
  0
LINE
  5
48D
100
AcDbEntity
  8
0
100
AcDbLine
 62
7
  6
CONTINUOUS
 10
36.0056519953
 20
94.7321684393
 11
35.5048023825
 21
95.0213275564
  0
LINE
  5
48E
100
AcDbEntity
  8
0
100
AcDbLine
 62
7
  6
CONTINUOUS
 10
34.9508390187
 20
95.3411512182
 11
34.1671619995
 21
95.7935971202
  0
LINE
  5
48F
100
AcDbEntity
  8
0
100
AcDbLine
 62
7
  6
CONTINUOUS
 10
31.6215716994
 20
97.2632611173
 11
31.1207220887
 21
97.5524202332
  0
LINE
  5
490
100
AcDbEntity
  8
0
100
AcDbLine
 62
7
  6
CONTINUOUS
 10
30.566758721
 20
97.8722438973
 11
29.7830817036
 21
98.3246897983
  0
LINE
  5
491
100
AcDbEntity
  8
0
100
AcDbLine
 62
7
  6
CONTINUOUS
 10
27.2374914034
 20
99.7943537956
 11
26.7366417892
 21
100.0835129135
  0
LINE
  5
492
100
AcDbEntity
  8
0
100
AcDbLine
 62
7
  6
CONTINUOUS
 10
26.1826784254
 20
100.4033365754
 11
25.3990014077
 21
100.8557824765
  0
LINE
  5
493
100
AcDbEntity
  8
0
100
AcDbLine
 62
7
  6
CONTINUOUS
 10
22.8534111075
 20
102.3254464736
 11
22.3525614954
 21
102.6146055903
  0
LINE
  5
494
100
AcDbEntity
  8
0
100
AcDbLine
 62
7
  6
CONTINUOUS
 10
21.7985981277
 20
102.9344292544
 11
21.0149211118
 21
103.3868751548
  0
LINE
  5
495
100
AcDbEntity
  8
0
100
AcDbLine
 62
7
  6
CONTINUOUS
 10
18.4693308116
 20
104.8565391517
 11
16.6308408159
 21
105.9179678329
  0
LINE
  5
496
100
AcDbEntity
  8
0
100
AcDbLine
 62
7
  6
CONTINUOUS
 10
56.0875634791
 20
86.8124155158
 11
55.5862214872
 21
87.8108694934
  0
LINE
  5
497
100
AcDbEntity
  8
0
100
AcDbLine
 62
7
  6
CONTINUOUS
 10
59.5908026841
 20
85.0606742163
 11
59.9059607052
 21
83.9547275147
  0
LINE
  5
498
100
AcDbEntity
  8
0
100
AcDbLine
 62
7
  6
CONTINUOUS
 10
61.1422162806
 20
79.8807816883
 11
61.1422162806
 21
79.9108882098
  0
LINE
  5
499
100
AcDbEntity
  8
0
100
AcDbLine
 62
7
  6
CONTINUOUS
 10
61.2553207985
 20
79.7755464112
 11
61.2553207985
 21
80.1545951467
  0
LINE
  5
49A
100
AcDbEntity
  8
0
100
AcDbLine
 62
7
  6
CONTINUOUS
 10
61.3946112872
 20
78.0970357247
 11
61.3946112872
 21
74.8310260562
  0
LINE
  5
49B
100
AcDbEntity
  8
0
100
AcDbLine
 62
7
  6
CONTINUOUS
 10
61.3946112872
 20
70.7485139705
 11
61.3946112872
 21
69.9320115534
  0
LINE
  5
49C
100
AcDbEntity
  8
0
100
AcDbLine
 62
7
  6
CONTINUOUS
 10
61.5264567624
 20
69.5468858726
 11
61.5264567624
 21
70.3633882898
  0
LINE
  5
49D
100
AcDbEntity
  8
0
100
AcDbLine
 62
7
  6
CONTINUOUS
 10
61.5264567624
 20
74.4459003754
 11
61.5264567624
 21
77.7119100439
  0
LINE
  5
49E
100
AcDbEntity
  8
0
100
AcDbLine
 62
7
  6
CONTINUOUS
 10
62.3101337707
 20
78.0759456551
 11
62.3101337707
 21
82.5667089493
  0
LINE
  5
49F
100
AcDbEntity
  8
0
100
AcDbLine
 62
7
  6
CONTINUOUS
 10
63.6595103524
 20
68.3153946678
 11
63.6595103524
 21
69.1318970849
  0
LINE
  5
4A0
100
AcDbEntity
  8
0
100
AcDbLine
 62
7
  6
CONTINUOUS
 10
63.6595103524
 20
73.2144091706
 11
63.6595103524
 21
76.4804188391
  0
LINE
  5
4A1
100
AcDbEntity
  8
0
100
AcDbLine
 62
7
  6
CONTINUOUS
 10
64.0816282422
 20
76.5457208578
 11
64.0816282422
 21
73.2797111893
  0
LINE
  5
4A2
100
AcDbEntity
  8
0
100
AcDbLine
 62
7
  6
CONTINUOUS
 10
64.0816282422
 20
69.1971991037
 11
64.0816282422
 21
68.3806966865
  0
LINE
  5
4A3
100
AcDbEntity
  8
0
100
AcDbLine
 62
7
  6
CONTINUOUS
 10
64.2134737201
 20
67.9955710037
 11
64.2134737201
 21
68.8120734208
  0
LINE
  5
4A4
100
AcDbEntity
  8
0
100
AcDbLine
 62
7
  6
CONTINUOUS
 10
64.2134737201
 20
72.8945855065
 11
64.2134737201
 21
76.160595175
  0
LINE
  5
4A5
100
AcDbEntity
  8
0
100
AcDbLine
 62
7
  6
CONTINUOUS
 10
64.2900410011
 20
81.4236348366
 11
64.2900410011
 21
76.9328715424
  0
LINE
  5
4A6
100
AcDbEntity
  8
0
100
AcDbLine
 62
7
  6
CONTINUOUS
 10
59.9494029491
 20
71.6169795591
 11
59.9426203803
 21
71.5871368636
  0
LINE
  5
4A7
100
AcDbEntity
  8
0
100
AcDbLine
 62
7
  6
CONTINUOUS
 10
61.6456443976
 20
77.9840554298
 11
61.6388013269
 21
77.9539795081
  0
LINE
  5
4A8
100
AcDbEntity
  8
0
100
AcDbLine
 62
7
  6
CONTINUOUS
 10
61.6456443976
 20
70.6355336756
 11
61.6388013269
 21
70.605457754
  0
LINE
  5
4A9
100
AcDbEntity
  8
0
100
AcDbLine
 62
7
  6
CONTINUOUS
 10
61.6388013269
 20
77.9539795081
 11
61.5264567624
 21
77.7119100439
  0
LINE
  5
4AA
100
AcDbEntity
  8
0
100
AcDbLine
 62
7
  6
CONTINUOUS
 10
59.9426203803
 20
71.5871368636
 11
59.8293934201
 21
71.3431661009
  0
LINE
  5
4AB
100
AcDbEntity
  8
0
100
AcDbLine
 62
7
  6
CONTINUOUS
 10
66.6942140666
 20
80.0356162713
 11
67.1955560585
 21
80.670167135
  0
LINE
  5
4AC
100
AcDbEntity
  8
0
100
AcDbLine
 62
7
  6
CONTINUOUS
 10
67.1955560585
 20
80.670167135
 11
67.5750551575
 21
80.8892697341
  0
LINE
  5
4AD
100
AcDbEntity
  8
0
100
AcDbLine
 62
7
  6
CONTINUOUS
 10
68.3589632768
 20
79.9984888607
 11
68.7384623741
 21
80.2175914589
  0
LINE
  5
4AE
100
AcDbEntity
  8
0
100
AcDbLine
 62
7
  6
CONTINUOUS
 10
64.2900410011
 20
76.9328715424
 11
64.8557240709
 21
77.2594668655
  0
LINE
  5
4AF
100
AcDbEntity
  8
0
100
AcDbLine
 62
7
  6
CONTINUOUS
 10
68.6741212971
 20
78.8925421586
 11
69.2398043668
 21
79.2191374817
  0
LINE
  5
4B0
100
AcDbEntity
  8
0
100
AcDbLine
 62
7
  6
CONTINUOUS
 10
48.2421989473
 20
82.4242775676
 11
47.8202525073
 21
82.3590020723
  0
LINE
  5
4B1
100
AcDbEntity
  8
0
100
AcDbLine
 62
7
  6
CONTINUOUS
 10
52.2043328032
 20
83.0939190628
 11
52.6236144736
 21
83.1587823158
  0
LINE
  5
4B2
100
AcDbEntity
  8
0
100
AcDbLine
 62
7
  6
CONTINUOUS
 10
41.7391088687
 20
81.7873604766
 11
42.1616837239
 21
81.8527331892
  0
LINE
  5
4B3
100
AcDbEntity
  8
0
100
AcDbLine
 62
7
  6
CONTINUOUS
 10
46.5445490114
 20
83.4039646332
 11
46.1231891648
 21
83.3387798844
  0
LINE
  5
4B4
100
AcDbEntity
  8
0
100
AcDbLine
 62
7
  6
CONTINUOUS
 10
50.5072694625
 20
84.0736968739
 11
50.9298443176
 21
84.1390695865
  0
LINE
  5
4B5
100
AcDbEntity
  8
0
100
AcDbLine
 62
7
  6
CONTINUOUS
 10
39.4740383536
 20
82.5874484217
 11
39.0520919136
 21
82.5221729264
  0
LINE
  5
4B6
100
AcDbEntity
  8
0
100
AcDbLine
 62
7
  6
CONTINUOUS
 10
53.0411235691
 20
84.896956842
 11
52.6185487144
 21
84.8315841291
  0
LINE
  5
4B7
100
AcDbEntity
  8
0
100
AcDbLine
 62
7
  6
CONTINUOUS
 10
39.0520919136
 20
83.3386753435
 11
39.4740383536
 21
83.4039508389
  0
LINE
  5
4B8
100
AcDbEntity
  8
0
100
AcDbLine
 62
7
  6
CONTINUOUS
 10
37.7763884176
 20
83.5671354873
 11
37.3550285711
 21
83.5019507385
  0
LINE
  5
4B9
100
AcDbEntity
  8
0
100
AcDbLine
 62
7
  6
CONTINUOUS
 10
43.8554538798
 20
84.9549580042
 11
43.4361722095
 21
84.8900947512
  0
LINE
  5
4BA
100
AcDbEntity
  8
0
100
AcDbLine
 62
7
  6
CONTINUOUS
 10
47.8202525073
 20
85.6250117408
 11
48.2421989473
 21
85.6902872361
  0
LINE
  5
4BB
100
AcDbEntity
  8
0
100
AcDbLine
 62
7
  6
CONTINUOUS
 10
37.3550285711
 20
84.3184531556
 11
37.7763884176
 21
84.3836379044
  0
LINE
  5
4BC
100
AcDbEntity
  8
0
100
AcDbLine
 62
7
  6
CONTINUOUS
 10
99.3626833684
 20
61.1748934124
 11
97.382776138
 21
62.3179675251
  0
LINE
  5
4BD
100
AcDbEntity
  8
0
100
AcDbLine
 62
7
  6
CONTINUOUS
 10
94.9786030725
 20
63.7059860904
 11
92.9986958421
 21
64.8490602031
  0
LINE
  5
4BE
100
AcDbEntity
  8
0
100
AcDbLine
 62
7
  6
CONTINUOUS
 10
90.5945227766
 20
66.2370787685
 11
88.6146155462
 21
67.3801528811
  0
LINE
  5
4BF
100
AcDbEntity
  8
0
100
AcDbLine
 62
7
  6
CONTINUOUS
 10
86.2104424807
 20
68.7681714465
 11
84.2305352503
 21
69.9112455592
  0
LINE
  5
4C0
100
AcDbEntity
  8
0
100
AcDbLine
 62
7
  6
CONTINUOUS
 10
81.8263621848
 20
71.2992641245
 11
79.8464549544
 21
72.4423382372
  0
LINE
  5
4C1
100
AcDbEntity
  8
0
100
AcDbLine
 62
7
  6
CONTINUOUS
 10
77.4422818889
 20
73.8303568026
 11
75.4623746585
 21
74.9734309152
  0
LINE
  5
4C2
100
AcDbEntity
  8
0
100
AcDbLine
 62
7
  6
CONTINUOUS
 10
73.058201593
 20
76.3614494806
 11
71.0782943626
 21
77.5045235932
  0
LINE
  5
4C3
100
AcDbEntity
  8
0
100
AcDbLine
 62
7
  6
CONTINUOUS
 10
68.6741212971
 20
78.8925421586
 11
66.6942140666
 21
80.0356162713
  0
LINE
  5
4C4
100
AcDbEntity
  8
0
100
AcDbLine
 62
7
  6
CONTINUOUS
 10
64.2900410011
 20
81.4236348366
 11
62.3101337707
 21
82.5667089493
  0
LINE
  5
4C5
100
AcDbEntity
  8
0
100
AcDbLine
 62
7
  6
CONTINUOUS
 10
59.9059607052
 20
83.9547275147
 11
57.9260534748
 21
85.0978016273
  0
LINE
  5
4C6
100
AcDbEntity
  8
0
100
AcDbLine
 62
7
  6
CONTINUOUS
 10
55.5218804093
 20
86.4858201927
 11
53.5419731789
 21
87.6288943053
  0
LINE
  5
4C7
100
AcDbEntity
  8
0
100
AcDbLine
 62
7
  6
CONTINUOUS
 10
51.1378001134
 20
89.0169128707
 11
49.157892883
 21
90.1599869834
  0
LINE
  5
4C8
100
AcDbEntity
  8
0
100
AcDbLine
 62
7
  6
CONTINUOUS
 10
46.7537198175
 20
91.5480055487
 11
44.7738125871
 21
92.6910796614
  0
LINE
  5
4C9
100
AcDbEntity
  8
0
100
AcDbLine
 62
7
  6
CONTINUOUS
 10
42.3696395216
 20
94.0790982268
 11
40.3897322912
 21
95.2221723394
  0
LINE
  5
4CA
100
AcDbEntity
  8
0
100
AcDbLine
 62
7
  6
CONTINUOUS
 10
37.9855592257
 20
96.6101909048
 11
36.0056519953
 21
97.7532650174
  0
LINE
  5
4CB
100
AcDbEntity
  8
0
100
AcDbLine
 62
7
  6
CONTINUOUS
 10
33.6014789298
 20
99.1412835828
 11
31.6215716994
 21
100.2843576955
  0
LINE
  5
4CC
100
AcDbEntity
  8
0
100
AcDbLine
 62
7
  6
CONTINUOUS
 10
29.2173986339
 20
101.6723762608
 11
27.2374914034
 21
102.8154503735
  0
LINE
  5
4CD
100
AcDbEntity
  8
0
100
AcDbLine
 62
7
  6
CONTINUOUS
 10
24.8333183379
 20
104.2034689389
 11
22.8534111075
 21
105.3465430515
  0
LINE
  5
4CE
100
AcDbEntity
  8
0
100
AcDbLine
 62
7
  6
CONTINUOUS
 10
20.449238042
 20
106.7345616169
 11
18.4693308116
 21
107.8776357295
  0
LINE
  5
4CF
100
AcDbEntity
  8
0
100
AcDbLine
 62
7
  6
CONTINUOUS
 10
16.0651577461
 20
109.2656542949
 11
14.0852505157
 21
110.4087284076
  0
LINE
  5
4D0
100
AcDbEntity
  8
0
100
AcDbLine
 62
7
  6
CONTINUOUS
 10
99.0475253445
 20
62.280840124
 11
97.8841181344
 21
62.9525183945
  0
LINE
  5
4D1
100
AcDbEntity
  8
0
100
AcDbLine
 62
7
  6
CONTINUOUS
 10
94.6634450486
 20
64.811932802
 11
93.5000378385
 21
65.4836110726
  0
LINE
  5
4D2
100
AcDbEntity
  8
0
100
AcDbLine
 62
7
  6
CONTINUOUS
 10
90.2793647527
 20
67.3430254801
 11
89.1159575426
 21
68.0147037506
  0
LINE
  5
4D3
100
AcDbEntity
  8
0
100
AcDbLine
 62
7
  6
CONTINUOUS
 10
85.8952844568
 20
69.8741181581
 11
84.7318772467
 21
70.5457964286
  0
LINE
  5
4D4
100
AcDbEntity
  8
0
100
AcDbLine
 62
7
  6
CONTINUOUS
 10
81.5112041608
 20
72.4052108361
 11
80.3477969508
 21
73.0768891066
  0
LINE
  5
4D5
100
AcDbEntity
  8
0
100
AcDbLine
 62
7
  6
CONTINUOUS
 10
77.1271238649
 20
74.9363035141
 11
75.9637166549
 21
75.6079817847
  0
LINE
  5
4D6
100
AcDbEntity
  8
0
100
AcDbLine
 62
7
  6
CONTINUOUS
 10
72.743043569
 20
77.4673961922
 11
71.5796363589
 21
78.1390744627
  0
LINE
  5
4D7
100
AcDbEntity
  8
0
100
AcDbLine
 62
7
  6
CONTINUOUS
 10
68.3589632731
 20
79.9984888702
 11
67.195556063
 21
80.6701671407
  0
LINE
  5
4D8
100
AcDbEntity
  8
0
100
AcDbLine
 62
7
  6
CONTINUOUS
 10
63.9748829772
 20
82.5295815482
 11
62.8114757671
 21
83.2012598187
  0
LINE
  5
4D9
100
AcDbEntity
  8
0
100
AcDbLine
 62
7
  6
CONTINUOUS
 10
59.5908026813
 20
85.0606742262
 11
58.4273954712
 21
85.7323524968
  0
LINE
  5
4DA
100
AcDbEntity
  8
0
100
AcDbLine
 62
7
  6
CONTINUOUS
 10
55.2067223854
 20
87.5917669043
 11
54.0433151753
 21
88.2634451748
  0
LINE
  5
4DB
100
AcDbEntity
  8
0
100
AcDbLine
 62
7
  6
CONTINUOUS
 10
50.8226420895
 20
90.1228595823
 11
49.6592348794
 21
90.7945378528
  0
LINE
  5
4DC
100
AcDbEntity
  8
0
100
AcDbLine
 62
7
  6
CONTINUOUS
 10
46.4385617936
 20
92.6539522603
 11
45.2751545835
 21
93.3256305308
  0
LINE
  5
4DD
100
AcDbEntity
  8
0
100
AcDbLine
 62
7
  6
CONTINUOUS
 10
42.0544814976
 20
95.1850449383
 11
40.8910742876
 21
95.8567232089
  0
LINE
  5
4DE
100
AcDbEntity
  8
0
100
AcDbLine
 62
7
  6
CONTINUOUS
 10
37.6704012017
 20
97.7161376164
 11
36.5069939917
 21
98.3878158869
  0
LINE
  5
4DF
100
AcDbEntity
  8
0
100
AcDbLine
 62
7
  6
CONTINUOUS
 10
33.2863209058
 20
100.2472302944
 11
32.1229136957
 21
100.9189085649
  0
LINE
  5
4E0
100
AcDbEntity
  8
0
100
AcDbLine
 62
7
  6
CONTINUOUS
 10
28.9022406099
 20
102.7783229724
 11
27.7388333998
 21
103.4500012429
  0
LINE
  5
4E1
100
AcDbEntity
  8
0
100
AcDbLine
 62
7
  6
CONTINUOUS
 10
24.518160314
 20
105.3094156504
 11
23.3547531039
 21
105.981093921
  0
LINE
  5
4E2
100
AcDbEntity
  8
0
100
AcDbLine
 62
7
  6
CONTINUOUS
 10
20.1340800181
 20
107.8405083285
 11
18.970672808
 21
108.512186599
  0
LINE
  5
4E3
100
AcDbEntity
  8
0
100
AcDbLine
 62
7
  6
CONTINUOUS
 10
15.7499997222
 20
110.3716010065
 11
14.5865925121
 21
111.043279277
  0
LINE
  5
4E4
100
AcDbEntity
  8
0
100
AcDbLine
 62
7
  6
CONTINUOUS
 10
99.4270244455
 20
62.4999427127
 11
98.2636172281
 21
63.1716209874
  0
LINE
  5
4E5
100
AcDbEntity
  8
0
100
AcDbLine
 62
7
  6
CONTINUOUS
 10
95.0429441496
 20
65.0310353907
 11
93.8795369322
 21
65.7027136655
  0
LINE
  5
4E6
100
AcDbEntity
  8
0
100
AcDbLine
 62
7
  6
CONTINUOUS
 10
90.6588638537
 20
67.5621280687
 11
89.4954566363
 21
68.2338063435
  0
LINE
  5
4E7
100
AcDbEntity
  8
0
100
AcDbLine
 62
7
  6
CONTINUOUS
 10
86.2747835577
 20
70.0932207468
 11
85.1113763403
 21
70.7648990215
  0
LINE
  5
4E8
100
AcDbEntity
  8
0
100
AcDbLine
 62
7
  6
CONTINUOUS
 10
81.8907032618
 20
72.6243134248
 11
80.7272960444
 21
73.2959916995
  0
LINE
  5
4E9
100
AcDbEntity
  8
0
100
AcDbLine
 62
7
  6
CONTINUOUS
 10
77.5066229659
 20
75.1554061028
 11
76.3432157485
 21
75.8270843776
  0
LINE
  5
4EA
100
AcDbEntity
  8
0
100
AcDbLine
 62
7
  6
CONTINUOUS
 10
73.12254267
 20
77.6864987808
 11
71.9591354526
 21
78.3581770556
  0
LINE
  5
4EB
100
AcDbEntity
  8
0
100
AcDbLine
 62
7
  6
CONTINUOUS
 10
68.7384623741
 20
80.2175914589
 11
67.5750551567
 21
80.8892697336
  0
LINE
  5
4EC
100
AcDbEntity
  8
0
100
AcDbLine
 62
7
  6
CONTINUOUS
 10
64.3543820782
 20
82.7486841369
 11
63.1909748608
 21
83.4203624117
  0
LINE
  5
4ED
100
AcDbEntity
  8
0
100
AcDbLine
 62
7
  6
CONTINUOUS
 10
59.9703017823
 20
85.2797768149
 11
58.8068945649
 21
85.9514550897
  0
LINE
  5
4EE
100
AcDbEntity
  8
0
100
AcDbLine
 62
7
  6
CONTINUOUS
 10
55.5862214864
 20
87.810869493
 11
54.422814269
 21
88.4825477677
  0
LINE
  5
4EF
100
AcDbEntity
  8
0
100
AcDbLine
 62
7
  6
CONTINUOUS
 10
51.2021411905
 20
90.341962171
 11
50.038733973
 21
91.0136404457
  0
LINE
  5
4F0
100
AcDbEntity
  8
0
100
AcDbLine
 62
7
  6
CONTINUOUS
 10
46.8180608945
 20
92.873054849
 11
45.6546536771
 21
93.5447331238
  0
LINE
  5
4F1
100
AcDbEntity
  8
0
100
AcDbLine
 62
7
  6
CONTINUOUS
 10
42.4339805986
 20
95.404147527
 11
41.2705733812
 21
96.0758258018
  0
LINE
  5
4F2
100
AcDbEntity
  8
0
100
AcDbLine
 62
7
  6
CONTINUOUS
 10
38.0499003027
 20
97.9352402051
 11
36.8864930853
 21
98.6069184798
  0
LINE
  5
4F3
100
AcDbEntity
  8
0
100
AcDbLine
 62
7
  6
CONTINUOUS
 10
33.6658200068
 20
100.4663328831
 11
32.5024127894
 21
101.1380111578
  0
LINE
  5
4F4
100
AcDbEntity
  8
0
100
AcDbLine
 62
7
  6
CONTINUOUS
 10
29.2817397109
 20
102.9974255611
 11
28.1183324935
 21
103.6691038359
  0
LINE
  5
4F5
100
AcDbEntity
  8
0
100
AcDbLine
 62
7
  6
CONTINUOUS
 10
24.897659415
 20
105.5285182391
 11
23.7342521976
 21
106.2001965139
  0
LINE
  5
4F6
100
AcDbEntity
  8
0
100
AcDbLine
 62
7
  6
CONTINUOUS
 10
20.5135791191
 20
108.0596109172
 11
19.3501719017
 21
108.7312891919
  0
LINE
  5
4F7
100
AcDbEntity
  8
0
100
AcDbLine
 62
7
  6
CONTINUOUS
 10
16.1294988232
 20
110.5907035952
 11
14.9660916058
 21
111.2623818699
  0
LINE
  5
4F8
100
AcDbEntity
  8
0
100
AcDbLine
 62
7
  6
CONTINUOUS
 10
60.471643775
 20
84.2813228378
 11
59.9703017831
 21
85.2797768154
  0
LINE
  5
4F9
100
AcDbEntity
  8
0
100
AcDbLine
 62
7
  6
CONTINUOUS
 10
63.97488298
 20
82.5295815383
 11
64.2900410011
 21
81.4236348366
  0
LINE
  5
4FA
100
AcDbEntity
  8
0
100
AcDbLine
 62
7
  6
CONTINUOUS
 10
64.8557240709
 20
77.2594668655
 11
64.8557240709
 21
81.7502301597
  0
LINE
  5
4FB
100
AcDbEntity
  8
0
100
AcDbLine
 62
7
  6
CONTINUOUS
 10
65.3565736949
 20
67.3356168557
 11
65.3565736949
 21
68.1521192728
  0
LINE
  5
4FC
100
AcDbEntity
  8
0
100
AcDbLine
 62
7
  6
CONTINUOUS
 10
65.3565736949
 20
72.2346313585
 11
65.3565736949
 21
75.500641027
  0
LINE
  5
4FD
100
AcDbEntity
  8
0
100
AcDbLine
 62
7
  6
CONTINUOUS
 10
65.5262965778
 20
77.3502846924
 11
65.5262965778
 21
77.3797955316
  0
LINE
  5
4FE
100
AcDbEntity
  8
0
100
AcDbLine
 62
7
  6
CONTINUOUS
 10
65.6394010942
 20
77.2447789884
 11
65.6394010942
 21
77.6235024685
  0
LINE
  5
4FF
100
AcDbEntity
  8
0
100
AcDbLine
 62
7
  6
CONTINUOUS
 10
65.7786915847
 20
75.5659430458
 11
65.7786915847
 21
72.2999333773
  0
LINE
  5
500
100
AcDbEntity
  8
0
100
AcDbLine
 62
7
  6
CONTINUOUS
 10
65.7786915847
 20
68.2174212916
 11
65.7786915847
 21
67.4009188745
  0
LINE
  5
501
100
AcDbEntity
  8
0
100
AcDbLine
 62
7
  6
CONTINUOUS
 10
65.9105370603
 20
67.0157931938
 11
65.9105370603
 21
67.8322956109
  0
LINE
  5
502
100
AcDbEntity
  8
0
100
AcDbLine
 62
7
  6
CONTINUOUS
 10
65.9105370603
 20
71.9148076965
 11
65.9105370603
 21
75.1808173651
  0
LINE
  5
503
100
AcDbEntity
  8
0
100
AcDbLine
 62
7
  6
CONTINUOUS
 10
66.6942140666
 20
75.544852977
 11
66.6942140666
 21
80.0356162713
  0
LINE
  5
504
100
AcDbEntity
  8
0
100
AcDbLine
 62
7
  6
CONTINUOUS
 10
68.04359065
 20
65.7843019888
 11
68.04359065
 21
66.6008044059
  0
LINE
  5
505
100
AcDbEntity
  8
0
100
AcDbLine
 62
7
  6
CONTINUOUS
 10
68.04359065
 20
70.6833164915
 11
68.04359065
 21
73.9493261601
  0
LINE
  5
506
100
AcDbEntity
  8
0
100
AcDbLine
 62
7
  6
CONTINUOUS
 10
64.3331820707
 20
76.433812951
 11
64.3263751226
 21
76.4038644607
  0
LINE
  5
507
100
AcDbEntity
  8
0
100
AcDbLine
 62
7
  6
CONTINUOUS
 10
65.5196927439
 20
77.3502846924
 11
65.5264996919
 21
77.3802331827
  0
LINE
  5
508
100
AcDbEntity
  8
0
100
AcDbLine
 62
7
  6
CONTINUOUS
 10
64.3331820707
 20
69.0852911968
 11
64.3263751226
 21
69.0553427065
  0
LINE
  5
509
100
AcDbEntity
  8
0
100
AcDbLine
 62
7
  6
CONTINUOUS
 10
66.030391094
 20
75.4543254043
 11
66.0235956372
 21
75.424425316
  0
LINE
  5
50A
100
AcDbEntity
  8
0
100
AcDbLine
 62
7
  6
CONTINUOUS
 10
64.3263751226
 20
76.4038644607
 11
64.2134737201
 21
76.160595175
  0
LINE
  5
50B
100
AcDbEntity
  8
0
100
AcDbLine
 62
7
  6
CONTINUOUS
 10
61.6388013269
 20
70.605457754
 11
61.5264567624
 21
70.3633882898
  0
LINE
  5
50C
100
AcDbEntity
  8
0
100
AcDbLine
 62
7
  6
CONTINUOUS
 10
65.5264996919
 20
77.3802331827
 11
65.6394010942
 21
77.6235024685
  0
LINE
  5
50D
100
AcDbEntity
  8
0
100
AcDbLine
 62
7
  6
CONTINUOUS
 10
66.0235956372
 20
75.424425316
 11
65.9105370603
 21
75.1808173651
  0
LINE
  5
50E
100
AcDbEntity
  8
0
100
AcDbLine
 62
7
  6
CONTINUOUS
 10
64.3263751226
 20
69.0553427065
 11
64.2134737201
 21
68.8120734208
  0
LINE
  5
50F
100
AcDbEntity
  8
0
100
AcDbLine
 62
7
  6
CONTINUOUS
 10
71.5796363544
 20
78.139074457
 11
71.9591354534
 21
78.3581770561
  0
LINE
  5
510
100
AcDbEntity
  8
0
100
AcDbLine
 62
7
  6
CONTINUOUS
 10
72.7430435727
 20
77.4673961827
 11
73.12254267
 21
77.6864987808
  0
LINE
  5
511
100
AcDbEntity
  8
0
100
AcDbLine
 62
7
  6
CONTINUOUS
 10
68.6741212971
 20
74.4017788644
 11
69.2398043668
 21
74.7283741875
  0
LINE
  5
512
100
AcDbEntity
  8
0
100
AcDbLine
 62
7
  6
CONTINUOUS
 10
73.058201593
 20
76.3614494806
 11
73.6238846627
 21
76.6880448037
  0
LINE
  5
513
100
AcDbEntity
  8
0
100
AcDbLine
 62
7
  6
CONTINUOUS
 10
42.1616837239
 20
85.9352452749
 11
41.7391088687
 21
85.8698725623
  0
LINE
  5
514
100
AcDbEntity
  8
0
100
AcDbLine
 62
7
  6
CONTINUOUS
 10
46.1231891648
 20
86.6047895529
 11
46.5445490114
 21
86.6699743017
  0
LINE
  5
515
100
AcDbEntity
  8
0
100
AcDbLine
 62
7
  6
CONTINUOUS
 10
35.087293286
 20
85.1181288583
 11
34.6680116157
 21
85.0532656053
  0
LINE
  5
516
100
AcDbEntity
  8
0
100
AcDbLine
 62
7
  6
CONTINUOUS
 10
48.6570432753
 20
87.4280495188
 11
48.235683429
 21
87.3628647699
  0
LINE
  5
517
100
AcDbEntity
  8
0
100
AcDbLine
 62
7
  6
CONTINUOUS
 10
34.6680116157
 20
85.8697680224
 11
35.087293286
 21
85.9346312755
  0
LINE
  5
518
100
AcDbEntity
  8
0
100
AcDbLine
 62
7
  6
CONTINUOUS
 10
33.3935231301
 20
86.098416129
 11
32.9709482749
 21
86.0330434164
  0
LINE
  5
519
100
AcDbEntity
  8
0
100
AcDbLine
 62
7
  6
CONTINUOUS
 10
39.4740383536
 20
87.4864629245
 11
39.0520919136
 21
87.4211874292
  0
LINE
  5
51A
100
AcDbEntity
  8
0
100
AcDbLine
 62
7
  6
CONTINUOUS
 10
43.4361722095
 20
88.1561044197
 11
43.8554538798
 21
88.2209676727
  0
LINE
  5
51B
100
AcDbEntity
  8
0
100
AcDbLine
 62
7
  6
CONTINUOUS
 10
32.9709482749
 20
86.8495458335
 11
33.3935231301
 21
86.9149185461
  0
LINE
  5
51C
100
AcDbEntity
  8
0
100
AcDbLine
 62
7
  6
CONTINUOUS
 10
64.8557240709
 20
81.7502301597
 11
64.354382079
 21
82.7486841374
  0
LINE
  5
51D
100
AcDbEntity
  8
0
100
AcDbLine
 62
7
  6
CONTINUOUS
 10
69.2398043668
 20
79.2191374817
 11
68.7384623749
 21
80.2175914594
  0
LINE
  5
51E
100
AcDbEntity
  8
0
100
AcDbLine
 62
7
  6
CONTINUOUS
 10
68.3589632759
 20
79.9984888603
 11
68.6741212971
 21
78.8925421586
  0
LINE
  5
51F
100
AcDbEntity
  8
0
100
AcDbLine
 62
7
  6
CONTINUOUS
 10
68.4657085397
 20
74.0146281797
 11
68.4657085397
 21
70.7486185112
  0
LINE
  5
520
100
AcDbEntity
  8
0
100
AcDbLine
 62
7
  6
CONTINUOUS
 10
68.4657085397
 20
66.6661064256
 11
68.4657085397
 21
65.8496040084
  0
LINE
  5
521
100
AcDbEntity
  8
0
100
AcDbLine
 62
7
  6
CONTINUOUS
 10
68.5975540139
 20
65.4644783269
 11
68.5975540139
 21
66.280980744
  0
LINE
  5
522
100
AcDbEntity
  8
0
100
AcDbLine
 62
7
  6
CONTINUOUS
 10
68.5975540139
 20
70.3634928297
 11
68.5975540139
 21
73.6295024982
  0
LINE
  5
523
100
AcDbEntity
  8
0
100
AcDbLine
 62
7
  6
CONTINUOUS
 10
68.6741212971
 20
78.8925421586
 11
68.6741212971
 21
74.4017788644
  0
LINE
  5
524
100
AcDbEntity
  8
0
100
AcDbLine
 62
7
  6
CONTINUOUS
 10
69.2398043668
 20
74.7283741875
 11
69.2398043668
 21
79.2191374817
  0
LINE
  5
525
100
AcDbEntity
  8
0
100
AcDbLine
 62
7
  6
CONTINUOUS
 10
69.7406539908
 20
64.8045241777
 11
69.7406539908
 21
65.6210265948
  0
LINE
  5
526
100
AcDbEntity
  8
0
100
AcDbLine
 62
7
  6
CONTINUOUS
 10
69.7406539908
 20
69.7035386805
 11
69.7406539908
 21
72.969548349
  0
LINE
  5
527
100
AcDbEntity
  8
0
100
AcDbLine
 62
7
  6
CONTINUOUS
 10
69.9103768739
 20
74.8185963311
 11
69.9103768739
 21
74.8487028526
  0
LINE
  5
528
100
AcDbEntity
  8
0
100
AcDbLine
 62
7
  6
CONTINUOUS
 10
70.0234813918
 20
74.713361054
 11
70.0234813918
 21
75.0924097895
  0
LINE
  5
529
100
AcDbEntity
  8
0
100
AcDbLine
 62
7
  6
CONTINUOUS
 10
70.162771881
 20
73.0348503678
 11
70.162771881
 21
69.7688406993
  0
LINE
  5
52A
100
AcDbEntity
  8
0
100
AcDbLine
 62
7
  6
CONTINUOUS
 10
70.162771881
 20
65.6863286136
 11
70.162771881
 21
64.8698261965
  0
LINE
  5
52B
100
AcDbEntity
  8
0
100
AcDbLine
 62
7
  6
CONTINUOUS
 10
70.2946173562
 20
64.4847005157
 11
70.2946173562
 21
65.3012029329
  0
LINE
  5
52C
100
AcDbEntity
  8
0
100
AcDbLine
 62
7
  6
CONTINUOUS
 10
70.2946173562
 20
69.3837150185
 11
70.2946173562
 21
72.649724687
  0
LINE
  5
52D
100
AcDbEntity
  8
0
100
AcDbLine
 62
7
  6
CONTINUOUS
 10
71.0782943626
 20
73.013760299
 11
71.0782943626
 21
77.5045235932
  0
LINE
  5
52E
100
AcDbEntity
  8
0
100
AcDbLine
 62
7
  6
CONTINUOUS
 10
66.030391094
 20
68.1058036501
 11
66.0235956372
 21
68.0759035619
  0
LINE
  5
52F
100
AcDbEntity
  8
0
100
AcDbLine
 62
7
  6
CONTINUOUS
 10
68.7175635429
 20
73.9033159564
 11
68.710780974
 21
73.8734732608
  0
LINE
  5
530
100
AcDbEntity
  8
0
100
AcDbLine
 62
7
  6
CONTINUOUS
 10
69.9034718632
 20
74.8185963311
 11
69.9102544321
 21
74.8484390266
  0
LINE
  5
531
100
AcDbEntity
  8
0
100
AcDbLine
 62
7
  6
CONTINUOUS
 10
68.7175635429
 20
66.5547942022
 11
68.710780974
 21
66.5249515067
  0
LINE
  5
532
100
AcDbEntity
  8
0
100
AcDbLine
 62
7
  6
CONTINUOUS
 10
70.4138049913
 20
72.9218700729
 11
70.4069619206
 21
72.8917941512
  0
LINE
  5
533
100
AcDbEntity
  8
0
100
AcDbLine
 62
7
  6
CONTINUOUS
 10
68.710780974
 20
73.8734732608
 11
68.5975540139
 21
73.6295024982
  0
LINE
  5
534
100
AcDbEntity
  8
0
100
AcDbLine
 62
7
  6
CONTINUOUS
 10
66.0235956372
 20
68.0759035619
 11
65.9105370603
 21
67.8322956109
  0
LINE
  5
535
100
AcDbEntity
  8
0
100
AcDbLine
 62
7
  6
CONTINUOUS
 10
69.9102544321
 20
74.8484390266
 11
70.0234813918
 21
75.0924097895
  0
LINE
  5
536
100
AcDbEntity
  8
0
100
AcDbLine
 62
7
  6
CONTINUOUS
 10
71.0782943626
 20
77.5045235932
 11
71.5796363544
 21
78.139074457
  0
LINE
  5
537
100
AcDbEntity
  8
0
100
AcDbLine
 62
7
  6
CONTINUOUS
 10
75.9637166504
 20
75.607981779
 11
76.3432157494
 21
75.8270843781
  0
LINE
  5
538
100
AcDbEntity
  8
0
100
AcDbLine
 62
7
  6
CONTINUOUS
 10
77.1271238686
 20
74.9363035047
 11
77.5066229659
 21
75.1554061028
  0
LINE
  5
539
100
AcDbEntity
  8
0
100
AcDbLine
 62
7
  6
CONTINUOUS
 10
73.058201593
 20
71.8706861864
 11
73.6238846627
 21
72.1972815095
  0
LINE
  5
53A
100
AcDbEntity
  8
0
100
AcDbLine
 62
7
  6
CONTINUOUS
 10
37.7763884176
 20
88.4661499901
 11
37.3550285711
 21
88.4009652413
  0
LINE
  5
53B
100
AcDbEntity
  8
0
100
AcDbLine
 62
7
  6
CONTINUOUS
 10
41.7391088687
 20
89.1358822308
 11
42.1616837239
 21
89.2012549434
  0
LINE
  5
53C
100
AcDbEntity
  8
0
100
AcDbLine
 62
7
  6
CONTINUOUS
 10
30.7058777598
 20
87.6496337786
 11
30.2839313198
 21
87.5843582833
  0
LINE
  5
53D
100
AcDbEntity
  8
0
100
AcDbLine
 62
7
  6
CONTINUOUS
 10
44.2729629758
 20
89.9591421992
 11
43.8503881211
 21
89.8937694863
  0
LINE
  5
53E
100
AcDbEntity
  8
0
100
AcDbLine
 62
7
  6
CONTINUOUS
 10
30.2839313198
 20
88.4008607004
 11
30.7058777598
 21
88.4661361958
  0
LINE
  5
53F
100
AcDbEntity
  8
0
100
AcDbLine
 62
7
  6
CONTINUOUS
 10
29.0082278239
 20
88.6293208442
 11
28.5868679773
 21
88.5641360954
  0
LINE
  5
540
100
AcDbEntity
  8
0
100
AcDbLine
 62
7
  6
CONTINUOUS
 10
35.087293286
 20
90.0171433611
 11
34.6680116157
 21
89.9522801081
  0
LINE
  5
541
100
AcDbEntity
  8
0
100
AcDbLine
 62
7
  6
CONTINUOUS
 10
39.0520919136
 20
90.6871970977
 11
39.4740383536
 21
90.752472593
  0
LINE
  5
542
100
AcDbEntity
  8
0
100
AcDbLine
 62
7
  6
CONTINUOUS
 10
28.5868679773
 20
89.3806385125
 11
29.0082278239
 21
89.4458232613
  0
LINE
  5
543
100
AcDbEntity
  8
0
100
AcDbLine
 62
7
  6
CONTINUOUS
 10
33.3935231301
 20
90.9974306318
 11
32.9709482749
 21
90.9320579192
  0
LINE
  5
544
100
AcDbEntity
  8
0
100
AcDbLine
 62
7
  6
CONTINUOUS
 10
73.6238846627
 20
76.6880448037
 11
73.1225426708
 21
77.6864987813
  0
LINE
  5
545
100
AcDbEntity
  8
0
100
AcDbLine
 62
7
  6
CONTINUOUS
 10
72.7430435719
 20
77.4673961822
 11
73.058201593
 21
76.3614494806
  0
LINE
  5
546
100
AcDbEntity
  8
0
100
AcDbLine
 62
7
  6
CONTINUOUS
 10
72.4276709462
 20
63.2532093109
 11
72.4276709462
 21
64.069711728
  0
LINE
  5
547
100
AcDbEntity
  8
0
100
AcDbLine
 62
7
  6
CONTINUOUS
 10
72.4276709462
 20
68.1522238137
 11
72.4276709462
 21
71.4182334822
  0
LINE
  5
548
100
AcDbEntity
  8
0
100
AcDbLine
 62
7
  6
CONTINUOUS
 10
72.8497888359
 20
71.4835355009
 11
72.8497888359
 21
68.2175258324
  0
LINE
  5
549
100
AcDbEntity
  8
0
100
AcDbLine
 62
7
  6
CONTINUOUS
 10
72.8497888359
 20
64.1350137468
 11
72.8497888359
 21
63.3185113296
  0
LINE
  5
54A
100
AcDbEntity
  8
0
100
AcDbLine
 62
7
  6
CONTINUOUS
 10
72.9816343139
 20
62.9333856468
 11
72.9816343139
 21
63.7498880639
  0
LINE
  5
54B
100
AcDbEntity
  8
0
100
AcDbLine
 62
7
  6
CONTINUOUS
 10
72.9816343139
 20
67.8324001496
 11
72.9816343139
 21
71.0984098181
  0
LINE
  5
54C
100
AcDbEntity
  8
0
100
AcDbLine
 62
7
  6
CONTINUOUS
 10
73.058201593
 20
76.3614494806
 11
73.058201593
 21
71.8706861864
  0
LINE
  5
54D
100
AcDbEntity
  8
0
100
AcDbLine
 62
7
  6
CONTINUOUS
 10
73.6238846627
 20
72.1972815095
 11
73.6238846627
 21
76.6880448037
  0
LINE
  5
54E
100
AcDbEntity
  8
0
100
AcDbLine
 62
7
  6
CONTINUOUS
 10
74.1247342886
 20
62.2734314988
 11
74.1247342886
 21
63.0899339159
  0
LINE
  5
54F
100
AcDbEntity
  8
0
100
AcDbLine
 62
7
  6
CONTINUOUS
 10
74.1247342886
 20
67.1724460016
 11
74.1247342886
 21
70.4384556701
  0
LINE
  5
550
100
AcDbEntity
  8
0
100
AcDbLine
 62
7
  6
CONTINUOUS
 10
74.2944571711
 20
72.2880993352
 11
74.2944571711
 21
72.3176101744
  0
LINE
  5
551
100
AcDbEntity
  8
0
100
AcDbLine
 62
7
  6
CONTINUOUS
 10
74.4075616875
 20
72.1825936312
 11
74.4075616875
 21
72.5613171114
  0
LINE
  5
552
100
AcDbEntity
  8
0
100
AcDbLine
 62
7
  6
CONTINUOUS
 10
74.5468521785
 20
70.5037576889
 11
74.5468521785
 21
67.2377480203
  0
LINE
  5
553
100
AcDbEntity
  8
0
100
AcDbLine
 62
7
  6
CONTINUOUS
 10
74.5468521785
 20
63.1552359347
 11
74.5468521785
 21
62.3387335176
  0
LINE
  5
554
100
AcDbEntity
  8
0
100
AcDbLine
 62
7
  6
CONTINUOUS
 10
74.6786976541
 20
61.9536078369
 11
74.6786976541
 21
62.770110254
  0
LINE
  5
555
100
AcDbEntity
  8
0
100
AcDbLine
 62
7
  6
CONTINUOUS
 10
74.6786976541
 20
66.8526223396
 11
74.6786976541
 21
70.1186320082
  0
LINE
  5
556
100
AcDbEntity
  8
0
100
AcDbLine
 62
7
  6
CONTINUOUS
 10
75.4623746585
 20
70.482667621
 11
75.4623746585
 21
74.9734309152
  0
LINE
  5
557
100
AcDbEntity
  8
0
100
AcDbLine
 62
7
  6
CONTINUOUS
 10
73.1013426644
 20
71.3716275941
 11
73.0945357164
 21
71.3416791038
  0
LINE
  5
558
100
AcDbEntity
  8
0
100
AcDbLine
 62
7
  6
CONTINUOUS
 10
74.2878533372
 20
72.2880993352
 11
74.2946602852
 21
72.3180478255
  0
LINE
  5
559
100
AcDbEntity
  8
0
100
AcDbLine
 62
7
  6
CONTINUOUS
 10
70.4138049913
 20
65.5733483187
 11
70.4069619206
 21
65.5432723971
  0
LINE
  5
55A
100
AcDbEntity
  8
0
100
AcDbLine
 62
7
  6
CONTINUOUS
 10
70.4069619206
 20
72.8917941512
 11
70.2946173562
 21
72.649724687
  0
LINE
  5
55B
100
AcDbEntity
  8
0
100
AcDbLine
 62
7
  6
CONTINUOUS
 10
68.710780974
 20
66.5249515067
 11
68.5975540139
 21
66.280980744
  0
LINE
  5
55C
100
AcDbEntity
  8
0
100
AcDbLine
 62
7
  6
CONTINUOUS
 10
73.0945357164
 20
71.3416791038
 11
72.9816343139
 21
71.0984098181
  0
LINE
  5
55D
100
AcDbEntity
  8
0
100
AcDbLine
 62
7
  6
CONTINUOUS
 10
70.4069619206
 20
65.5432723971
 11
70.2946173562
 21
65.3012029329
  0
LINE
  5
55E
100
AcDbEntity
  8
0
100
AcDbLine
 62
7
  6
CONTINUOUS
 10
75.4623746585
 20
74.9734309152
 11
75.9637166504
 21
75.607981779
  0
LINE
  5
55F
100
AcDbEntity
  8
0
100
AcDbLine
 62
7
  6
CONTINUOUS
 10
77.4422818889
 20
73.8303568026
 11
78.0079649586
 21
74.1569521256
  0
LINE
  5
560
100
AcDbEntity
  8
0
100
AcDbLine
 62
7
  6
CONTINUOUS
 10
80.3477969463
 20
73.0768891009
 11
80.7272960453
 21
73.2959917
  0
LINE
  5
561
100
AcDbEntity
  8
0
100
AcDbLine
 62
7
  6
CONTINUOUS
 10
81.5112041645
 20
72.4052108267
 11
81.8907032618
 21
72.6243134248
  0
LINE
  5
562
100
AcDbEntity
  8
0
100
AcDbLine
 62
7
  6
CONTINUOUS
 10
37.3550285711
 20
91.6669749098
 11
37.7763884176
 21
91.7321596586
  0
LINE
  5
563
100
AcDbEntity
  8
0
100
AcDbLine
 62
7
  6
CONTINUOUS
 10
26.3191326923
 20
90.1803142152
 11
25.8998510219
 21
90.1154509622
  0
LINE
  5
564
100
AcDbEntity
  8
0
100
AcDbLine
 62
7
  6
CONTINUOUS
 10
39.888882682
 20
92.490234876
 11
39.4675228357
 21
92.4250501271
  0
LINE
  5
565
100
AcDbEntity
  8
0
100
AcDbLine
 62
7
  6
CONTINUOUS
 10
25.8998510219
 20
90.9319533793
 11
26.3191326923
 21
90.9968166324
  0
LINE
  5
566
100
AcDbEntity
  8
0
100
AcDbLine
 62
7
  6
CONTINUOUS
 10
24.6253625363
 20
91.1606014859
 11
24.2027876812
 21
91.0952287733
  0
LINE
  5
567
100
AcDbEntity
  8
0
100
AcDbLine
 62
7
  6
CONTINUOUS
 10
30.7058777598
 20
92.5486482814
 11
30.2839313198
 21
92.4833727861
  0
LINE
  5
568
100
AcDbEntity
  8
0
100
AcDbLine
 62
7
  6
CONTINUOUS
 10
34.6680116157
 20
93.2182897766
 11
35.087293286
 21
93.2831530296
  0
LINE
  5
569
100
AcDbEntity
  8
0
100
AcDbLine
 62
7
  6
CONTINUOUS
 10
24.2027876812
 20
91.9117311904
 11
24.6253625363
 21
91.977103903
  0
LINE
  5
56A
100
AcDbEntity
  8
0
100
AcDbLine
 62
7
  6
CONTINUOUS
 10
29.0082278239
 20
93.528335347
 11
28.5868679773
 21
93.4631505982
  0
LINE
  5
56B
100
AcDbEntity
  8
0
100
AcDbLine
 62
7
  6
CONTINUOUS
 10
32.9709482749
 20
94.1980675877
 11
33.3935231301
 21
94.2634403003
  0
LINE
  5
56C
100
AcDbEntity
  8
0
100
AcDbLine
 62
7
  6
CONTINUOUS
 10
21.937717166
 20
92.7118191355
 11
21.515770726
 21
92.6465436402
  0
LINE
  5
56D
100
AcDbEntity
  8
0
100
AcDbLine
 62
7
  6
CONTINUOUS
 10
35.5048023825
 20
95.0213275564
 11
35.0822275278
 21
94.9559548435
  0
LINE
  5
56E
100
AcDbEntity
  8
0
100
AcDbLine
 62
7
  6
CONTINUOUS
 10
78.0079649586
 20
74.1569521256
 11
77.5066229668
 21
75.1554061033
  0
LINE
  5
56F
100
AcDbEntity
  8
0
100
AcDbLine
 62
7
  6
CONTINUOUS
 10
77.1271238678
 20
74.9363035042
 11
77.4422818889
 21
73.8303568026
  0
LINE
  5
570
100
AcDbEntity
  8
0
100
AcDbLine
 62
7
  6
CONTINUOUS
 10
76.8117512438
 20
60.7221166319
 11
76.8117512438
 21
61.538619049
  0
LINE
  5
571
100
AcDbEntity
  8
0
100
AcDbLine
 62
7
  6
CONTINUOUS
 10
76.8117512438
 20
65.6211311346
 11
76.8117512438
 21
68.8871408032
  0
LINE
  5
572
100
AcDbEntity
  8
0
100
AcDbLine
 62
7
  6
CONTINUOUS
 10
77.2338691335
 20
68.9524428228
 11
77.2338691335
 21
65.6864331543
  0
LINE
  5
573
100
AcDbEntity
  8
0
100
AcDbLine
 62
7
  6
CONTINUOUS
 10
77.2338691335
 20
61.6039210686
 11
77.2338691335
 21
60.7874186515
  0
LINE
  5
574
100
AcDbEntity
  8
0
100
AcDbLine
 62
7
  6
CONTINUOUS
 10
77.3657146077
 20
60.40229297
 11
77.3657146077
 21
61.2187953871
  0
LINE
  5
575
100
AcDbEntity
  8
0
100
AcDbLine
 62
7
  6
CONTINUOUS
 10
77.3657146077
 20
65.3013074728
 11
77.3657146077
 21
68.5673171413
  0
LINE
  5
576
100
AcDbEntity
  8
0
100
AcDbLine
 62
7
  6
CONTINUOUS
 10
77.4422818889
 20
73.8303568026
 11
77.4422818889
 21
69.3395935083
  0
LINE
  5
577
100
AcDbEntity
  8
0
100
AcDbLine
 62
7
  6
CONTINUOUS
 10
78.0079649586
 20
69.6661888314
 11
78.0079649586
 21
74.1569521256
  0
LINE
  5
578
100
AcDbEntity
  8
0
100
AcDbLine
 62
7
  6
CONTINUOUS
 10
78.5088145845
 20
59.7423388208
 11
78.5088145845
 21
60.5588412379
  0
LINE
  5
579
100
AcDbEntity
  8
0
100
AcDbLine
 62
7
  6
CONTINUOUS
 10
78.5088145845
 20
64.6413533236
 11
78.5088145845
 21
67.9073629921
  0
LINE
  5
57A
100
AcDbEntity
  8
0
100
AcDbLine
 62
7
  6
CONTINUOUS
 10
78.6785374672
 20
69.7564109739
 11
78.6785374672
 21
69.7865174954
  0
LINE
  5
57B
100
AcDbEntity
  8
0
100
AcDbLine
 62
7
  6
CONTINUOUS
 10
78.7916419851
 20
69.6511756968
 11
78.7916419851
 21
70.0302244324
  0
LINE
  5
57C
100
AcDbEntity
  8
0
100
AcDbLine
 62
7
  6
CONTINUOUS
 10
78.9309324748
 20
67.9726650109
 11
78.9309324748
 21
64.7066553424
  0
LINE
  5
57D
100
AcDbEntity
  8
0
100
AcDbLine
 62
7
  6
CONTINUOUS
 10
78.9309324748
 20
60.6241432567
 11
78.9309324748
 21
59.8076408396
  0
LINE
  5
57E
100
AcDbEntity
  8
0
100
AcDbLine
 62
7
  6
CONTINUOUS
 10
79.06277795
 20
59.4225151588
 11
79.06277795
 21
60.239017576
  0
LINE
  5
57F
100
AcDbEntity
  8
0
100
AcDbLine
 62
7
  6
CONTINUOUS
 10
79.06277795
 20
64.3215296616
 11
79.06277795
 21
67.5875393301
  0
LINE
  5
580
100
AcDbEntity
  8
0
100
AcDbLine
 62
7
  6
CONTINUOUS
 10
73.1013426644
 20
64.0231058399
 11
73.0945357164
 21
63.9931573496
  0
LINE
  5
581
100
AcDbEntity
  8
0
100
AcDbLine
 62
7
  6
CONTINUOUS
 10
74.7985516877
 20
70.3921400474
 11
74.791756231
 21
70.3622399591
  0
LINE
  5
582
100
AcDbEntity
  8
0
100
AcDbLine
 62
7
  6
CONTINUOUS
 10
74.7985516877
 20
63.0436182932
 11
74.791756231
 21
63.013718205
  0
LINE
  5
583
100
AcDbEntity
  8
0
100
AcDbLine
 62
7
  6
CONTINUOUS
 10
74.2946602852
 20
72.3180478255
 11
74.4075616875
 21
72.5613171114
  0
LINE
  5
584
100
AcDbEntity
  8
0
100
AcDbLine
 62
7
  6
CONTINUOUS
 10
74.791756231
 20
70.3622399591
 11
74.6786976541
 21
70.1186320082
  0
LINE
  5
585
100
AcDbEntity
  8
0
100
AcDbLine
 62
7
  6
CONTINUOUS
 10
73.0945357164
 20
63.9931573496
 11
72.9816343139
 21
63.7498880639
  0
LINE
  5
586
100
AcDbEntity
  8
0
100
AcDbLine
 62
7
  6
CONTINUOUS
 10
77.4422818889
 20
69.3395935083
 11
78.0079649586
 21
69.6661888314
  0
LINE
  5
587
100
AcDbEntity
  8
0
100
AcDbLine
 62
7
  6
CONTINUOUS
 10
81.8263621848
 20
71.2992641245
 11
82.3920452546
 21
71.6258594476
  0
LINE
  5
588
100
AcDbEntity
  8
0
100
AcDbLine
 62
7
  6
CONTINUOUS
 10
84.7318772422
 20
70.5457964229
 11
85.1113763412
 21
70.764899022
  0
LINE
  5
589
100
AcDbEntity
  8
0
100
AcDbLine
 62
7
  6
CONTINUOUS
 10
21.515770726
 20
93.4630460574
 11
21.937717166
 21
93.5283215527
  0
LINE
  5
58A
100
AcDbEntity
  8
0
100
AcDbLine
 62
7
  6
CONTINUOUS
 10
20.2400672301
 20
93.6915062011
 11
19.8187073835
 21
93.6263214523
  0
LINE
  5
58B
100
AcDbEntity
  8
0
100
AcDbLine
 62
7
  6
CONTINUOUS
 10
26.3191326923
 20
95.079328718
 11
25.8998510219
 21
95.014465465
  0
LINE
  5
58C
100
AcDbEntity
  8
0
100
AcDbLine
 62
7
  6
CONTINUOUS
 10
30.2839313198
 20
95.7493824546
 11
30.7058777598
 21
95.8146579499
  0
LINE
  5
58D
100
AcDbEntity
  8
0
100
AcDbLine
 62
7
  6
CONTINUOUS
 10
19.8187073835
 20
94.4428238694
 11
20.2400672301
 21
94.5080086182
  0
LINE
  5
58E
100
AcDbEntity
  8
0
100
AcDbLine
 62
7
  6
CONTINUOUS
 10
24.6253625363
 20
96.0596159887
 11
24.2027876812
 21
95.9942432761
  0
LINE
  5
58F
100
AcDbEntity
  8
0
100
AcDbLine
 62
7
  6
CONTINUOUS
 10
28.5868679773
 20
96.7291602667
 11
29.0082278239
 21
96.7943450155
  0
LINE
  5
590
100
AcDbEntity
  8
0
100
AcDbLine
 62
7
  6
CONTINUOUS
 10
31.1207220887
 20
97.5524202332
 11
30.6993622424
 21
97.4872354842
  0
LINE
  5
591
100
AcDbEntity
  8
0
100
AcDbLine
 62
7
  6
CONTINUOUS
 10
82.3920452546
 20
71.6258594476
 11
81.8907032627
 21
72.6243134253
  0
LINE
  5
592
100
AcDbEntity
  8
0
100
AcDbLine
 62
7
  6
CONTINUOUS
 10
86.7761255505
 20
69.0947667696
 11
86.2747835586
 21
70.0932207473
  0
LINE
  5
593
100
AcDbEntity
  8
0
100
AcDbLine
 62
7
  6
CONTINUOUS
 10
81.5112041637
 20
72.4052108262
 11
81.8263621848
 21
71.2992641245
  0
LINE
  5
594
100
AcDbEntity
  8
0
100
AcDbLine
 62
7
  6
CONTINUOUS
 10
79.8464549544
 20
67.951574943
 11
79.8464549544
 21
72.4423382372
  0
LINE
  5
595
100
AcDbEntity
  8
0
100
AcDbLine
 62
7
  6
CONTINUOUS
 10
81.1958315399
 20
58.191023954
 11
81.1958315399
 21
59.0075263711
  0
LINE
  5
596
100
AcDbEntity
  8
0
100
AcDbLine
 62
7
  6
CONTINUOUS
 10
81.1958315399
 20
63.0900384568
 11
81.1958315399
 21
66.3560481253
  0
LINE
  5
597
100
AcDbEntity
  8
0
100
AcDbLine
 62
7
  6
CONTINUOUS
 10
81.6179494297
 20
66.421350144
 11
81.6179494297
 21
63.1553404755
  0
LINE
  5
598
100
AcDbEntity
  8
0
100
AcDbLine
 62
7
  6
CONTINUOUS
 10
81.6179494297
 20
59.0728283899
 11
81.6179494297
 21
58.2563259727
  0
LINE
  5
599
100
AcDbEntity
  8
0
100
AcDbLine
 62
7
  6
CONTINUOUS
 10
81.7497949076
 20
57.8712002899
 11
81.7497949076
 21
58.687702707
  0
LINE
  5
59A
100
AcDbEntity
  8
0
100
AcDbLine
 62
7
  6
CONTINUOUS
 10
81.7497949076
 20
62.7702147927
 11
81.7497949076
 21
66.0362244612
  0
LINE
  5
59B
100
AcDbEntity
  8
0
100
AcDbLine
 62
7
  6
CONTINUOUS
 10
81.8263621848
 20
71.2992641245
 11
81.8263621848
 21
66.8085008303
  0
LINE
  5
59C
100
AcDbEntity
  8
0
100
AcDbLine
 62
7
  6
CONTINUOUS
 10
82.3920452546
 20
67.1350961534
 11
82.3920452546
 21
71.6258594476
  0
LINE
  5
59D
100
AcDbEntity
  8
0
100
AcDbLine
 62
7
  6
CONTINUOUS
 10
77.4857241367
 20
68.8411305995
 11
77.4789415678
 21
68.8112879039
  0
LINE
  5
59E
100
AcDbEntity
  8
0
100
AcDbLine
 62
7
  6
CONTINUOUS
 10
78.6716324565
 20
69.7564109739
 11
78.6784150254
 21
69.7862536694
  0
LINE
  5
59F
100
AcDbEntity
  8
0
100
AcDbLine
 62
7
  6
CONTINUOUS
 10
77.4857241367
 20
61.4926088453
 11
77.4789415678
 21
61.4627661498
  0
LINE
  5
5A0
100
AcDbEntity
  8
0
100
AcDbLine
 62
7
  6
CONTINUOUS
 10
79.1819655851
 20
67.859684716
 11
79.1751225144
 21
67.8296087943
  0
LINE
  5
5A1
100
AcDbEntity
  8
0
100
AcDbLine
 62
7
  6
CONTINUOUS
 10
77.4789415678
 20
68.8112879039
 11
77.3657146077
 21
68.5673171413
  0
LINE
  5
5A2
100
AcDbEntity
  8
0
100
AcDbLine
 62
7
  6
CONTINUOUS
 10
74.791756231
 20
63.013718205
 11
74.6786976541
 21
62.770110254
  0
LINE
  5
5A3
100
AcDbEntity
  8
0
100
AcDbLine
 62
7
  6
CONTINUOUS
 10
78.6784150254
 20
69.7862536694
 11
78.7916419851
 21
70.0302244324
  0
LINE
  5
5A4
100
AcDbEntity
  8
0
100
AcDbLine
 62
7
  6
CONTINUOUS
 10
79.1751225144
 20
67.8296087943
 11
79.06277795
 21
67.5875393301
  0
LINE
  5
5A5
100
AcDbEntity
  8
0
100
AcDbLine
 62
7
  6
CONTINUOUS
 10
79.8464549544
 20
72.4423382372
 11
80.3477969463
 21
73.0768891009
  0
LINE
  5
5A6
100
AcDbEntity
  8
0
100
AcDbLine
 62
7
  6
CONTINUOUS
 10
85.8952844604
 20
69.8741181486
 11
86.2747835577
 21
70.0932207468
  0
LINE
  5
5A7
100
AcDbEntity
  8
0
100
AcDbLine
 62
7
  6
CONTINUOUS
 10
81.8263621848
 20
66.8085008303
 11
82.3920452546
 21
67.1350961534
  0
LINE
  5
5A8
100
AcDbEntity
  8
0
100
AcDbLine
 62
7
  6
CONTINUOUS
 10
86.2104424807
 20
68.7681714465
 11
86.7761255505
 21
69.0947667696
  0
LINE
  5
5A9
100
AcDbEntity
  8
0
100
AcDbLine
 62
7
  6
CONTINUOUS
 10
21.937717166
 20
97.6108336383
 11
21.515770726
 21
97.545558143
  0
LINE
  5
5AA
100
AcDbEntity
  8
0
100
AcDbLine
 62
7
  6
CONTINUOUS
 10
25.8998510219
 20
98.2804751335
 11
26.3191326923
 21
98.3453383865
  0
LINE
  5
5AB
100
AcDbEntity
  8
0
100
AcDbLine
 62
7
  6
CONTINUOUS
 10
20.2400672301
 20
98.5905207039
 11
19.8187073835
 21
98.5253359551
  0
LINE
  5
5AC
100
AcDbEntity
  8
0
100
AcDbLine
 62
7
  6
CONTINUOUS
 10
24.2027876812
 20
99.2602529446
 11
24.6253625363
 21
99.3256256572
  0
LINE
  5
5AD
100
AcDbEntity
  8
0
100
AcDbLine
 62
7
  6
CONTINUOUS
 10
26.7366417892
 20
100.0835129135
 11
26.3140669345
 21
100.0181402007
  0
LINE
  5
5AE
100
AcDbEntity
  8
0
100
AcDbLine
 62
7
  6
CONTINUOUS
 10
91.1602058464
 20
66.5636740916
 11
90.6588638545
 21
67.5621280692
  0
LINE
  5
5AF
100
AcDbEntity
  8
0
100
AcDbLine
 62
7
  6
CONTINUOUS
 10
85.8952844596
 20
69.8741181482
 11
86.2104424807
 21
68.7681714465
  0
LINE
  5
5B0
100
AcDbEntity
  8
0
100
AcDbLine
 62
7
  6
CONTINUOUS
 10
82.8928948824
 20
57.2112461419
 11
82.8928948824
 21
58.027748559
  0
LINE
  5
5B1
100
AcDbEntity
  8
0
100
AcDbLine
 62
7
  6
CONTINUOUS
 10
82.8928948824
 20
62.1102606447
 11
82.8928948824
 21
65.3762703132
  0
LINE
  5
5B2
100
AcDbEntity
  8
0
100
AcDbLine
 62
7
  6
CONTINUOUS
 10
83.0626177644
 20
67.225913978
 11
83.0626177644
 21
67.2554248172
  0
LINE
  5
5B3
100
AcDbEntity
  8
0
100
AcDbLine
 62
7
  6
CONTINUOUS
 10
83.1757222808
 20
67.1204082741
 11
83.1757222808
 21
67.4991317542
  0
LINE
  5
5B4
100
AcDbEntity
  8
0
100
AcDbLine
 62
7
  6
CONTINUOUS
 10
83.3150127722
 20
65.441572332
 11
83.3150127722
 21
62.1755626634
  0
LINE
  5
5B5
100
AcDbEntity
  8
0
100
AcDbLine
 62
7
  6
CONTINUOUS
 10
83.3150127722
 20
58.0930505778
 11
83.3150127722
 21
57.2765481607
  0
LINE
  5
5B6
100
AcDbEntity
  8
0
100
AcDbLine
 62
7
  6
CONTINUOUS
 10
83.4468582478
 20
56.89142248
 11
83.4468582478
 21
57.7079248971
  0
LINE
  5
5B7
100
AcDbEntity
  8
0
100
AcDbLine
 62
7
  6
CONTINUOUS
 10
83.4468582478
 20
61.7904369827
 11
83.4468582478
 21
65.0564466513
  0
LINE
  5
5B8
100
AcDbEntity
  8
0
100
AcDbLine
 62
7
  6
CONTINUOUS
 10
84.2305352503
 20
65.4204822649
 11
84.2305352503
 21
69.9112455592
  0
LINE
  5
5B9
100
AcDbEntity
  8
0
100
AcDbLine
 62
7
  6
CONTINUOUS
 10
85.5799118376
 20
55.659931275
 11
85.5799118376
 21
56.4764336921
  0
LINE
  5
5BA
100
AcDbEntity
  8
0
100
AcDbLine
 62
7
  6
CONTINUOUS
 10
85.5799118376
 20
60.5589457777
 11
85.5799118376
 21
63.8249554463
  0
LINE
  5
5BB
100
AcDbEntity
  8
0
100
AcDbLine
 62
7
  6
CONTINUOUS
 10
86.0020297273
 20
63.8902574659
 11
86.0020297273
 21
60.6242477974
  0
LINE
  5
5BC
100
AcDbEntity
  8
0
100
AcDbLine
 62
7
  6
CONTINUOUS
 10
86.0020297273
 20
56.5417357117
 11
86.0020297273
 21
55.7252332946
  0
LINE
  5
5BD
100
AcDbEntity
  8
0
100
AcDbLine
 62
7
  6
CONTINUOUS
 10
86.1338752014
 20
55.3401076131
 11
86.1338752014
 21
56.1566100302
  0
LINE
  5
5BE
100
AcDbEntity
  8
0
100
AcDbLine
 62
7
  6
CONTINUOUS
 10
86.1338752014
 20
60.2391221159
 11
86.1338752014
 21
63.5051317844
  0
LINE
  5
5BF
100
AcDbEntity
  8
0
100
AcDbLine
 62
7
  6
CONTINUOUS
 10
86.2104424807
 20
68.7681714465
 11
86.2104424807
 21
64.2774081523
  0
LINE
  5
5C0
100
AcDbEntity
  8
0
100
AcDbLine
 62
7
  6
CONTINUOUS
 10
81.8695032582
 20
66.3094422372
 11
81.8626963102
 21
66.2794937469
  0
LINE
  5
5C1
100
AcDbEntity
  8
0
100
AcDbLine
 62
7
  6
CONTINUOUS
 10
83.0560139305
 20
67.225913978
 11
83.0628208785
 21
67.2558624684
  0
LINE
  5
5C2
100
AcDbEntity
  8
0
100
AcDbLine
 62
7
  6
CONTINUOUS
 10
81.8695032582
 20
58.960920483
 11
81.8626963102
 21
58.9309719927
  0
LINE
  5
5C3
100
AcDbEntity
  8
0
100
AcDbLine
 62
7
  6
CONTINUOUS
 10
83.5667122815
 20
65.3299546905
 11
83.5599168248
 21
65.3000546022
  0
LINE
  5
5C4
100
AcDbEntity
  8
0
100
AcDbLine
 62
7
  6
CONTINUOUS
 10
79.1819655851
 20
60.5111629618
 11
79.1751225144
 21
60.4810870402
  0
LINE
  5
5C5
100
AcDbEntity
  8
0
100
AcDbLine
 62
7
  6
CONTINUOUS
 10
77.4789415678
 20
61.4627661498
 11
77.3657146077
 21
61.2187953871
  0
LINE
  5
5C6
100
AcDbEntity
  8
0
100
AcDbLine
 62
7
  6
CONTINUOUS
 10
81.8626963102
 20
66.2794937469
 11
81.7497949076
 21
66.0362244612
  0
LINE
  5
5C7
100
AcDbEntity
  8
0
100
AcDbLine
 62
7
  6
CONTINUOUS
 10
79.1751225144
 20
60.4810870402
 11
79.06277795
 21
60.239017576
  0
LINE
  5
5C8
100
AcDbEntity
  8
0
100
AcDbLine
 62
7
  6
CONTINUOUS
 10
83.0628208785
 20
67.2558624684
 11
83.1757222808
 21
67.4991317542
  0
LINE
  5
5C9
100
AcDbEntity
  8
0
100
AcDbLine
 62
7
  6
CONTINUOUS
 10
84.2305352503
 20
69.9112455592
 11
84.7318772422
 21
70.5457964229
  0
LINE
  5
5CA
100
AcDbEntity
  8
0
100
AcDbLine
 62
7
  6
CONTINUOUS
 10
89.1159575381
 20
68.0147037449
 11
89.4954566371
 21
68.233806344
  0
LINE
  5
5CB
100
AcDbEntity
  8
0
100
AcDbLine
 62
7
  6
CONTINUOUS
 10
90.2793647563
 20
67.3430254706
 11
90.6588638537
 21
67.5621280687
  0
LINE
  5
5CC
100
AcDbEntity
  8
0
100
AcDbLine
 62
7
  6
CONTINUOUS
 10
86.2104424807
 20
64.2774081523
 11
86.7761255505
 21
64.6040034754
  0
LINE
  5
5CD
100
AcDbEntity
  8
0
100
AcDbLine
 62
7
  6
CONTINUOUS
 10
90.5945227766
 20
66.2370787685
 11
91.1602058464
 21
66.5636740916
  0
LINE
  5
5CE
100
AcDbEntity
  8
0
100
AcDbLine
 62
7
  6
CONTINUOUS
 10
21.515770726
 20
100.8115678115
 11
21.937717166
 21
100.8768433068
  0
LINE
  5
5CF
100
AcDbEntity
  8
0
100
AcDbLine
 62
7
  6
CONTINUOUS
 10
19.8187073835
 20
101.7913456236
 11
20.2400672301
 21
101.8565303724
  0
LINE
  5
5D0
100
AcDbEntity
  8
0
100
AcDbLine
 62
7
  6
CONTINUOUS
 10
22.3525614954
 20
102.6146055903
 11
21.9312016491
 21
102.5494208414
  0
LINE
  5
5D1
100
AcDbEntity
  8
0
100
AcDbLine
 62
7
  6
CONTINUOUS
 10
95.5442861423
 20
64.0325814135
 11
95.0429441504
 21
65.0310353912
  0
LINE
  5
5D2
100
AcDbEntity
  8
0
100
AcDbLine
 62
7
  6
CONTINUOUS
 10
100.2426132389
 20
53.4725143037
 11
100.2819213008
 21
53.3861319114
  0
LINE
  5
5D3
100
AcDbEntity
  8
0
100
AcDbLine
 62
7
  6
CONTINUOUS
 10
90.2793647555
 20
67.3430254701
 11
90.5945227766
 21
66.2370787685
  0
LINE
  5
5D4
100
AcDbEntity
  8
0
100
AcDbLine
 62
7
  6
CONTINUOUS
 10
86.7761255505
 20
64.6040034754
 11
86.7761255505
 21
69.0947667696
  0
LINE
  5
5D5
100
AcDbEntity
  8
0
100
AcDbLine
 62
7
  6
CONTINUOUS
 10
87.2769751783
 20
54.6801534639
 11
87.2769751783
 21
55.496655881
  0
LINE
  5
5D6
100
AcDbEntity
  8
0
100
AcDbLine
 62
7
  6
CONTINUOUS
 10
87.2769751783
 20
59.5791679667
 11
87.2769751783
 21
62.8451776352
  0
LINE
  5
5D7
100
AcDbEntity
  8
0
100
AcDbLine
 62
7
  6
CONTINUOUS
 10
87.4466980605
 20
64.6942256167
 11
87.4466980605
 21
64.7243321382
  0
LINE
  5
5D8
100
AcDbEntity
  8
0
100
AcDbLine
 62
7
  6
CONTINUOUS
 10
87.5598025784
 20
64.5889903397
 11
87.5598025784
 21
64.9680390752
  0
LINE
  5
5D9
100
AcDbEntity
  8
0
100
AcDbLine
 62
7
  6
CONTINUOUS
 10
87.6990930685
 20
62.910479654
 11
87.6990930685
 21
59.6444699855
  0
LINE
  5
5DA
100
AcDbEntity
  8
0
100
AcDbLine
 62
7
  6
CONTINUOUS
 10
87.6990930685
 20
55.5619578998
 11
87.6990930685
 21
54.7454554827
  0
LINE
  5
5DB
100
AcDbEntity
  8
0
100
AcDbLine
 62
7
  6
CONTINUOUS
 10
87.8309385437
 20
54.3603298019
 11
87.8309385437
 21
55.1768322191
  0
LINE
  5
5DC
100
AcDbEntity
  8
0
100
AcDbLine
 62
7
  6
CONTINUOUS
 10
87.8309385437
 20
59.2593443047
 11
87.8309385437
 21
62.5253539732
  0
LINE
  5
5DD
100
AcDbEntity
  8
0
100
AcDbLine
 62
7
  6
CONTINUOUS
 10
88.6146155462
 20
62.8893895869
 11
88.6146155462
 21
67.3801528811
  0
LINE
  5
5DE
100
AcDbEntity
  8
0
100
AcDbLine
 62
7
  6
CONTINUOUS
 10
89.9639921337
 20
53.1288385971
 11
89.9639921337
 21
53.9453410142
  0
LINE
  5
5DF
100
AcDbEntity
  8
0
100
AcDbLine
 62
7
  6
CONTINUOUS
 10
89.9639921337
 20
58.0278530999
 11
89.9639921337
 21
61.2938627684
  0
LINE
  5
5E0
100
AcDbEntity
  8
0
100
AcDbLine
 62
7
  6
CONTINUOUS
 10
83.5667122815
 20
57.9814329363
 11
83.5599168248
 21
57.9515328481
  0
LINE
  5
5E1
100
AcDbEntity
  8
0
100
AcDbLine
 62
7
  6
CONTINUOUS
 10
86.2538847304
 20
63.7789452426
 11
86.2471021616
 21
63.749102547
  0
LINE
  5
5E2
100
AcDbEntity
  8
0
100
AcDbLine
 62
7
  6
CONTINUOUS
 10
87.4397930498
 20
64.6942256167
 11
87.4465756187
 21
64.7240683123
  0
LINE
  5
5E3
100
AcDbEntity
  8
0
100
AcDbLine
 62
7
  6
CONTINUOUS
 10
83.5599168248
 20
65.3000546022
 11
83.4468582478
 21
65.0564466513
  0
LINE
  5
5E4
100
AcDbEntity
  8
0
100
AcDbLine
 62
7
  6
CONTINUOUS
 10
81.8626963102
 20
58.9309719927
 11
81.7497949076
 21
58.687702707
  0
LINE
  5
5E5
100
AcDbEntity
  8
0
100
AcDbLine
 62
7
  6
CONTINUOUS
 10
88.6146155462
 20
67.3801528811
 11
89.1159575381
 21
68.0147037449
  0
LINE
  5
5E6
100
AcDbEntity
  8
0
100
AcDbLine
 62
7
  6
CONTINUOUS
 10
93.500037834
 20
65.4836110669
 11
93.879536933
 21
65.702713666
  0
LINE
  5
5E7
100
AcDbEntity
  8
0
100
AcDbLine
 62
7
  6
CONTINUOUS
 10
94.6634450522
 20
64.8119327926
 11
95.0429441496
 21
65.0310353907
  0
LINE
  5
5E8
100
AcDbEntity
  8
0
100
AcDbLine
 62
7
  6
CONTINUOUS
 10
90.5945227766
 20
61.7463154743
 11
91.1602058464
 21
62.0729107974
  0
LINE
  5
5E9
100
AcDbEntity
  8
0
100
AcDbLine
 62
7
  6
CONTINUOUS
 10
94.9786030725
 20
63.7059860904
 11
95.5442861423
 21
64.0325814135
  0
LINE
  5
5EA
100
AcDbEntity
  8
0
100
AcDbLine
 62
7
  6
CONTINUOUS
 10
99.9283664382
 20
61.5014887355
 11
99.4270244463
 21
62.4999427132
  0
LINE
  5
5EB
100
AcDbEntity
  8
0
100
AcDbLine
 62
7
  6
CONTINUOUS
 10
94.6634450514
 20
64.8119327921
 11
94.9786030725
 21
63.7059860904
  0
LINE
  5
5EC
100
AcDbEntity
  8
0
100
AcDbLine
 62
7
  6
CONTINUOUS
 10
90.3861099812
 20
61.3591647998
 11
90.3861099812
 21
58.0931551313
  0
LINE
  5
5ED
100
AcDbEntity
  8
0
100
AcDbLine
 62
7
  6
CONTINUOUS
 10
90.3861099812
 20
54.0106430456
 11
90.3861099812
 21
53.1941406285
  0
LINE
  5
5EE
100
AcDbEntity
  8
0
100
AcDbLine
 62
7
  6
CONTINUOUS
 10
90.5179554696
 20
52.8090149492
 11
90.5179554696
 21
53.6255173663
  0
LINE
  5
5EF
100
AcDbEntity
  8
0
100
AcDbLine
 62
7
  6
CONTINUOUS
 10
90.5179554696
 20
57.708029452
 11
90.5179554696
 21
60.9740391205
  0
LINE
  5
5F0
100
AcDbEntity
  8
0
100
AcDbLine
 62
7
  6
CONTINUOUS
 10
90.5945227766
 20
66.2370787685
 11
90.5945227766
 21
61.7463154743
  0
LINE
  5
5F1
100
AcDbEntity
  8
0
100
AcDbLine
 62
7
  6
CONTINUOUS
 10
91.1602058464
 20
62.0729107974
 11
91.1602058464
 21
66.5636740916
  0
LINE
  5
5F2
100
AcDbEntity
  8
0
100
AcDbLine
 62
7
  6
CONTINUOUS
 10
91.6610554747
 20
52.1490607836
 11
91.6610554747
 21
52.9655632008
  0
LINE
  5
5F3
100
AcDbEntity
  8
0
100
AcDbLine
 62
7
  6
CONTINUOUS
 10
91.6610554747
 20
57.0480752864
 11
91.6610554747
 21
60.3140849549
  0
LINE
  5
5F4
100
AcDbEntity
  8
0
100
AcDbLine
 62
7
  6
CONTINUOUS
 10
91.8307783357
 20
62.163485192
 11
91.8307783357
 21
62.1932394844
  0
LINE
  5
5F5
100
AcDbEntity
  8
0
100
AcDbLine
 62
7
  6
CONTINUOUS
 10
91.9438828741
 20
62.0580905587
 11
91.9438828741
 21
62.436946397
  0
LINE
  5
5F6
100
AcDbEntity
  8
0
100
AcDbLine
 62
7
  6
CONTINUOUS
 10
92.0831733172
 20
60.3793869664
 11
92.0831733172
 21
57.1133772979
  0
LINE
  5
5F7
100
AcDbEntity
  8
0
100
AcDbLine
 62
7
  6
CONTINUOUS
 10
92.0831733172
 20
53.0308652122
 11
92.0831733172
 21
52.2143627951
  0
LINE
  5
5F8
100
AcDbEntity
  8
0
100
AcDbLine
 62
7
  6
CONTINUOUS
 10
92.2150188099
 20
51.8292371383
 11
92.2150188099
 21
52.6457395555
  0
LINE
  5
5F9
100
AcDbEntity
  8
0
100
AcDbLine
 62
7
  6
CONTINUOUS
 10
92.2150188099
 20
56.7282516411
 11
92.2150188099
 21
59.9942613096
  0
LINE
  5
5FA
100
AcDbEntity
  8
0
100
AcDbLine
 62
7
  6
CONTINUOUS
 10
92.9986958421
 20
60.3582969089
 11
92.9986958421
 21
64.8490602031
  0
LINE
  5
5FB
100
AcDbEntity
  8
0
100
AcDbLine
 62
7
  6
CONTINUOUS
 10
86.2538847304
 20
56.4304234884
 11
86.2471021616
 21
56.4005807929
  0
LINE
  5
5FC
100
AcDbEntity
  8
0
100
AcDbLine
 62
7
  6
CONTINUOUS
 10
87.9501261789
 20
62.7974993591
 11
87.9432831082
 21
62.7674234374
  0
LINE
  5
5FD
100
AcDbEntity
  8
0
100
AcDbLine
 62
7
  6
CONTINUOUS
 10
87.9501261789
 20
55.4489776049
 11
87.9432831082
 21
55.4189016833
  0
LINE
  5
5FE
100
AcDbEntity
  8
0
100
AcDbLine
 62
7
  6
CONTINUOUS
 10
86.2471021616
 20
63.749102547
 11
86.1338752014
 21
63.5051317844
  0
LINE
  5
5FF
100
AcDbEntity
  8
0
100
AcDbLine
 62
7
  6
CONTINUOUS
 10
83.5599168248
 20
57.9515328481
 11
83.4468582478
 21
57.7079248971
  0
LINE
  5
600
100
AcDbEntity
  8
0
100
AcDbLine
 62
7
  6
CONTINUOUS
 10
87.4465756187
 20
64.7240683123
 11
87.5598025784
 21
64.9680390752
  0
LINE
  5
601
100
AcDbEntity
  8
0
100
AcDbLine
 62
7
  6
CONTINUOUS
 10
87.9432831082
 20
62.7674234374
 11
87.8309385437
 21
62.5253539732
  0
LINE
  5
602
100
AcDbEntity
  8
0
100
AcDbLine
 62
7
  6
CONTINUOUS
 10
86.2471021616
 20
56.4005807929
 11
86.1338752014
 21
56.1566100302
  0
LINE
  5
603
100
AcDbEntity
  8
0
100
AcDbLine
 62
7
  6
CONTINUOUS
 10
97.8841181299
 20
62.9525183888
 11
98.2636172289
 21
63.1716209879
  0
LINE
  5
604
100
AcDbEntity
  8
0
100
AcDbLine
 62
7
  6
CONTINUOUS
 10
99.0475253482
 20
62.2808401146
 11
99.4270244455
 21
62.4999427127
  0
LINE
  5
605
100
AcDbEntity
  8
0
100
AcDbLine
 62
7
  6
CONTINUOUS
 10
99.0475253473
 20
62.2808401141
 11
99.3626833684
 21
61.1748934124
  0
LINE
  5
606
100
AcDbEntity
  8
0
100
AcDbLine
 62
7
  6
CONTINUOUS
 10
94.9786030725
 20
63.7059860904
 11
94.9786030725
 21
59.2152227962
  0
LINE
  5
607
100
AcDbEntity
  8
0
100
AcDbLine
 62
7
  6
CONTINUOUS
 10
95.5442861423
 20
59.5418181193
 11
95.5442861423
 21
64.0325814135
  0
LINE
  5
608
100
AcDbEntity
  8
0
100
AcDbLine
 62
7
  6
CONTINUOUS
 10
90.6377858967
 20
61.2475003251
 11
90.6309885357
 21
61.2175920214
  0
LINE
  5
609
100
AcDbEntity
  8
0
100
AcDbLine
 62
7
  6
CONTINUOUS
 10
91.8240524514
 20
62.163485192
 11
91.8308498124
 21
62.1933934955
  0
LINE
  5
60A
100
AcDbEntity
  8
0
100
AcDbLine
 62
7
  6
CONTINUOUS
 10
90.6377858967
 20
53.898978571
 11
90.6309885357
 21
53.8690702673
  0
LINE
  5
60B
100
AcDbEntity
  8
0
100
AcDbLine
 62
7
  6
CONTINUOUS
 10
92.334121167
 20
60.2662255142
 11
92.3272729682
 21
60.2361359753
  0
LINE
  5
60C
100
AcDbEntity
  8
0
100
AcDbLine
 62
7
  6
CONTINUOUS
 10
90.6309885357
 20
61.2175920214
 11
90.5179554696
 21
60.9740391205
  0
LINE
  5
60D
100
AcDbEntity
  8
0
100
AcDbLine
 62
7
  6
CONTINUOUS
 10
87.9432831082
 20
55.4189016833
 11
87.8309385437
 21
55.1768322191
  0
LINE
  5
60E
100
AcDbEntity
  8
0
100
AcDbLine
 62
7
  6
CONTINUOUS
 10
91.8308498124
 20
62.1933934955
 11
91.9438828741
 21
62.436946397
  0
LINE
  5
60F
100
AcDbEntity
  8
0
100
AcDbLine
 62
7
  6
CONTINUOUS
 10
92.3272729682
 20
60.2361359753
 11
92.2150188099
 21
59.9942613096
  0
LINE
  5
610
100
AcDbEntity
  8
0
100
AcDbLine
 62
7
  6
CONTINUOUS
 10
92.9986958421
 20
64.8490602031
 11
93.500037834
 21
65.4836110669
  0
LINE
  5
611
100
AcDbEntity
  8
0
100
AcDbLine
 62
7
  6
CONTINUOUS
 10
94.9786030725
 20
59.2152227962
 11
95.5442861423
 21
59.5418181193
  0
LINE
  5
612
100
AcDbEntity
  8
0
100
AcDbLine
 62
7
  6
CONTINUOUS
 10
99.3626833684
 20
61.1748934124
 11
99.9283664382
 21
61.5014887355
  0
LINE
  5
613
100
AcDbEntity
  8
0
100
AcDbLine
 62
7
  6
CONTINUOUS
 10
97.382776138
 20
57.8272042309
 11
97.382776138
 21
62.3179675251
  0
LINE
  5
614
100
AcDbEntity
  8
0
100
AcDbLine
 62
7
  6
CONTINUOUS
 10
99.0091343938
 20
47.9067414158
 11
99.0091343938
 21
48.7232438329
  0
LINE
  5
615
100
AcDbEntity
  8
0
100
AcDbLine
 62
7
  6
CONTINUOUS
 10
99.0091343938
 20
52.8057559186
 11
99.0091343938
 21
56.0717655871
  0
LINE
  5
616
100
AcDbEntity
  8
0
100
AcDbLine
 62
7
  6
CONTINUOUS
 10
99.3626833684
 20
61.1748934124
 11
99.3626833684
 21
56.6841301182
  0
LINE
  5
617
100
AcDbEntity
  8
0
100
AcDbLine
 62
7
  6
CONTINUOUS
 10
99.9283664382
 20
57.0107254413
 11
99.9283664382
 21
61.5014887355
  0
LINE
  5
618
100
AcDbEntity
  8
0
100
AcDbLine
 62
7
  6
CONTINUOUS
 10
100.2819213008
 20
49.6213837933
 11
100.2819213008
 21
53.3772949121
  0
LINE
  5
619
100
AcDbEntity
  8
0
100
AcDbLine
 62
7
  6
CONTINUOUS
 10
92.334121167
 20
52.9177037601
 11
92.3272729682
 21
52.8876142211
  0
LINE
  5
61A
100
AcDbEntity
  8
0
100
AcDbLine
 62
7
  6
CONTINUOUS
 10
90.6309885357
 20
53.8690702673
 11
90.5179554696
 21
53.6255173663
  0
LINE
  5
61B
100
AcDbEntity
  8
0
100
AcDbLine
 62
7
  6
CONTINUOUS
 10
92.3272729682
 20
52.8876142211
 11
92.2150188099
 21
52.6457395555
  0
LINE
  5
61C
100
AcDbEntity
  8
0
100
AcDbLine
 62
7
  6
CONTINUOUS
 10
97.382776138
 20
62.3179675251
 11
97.8841181299
 21
62.9525183888
  0
LINE
  5
61D
100
AcDbEntity
  8
0
100
AcDbLine
 62
7
  6
CONTINUOUS
 10
99.3626833684
 20
56.6841301182
 11
99.9283664382
 21
57.0107254413
  0
LINE
  5
61E
100
AcDbEntity
  8
0
100
AcDbLine
 62
7
  6
CONTINUOUS
 10
99.0091343938
 20
56.0717655871
 11
100.989025138
 21
57.2148492179
  0
LINE
  5
61F
100
AcDbEntity
  8
0
100
AcDbLine
 62
7
  6
CONTINUOUS
 10
100.989025138
 20
49.0498250466
 11
100.989025138
 21
57.2148492179
  0
LINE
  5
620
100
AcDbEntity
  8
0
100
AcDbLine
 62
7
  6
CONTINUOUS
 10
100.1405005333
 20
53.4589465648
 11
99.0091343938
 21
52.8057559186
  0
LINE
  5
621
100
AcDbEntity
  8
0
100
AcDbLine
 62
7
  6
CONTINUOUS
 10
99.0091343938
 20
48.7232438329
 11
100.1405005333
 21
49.3764344791
  0
LINE
  5
622
100
AcDbEntity
  8
0
100
AcDbLine
 62
7
  6
CONTINUOUS
 10
100.989025138
 20
49.0498250466
 11
99.0091343938
 21
47.9067414158
  0
ARC
  5
623
100
AcDbEntity
  8
0
100
AcDbCircle
 62
7
  6
CONTINUOUS
 10
23.7386187179
 20
98.2606935476
 40
0.2519902312
100
AcDbArc
 50
300.0482705265
 51
305.2061029494
  0
ARC
  5
624
100
AcDbEntity
  8
0
100
AcDbCircle
 62
7
  6
CONTINUOUS
 10
50.0431004934
 20
83.0741374795
 40
0.2519902312
100
AcDbArc
 50
300.0482705269
 51
305.2061030976
  0
ARC
  5
625
100
AcDbEntity
  8
0
100
AcDbCircle
 62
7
  6
CONTINUOUS
 10
89.4998231565
 20
60.2943033773
 40
0.2519902313
100
AcDbArc
 50
300.0482705277
 51
305.2061033406
  0
SPLINE
  5
626
100
AcDbEntity
  8
0
100
AcDbSpline
 62
7
  6
CONTINUOUS
 70
0
 71
3
 72
11
 73
7
 74
0
 42
0.0000001
 43
0.0000001
 44
0.0000000001
 40
0.0
 40
0.0
 40
0.0
 40
0.0
 40
0.2344660615
 40
0.4970708715
 40
0.7613316756
 40
1.0
 40
1.0
 40
1.0
 40
1.0
 10
14.1559579555
 20
99.0185102288
 30
0.0
 10
14.1758058349
 20
99.0289891148
 30
0.0
 10
14.2136144852
 20
99.0592501694
 30
0.0
 10
14.2580577351
 20
99.1178376239
 30
0.0
 10
14.2880394593
 20
99.1850496907
 30
0.0
 10
14.2982428152
 20
99.2332375877
 30
0.0
 10
14.2973787229
 20
99.2560677755
 30
0.0
  0
SPLINE
  5
627
100
AcDbEntity
  8
0
100
AcDbSpline
 62
7
  6
CONTINUOUS
 70
0
 71
3
 72
9
 73
5
 74
0
 42
0.0000001
 43
0.0000001
 44
0.0000000001
 40
0.0
 40
0.0
 40
0.0
 40
0.0
 40
0.5508115857
 40
1.0
 40
1.0
 40
1.0
 40
1.0
 10
21.7375811373
 20
102.5793749615
 30
0.0
 10
21.7210026497
 20
102.5889463393
 30
0.0
 10
21.6925293414
 20
102.6107402759
 30
0.0
 10
21.6788484875
 20
102.6456003268
 30
0.0
 10
21.6789055241
 20
102.6612114591
 30
0.0
  0
SPLINE
  5
628
100
AcDbEntity
  8
0
100
AcDbSpline
 62
7
  6
CONTINUOUS
 70
0
 71
3
 72
9
 73
5
 74
0
 42
0.0000001
 43
0.0000001
 44
0.0000000001
 40
0.0
 40
0.0
 40
0.0
 40
0.0
 40
0.5227584344
 40
1.0
 40
1.0
 40
1.0
 40
1.0
 10
21.9312016491
 20
102.5494208414
 30
0.0
 10
21.8970092999
 20
102.5442149386
 30
0.0
 10
21.829927198
 20
102.544022229
 30
0.0
 10
21.7649259843
 20
102.5635877639
 30
0.0
 10
21.7375811373
 20
102.5793749615
 30
0.0
  0
SPLINE
  5
629
100
AcDbEntity
  8
0
100
AcDbSpline
 62
7
  6
CONTINUOUS
 70
0
 71
3
 72
9
 73
5
 74
0
 42
0.0000001
 43
0.0000001
 44
0.0000000001
 40
0.0
 40
0.0
 40
0.0
 40
0.0
 40
0.5506946501
 40
1.0
 40
1.0
 40
1.0
 40
1.0
 10
26.1211462737
 20
100.0479848579
 30
0.0
 10
26.1046301314
 20
100.0575202414
 30
0.0
 10
26.0762452844
 20
100.0792469904
 30
0.0
 10
26.0626526168
 20
100.1139632351
 30
0.0
 10
26.0626487682
 20
100.1295231153
 30
0.0
  0
SPLINE
  5
62A
100
AcDbEntity
  8
0
100
AcDbSpline
 62
7
  6
CONTINUOUS
 70
0
 71
3
 72
9
 73
5
 74
0
 42
0.0000001
 43
0.0000001
 44
0.0000000001
 40
0.0
 40
0.0
 40
0.0
 40
0.0
 40
0.5227898457
 40
1.0
 40
1.0
 40
1.0
 40
1.0
 10
26.3140669345
 20
100.0181402007
 30
0.0
 10
26.2800166993
 20
100.0128229906
 30
0.0
 10
26.2131504266
 20
100.0128381553
 30
0.0
 10
26.1483900557
 20
100.0322560089
 30
0.0
 10
26.1211462737
 20
100.0479848579
 30
0.0
  0
SPLINE
  5
62B
100
AcDbEntity
  8
0
100
AcDbSpline
 62
7
  6
CONTINUOUS
 70
0
 71
3
 72
9
 73
5
 74
0
 42
0.0000001
 43
0.0000001
 44
0.0000000001
 40
0.0
 40
0.0
 40
0.0
 40
0.0
 40
0.5508115857
 40
1.0
 40
1.0
 40
1.0
 40
1.0
 10
30.5057417306
 20
97.5171896043
 30
0.0
 10
30.489163243
 20
97.5267609821
 30
0.0
 10
30.4606899347
 20
97.5485549188
 30
0.0
 10
30.4470090808
 20
97.5834149697
 30
0.0
 10
30.4470661174
 20
97.5990261019
 30
0.0
  0
SPLINE
  5
62C
100
AcDbEntity
  8
0
100
AcDbSpline
 62
7
  6
CONTINUOUS
 70
0
 71
3
 72
9
 73
5
 74
0
 42
0.0000001
 43
0.0000001
 44
0.0000000001
 40
0.0
 40
0.0
 40
0.0
 40
0.0
 40
0.5227584344
 40
1.0
 40
1.0
 40
1.0
 40
1.0
 10
30.6993622424
 20
97.4872354842
 30
0.0
 10
30.6651698932
 20
97.4820295814
 30
0.0
 10
30.5980877912
 20
97.4818368718
 30
0.0
 10
30.5330865776
 20
97.5014024067
 30
0.0
 10
30.5057417306
 20
97.5171896043
 30
0.0
  0
SPLINE
  5
62D
100
AcDbEntity
  8
0
100
AcDbSpline
 62
7
  6
CONTINUOUS
 70
0
 71
3
 72
9
 73
5
 74
0
 42
0.0000001
 43
0.0000001
 44
0.0000000001
 40
0.0
 40
0.0
 40
0.0
 40
0.0
 40
0.5506946501
 40
1.0
 40
1.0
 40
1.0
 40
1.0
 10
34.889306867
 20
94.9857995008
 30
0.0
 10
34.8727907247
 20
94.9953348843
 30
0.0
 10
34.8444058777
 20
95.0170616332
 30
0.0
 10
34.8308132101
 20
95.051777878
 30
0.0
 10
34.8308093615
 20
95.0673377581
 30
0.0
  0
SPLINE
  5
62E
100
AcDbEntity
  8
0
100
AcDbSpline
 62
7
  6
CONTINUOUS
 70
0
 71
3
 72
9
 73
5
 74
0
 42
0.0000001
 43
0.0000001
 44
0.0000000001
 40
0.0
 40
0.0
 40
0.0
 40
0.0
 40
0.5227898457
 40
1.0
 40
1.0
 40
1.0
 40
1.0
 10
35.0822275278
 20
94.9559548435
 30
0.0
 10
35.0481772926
 20
94.9506376334
 30
0.0
 10
34.9813110199
 20
94.9506527981
 30
0.0
 10
34.916550649
 20
94.9700706517
 30
0.0
 10
34.889306867
 20
94.9857995008
 30
0.0
  0
SPLINE
  5
62F
100
AcDbEntity
  8
0
100
AcDbSpline
 62
7
  6
CONTINUOUS
 70
0
 71
3
 72
9
 73
5
 74
0
 42
0.0000001
 43
0.0000001
 44
0.0000000001
 40
0.0
 40
0.0
 40
0.0
 40
0.0
 40
0.5508115857
 40
1.0
 40
1.0
 40
1.0
 40
1.0
 10
39.2739023239
 20
92.4550042472
 30
0.0
 10
39.2573238363
 20
92.4645756249
 30
0.0
 10
39.228850528
 20
92.4863695616
 30
0.0
 10
39.2151696741
 20
92.5212296125
 30
0.0
 10
39.2152267107
 20
92.5368407447
 30
0.0
  0
SPLINE
  5
630
100
AcDbEntity
  8
0
100
AcDbSpline
 62
7
  6
CONTINUOUS
 70
0
 71
3
 72
9
 73
5
 74
0
 42
0.0000001
 43
0.0000001
 44
0.0000000001
 40
0.0
 40
0.0
 40
0.0
 40
0.0
 40
0.5227584344
 40
1.0
 40
1.0
 40
1.0
 40
1.0
 10
39.4675228357
 20
92.4250501271
 30
0.0
 10
39.4333304865
 20
92.4198442242
 30
0.0
 10
39.3662483845
 20
92.4196515146
 30
0.0
 10
39.3012471709
 20
92.4392170495
 30
0.0
 10
39.2739023239
 20
92.4550042472
 30
0.0
  0
SPLINE
  5
631
100
AcDbEntity
  8
0
100
AcDbSpline
 62
7
  6
CONTINUOUS
 70
0
 71
3
 72
9
 73
5
 74
0
 42
0.0000001
 43
0.0000001
 44
0.0000000001
 40
0.0
 40
0.0
 40
0.0
 40
0.0
 40
0.5506946501
 40
1.0
 40
1.0
 40
1.0
 40
1.0
 10
43.6574674603
 20
89.9236141436
 30
0.0
 10
43.640951318
 20
89.9331495271
 30
0.0
 10
43.612566471
 20
89.954876276
 30
0.0
 10
43.5989738034
 20
89.9895925208
 30
0.0
 10
43.5989699548
 20
90.005152401
 30
0.0
  0
SPLINE
  5
632
100
AcDbEntity
  8
0
100
AcDbSpline
 62
7
  6
CONTINUOUS
 70
0
 71
3
 72
9
 73
5
 74
0
 42
0.0000001
 43
0.0000001
 44
0.0000000001
 40
0.0
 40
0.0
 40
0.0
 40
0.0
 40
0.5227898457
 40
1.0
 40
1.0
 40
1.0
 40
1.0
 10
43.8503881211
 20
89.8937694863
 30
0.0
 10
43.8163378859
 20
89.8884522763
 30
0.0
 10
43.7494716132
 20
89.888467441
 30
0.0
 10
43.6847112423
 20
89.9078852945
 30
0.0
 10
43.6574674603
 20
89.9236141436
 30
0.0
  0
SPLINE
  5
633
100
AcDbEntity
  8
0
100
AcDbSpline
 62
7
  6
CONTINUOUS
 70
0
 71
3
 72
9
 73
5
 74
0
 42
0.0000001
 43
0.0000001
 44
0.0000000001
 40
0.0
 40
0.0
 40
0.0
 40
0.0
 40
0.5508115857
 40
1.0
 40
1.0
 40
1.0
 40
1.0
 10
48.0420629172
 20
87.39281889
 30
0.0
 10
48.0254844296
 20
87.4023902677
 30
0.0
 10
47.9970111213
 20
87.4241842044
 30
0.0
 10
47.9833302674
 20
87.4590442553
 30
0.0
 10
47.983387304
 20
87.4746553876
 30
0.0
  0
SPLINE
  5
634
100
AcDbEntity
  8
0
100
AcDbSpline
 62
7
  6
CONTINUOUS
 70
0
 71
3
 72
9
 73
5
 74
0
 42
0.0000001
 43
0.0000001
 44
0.0000000001
 40
0.0
 40
0.0
 40
0.0
 40
0.0
 40
0.5227584344
 40
1.0
 40
1.0
 40
1.0
 40
1.0
 10
48.235683429
 20
87.3628647699
 30
0.0
 10
48.2014910798
 20
87.3576588671
 30
0.0
 10
48.1344089778
 20
87.3574661574
 30
0.0
 10
48.0694077642
 20
87.3770316924
 30
0.0
 10
48.0420629172
 20
87.39281889
 30
0.0
  0
SPLINE
  5
635
100
AcDbEntity
  8
0
100
AcDbSpline
 62
7
  6
CONTINUOUS
 70
0
 71
3
 72
9
 73
5
 74
0
 42
0.0000001
 43
0.0000001
 44
0.0000000001
 40
0.0
 40
0.0
 40
0.0
 40
0.0
 40
0.5506946501
 40
1.0
 40
1.0
 40
1.0
 40
1.0
 10
52.4256280536
 20
84.8614287864
 30
0.0
 10
52.4091119113
 20
84.8709641699
 30
0.0
 10
52.3807270642
 20
84.8926909189
 30
0.0
 10
52.3671343967
 20
84.9274071636
 30
0.0
 10
52.3671305481
 20
84.9429670438
 30
0.0
  0
SPLINE
  5
636
100
AcDbEntity
  8
0
100
AcDbSpline
 62
7
  6
CONTINUOUS
 70
0
 71
3
 72
9
 73
5
 74
0
 42
0.0000001
 43
0.0000001
 44
0.0000000001
 40
0.0
 40
0.0
 40
0.0
 40
0.0
 40
0.5227898457
 40
1.0
 40
1.0
 40
1.0
 40
1.0
 10
52.6185487144
 20
84.8315841291
 30
0.0
 10
52.5844984792
 20
84.8262669191
 30
0.0
 10
52.5176322065
 20
84.8262820838
 30
0.0
 10
52.4528718356
 20
84.8456999374
 30
0.0
 10
52.4256280536
 20
84.8614287864
 30
0.0
  0
SPLINE
  5
637
100
AcDbEntity
  8
0
100
AcDbSpline
 62
7
  6
CONTINUOUS
 70
0
 71
3
 72
9
 73
5
 74
0
 42
0.0000001
 43
0.0000001
 44
0.0000000001
 40
0.0
 40
0.0
 40
0.0
 40
0.0
 40
0.5508115857
 40
1.0
 40
1.0
 40
1.0
 40
1.0
 10
56.8102235105
 20
82.3306335328
 30
0.0
 10
56.7936450229
 20
82.3402049106
 30
0.0
 10
56.7651717146
 20
82.3619988472
 30
0.0
 10
56.7514908607
 20
82.3968588981
 30
0.0
 10
56.7515478973
 20
82.4124700304
 30
0.0
  0
SPLINE
  5
638
100
AcDbEntity
  8
0
100
AcDbSpline
 62
7
  6
CONTINUOUS
 70
0
 71
3
 72
9
 73
5
 74
0
 42
0.0000001
 43
0.0000001
 44
0.0000000001
 40
0.0
 40
0.0
 40
0.0
 40
0.0
 40
0.5227584344
 40
1.0
 40
1.0
 40
1.0
 40
1.0
 10
57.0038440223
 20
82.3006794127
 30
0.0
 10
56.9696516731
 20
82.2954735099
 30
0.0
 10
56.9025695711
 20
82.2952808003
 30
0.0
 10
56.8375683575
 20
82.3148463352
 30
0.0
 10
56.8102235105
 20
82.3306335328
 30
0.0
  0
SPLINE
  5
639
100
AcDbEntity
  8
0
100
AcDbSpline
 62
7
  6
CONTINUOUS
 70
0
 71
3
 72
9
 73
5
 74
0
 42
0.0000001
 43
0.0000001
 44
0.0000000001
 40
0.0
 40
0.0
 40
0.0
 40
0.0
 40
0.5506946501
 40
1.0
 40
1.0
 40
1.0
 40
1.0
 10
61.1937886469
 20
79.7992434292
 30
0.0
 10
61.1772725046
 20
79.8087788127
 30
0.0
 10
61.1488876575
 20
79.8305055617
 30
0.0
 10
61.13529499
 20
79.8652218064
 30
0.0
 10
61.1352911414
 20
79.8807816866
 30
0.0
  0
SPLINE
  5
63A
100
AcDbEntity
  8
0
100
AcDbSpline
 62
7
  6
CONTINUOUS
 70
0
 71
3
 72
9
 73
5
 74
0
 42
0.0000001
 43
0.0000001
 44
0.0000000001
 40
0.0
 40
0.0
 40
0.0
 40
0.0
 40
0.5227898457
 40
1.0
 40
1.0
 40
1.0
 40
1.0
 10
61.3867093077
 20
79.769398772
 30
0.0
 10
61.3526590725
 20
79.7640815619
 30
0.0
 10
61.2857927998
 20
79.7640967266
 30
0.0
 10
61.2210324289
 20
79.7835145802
 30
0.0
 10
61.1937886469
 20
79.7992434292
 30
0.0
  0
SPLINE
  5
63B
100
AcDbEntity
  8
0
100
AcDbSpline
 62
7
  6
CONTINUOUS
 70
0
 71
3
 72
9
 73
5
 74
0
 42
0.0000001
 43
0.0000001
 44
0.0000000001
 40
0.0
 40
0.0
 40
0.0
 40
0.0
 40
0.5508115857
 40
1.0
 40
1.0
 40
1.0
 40
1.0
 10
65.5783841038
 20
77.2684481756
 30
0.0
 10
65.5618056161
 20
77.2780195534
 30
0.0
 10
65.5333323079
 20
77.2998134901
 30
0.0
 10
65.519651454
 20
77.334673541
 30
0.0
 10
65.5197084905
 20
77.3502846732
 30
0.0
  0
SPLINE
  5
63C
100
AcDbEntity
  8
0
100
AcDbSpline
 62
7
  6
CONTINUOUS
 70
0
 71
3
 72
9
 73
5
 74
0
 42
0.0000001
 43
0.0000001
 44
0.0000000001
 40
0.0
 40
0.0
 40
0.0
 40
0.0
 40
0.5227584344
 40
1.0
 40
1.0
 40
1.0
 40
1.0
 10
65.7720046156
 20
77.2384940555
 30
0.0
 10
65.7378122664
 20
77.2332881527
 30
0.0
 10
65.6707301644
 20
77.2330954431
 30
0.0
 10
65.6057289508
 20
77.252660978
 30
0.0
 10
65.5783841038
 20
77.2684481756
 30
0.0
  0
SPLINE
  5
63D
100
AcDbEntity
  8
0
100
AcDbSpline
 62
7
  6
CONTINUOUS
 70
0
 71
3
 72
9
 73
5
 74
0
 42
0.0000001
 43
0.0000001
 44
0.0000000001
 40
0.0
 40
0.0
 40
0.0
 40
0.0
 40
0.5506946501
 40
1.0
 40
1.0
 40
1.0
 40
1.0
 10
69.9619492402
 20
74.737058072
 30
0.0
 10
69.9454330979
 20
74.7465934555
 30
0.0
 10
69.9170482508
 20
74.7683202045
 30
0.0
 10
69.9034555833
 20
74.8030364493
 30
0.0
 10
69.9034517347
 20
74.8185963294
 30
0.0
  0
SPLINE
  5
63E
100
AcDbEntity
  8
0
100
AcDbSpline
 62
7
  6
CONTINUOUS
 70
0
 71
3
 72
9
 73
5
 74
0
 42
0.0000001
 43
0.0000001
 44
0.0000000001
 40
0.0
 40
0.0
 40
0.0
 40
0.0
 40
0.5227898457
 40
1.0
 40
1.0
 40
1.0
 40
1.0
 10
70.154869901
 20
74.7072134148
 30
0.0
 10
70.1208196658
 20
74.7018962047
 30
0.0
 10
70.0539533931
 20
74.7019113694
 30
0.0
 10
69.9891930222
 20
74.721329223
 30
0.0
 10
69.9619492402
 20
74.737058072
 30
0.0
  0
SPLINE
  5
63F
100
AcDbEntity
  8
0
100
AcDbSpline
 62
7
  6
CONTINUOUS
 70
0
 71
3
 72
9
 73
5
 74
0
 42
0.0000001
 43
0.0000001
 44
0.0000000001
 40
0.0
 40
0.0
 40
0.0
 40
0.0
 40
0.5508115857
 40
1.0
 40
1.0
 40
1.0
 40
1.0
 10
74.3465446971
 20
72.2062628185
 30
0.0
 10
74.3299662094
 20
72.2158341962
 30
0.0
 10
74.3014929012
 20
72.2376281329
 30
0.0
 10
74.2878120473
 20
72.2724881838
 30
0.0
 10
74.2878690838
 20
72.288099316
 30
0.0
  0
SPLINE
  5
640
100
AcDbEntity
  8
0
100
AcDbSpline
 62
7
  6
CONTINUOUS
 70
0
 71
3
 72
9
 73
5
 74
0
 42
0.0000001
 43
0.0000001
 44
0.0000000001
 40
0.0
 40
0.0
 40
0.0
 40
0.0
 40
0.5227584344
 40
1.0
 40
1.0
 40
1.0
 40
1.0
 10
74.5401652089
 20
72.1763086984
 30
0.0
 10
74.5059728597
 20
72.1711027955
 30
0.0
 10
74.4388907577
 20
72.1709100859
 30
0.0
 10
74.3738895441
 20
72.1904756208
 30
0.0
 10
74.3465446971
 20
72.2062628185
 30
0.0
  0
SPLINE
  5
641
100
AcDbEntity
  8
0
100
AcDbSpline
 62
7
  6
CONTINUOUS
 70
0
 71
3
 72
9
 73
5
 74
0
 42
0.0000001
 43
0.0000001
 44
0.0000000001
 40
0.0
 40
0.0
 40
0.0
 40
0.0
 40
0.5506946501
 40
1.0
 40
1.0
 40
1.0
 40
1.0
 10
78.7301098335
 20
69.6748727149
 30
0.0
 10
78.7135936912
 20
69.6844080984
 30
0.0
 10
78.6852088441
 20
69.7061348473
 30
0.0
 10
78.6716161766
 20
69.7408510921
 30
0.0
 10
78.671612328
 20
69.7564109722
 30
0.0
  0
SPLINE
  5
642
100
AcDbEntity
  8
0
100
AcDbSpline
 62
7
  6
CONTINUOUS
 70
0
 71
3
 72
9
 73
5
 74
0
 42
0.0000001
 43
0.0000001
 44
0.0000000001
 40
0.0
 40
0.0
 40
0.0
 40
0.0
 40
0.5227898457
 40
1.0
 40
1.0
 40
1.0
 40
1.0
 10
78.9230304943
 20
69.6450280576
 30
0.0
 10
78.8889802591
 20
69.6397108476
 30
0.0
 10
78.8221139864
 20
69.6397260122
 30
0.0
 10
78.7573536155
 20
69.6591438658
 30
0.0
 10
78.7301098335
 20
69.6748727149
 30
0.0
  0
SPLINE
  5
643
100
AcDbEntity
  8
0
100
AcDbSpline
 62
7
  6
CONTINUOUS
 70
0
 71
3
 72
9
 73
5
 74
0
 42
0.0000001
 43
0.0000001
 44
0.0000000001
 40
0.0
 40
0.0
 40
0.0
 40
0.0
 40
0.5508115857
 40
1.0
 40
1.0
 40
1.0
 40
1.0
 10
83.1147052904
 20
67.1440774613
 30
0.0
 10
83.0981268027
 20
67.153648839
 30
0.0
 10
83.0696534945
 20
67.1754427757
 30
0.0
 10
83.0559726406
 20
67.2103028266
 30
0.0
 10
83.0560296771
 20
67.2259139589
 30
0.0
  0
SPLINE
  5
644
100
AcDbEntity
  8
0
100
AcDbSpline
 62
7
  6
CONTINUOUS
 70
0
 71
3
 72
9
 73
5
 74
0
 42
0.0000001
 43
0.0000001
 44
0.0000000001
 40
0.0
 40
0.0
 40
0.0
 40
0.0
 40
0.5227584344
 40
1.0
 40
1.0
 40
1.0
 40
1.0
 10
83.3083258022
 20
67.1141233412
 30
0.0
 10
83.274133453
 20
67.1089174384
 30
0.0
 10
83.207051351
 20
67.1087247287
 30
0.0
 10
83.1420501374
 20
67.1282902636
 30
0.0
 10
83.1147052904
 20
67.1440774613
 30
0.0
  0
SPLINE
  5
645
100
AcDbEntity
  8
0
100
AcDbSpline
 62
7
  6
CONTINUOUS
 70
0
 71
3
 72
9
 73
5
 74
0
 42
0.0000001
 43
0.0000001
 44
0.0000000001
 40
0.0
 40
0.0
 40
0.0
 40
0.0
 40
0.5506946501
 40
1.0
 40
1.0
 40
1.0
 40
1.0
 10
87.4982704268
 20
64.6126873577
 30
0.0
 10
87.4817542845
 20
64.6222227412
 30
0.0
 10
87.4533694374
 20
64.6439494902
 30
0.0
 10
87.4397767698
 20
64.6786657349
 30
0.0
 10
87.4397729213
 20
64.6942256151
 30
0.0
  0
SPLINE
  5
646
100
AcDbEntity
  8
0
100
AcDbSpline
 62
7
  6
CONTINUOUS
 70
0
 71
3
 72
9
 73
5
 74
0
 42
0.0000001
 43
0.0000001
 44
0.0000000001
 40
0.0
 40
0.0
 40
0.0
 40
0.0
 40
0.5227898457
 40
1.0
 40
1.0
 40
1.0
 40
1.0
 10
87.6911910876
 20
64.5828427004
 30
0.0
 10
87.6571408524
 20
64.5775254904
 30
0.0
 10
87.5902745797
 20
64.5775406551
 30
0.0
 10
87.5255142088
 20
64.5969585087
 30
0.0
 10
87.4982704268
 20
64.6126873577
 30
0.0
  0
SPLINE
  5
647
100
AcDbEntity
  8
0
100
AcDbSpline
 62
7
  6
CONTINUOUS
 70
0
 71
3
 72
9
 73
5
 74
0
 42
0.0000001
 43
0.0000001
 44
0.0000000001
 40
0.0
 40
0.0
 40
0.0
 40
0.0
 40
0.5507637876
 40
1.0
 40
1.0
 40
1.0
 40
1.0
 10
91.8826560107
 20
62.0817709506
 30
0.0
 10
91.8661030773
 20
62.0913275749
 30
0.0
 10
91.8376659878
 20
62.1130940116
 30
0.0
 10
91.8240214108
 20
62.1478950395
 30
0.0
 10
91.8240533511
 20
62.1634851914
 30
0.0
  0
SPLINE
  5
648
100
AcDbEntity
  8
0
100
AcDbSpline
 62
7
  6
CONTINUOUS
 70
0
 71
3
 72
9
 73
5
 74
0
 42
0.0000001
 43
0.0000001
 44
0.0000000001
 40
0.0
 40
0.0
 40
0.0
 40
0.0
 40
0.5227709221
 40
1.0
 40
1.0
 40
1.0
 40
1.0
 10
92.0759951254
 20
62.0518619851
 30
0.0
 10
92.0418600228
 20
62.0466104977
 30
0.0
 10
91.9748647566
 20
62.0465019897
 30
0.0
 10
91.9099602038
 20
62.066007224
 30
0.0
 10
91.8826560107
 20
62.0817709506
 30
0.0
  0
SPLINE
  5
649
100
AcDbEntity
  8
0
100
AcDbSpline
 62
7
  6
CONTINUOUS
 70
0
 71
3
 72
9
 73
5
 74
0
 42
0.0000001
 43
0.0000001
 44
0.0000000001
 40
0.0
 40
0.0
 40
0.0
 40
0.0
 40
0.2449785198
 40
1.0
 40
1.0
 40
1.0
 40
1.0
 10
20.3729459711
 20
93.6855802694
 30
0.0
 10
20.3623832127
 20
93.6882794225
 30
0.0
 10
20.318675649
 20
93.6968801329
 30
0.0
 10
20.2732848079
 20
93.6965636916
 30
0.0
 10
20.2400672301
 20
93.6915062011
 30
0.0
  0
SPLINE
  5
64A
100
AcDbEntity
  8
0
100
AcDbSpline
 62
7
  6
CONTINUOUS
 70
0
 71
3
 72
9
 73
5
 74
0
 42
0.0000001
 43
0.0000001
 44
0.0000000001
 40
0.0
 40
0.0
 40
0.0
 40
0.0
 40
0.2450120699
 40
1.0
 40
1.0
 40
1.0
 40
1.0
 10
22.0700301875
 20
92.7059897449
 30
0.0
 10
22.0595079477
 20
92.7086636489
 30
0.0
 10
22.0159810325
 20
92.7171664892
 30
0.0
 10
21.9707807241
 20
92.716915908
 30
0.0
 10
21.937717166
 20
92.7118191355
 30
0.0
  0
SPLINE
  5
64B
100
AcDbEntity
  8
0
100
AcDbSpline
 62
7
  6
CONTINUOUS
 70
0
 71
3
 72
9
 73
5
 74
0
 42
0.0000001
 43
0.0000001
 44
0.0000000001
 40
0.0
 40
0.0
 40
0.0
 40
0.0
 40
0.2450473594
 40
1.0
 40
1.0
 40
1.0
 40
1.0
 10
24.75706857
 20
91.1548728088
 30
0.0
 10
24.7465899297
 20
91.1575199336
 30
0.0
 10
24.7032571486
 20
91.1659197532
 30
0.0
 10
24.6582610663
 20
91.1657388483
 30
0.0
 10
24.6253625363
 20
91.1606014859
 30
0.0
  0
SPLINE
  5
64C
100
AcDbEntity
  8
0
100
AcDbSpline
 62
7
  6
CONTINUOUS
 70
0
 71
3
 72
9
 73
5
 74
0
 42
0.0000001
 43
0.0000001
 44
0.0000000001
 40
0.0
 40
0.0
 40
0.0
 40
0.0
 40
0.2448543948
 40
1.0
 40
1.0
 40
1.0
 40
1.0
 10
26.4540082087
 20
90.1740247833
 30
0.0
 10
26.4433034045
 20
90.1768154352
 30
0.0
 10
26.3989606844
 20
90.1857771515
 30
0.0
 10
26.3528956568
 20
90.1852209297
 30
0.0
 10
26.3191326923
 20
90.1803142152
 30
0.0
  0
SPLINE
  5
64D
100
AcDbEntity
  8
0
100
AcDbSpline
 62
7
  6
CONTINUOUS
 70
0
 71
3
 72
9
 73
5
 74
0
 42
0.0000001
 43
0.0000001
 44
0.0000000001
 40
0.0
 40
0.0
 40
0.0
 40
0.0
 40
0.2449785198
 40
1.0
 40
1.0
 40
1.0
 40
1.0
 10
29.1411065649
 20
88.6233949125
 30
0.0
 10
29.1305438064
 20
88.6260940656
 30
0.0
 10
29.0868362428
 20
88.634694776
 30
0.0
 10
29.0414454017
 20
88.6343783347
 30
0.0
 10
29.0082278239
 20
88.6293208442
 30
0.0
  0
SPLINE
  5
64E
100
AcDbEntity
  8
0
100
AcDbSpline
 62
7
  6
CONTINUOUS
 70
0
 71
3
 72
9
 73
5
 74
0
 42
0.0000001
 43
0.0000001
 44
0.0000000001
 40
0.0
 40
0.0
 40
0.0
 40
0.0
 40
0.2450120699
 40
1.0
 40
1.0
 40
1.0
 40
1.0
 10
30.8381907813
 20
87.6438043879
 30
0.0
 10
30.8276685414
 20
87.646478292
 30
0.0
 10
30.7841416263
 20
87.6549811323
 30
0.0
 10
30.7389413179
 20
87.6547305511
 30
0.0
 10
30.7058777598
 20
87.6496337786
 30
0.0
  0
SPLINE
  5
64F
100
AcDbEntity
  8
0
100
AcDbSpline
 62
7
  6
CONTINUOUS
 70
0
 71
3
 72
9
 73
5
 74
0
 42
0.0000001
 43
0.0000001
 44
0.0000000001
 40
0.0
 40
0.0
 40
0.0
 40
0.0
 40
0.2450473594
 40
1.0
 40
1.0
 40
1.0
 40
1.0
 10
33.5252291638
 20
86.0926874519
 30
0.0
 10
33.5147505235
 20
86.0953345767
 30
0.0
 10
33.4714177424
 20
86.1037343962
 30
0.0
 10
33.4264216601
 20
86.1035534914
 30
0.0
 10
33.3935231301
 20
86.098416129
 30
0.0
  0
SPLINE
  5
650
100
AcDbEntity
  8
0
100
AcDbSpline
 62
7
  6
CONTINUOUS
 70
0
 71
3
 72
9
 73
5
 74
0
 42
0.0000001
 43
0.0000001
 44
0.0000000001
 40
0.0
 40
0.0
 40
0.0
 40
0.0
 40
0.2448543948
 40
1.0
 40
1.0
 40
1.0
 40
1.0
 10
35.2221688024
 20
85.1118394264
 30
0.0
 10
35.2114639983
 20
85.1146300782
 30
0.0
 10
35.1671212781
 20
85.1235917946
 30
0.0
 10
35.1210562506
 20
85.1230355728
 30
0.0
 10
35.087293286
 20
85.1181288583
 30
0.0
  0
SPLINE
  5
651
100
AcDbEntity
  8
0
100
AcDbSpline
 62
7
  6
CONTINUOUS
 70
0
 71
3
 72
9
 73
5
 74
0
 42
0.0000001
 43
0.0000001
 44
0.0000000001
 40
0.0
 40
0.0
 40
0.0
 40
0.0
 40
0.2449785198
 40
1.0
 40
1.0
 40
1.0
 40
1.0
 10
37.9092671586
 20
83.5612095556
 30
0.0
 10
37.8987044002
 20
83.5639087087
 30
0.0
 10
37.8549968365
 20
83.5725094191
 30
0.0
 10
37.8096059954
 20
83.5721929778
 30
0.0
 10
37.7763884176
 20
83.5671354873
 30
0.0
  0
SPLINE
  5
652
100
AcDbEntity
  8
0
100
AcDbSpline
 62
7
  6
CONTINUOUS
 70
0
 71
3
 72
9
 73
5
 74
0
 42
0.0000001
 43
0.0000001
 44
0.0000000001
 40
0.0
 40
0.0
 40
0.0
 40
0.0
 40
0.2450120699
 40
1.0
 40
1.0
 40
1.0
 40
1.0
 10
39.6063513751
 20
82.581619031
 30
0.0
 10
39.5958291352
 20
82.5842929351
 30
0.0
 10
39.5523022201
 20
82.5927957754
 30
0.0
 10
39.5071019116
 20
82.5925451942
 30
0.0
 10
39.4740383536
 20
82.5874484217
 30
0.0
  0
SPLINE
  5
653
100
AcDbEntity
  8
0
100
AcDbSpline
 62
7
  6
CONTINUOUS
 70
0
 71
3
 72
9
 73
5
 74
0
 42
0.0000001
 43
0.0000001
 44
0.0000000001
 40
0.0
 40
0.0
 40
0.0
 40
0.0
 40
0.2450473594
 40
1.0
 40
1.0
 40
1.0
 40
1.0
 10
42.2933897576
 20
81.030502095
 30
0.0
 10
42.2829111173
 20
81.0331492198
 30
0.0
 10
42.2395783362
 20
81.0415490393
 30
0.0
 10
42.1945822539
 20
81.0413681345
 30
0.0
 10
42.1616837239
 20
81.0362307721
 30
0.0
  0
SPLINE
  5
654
100
AcDbEntity
  8
0
100
AcDbSpline
 62
7
  6
CONTINUOUS
 70
0
 71
3
 72
9
 73
5
 74
0
 42
0.0000001
 43
0.0000001
 44
0.0000000001
 40
0.0
 40
0.0
 40
0.0
 40
0.0
 40
0.2448543948
 40
1.0
 40
1.0
 40
1.0
 40
1.0
 10
43.9903293962
 20
80.0496540695
 30
0.0
 10
43.979624592
 20
80.0524447213
 30
0.0
 10
43.9352818719
 20
80.0614064377
 30
0.0
 10
43.8892168444
 20
80.0608502159
 30
0.0
 10
43.8554538798
 20
80.0559435014
 30
0.0
  0
SPLINE
  5
655
100
AcDbEntity
  8
0
100
AcDbSpline
 62
7
  6
CONTINUOUS
 70
0
 71
3
 72
9
 73
5
 74
0
 42
0.0000001
 43
0.0000001
 44
0.0000000001
 40
0.0
 40
0.0
 40
0.0
 40
0.0
 40
0.2449785198
 40
1.0
 40
1.0
 40
1.0
 40
1.0
 10
46.6774277524
 20
78.4990241987
 30
0.0
 10
46.666864994
 20
78.5017233518
 30
0.0
 10
46.6231574303
 20
78.5103240622
 30
0.0
 10
46.5777665892
 20
78.5100076208
 30
0.0
 10
46.5445490114
 20
78.5049501304
 30
0.0
  0
SPLINE
  5
656
100
AcDbEntity
  8
0
100
AcDbSpline
 62
7
  6
CONTINUOUS
 70
0
 71
3
 72
9
 73
5
 74
0
 42
0.0000001
 43
0.0000001
 44
0.0000000001
 40
0.0
 40
0.0
 40
0.0
 40
0.0
 40
0.2450120699
 40
1.0
 40
1.0
 40
1.0
 40
1.0
 10
48.3745119688
 20
77.5194336741
 30
0.0
 10
48.363989729
 20
77.5221075782
 30
0.0
 10
48.3204628138
 20
77.5306104185
 30
0.0
 10
48.2752625054
 20
77.5303598373
 30
0.0
 10
48.2421989473
 20
77.5252630648
 30
0.0
  0
SPLINE
  5
657
100
AcDbEntity
  8
0
100
AcDbSpline
 62
7
  6
CONTINUOUS
 70
0
 71
3
 72
9
 73
5
 74
0
 42
0.0000001
 43
0.0000001
 44
0.0000000001
 40
0.0
 40
0.0
 40
0.0
 40
0.0
 40
0.2450473594
 40
1.0
 40
1.0
 40
1.0
 40
1.0
 10
51.0615503513
 20
75.9683167381
 30
0.0
 10
51.0510717111
 20
75.9709638629
 30
0.0
 10
51.00773893
 20
75.9793636824
 30
0.0
 10
50.9627428476
 20
75.9791827776
 30
0.0
 10
50.9298443176
 20
75.9740454152
 30
0.0
  0
SPLINE
  5
658
100
AcDbEntity
  8
0
100
AcDbSpline
 62
7
  6
CONTINUOUS
 70
0
 71
3
 72
9
 73
5
 74
0
 42
0.0000001
 43
0.0000001
 44
0.0000000001
 40
0.0
 40
0.0
 40
0.0
 40
0.0
 40
0.2448543948
 40
1.0
 40
1.0
 40
1.0
 40
1.0
 10
52.75848999
 20
74.9874687126
 30
0.0
 10
52.7477851858
 20
74.9902593644
 30
0.0
 10
52.7034424657
 20
74.9992210808
 30
0.0
 10
52.6573774381
 20
74.998664859
 30
0.0
 10
52.6236144736
 20
74.9937581445
 30
0.0
  0
SPLINE
  5
659
100
AcDbEntity
  8
0
100
AcDbSpline
 62
7
  6
CONTINUOUS
 70
0
 71
3
 72
9
 73
5
 74
0
 42
0.0000001
 43
0.0000001
 44
0.0000000001
 40
0.0
 40
0.0
 40
0.0
 40
0.0
 40
0.2449785198
 40
1.0
 40
1.0
 40
1.0
 40
1.0
 10
55.4455883462
 20
73.4368388418
 30
0.0
 10
55.4350255878
 20
73.4395379949
 30
0.0
 10
55.3913180241
 20
73.4481387053
 30
0.0
 10
55.345927183
 20
73.4478222639
 30
0.0
 10
55.3127096052
 20
73.4427647735
 30
0.0
  0
SPLINE
  5
65A
100
AcDbEntity
  8
0
100
AcDbSpline
 62
7
  6
CONTINUOUS
 70
0
 71
3
 72
9
 73
5
 74
0
 42
0.0000001
 43
0.0000001
 44
0.0000000001
 40
0.0
 40
0.0
 40
0.0
 40
0.0
 40
0.2450120699
 40
1.0
 40
1.0
 40
1.0
 40
1.0
 10
57.1426725626
 20
72.4572483172
 30
0.0
 10
57.1321503227
 20
72.4599222213
 30
0.0
 10
57.0886234076
 20
72.4684250616
 30
0.0
 10
57.0434230992
 20
72.4681744804
 30
0.0
 10
57.0103595411
 20
72.4630777079
 30
0.0
  0
SPLINE
  5
65B
100
AcDbEntity
  8
0
100
AcDbSpline
 62
7
  6
CONTINUOUS
 70
0
 71
3
 72
9
 73
5
 74
0
 42
0.0000001
 43
0.0000001
 44
0.0000000001
 40
0.0
 40
0.0
 40
0.0
 40
0.0
 40
0.2450473594
 40
1.0
 40
1.0
 40
1.0
 40
1.0
 10
59.8297109451
 20
70.9061313812
 30
0.0
 10
59.8192323048
 20
70.908778506
 30
0.0
 10
59.7758995237
 20
70.9171783255
 30
0.0
 10
59.7309034414
 20
70.9169974207
 30
0.0
 10
59.6980049114
 20
70.9118600583
 30
0.0
  0
SPLINE
  5
65C
100
AcDbEntity
  8
0
100
AcDbSpline
 62
7
  6
CONTINUOUS
 70
0
 71
3
 72
9
 73
5
 74
0
 42
0.0000001
 43
0.0000001
 44
0.0000000001
 40
0.0
 40
0.0
 40
0.0
 40
0.0
 40
0.2448543948
 40
1.0
 40
1.0
 40
1.0
 40
1.0
 10
61.5266505837
 20
69.9252833557
 30
0.0
 10
61.5159457796
 20
69.9280740075
 30
0.0
 10
61.4716030594
 20
69.9370357239
 30
0.0
 10
61.4255380319
 20
69.9364795021
 30
0.0
 10
61.3917750674
 20
69.9315727876
 30
0.0
  0
SPLINE
  5
65D
100
AcDbEntity
  8
0
100
AcDbSpline
 62
7
  6
CONTINUOUS
 70
0
 71
3
 72
9
 73
5
 74
0
 42
0.0000001
 43
0.0000001
 44
0.0000000001
 40
0.0
 40
0.0
 40
0.0
 40
0.0
 40
0.2449785198
 40
1.0
 40
1.0
 40
1.0
 40
1.0
 10
64.2137489399
 20
68.3746534849
 30
0.0
 10
64.2031861815
 20
68.377352638
 30
0.0
 10
64.1594786179
 20
68.3859533484
 30
0.0
 10
64.1140877768
 20
68.385636907
 30
0.0
 10
64.080870199
 20
68.3805794166
 30
0.0
  0
SPLINE
  5
65E
100
AcDbEntity
  8
0
100
AcDbSpline
 62
7
  6
CONTINUOUS
 70
0
 71
3
 72
9
 73
5
 74
0
 42
0.0000001
 43
0.0000001
 44
0.0000000001
 40
0.0
 40
0.0
 40
0.0
 40
0.0
 40
0.2450120699
 40
1.0
 40
1.0
 40
1.0
 40
1.0
 10
65.9108331564
 20
67.3950629603
 30
0.0
 10
65.9003109165
 20
67.3977368644
 30
0.0
 10
65.8567840014
 20
67.4062397047
 30
0.0
 10
65.811583693
 20
67.4059891234
 30
0.0
 10
65.7785201349
 20
67.400892351
 30
0.0
  0
SPLINE
  5
65F
100
AcDbEntity
  8
0
100
AcDbSpline
 62
7
  6
CONTINUOUS
 70
0
 71
3
 72
9
 73
5
 74
0
 42
0.0000001
 43
0.0000001
 44
0.0000000001
 40
0.0
 40
0.0
 40
0.0
 40
0.0
 40
0.2450473594
 40
1.0
 40
1.0
 40
1.0
 40
1.0
 10
68.5978715389
 20
65.8439460243
 30
0.0
 10
68.5873928986
 20
65.8465931491
 30
0.0
 10
68.5440601175
 20
65.8549929686
 30
0.0
 10
68.4990640352
 20
65.8548120638
 30
0.0
 10
68.4661655052
 20
65.8496747014
 30
0.0
  0
SPLINE
  5
660
100
AcDbEntity
  8
0
100
AcDbSpline
 62
7
  6
CONTINUOUS
 70
0
 71
3
 72
9
 73
5
 74
0
 42
0.0000001
 43
0.0000001
 44
0.0000000001
 40
0.0
 40
0.0
 40
0.0
 40
0.0
 40
0.2448543948
 40
1.0
 40
1.0
 40
1.0
 40
1.0
 10
70.2948111775
 20
64.8630979988
 30
0.0
 10
70.2841063734
 20
64.8658886506
 30
0.0
 10
70.2397636532
 20
64.874850367
 30
0.0
 10
70.1936986257
 20
64.8742941452
 30
0.0
 10
70.1599356611
 20
64.8693874307
 30
0.0
  0
SPLINE
  5
661
100
AcDbEntity
  8
0
100
AcDbSpline
 62
7
  6
CONTINUOUS
 70
0
 71
3
 72
9
 73
5
 74
0
 42
0.0000001
 43
0.0000001
 44
0.0000000001
 40
0.0
 40
0.0
 40
0.0
 40
0.0
 40
0.2449785198
 40
1.0
 40
1.0
 40
1.0
 40
1.0
 10
72.9819095337
 20
63.312468128
 30
0.0
 10
72.9713467753
 20
63.3151672811
 30
0.0
 10
72.9276392116
 20
63.3237679915
 30
0.0
 10
72.8822483705
 20
63.3234515501
 30
0.0
 10
72.8490307927
 20
63.3183940597
 30
0.0
  0
SPLINE
  5
662
100
AcDbEntity
  8
0
100
AcDbSpline
 62
7
  6
CONTINUOUS
 70
0
 71
3
 72
9
 73
5
 74
0
 42
0.0000001
 43
0.0000001
 44
0.0000000001
 40
0.0
 40
0.0
 40
0.0
 40
0.0
 40
0.4787381218
 40
1.0
 40
1.0
 40
1.0
 40
1.0
 10
23.1148279652
 20
99.3415631982
 30
0.0
 10
23.1427870337
 20
99.3577327711
 30
0.0
 10
23.2084925189
 20
99.379833777
 30
0.0
 10
23.2771831791
 20
99.377458315
 30
0.0
 10
23.3118711284
 20
99.3716739687
 30
0.0
  0
SPLINE
  5
663
100
AcDbEntity
  8
0
100
AcDbSpline
 62
7
  6
CONTINUOUS
 70
0
 71
3
 72
9
 73
5
 74
0
 42
0.0000001
 43
0.0000001
 44
0.0000000001
 40
0.0
 40
0.0
 40
0.0
 40
0.0
 40
0.2450120699
 40
1.0
 40
1.0
 40
1.0
 40
1.0
 10
74.6789937501
 20
62.3328776034
 30
0.0
 10
74.6684715103
 20
62.3355515075
 30
0.0
 10
74.6249445951
 20
62.3440543478
 30
0.0
 10
74.5797442867
 20
62.3438037665
 30
0.0
 10
74.5466807287
 20
62.3387069941
 30
0.0
  0
SPLINE
  5
664
100
AcDbEntity
  8
0
100
AcDbSpline
 62
7
  6
CONTINUOUS
 70
0
 71
3
 72
9
 73
5
 74
0
 42
0.0000001
 43
0.0000001
 44
0.0000000001
 40
0.0
 40
0.0
 40
0.0
 40
0.0
 40
0.5255712455
 40
1.0
 40
1.0
 40
1.0
 40
1.0
 10
23.9997451663
 20
98.2295053497
 30
0.0
 10
23.9894030792
 20
98.1937040974
 30
0.0
 10
23.9612002653
 20
98.1273353012
 30
0.0
 10
23.9113829612
 20
98.0741882569
 30
0.0
 10
23.8838959628
 20
98.054796489
 30
0.0
  0
SPLINE
  5
665
100
AcDbEntity
  8
0
100
AcDbSpline
 62
7
  6
CONTINUOUS
 70
0
 71
3
 72
9
 73
5
 74
0
 42
0.0000001
 43
0.0000001
 44
0.0000000001
 40
0.0
 40
0.0
 40
0.0
 40
0.0
 40
0.2450473594
 40
1.0
 40
1.0
 40
1.0
 40
1.0
 10
77.3660321326
 20
60.7817606674
 30
0.0
 10
77.3555534924
 20
60.7844077922
 30
0.0
 10
77.3122207113
 20
60.7928076117
 30
0.0
 10
77.2672246289
 20
60.7926267069
 30
0.0
 10
77.234326099
 20
60.7874893445
 30
0.0
  0
SPLINE
  5
666
100
AcDbEntity
  8
0
100
AcDbSpline
 62
7
  6
CONTINUOUS
 70
0
 71
3
 72
9
 73
5
 74
0
 42
0.0000001
 43
0.0000001
 44
0.0000000001
 40
0.0
 40
0.0
 40
0.0
 40
0.0
 40
0.4787381216
 40
1.0
 40
1.0
 40
1.0
 40
1.0
 10
49.4193097407
 20
84.1550071301
 30
0.0
 10
49.4472688093
 20
84.1711767031
 30
0.0
 10
49.5129742951
 20
84.193277709
 30
0.0
 10
49.5816649558
 20
84.1909022468
 30
0.0
 10
49.6163529053
 20
84.1851179003
 30
0.0
  0
SPLINE
  5
667
100
AcDbEntity
  8
0
100
AcDbSpline
 62
7
  6
CONTINUOUS
 70
0
 71
3
 72
9
 73
5
 74
0
 42
0.0000001
 43
0.0000001
 44
0.0000000001
 40
0.0
 40
0.0
 40
0.0
 40
0.0
 40
0.2448543948
 40
1.0
 40
1.0
 40
1.0
 40
1.0
 10
79.0629717713
 20
59.8009126419
 30
0.0
 10
79.0522669671
 20
59.8037032937
 30
0.0
 10
79.007924247
 20
59.8126650101
 30
0.0
 10
78.9618592194
 20
59.8121087883
 30
0.0
 10
78.9280962549
 20
59.8072020738
 30
0.0
  0
SPLINE
  5
668
100
AcDbEntity
  8
0
100
AcDbSpline
 62
7
  6
CONTINUOUS
 70
0
 71
3
 72
9
 73
5
 74
0
 42
0.0000001
 43
0.0000001
 44
0.0000000001
 40
0.0
 40
0.0
 40
0.0
 40
0.0
 40
0.5255712457
 40
1.0
 40
1.0
 40
1.0
 40
1.0
 10
50.3042269421
 20
83.0429492828
 30
0.0
 10
50.2938848551
 20
83.0071480304
 30
0.0
 10
50.2656820413
 20
82.9407792338
 30
0.0
 10
50.2158647373
 20
82.8876321892
 30
0.0
 10
50.1883777388
 20
82.8682404212
 30
0.0
  0
SPLINE
  5
669
100
AcDbEntity
  8
0
100
AcDbSpline
 62
7
  6
CONTINUOUS
 70
0
 71
3
 72
9
 73
5
 74
0
 42
0.0000001
 43
0.0000001
 44
0.0000000001
 40
0.0
 40
0.0
 40
0.0
 40
0.0
 40
0.2449785198
 40
1.0
 40
1.0
 40
1.0
 40
1.0
 10
81.7500701275
 20
58.2502827711
 30
0.0
 10
81.7395073691
 20
58.2529819241
 30
0.0
 10
81.6957998054
 20
58.2615826346
 30
0.0
 10
81.6504089643
 20
58.2612661932
 30
0.0
 10
81.6171913865
 20
58.2562087028
 30
0.0
  0
SPLINE
  5
66A
100
AcDbEntity
  8
0
100
AcDbSpline
 62
7
  6
CONTINUOUS
 70
0
 71
3
 72
9
 73
5
 74
0
 42
0.0000001
 43
0.0000001
 44
0.0000000001
 40
0.0
 40
0.0
 40
0.0
 40
0.0
 40
0.2450120699
 40
1.0
 40
1.0
 40
1.0
 40
1.0
 10
83.4471543439
 20
57.2706922465
 30
0.0
 10
83.4366321041
 20
57.2733661506
 30
0.0
 10
83.3931051889
 20
57.2818689909
 30
0.0
 10
83.3479048805
 20
57.2816184096
 30
0.0
 10
83.3148413224
 20
57.2765216372
 30
0.0
  0
SPLINE
  5
66B
100
AcDbEntity
  8
0
100
AcDbSpline
 62
7
  6
CONTINUOUS
 70
0
 71
3
 72
9
 73
5
 74
0
 42
0.0000001
 43
0.0000001
 44
0.0000000001
 40
0.0
 40
0.0
 40
0.0
 40
0.0
 40
0.2450473594
 40
1.0
 40
1.0
 40
1.0
 40
1.0
 10
86.1341927264
 20
55.7195753105
 30
0.0
 10
86.1237140861
 20
55.7222224353
 30
0.0
 10
86.080381305
 20
55.7306222548
 30
0.0
 10
86.0353852227
 20
55.73044135
 30
0.0
 10
86.0024866927
 20
55.7253039876
 30
0.0
  0
SPLINE
  5
66C
100
AcDbEntity
  8
0
100
AcDbSpline
 62
7
  6
CONTINUOUS
 70
0
 71
3
 72
9
 73
5
 74
0
 42
0.0000001
 43
0.0000001
 44
0.0000000001
 40
0.0
 40
0.0
 40
0.0
 40
0.0
 40
0.2448543948
 40
1.0
 40
1.0
 40
1.0
 40
1.0
 10
87.8311323651
 20
54.738727285
 30
0.0
 10
87.8204275609
 20
54.7415179368
 30
0.0
 10
87.7760848408
 20
54.7504796532
 30
0.0
 10
87.7300198132
 20
54.7499234314
 30
0.0
 10
87.6962568487
 20
54.7450167169
 30
0.0
  0
SPLINE
  5
66D
100
AcDbEntity
  8
0
100
AcDbSpline
 62
7
  6
CONTINUOUS
 70
0
 71
3
 72
9
 73
5
 74
0
 42
0.0000001
 43
0.0000001
 44
0.0000000001
 40
0.0
 40
0.0
 40
0.0
 40
0.0
 40
0.245006661
 40
1.0
 40
1.0
 40
1.0
 40
1.0
 10
90.5182482328
 20
53.1882544547
 30
0.0
 10
90.5077193964
 20
53.1909324445
 30
0.0
 10
90.4641630876
 20
53.1994510725
 30
0.0
 10
90.4189318108
 20
53.1991898441
 30
0.0
 10
90.3858432229
 20
53.1940993608
 30
0.0
  0
SPLINE
  5
66E
100
AcDbEntity
  8
0
100
AcDbSpline
 62
7
  6
CONTINUOUS
 70
0
 71
3
 72
9
 73
5
 74
0
 42
0.0000001
 43
0.0000001
 44
0.0000000001
 40
0.0
 40
0.0
 40
0.0
 40
0.0
 40
0.2448333877
 40
1.0
 40
1.0
 40
1.0
 40
1.0
 10
92.2151982233
 20
52.2075199583
 30
0.0
 10
92.2044705964
 20
52.2103257792
 30
0.0
 10
92.1600255426
 20
52.2193483559
 30
0.0
 10
92.1138511926
 20
52.2187522521
 30
0.0
 10
92.0799997391
 20
52.2138718397
 30
0.0
  0
SPLINE
  5
66F
100
AcDbEntity
  8
0
100
AcDbSpline
 62
7
  6
CONTINUOUS
 70
0
 71
3
 72
9
 73
5
 74
0
 42
0.0000001
 43
0.0000001
 44
0.0000000001
 40
0.0
 40
0.0
 40
0.0
 40
0.0
 40
0.525571246
 40
1.0
 40
1.0
 40
1.0
 40
1.0
 10
89.760949606
 20
60.2631151827
 30
0.0
 10
89.750607519
 20
60.2273139301
 30
0.0
 10
89.7224047055
 20
60.160945133
 30
0.0
 10
89.6725874014
 20
60.1077980878
 30
0.0
 10
89.6451004029
 20
60.0884063196
 30
0.0
  0
SPLINE
  5
670
100
AcDbEntity
  8
0
100
AcDbSpline
 62
7
  6
CONTINUOUS
 70
0
 71
3
 72
9
 73
5
 74
0
 42
0.0000001
 43
0.0000001
 44
0.0000000001
 40
0.0
 40
0.0
 40
0.0
 40
0.0
 40
0.4787381212
 40
1.0
 40
1.0
 40
1.0
 40
1.0
 10
88.8760324039
 20
61.3751730278
 30
0.0
 10
88.9039914728
 20
61.391342601
 30
0.0
 10
88.9696969594
 20
61.4134436071
 30
0.0
 10
89.0383876208
 20
61.4110681444
 30
0.0
 10
89.0730755707
 20
61.4052837977
 30
0.0
  0
SPLINE
  5
671
100
AcDbEntity
  8
0
100
AcDbSpline
 62
7
  6
CONTINUOUS
 70
0
 71
3
 72
11
 73
7
 74
0
 42
0.0000001
 43
0.0000001
 44
0.0000000001
 40
0.0
 40
0.0
 40
0.0
 40
0.0
 40
0.2372700469
 40
0.5000134831
 40
0.7627811467
 40
1.0
 40
1.0
 40
1.0
 40
1.0
 10
88.8974653263
 20
61.5421822902
 30
0.0
 10
89.022966774
 20
61.4697256349
 30
0.0
 10
89.2604494642
 20
61.2698716183
 30
0.0
 10
89.5375551473
 20
60.8910827322
 30
0.0
 10
89.7269934855
 20
60.4617245959
 30
0.0
 10
89.7813451374
 20
60.1561523086
 30
0.0
 10
89.7813421262
 20
60.0112678062
 30
0.0
  0
SPLINE
  5
672
100
AcDbEntity
  8
0
100
AcDbSpline
 62
7
  6
CONTINUOUS
 70
0
 71
3
 72
9
 73
5
 74
0
 42
0.0000001
 43
0.0000001
 44
0.0000000001
 40
0.0
 40
0.0
 40
0.0
 40
0.0
 40
0.2449785198
 40
1.0
 40
1.0
 40
1.0
 40
1.0
 10
20.3729459711
 20
98.5845947722
 30
0.0
 10
20.3623832127
 20
98.5872939252
 30
0.0
 10
20.318675649
 20
98.5958946357
 30
0.0
 10
20.2732848079
 20
98.5955781943
 30
0.0
 10
20.2400672301
 20
98.5905207039
 30
0.0
  0
SPLINE
  5
673
100
AcDbEntity
  8
0
100
AcDbSpline
 62
7
  6
CONTINUOUS
 70
0
 71
3
 72
9
 73
5
 74
0
 42
0.0000001
 43
0.0000001
 44
0.0000000001
 40
0.0
 40
0.0
 40
0.0
 40
0.0
 40
0.2450120699
 40
1.0
 40
1.0
 40
1.0
 40
1.0
 10
22.0700301875
 20
97.6050042476
 30
0.0
 10
22.0595079477
 20
97.6076781517
 30
0.0
 10
22.0159810325
 20
97.616180992
 30
0.0
 10
21.9707807241
 20
97.6159304107
 30
0.0
 10
21.937717166
 20
97.6108336383
 30
0.0
  0
SPLINE
  5
674
100
AcDbEntity
  8
0
100
AcDbSpline
 62
7
  6
CONTINUOUS
 70
0
 71
3
 72
9
 73
5
 74
0
 42
0.0000001
 43
0.0000001
 44
0.0000000001
 40
0.0
 40
0.0
 40
0.0
 40
0.0
 40
0.2450473594
 40
1.0
 40
1.0
 40
1.0
 40
1.0
 10
24.75706857
 20
96.0538873116
 30
0.0
 10
24.7465899297
 20
96.0565344364
 30
0.0
 10
24.7032571486
 20
96.0649342559
 30
0.0
 10
24.6582610663
 20
96.0647533511
 30
0.0
 10
24.6253625363
 20
96.0596159887
 30
0.0
  0
SPLINE
  5
675
100
AcDbEntity
  8
0
100
AcDbSpline
 62
7
  6
CONTINUOUS
 70
0
 71
3
 72
9
 73
5
 74
0
 42
0.0000001
 43
0.0000001
 44
0.0000000001
 40
0.0
 40
0.0
 40
0.0
 40
0.0
 40
0.2448543948
 40
1.0
 40
1.0
 40
1.0
 40
1.0
 10
26.4540082087
 20
95.0730392861
 30
0.0
 10
26.4433034045
 20
95.0758299379
 30
0.0
 10
26.3989606844
 20
95.0847916543
 30
0.0
 10
26.3528956568
 20
95.0842354325
 30
0.0
 10
26.3191326923
 20
95.079328718
 30
0.0
  0
SPLINE
  5
676
100
AcDbEntity
  8
0
100
AcDbSpline
 62
7
  6
CONTINUOUS
 70
0
 71
3
 72
9
 73
5
 74
0
 42
0.0000001
 43
0.0000001
 44
0.0000000001
 40
0.0
 40
0.0
 40
0.0
 40
0.0
 40
0.2449785198
 40
1.0
 40
1.0
 40
1.0
 40
1.0
 10
29.1411065649
 20
93.5224094153
 30
0.0
 10
29.1305438064
 20
93.5251085683
 30
0.0
 10
29.0868362428
 20
93.5337092788
 30
0.0
 10
29.0414454017
 20
93.5333928374
 30
0.0
 10
29.0082278239
 20
93.528335347
 30
0.0
  0
SPLINE
  5
677
100
AcDbEntity
  8
0
100
AcDbSpline
 62
7
  6
CONTINUOUS
 70
0
 71
3
 72
9
 73
5
 74
0
 42
0.0000001
 43
0.0000001
 44
0.0000000001
 40
0.0
 40
0.0
 40
0.0
 40
0.0
 40
0.2450120699
 40
1.0
 40
1.0
 40
1.0
 40
1.0
 10
30.8381907813
 20
92.5428188907
 30
0.0
 10
30.8276685414
 20
92.5454927948
 30
0.0
 10
30.7841416263
 20
92.5539956351
 30
0.0
 10
30.7389413179
 20
92.5537450538
 30
0.0
 10
30.7058777598
 20
92.5486482814
 30
0.0
  0
SPLINE
  5
678
100
AcDbEntity
  8
0
100
AcDbSpline
 62
7
  6
CONTINUOUS
 70
0
 71
3
 72
9
 73
5
 74
0
 42
0.0000001
 43
0.0000001
 44
0.0000000001
 40
0.0
 40
0.0
 40
0.0
 40
0.0
 40
0.2450473594
 40
1.0
 40
1.0
 40
1.0
 40
1.0
 10
33.5252291638
 20
90.9917019547
 30
0.0
 10
33.5147505235
 20
90.9943490795
 30
0.0
 10
33.4714177424
 20
91.002748899
 30
0.0
 10
33.4264216601
 20
91.0025679942
 30
0.0
 10
33.3935231301
 20
90.9974306318
 30
0.0
  0
SPLINE
  5
679
100
AcDbEntity
  8
0
100
AcDbSpline
 62
7
  6
CONTINUOUS
 70
0
 71
3
 72
9
 73
5
 74
0
 42
0.0000001
 43
0.0000001
 44
0.0000000001
 40
0.0
 40
0.0
 40
0.0
 40
0.0
 40
0.2448543948
 40
1.0
 40
1.0
 40
1.0
 40
1.0
 10
35.2221688024
 20
90.0108539292
 30
0.0
 10
35.2114639983
 20
90.013644581
 30
0.0
 10
35.1671212781
 20
90.0226062974
 30
0.0
 10
35.1210562506
 20
90.0220500756
 30
0.0
 10
35.087293286
 20
90.0171433611
 30
0.0
  0
SPLINE
  5
67A
100
AcDbEntity
  8
0
100
AcDbSpline
 62
7
  6
CONTINUOUS
 70
0
 71
3
 72
9
 73
5
 74
0
 42
0.0000001
 43
0.0000001
 44
0.0000000001
 40
0.0
 40
0.0
 40
0.0
 40
0.0
 40
0.2449785198
 40
1.0
 40
1.0
 40
1.0
 40
1.0
 10
37.9092671586
 20
88.4602240584
 30
0.0
 10
37.8987044002
 20
88.4629232114
 30
0.0
 10
37.8549968365
 20
88.4715239219
 30
0.0
 10
37.8096059954
 20
88.4712074805
 30
0.0
 10
37.7763884176
 20
88.4661499901
 30
0.0
  0
SPLINE
  5
67B
100
AcDbEntity
  8
0
100
AcDbSpline
 62
7
  6
CONTINUOUS
 70
0
 71
3
 72
9
 73
5
 74
0
 42
0.0000001
 43
0.0000001
 44
0.0000000001
 40
0.0
 40
0.0
 40
0.0
 40
0.0
 40
0.2450120699
 40
1.0
 40
1.0
 40
1.0
 40
1.0
 10
39.6063513751
 20
87.4806335338
 30
0.0
 10
39.5958291352
 20
87.4833074379
 30
0.0
 10
39.5523022201
 20
87.4918102782
 30
0.0
 10
39.5071019116
 20
87.4915596969
 30
0.0
 10
39.4740383536
 20
87.4864629245
 30
0.0
  0
SPLINE
  5
67C
100
AcDbEntity
  8
0
100
AcDbSpline
 62
7
  6
CONTINUOUS
 70
0
 71
3
 72
9
 73
5
 74
0
 42
0.0000001
 43
0.0000001
 44
0.0000000001
 40
0.0
 40
0.0
 40
0.0
 40
0.0
 40
0.2450473594
 40
1.0
 40
1.0
 40
1.0
 40
1.0
 10
42.2933897576
 20
85.9295165978
 30
0.0
 10
42.2829111173
 20
85.9321637226
 30
0.0
 10
42.2395783362
 20
85.9405635421
 30
0.0
 10
42.1945822539
 20
85.9403826373
 30
0.0
 10
42.1616837239
 20
85.9352452749
 30
0.0
  0
SPLINE
  5
67D
100
AcDbEntity
  8
0
100
AcDbSpline
 62
7
  6
CONTINUOUS
 70
0
 71
3
 72
9
 73
5
 74
0
 42
0.0000001
 43
0.0000001
 44
0.0000000001
 40
0.0
 40
0.0
 40
0.0
 40
0.0
 40
0.2448543948
 40
1.0
 40
1.0
 40
1.0
 40
1.0
 10
43.9903293962
 20
84.9486685723
 30
0.0
 10
43.979624592
 20
84.9514592241
 30
0.0
 10
43.9352818719
 20
84.9604209405
 30
0.0
 10
43.8892168444
 20
84.9598647187
 30
0.0
 10
43.8554538798
 20
84.9549580042
 30
0.0
  0
SPLINE
  5
67E
100
AcDbEntity
  8
0
100
AcDbSpline
 62
7
  6
CONTINUOUS
 70
0
 71
3
 72
9
 73
5
 74
0
 42
0.0000001
 43
0.0000001
 44
0.0000000001
 40
0.0
 40
0.0
 40
0.0
 40
0.0
 40
0.2449785198
 40
1.0
 40
1.0
 40
1.0
 40
1.0
 10
46.6774277524
 20
83.3980387015
 30
0.0
 10
46.666864994
 20
83.4007378545
 30
0.0
 10
46.6231574303
 20
83.409338565
 30
0.0
 10
46.5777665892
 20
83.4090221236
 30
0.0
 10
46.5445490114
 20
83.4039646332
 30
0.0
  0
SPLINE
  5
67F
100
AcDbEntity
  8
0
100
AcDbSpline
 62
7
  6
CONTINUOUS
 70
0
 71
3
 72
9
 73
5
 74
0
 42
0.0000001
 43
0.0000001
 44
0.0000000001
 40
0.0
 40
0.0
 40
0.0
 40
0.0
 40
0.2450120699
 40
1.0
 40
1.0
 40
1.0
 40
1.0
 10
48.3745119688
 20
82.4184481769
 30
0.0
 10
48.363989729
 20
82.421122081
 30
0.0
 10
48.3204628138
 20
82.4296249213
 30
0.0
 10
48.2752625054
 20
82.42937434
 30
0.0
 10
48.2421989473
 20
82.4242775676
 30
0.0
  0
SPLINE
  5
680
100
AcDbEntity
  8
0
100
AcDbSpline
 62
7
  6
CONTINUOUS
 70
0
 71
3
 72
9
 73
5
 74
0
 42
0.0000001
 43
0.0000001
 44
0.0000000001
 40
0.0
 40
0.0
 40
0.0
 40
0.0
 40
0.2450473594
 40
1.0
 40
1.0
 40
1.0
 40
1.0
 10
51.0615503513
 20
80.8673312409
 30
0.0
 10
51.0510717111
 20
80.8699783657
 30
0.0
 10
51.00773893
 20
80.8783781852
 30
0.0
 10
50.9627428476
 20
80.8781972804
 30
0.0
 10
50.9298443176
 20
80.873059918
 30
0.0
  0
SPLINE
  5
681
100
AcDbEntity
  8
0
100
AcDbSpline
 62
7
  6
CONTINUOUS
 70
0
 71
3
 72
9
 73
5
 74
0
 42
0.0000001
 43
0.0000001
 44
0.0000000001
 40
0.0
 40
0.0
 40
0.0
 40
0.0
 40
0.2448543948
 40
1.0
 40
1.0
 40
1.0
 40
1.0
 10
52.75848999
 20
79.8864832154
 30
0.0
 10
52.7477851858
 20
79.8892738672
 30
0.0
 10
52.7034424657
 20
79.8982355836
 30
0.0
 10
52.6573774381
 20
79.8976793618
 30
0.0
 10
52.6236144736
 20
79.8927726473
 30
0.0
  0
SPLINE
  5
682
100
AcDbEntity
  8
0
100
AcDbSpline
 62
7
  6
CONTINUOUS
 70
0
 71
3
 72
9
 73
5
 74
0
 42
0.0000001
 43
0.0000001
 44
0.0000000001
 40
0.0
 40
0.0
 40
0.0
 40
0.0
 40
0.2449785198
 40
1.0
 40
1.0
 40
1.0
 40
1.0
 10
55.4455883462
 20
78.3358533446
 30
0.0
 10
55.4350255878
 20
78.3385524976
 30
0.0
 10
55.3913180241
 20
78.3471532081
 30
0.0
 10
55.345927183
 20
78.3468367667
 30
0.0
 10
55.3127096052
 20
78.3417792763
 30
0.0
  0
SPLINE
  5
683
100
AcDbEntity
  8
0
100
AcDbSpline
 62
7
  6
CONTINUOUS
 70
0
 71
3
 72
9
 73
5
 74
0
 42
0.0000001
 43
0.0000001
 44
0.0000000001
 40
0.0
 40
0.0
 40
0.0
 40
0.0
 40
0.2450120699
 40
1.0
 40
1.0
 40
1.0
 40
1.0
 10
57.1426725626
 20
77.35626282
 30
0.0
 10
57.1321503227
 20
77.3589367241
 30
0.0
 10
57.0886234076
 20
77.3674395644
 30
0.0
 10
57.0434230992
 20
77.3671889831
 30
0.0
 10
57.0103595411
 20
77.3620922107
 30
0.0
  0
SPLINE
  5
684
100
AcDbEntity
  8
0
100
AcDbSpline
 62
7
  6
CONTINUOUS
 70
0
 71
3
 72
9
 73
5
 74
0
 42
0.0000001
 43
0.0000001
 44
0.0000000001
 40
0.0
 40
0.0
 40
0.0
 40
0.0
 40
0.2450473594
 40
1.0
 40
1.0
 40
1.0
 40
1.0
 10
59.8297109451
 20
75.805145884
 30
0.0
 10
59.8192323048
 20
75.8077930088
 30
0.0
 10
59.7758995237
 20
75.8161928283
 30
0.0
 10
59.7309034414
 20
75.8160119235
 30
0.0
 10
59.6980049114
 20
75.8108745611
 30
0.0
  0
SPLINE
  5
685
100
AcDbEntity
  8
0
100
AcDbSpline
 62
7
  6
CONTINUOUS
 70
0
 71
3
 72
9
 73
5
 74
0
 42
0.0000001
 43
0.0000001
 44
0.0000000001
 40
0.0
 40
0.0
 40
0.0
 40
0.0
 40
0.2448543948
 40
1.0
 40
1.0
 40
1.0
 40
1.0
 10
61.5266505837
 20
74.8242978585
 30
0.0
 10
61.5159457796
 20
74.8270885103
 30
0.0
 10
61.4716030594
 20
74.8360502267
 30
0.0
 10
61.4255380319
 20
74.8354940049
 30
0.0
 10
61.3917750674
 20
74.8305872904
 30
0.0
  0
SPLINE
  5
686
100
AcDbEntity
  8
0
100
AcDbSpline
 62
7
  6
CONTINUOUS
 70
0
 71
3
 72
9
 73
5
 74
0
 42
0.0000001
 43
0.0000001
 44
0.0000000001
 40
0.0
 40
0.0
 40
0.0
 40
0.0
 40
0.2449785198
 40
1.0
 40
1.0
 40
1.0
 40
1.0
 10
64.2137489399
 20
73.2736679877
 30
0.0
 10
64.2031861815
 20
73.2763671407
 30
0.0
 10
64.1594786179
 20
73.2849678512
 30
0.0
 10
64.1140877768
 20
73.2846514098
 30
0.0
 10
64.080870199
 20
73.2795939193
 30
0.0
  0
SPLINE
  5
687
100
AcDbEntity
  8
0
100
AcDbSpline
 62
7
  6
CONTINUOUS
 70
0
 71
3
 72
9
 73
5
 74
0
 42
0.0000001
 43
0.0000001
 44
0.0000000001
 40
0.0
 40
0.0
 40
0.0
 40
0.0
 40
0.2450120699
 40
1.0
 40
1.0
 40
1.0
 40
1.0
 10
65.9108331564
 20
72.2940774631
 30
0.0
 10
65.9003109165
 20
72.2967513672
 30
0.0
 10
65.8567840014
 20
72.3052542075
 30
0.0
 10
65.811583693
 20
72.3050036262
 30
0.0
 10
65.7785201349
 20
72.2999068538
 30
0.0
  0
SPLINE
  5
688
100
AcDbEntity
  8
0
100
AcDbSpline
 62
7
  6
CONTINUOUS
 70
0
 71
3
 72
9
 73
5
 74
0
 42
0.0000001
 43
0.0000001
 44
0.0000000001
 40
0.0
 40
0.0
 40
0.0
 40
0.0
 40
0.2450473594
 40
1.0
 40
1.0
 40
1.0
 40
1.0
 10
68.5978715389
 20
70.7429605271
 30
0.0
 10
68.5873928986
 20
70.7456076519
 30
0.0
 10
68.5440601175
 20
70.7540074714
 30
0.0
 10
68.4990640352
 20
70.7538265666
 30
0.0
 10
68.4661655052
 20
70.7486892042
 30
0.0
  0
SPLINE
  5
689
100
AcDbEntity
  8
0
100
AcDbSpline
 62
7
  6
CONTINUOUS
 70
0
 71
3
 72
9
 73
5
 74
0
 42
0.0000001
 43
0.0000001
 44
0.0000000001
 40
0.0
 40
0.0
 40
0.0
 40
0.0
 40
0.2448543948
 40
1.0
 40
1.0
 40
1.0
 40
1.0
 10
70.2948111775
 20
69.7621125016
 30
0.0
 10
70.2841063734
 20
69.7649031534
 30
0.0
 10
70.2397636532
 20
69.7738648698
 30
0.0
 10
70.1936986257
 20
69.773308648
 30
0.0
 10
70.1599356611
 20
69.7684019335
 30
0.0
  0
SPLINE
  5
68A
100
AcDbEntity
  8
0
100
AcDbSpline
 62
7
  6
CONTINUOUS
 70
0
 71
3
 72
9
 73
5
 74
0
 42
0.0000001
 43
0.0000001
 44
0.0000000001
 40
0.0
 40
0.0
 40
0.0
 40
0.0
 40
0.2449785198
 40
1.0
 40
1.0
 40
1.0
 40
1.0
 10
72.9819095337
 20
68.2114826308
 30
0.0
 10
72.9713467753
 20
68.2141817838
 30
0.0
 10
72.9276392116
 20
68.2227824943
 30
0.0
 10
72.8822483705
 20
68.2224660529
 30
0.0
 10
72.8490307927
 20
68.2174085624
 30
0.0
  0
SPLINE
  5
68B
100
AcDbEntity
  8
0
100
AcDbSpline
 62
7
  6
CONTINUOUS
 70
0
 71
3
 72
9
 73
5
 74
0
 42
0.0000001
 43
0.0000001
 44
0.0000000001
 40
0.0
 40
0.0
 40
0.0
 40
0.0
 40
0.2450120699
 40
1.0
 40
1.0
 40
1.0
 40
1.0
 10
74.6789937501
 20
67.2318921062
 30
0.0
 10
74.6684715103
 20
67.2345660103
 30
0.0
 10
74.6249445951
 20
67.2430688506
 30
0.0
 10
74.5797442867
 20
67.2428182693
 30
0.0
 10
74.5466807287
 20
67.2377214969
 30
0.0
  0
SPLINE
  5
68C
100
AcDbEntity
  8
0
100
AcDbSpline
 62
7
  6
CONTINUOUS
 70
0
 71
3
 72
9
 73
5
 74
0
 42
0.0000001
 43
0.0000001
 44
0.0000000001
 40
0.0
 40
0.0
 40
0.0
 40
0.0
 40
0.2450473594
 40
1.0
 40
1.0
 40
1.0
 40
1.0
 10
77.3660321326
 20
65.6807751702
 30
0.0
 10
77.3555534924
 20
65.683422295
 30
0.0
 10
77.3122207113
 20
65.6918221145
 30
0.0
 10
77.2672246289
 20
65.6916412097
 30
0.0
 10
77.234326099
 20
65.6865038473
 30
0.0
  0
SPLINE
  5
68D
100
AcDbEntity
  8
0
100
AcDbSpline
 62
7
  6
CONTINUOUS
 70
0
 71
3
 72
9
 73
5
 74
0
 42
0.0000001
 43
0.0000001
 44
0.0000000001
 40
0.0
 40
0.0
 40
0.0
 40
0.0
 40
0.2448543948
 40
1.0
 40
1.0
 40
1.0
 40
1.0
 10
79.0629717713
 20
64.6999271447
 30
0.0
 10
79.0522669671
 20
64.7027177965
 30
0.0
 10
79.007924247
 20
64.7116795129
 30
0.0
 10
78.9618592194
 20
64.7111232911
 30
0.0
 10
78.9280962549
 20
64.7062165766
 30
0.0
  0
SPLINE
  5
68E
100
AcDbEntity
  8
0
100
AcDbSpline
 62
7
  6
CONTINUOUS
 70
0
 71
3
 72
9
 73
5
 74
0
 42
0.0000001
 43
0.0000001
 44
0.0000000001
 40
0.0
 40
0.0
 40
0.0
 40
0.0
 40
0.2449785198
 40
1.0
 40
1.0
 40
1.0
 40
1.0
 10
81.7500701275
 20
63.1492972739
 30
0.0
 10
81.7395073691
 20
63.1519964269
 30
0.0
 10
81.6957998054
 20
63.1605971374
 30
0.0
 10
81.6504089643
 20
63.160280696
 30
0.0
 10
81.6171913865
 20
63.1552232055
 30
0.0
  0
SPLINE
  5
68F
100
AcDbEntity
  8
0
100
AcDbSpline
 62
7
  6
CONTINUOUS
 70
0
 71
3
 72
9
 73
5
 74
0
 42
0.0000001
 43
0.0000001
 44
0.0000000001
 40
0.0
 40
0.0
 40
0.0
 40
0.0
 40
0.2450120699
 40
1.0
 40
1.0
 40
1.0
 40
1.0
 10
83.4471543439
 20
62.1697067493
 30
0.0
 10
83.4366321041
 20
62.1723806534
 30
0.0
 10
83.3931051889
 20
62.1808834937
 30
0.0
 10
83.3479048805
 20
62.1806329124
 30
0.0
 10
83.3148413224
 20
62.17553614
 30
0.0
  0
SPLINE
  5
690
100
AcDbEntity
  8
0
100
AcDbSpline
 62
7
  6
CONTINUOUS
 70
0
 71
3
 72
9
 73
5
 74
0
 42
0.0000001
 43
0.0000001
 44
0.0000000001
 40
0.0
 40
0.0
 40
0.0
 40
0.0
 40
0.2450473594
 40
1.0
 40
1.0
 40
1.0
 40
1.0
 10
86.1341927264
 20
60.6185898133
 30
0.0
 10
86.1237140861
 20
60.6212369381
 30
0.0
 10
86.080381305
 20
60.6296367576
 30
0.0
 10
86.0353852227
 20
60.6294558528
 30
0.0
 10
86.0024866927
 20
60.6243184904
 30
0.0
  0
SPLINE
  5
691
100
AcDbEntity
  8
0
100
AcDbSpline
 62
7
  6
CONTINUOUS
 70
0
 71
3
 72
9
 73
5
 74
0
 42
0.0000001
 43
0.0000001
 44
0.0000000001
 40
0.0
 40
0.0
 40
0.0
 40
0.0
 40
0.2448543948
 40
1.0
 40
1.0
 40
1.0
 40
1.0
 10
87.8311323651
 20
59.6377417878
 30
0.0
 10
87.8204275609
 20
59.6405324396
 30
0.0
 10
87.7760848408
 20
59.649494156
 30
0.0
 10
87.7300198132
 20
59.6489379342
 30
0.0
 10
87.6962568487
 20
59.6440312197
 30
0.0
  0
SPLINE
  5
692
100
AcDbEntity
  8
0
100
AcDbSpline
 62
7
  6
CONTINUOUS
 70
0
 71
3
 72
9
 73
5
 74
0
 42
0.0000001
 43
0.0000001
 44
0.0000000001
 40
0.0
 40
0.0
 40
0.0
 40
0.0
 40
0.245006661
 40
1.0
 40
1.0
 40
1.0
 40
1.0
 10
90.5182482328
 20
58.0872689575
 30
0.0
 10
90.5077193964
 20
58.0899469472
 30
0.0
 10
90.4641630876
 20
58.0984655752
 30
0.0
 10
90.4189318108
 20
58.0982043468
 30
0.0
 10
90.3858432229
 20
58.0931138635
 30
0.0
  0
SPLINE
  5
693
100
AcDbEntity
  8
0
100
AcDbSpline
 62
7
  6
CONTINUOUS
 70
0
 71
3
 72
9
 73
5
 74
0
 42
0.0000001
 43
0.0000001
 44
0.0000000001
 40
0.0
 40
0.0
 40
0.0
 40
0.0
 40
0.2448333877
 40
1.0
 40
1.0
 40
1.0
 40
1.0
 10
92.2151982233
 20
57.1065344611
 30
0.0
 10
92.2044705964
 20
57.109340282
 30
0.0
 10
92.1600255426
 20
57.1183628587
 30
0.0
 10
92.1138511926
 20
57.1177667549
 30
0.0
 10
92.0799997391
 20
57.1128863425
 30
0.0
  0
SPLINE
  5
694
100
AcDbEntity
  8
0
100
AcDbSpline
 62
7
  6
CONTINUOUS
 70
0
 71
3
 72
11
 73
7
 74
0
 42
0.0000001
 43
0.0000001
 44
0.0000000001
 40
0.0
 40
0.0
 40
0.0
 40
0.0
 40
0.2372700469
 40
0.5000134831
 40
0.7627811467
 40
1.0
 40
1.0
 40
1.0
 40
1.0
 10
23.1362608859
 20
99.5085724596
 30
0.0
 10
23.2617623335
 20
99.4361158042
 30
0.0
 10
23.4992450237
 20
99.2362617876
 30
0.0
 10
23.7763507068
 20
98.8574729015
 30
0.0
 10
23.9657890449
 20
98.4281147652
 30
0.0
 10
24.0201406969
 20
98.1225424779
 30
0.0
 10
24.0201376857
 20
97.9776579755
 30
0.0
  0
SPLINE
  5
695
100
AcDbEntity
  8
0
100
AcDbSpline
 62
7
  6
CONTINUOUS
 70
0
 71
3
 72
11
 73
7
 74
0
 42
0.0000001
 43
0.0000001
 44
0.0000000001
 40
0.0
 40
0.0
 40
0.0
 40
0.0
 40
0.2372700469
 40
0.5000134831
 40
0.7627811467
 40
1.0
 40
1.0
 40
1.0
 40
1.0
 10
49.4407426621
 20
84.3220163919
 30
0.0
 10
49.5662441097
 20
84.2495597365
 30
0.0
 10
49.8037267999
 20
84.0497057198
 30
0.0
 10
50.080832483
 20
83.6709168337
 30
0.0
 10
50.2702708211
 20
83.2415586975
 30
0.0
 10
50.3246224731
 20
82.9359864101
 30
0.0
 10
50.3246194619
 20
82.7911019077
 30
0.0
  0
SPLINE
  5
696
100
AcDbEntity
  8
0
100
AcDbSpline
 62
7
  6
CONTINUOUS
 70
0
 71
3
 72
9
 73
5
 74
0
 42
0.0000001
 43
0.0000001
 44
0.0000000001
 40
0.0
 40
0.0
 40
0.0
 40
0.0
 40
0.5510223221
 40
1.0
 40
1.0
 40
1.0
 40
1.0
 10
79.1228816083
 20
67.9420663115
 30
0.0
 10
79.1395739257
 20
67.9324292155
 30
0.0
 10
79.1682079611
 20
67.910513444
 30
0.0
 10
79.1820524262
 20
67.8753891323
 30
0.0
 10
79.1818813828
 20
67.8596850216
 30
0.0
  0
SPLINE
  5
697
100
AcDbEntity
  8
0
100
AcDbSpline
 62
7
  6
CONTINUOUS
 70
0
 71
3
 72
10
 73
6
 74
0
 42
0.0000001
 43
0.0000001
 44
0.0000000001
 40
0.0
 40
0.0
 40
0.0
 40
0.0
 40
0.2615132959
 40
0.6495847874
 40
1.0
 40
1.0
 40
1.0
 40
1.0
 10
78.9280962549
 20
67.9722262451
 30
0.0
 10
78.9453610019
 20
67.9747353016
 30
0.0
 10
78.988730414
 20
67.9780926398
 30
0.0
 10
79.0555721786
 20
67.9708228563
 30
0.0
 10
79.1026364608
 20
67.9537545884
 30
0.0
 10
79.1228816083
 20
67.9420663115
 30
0.0
  0
SPLINE
  5
698
100
AcDbEntity
  8
0
100
AcDbSpline
 62
7
  6
CONTINUOUS
 70
0
 71
3
 72
9
 73
5
 74
0
 42
0.0000001
 43
0.0000001
 44
0.0000000001
 40
0.0
 40
0.0
 40
0.0
 40
0.0
 40
0.5506946502
 40
1.0
 40
1.0
 40
1.0
 40
1.0
 10
77.4272467597
 20
68.9226688585
 30
0.0
 10
77.443762902
 20
68.913133475
 30
0.0
 10
77.4721477491
 20
68.8914067261
 30
0.0
 10
77.4857404167
 20
68.8566904813
 30
0.0
 10
77.4857442652
 20
68.8411306012
 30
0.0
  0
SPLINE
  5
699
100
AcDbEntity
  8
0
100
AcDbSpline
 62
7
  6
CONTINUOUS
 70
0
 71
3
 72
15
 73
11
 74
0
 42
0.0000001
 43
0.0000001
 44
0.0000000001
 40
0.0
 40
0.0
 40
0.0
 40
0.0
 40
0.1287870268
 40
0.2705868348
 40
0.4178716689
 40
0.5623772395
 40
0.6961911338
 40
0.8135892312
 40
0.9130637159
 40
1.0
 40
1.0
 40
1.0
 40
1.0
 10
89.2510172428
 20
60.1132995317
 30
0.0
 10
89.1955170426
 20
60.1453418623
 30
0.0
 10
89.0877640815
 20
60.2282969642
 30
0.0
 10
88.9497926154
 20
60.3851747463
 30
0.0
 10
88.8362937111
 20
60.5698905885
 30
0.0
 10
88.7565198617
 20
60.7671946489
 30
0.0
 10
88.7169138535
 20
60.9614436361
 30
0.0
 10
88.721071478
 20
61.1377492331
 30
0.0
 10
88.7705241146
 20
61.2841623246
 30
0.0
 10
88.8385837082
 20
61.3535153172
 30
0.0
 10
88.8760324039
 20
61.3751730278
 30
0.0
  0
SPLINE
  5
69A
100
AcDbEntity
  8
0
100
AcDbSpline
 62
7
  6
CONTINUOUS
 70
0
 71
3
 72
9
 73
5
 74
0
 42
0.0000001
 43
0.0000001
 44
0.0000000001
 40
0.0
 40
0.0
 40
0.0
 40
0.0
 40
0.5227898457
 40
1.0
 40
1.0
 40
1.0
 40
1.0
 10
77.234326099
 20
68.9525135158
 30
0.0
 10
77.2683763341
 20
68.957830726
 30
0.0
 10
77.3352426068
 20
68.9578155611
 30
0.0
 10
77.4000029777
 20
68.9383977076
 30
0.0
 10
77.4272467597
 20
68.9226688585
 30
0.0
  0
SPLINE
  5
69B
100
AcDbEntity
  8
0
100
AcDbSpline
 62
7
  6
CONTINUOUS
 70
0
 71
3
 72
20
 73
16
 74
0
 42
0.0000001
 43
0.0000001
 44
0.0000000001
 40
0.0
 40
0.0
 40
0.0
 40
0.0
 40
0.1382278727
 40
0.2912959334
 40
0.4443786115
 40
0.5162818867
 40
0.5829315294
 40
0.6433611982
 40
0.6974221575
 40
0.7460484429
 40
0.7914601662
 40
0.8368645319
 40
0.8854851338
 40
0.9396208968
 40
1.0
 40
1.0
 40
1.0
 40
1.0
 10
88.8974653263
 20
59.5009262474
 30
0.0
 10
88.7719660157
 20
59.5733816691
 30
0.0
 10
88.5344559852
 20
59.7732976349
 30
0.0
 10
88.2575043938
 20
60.1517547537
 30
0.0
 10
88.0958612786
 20
60.518046311
 30
0.0
 10
88.026419343
 20
60.8165847134
 30
0.0
 10
88.007995572
 20
61.0252051266
 30
0.0
 10
88.0231906196
 20
61.21557863
 30
0.0
 10
88.071962913
 20
61.3810704729
 30
0.0
 10
88.1541086682
 20
61.5154512267
 30
0.0
 10
88.2682241322
 20
61.6113365979
 30
0.0
 10
88.4082934995
 20
61.662250099
 30
0.0
 10
88.5658238058
 20
61.6662894226
 30
0.0
 10
88.7334888783
 20
61.6256794897
 30
0.0
 10
88.8426461667
 20
61.5738314308
 30
0.0
 10
88.8974653263
 20
61.5421822902
 30
0.0
  0
SPLINE
  5
69C
100
AcDbEntity
  8
0
100
AcDbSpline
 62
7
  6
CONTINUOUS
 70
0
 71
3
 72
9
 73
5
 74
0
 42
0.0000001
 43
0.0000001
 44
0.0000000001
 40
0.0
 40
0.0
 40
0.0
 40
0.0
 40
0.5507545976
 40
1.0
 40
1.0
 40
1.0
 40
1.0
 10
74.7399649671
 20
70.473830822
 30
0.0
 10
74.7565129954
 20
70.4642770295
 30
0.0
 10
74.7849431258
 20
70.4425158783
 30
0.0
 10
74.7985807617
 20
70.4077261664
 30
0.0
 10
74.7985536137
 20
70.3921400463
 30
0.0
  0
SPLINE
  5
69D
100
AcDbEntity
  8
0
100
AcDbSpline
 62
7
  6
CONTINUOUS
 70
0
 71
3
 72
9
 73
5
 74
0
 42
0.0000001
 43
0.0000001
 44
0.0000000001
 40
0.0
 40
0.0
 40
0.0
 40
0.0
 40
0.5227733777
 40
1.0
 40
1.0
 40
1.0
 40
1.0
 10
74.5466807287
 20
70.5037311654
 30
0.0
 10
74.5808046857
 20
70.5089913991
 30
0.0
 10
74.6477830246
 20
70.5090836019
 30
0.0
 10
74.7126686991
 20
70.4895899731
 30
0.0
 10
74.7399649671
 20
70.473830822
 30
0.0
  0
SPLINE
  5
69E
100
AcDbEntity
  8
0
100
AcDbSpline
 62
7
  6
CONTINUOUS
 70
0
 71
3
 72
9
 73
5
 74
0
 42
0.0000001
 43
0.0000001
 44
0.0000000001
 40
0.0
 40
0.0
 40
0.0
 40
0.0
 40
0.5507637841
 40
1.0
 40
1.0
 40
1.0
 40
1.0
 10
90.5791823374
 20
61.3292145666
 30
0.0
 10
90.5957352707
 20
61.3196579423
 30
0.0
 10
90.6241723607
 20
61.2978915052
 30
0.0
 10
90.6378169365
 20
61.2630904778
 30
0.0
 10
90.6377849981
 20
61.2475003258
 30
0.0
  0
SPLINE
  5
69F
100
AcDbEntity
  8
0
100
AcDbSpline
 62
7
  6
CONTINUOUS
 70
0
 71
3
 72
9
 73
5
 74
0
 42
0.0000001
 43
0.0000001
 44
0.0000000001
 40
0.0
 40
0.0
 40
0.0
 40
0.0
 40
0.5508115856
 40
1.0
 40
1.0
 40
1.0
 40
1.0
 10
73.0426513045
 20
71.4534641109
 30
0.0
 10
73.0592297922
 20
71.4438927331
 30
0.0
 10
73.0877031004
 20
71.4220987964
 30
0.0
 10
73.1013839543
 20
71.3872387455
 30
0.0
 10
73.1013269178
 20
71.3716276133
 30
0.0
  0
SPLINE
  5
6A0
100
AcDbEntity
  8
0
100
AcDbSpline
 62
7
  6
CONTINUOUS
 70
0
 71
3
 72
11
 73
7
 74
0
 42
0.0000001
 43
0.0000001
 44
0.0000000001
 40
0.0
 40
0.0
 40
0.0
 40
0.0
 40
0.2386683244
 40
0.5029291285
 40
0.7655339385
 40
1.0
 40
1.0
 40
1.0
 40
1.0
 10
100.2819213008
 20
49.6139920258
 30
0.0
 10
100.282785393
 20
49.591161838
 30
0.0
 10
100.2725820372
 20
49.542973941
 30
0.0
 10
100.242600313
 20
49.4757618742
 30
0.0
 10
100.1981570631
 20
49.4171744197
 30
0.0
 10
100.1603484128
 20
49.3869133651
 30
0.0
 10
100.1405005333
 20
49.3764344791
 30
0.0
  0
SPLINE
  5
6A1
100
AcDbEntity
  8
0
100
AcDbSpline
 62
7
  6
CONTINUOUS
 70
0
 71
3
 72
9
 73
5
 74
0
 42
0.0000001
 43
0.0000001
 44
0.0000000001
 40
0.0
 40
0.0
 40
0.0
 40
0.0
 40
0.5227584344
 40
1.0
 40
1.0
 40
1.0
 40
1.0
 10
72.8490307927
 20
71.483418231
 30
0.0
 10
72.8832231419
 20
71.4886241337
 30
0.0
 10
72.9503052439
 20
71.4888168434
 30
0.0
 10
73.0153064575
 20
71.4692513085
 30
0.0
 10
73.0426513045
 20
71.4534641109
 30
0.0
  0
SPLINE
  5
6A2
100
AcDbEntity
  8
0
100
AcDbSpline
 62
7
  6
CONTINUOUS
 70
0
 71
3
 72
9
 73
5
 74
0
 42
0.0000001
 43
0.0000001
 44
0.0000000001
 40
0.0
 40
0.0
 40
0.0
 40
0.0
 40
0.5227709212
 40
1.0
 40
1.0
 40
1.0
 40
1.0
 10
90.3858432229
 20
61.3591235321
 30
0.0
 10
90.419978326
 20
61.3643750155
 30
0.0
 10
90.4869735914
 20
61.3644835298
 30
0.0
 10
90.5518781443
 20
61.3449782932
 30
0.0
 10
90.5791823374
 20
61.3292145666
 30
0.0
  0
SPLINE
  5
6A3
100
AcDbEntity
  8
0
100
AcDbSpline
 62
7
  6
CONTINUOUS
 70
0
 71
3
 72
9
 73
5
 74
0
 42
0.0000001
 43
0.0000001
 44
0.0000000001
 40
0.0
 40
0.0
 40
0.0
 40
0.0
 40
0.5510223221
 40
1.0
 40
1.0
 40
1.0
 40
1.0
 10
70.3547210145
 20
73.0042516684
 30
0.0
 10
70.371413332
 20
72.9946145724
 30
0.0
 10
70.4000473673
 20
72.9726988009
 30
0.0
 10
70.4138918325
 20
72.9375744892
 30
0.0
 10
70.413720789
 20
72.9218703785
 30
0.0
  0
SPLINE
  5
6A4
100
AcDbEntity
  8
0
100
AcDbSpline
 62
7
  6
CONTINUOUS
 70
0
 71
3
 72
10
 73
6
 74
0
 42
0.0000001
 43
0.0000001
 44
0.0000000001
 40
0.0
 40
0.0
 40
0.0
 40
0.0
 40
0.2615132959
 40
0.6495847874
 40
1.0
 40
1.0
 40
1.0
 40
1.0
 10
70.1599356611
 20
73.034411602
 30
0.0
 10
70.1772004082
 20
73.0369206585
 30
0.0
 10
70.2205698202
 20
73.0402779967
 30
0.0
 10
70.2874115849
 20
73.0330082132
 30
0.0
 10
70.334475867
 20
73.0159399453
 30
0.0
 10
70.3547210145
 20
73.0042516684
 30
0.0
  0
SPLINE
  5
6A5
100
AcDbEntity
  8
0
100
AcDbSpline
 62
7
  6
CONTINUOUS
 70
0
 71
3
 72
9
 73
5
 74
0
 42
0.0000001
 43
0.0000001
 44
0.0000000001
 40
0.0
 40
0.0
 40
0.0
 40
0.0
 40
0.5506946502
 40
1.0
 40
1.0
 40
1.0
 40
1.0
 10
68.6590861659
 20
73.9848542154
 30
0.0
 10
68.6756023082
 20
73.9753188319
 30
0.0
 10
68.7039871553
 20
73.953592083
 30
0.0
 10
68.7175798229
 20
73.9188758382
 30
0.0
 10
68.7175836714
 20
73.9033159581
 30
0.0
  0
SPLINE
  5
6A6
100
AcDbEntity
  8
0
100
AcDbSpline
 62
7
  6
CONTINUOUS
 70
0
 71
3
 72
9
 73
5
 74
0
 42
0.0000001
 43
0.0000001
 44
0.0000000001
 40
0.0
 40
0.0
 40
0.0
 40
0.0
 40
0.5227898457
 40
1.0
 40
1.0
 40
1.0
 40
1.0
 10
68.4661655052
 20
74.0146988727
 30
0.0
 10
68.5002157403
 20
74.0200160829
 30
0.0
 10
68.567082013
 20
74.020000918
 30
0.0
 10
68.6318423839
 20
74.0005830645
 30
0.0
 10
68.6590861659
 20
73.9848542154
 30
0.0
  0
SPLINE
  5
6A7
100
AcDbEntity
  8
0
100
AcDbSpline
 62
7
  6
CONTINUOUS
 70
0
 71
3
 72
9
 73
5
 74
0
 42
0.0000001
 43
0.0000001
 44
0.0000000001
 40
0.0
 40
0.0
 40
0.0
 40
0.0
 40
0.5507545976
 40
1.0
 40
1.0
 40
1.0
 40
1.0
 10
65.9718043734
 20
75.5360161789
 30
0.0
 10
65.9883524017
 20
75.5264623864
 30
0.0
 10
66.0167825321
 20
75.5047012352
 30
0.0
 10
66.030420168
 20
75.4699115233
 30
0.0
 10
66.0303930199
 20
75.4543254032
 30
0.0
  0
SPLINE
  5
6A8
100
AcDbEntity
  8
0
100
AcDbSpline
 62
7
  6
CONTINUOUS
 70
0
 71
3
 72
9
 73
5
 74
0
 42
0.0000001
 43
0.0000001
 44
0.0000000001
 40
0.0
 40
0.0
 40
0.0
 40
0.0
 40
0.5227733777
 40
1.0
 40
1.0
 40
1.0
 40
1.0
 10
65.7785201349
 20
75.5659165223
 30
0.0
 10
65.8126440919
 20
75.571176756
 30
0.0
 10
65.8796224308
 20
75.5712689588
 30
0.0
 10
65.9445081053
 20
75.55177533
 30
0.0
 10
65.9718043734
 20
75.5360161789
 30
0.0
  0
SPLINE
  5
6A9
100
AcDbEntity
  8
0
100
AcDbSpline
 62
7
  6
CONTINUOUS
 70
0
 71
3
 72
9
 73
5
 74
0
 42
0.0000001
 43
0.0000001
 44
0.0000000001
 40
0.0
 40
0.0
 40
0.0
 40
0.0
 40
0.5508115856
 40
1.0
 40
1.0
 40
1.0
 40
1.0
 10
64.2744907108
 20
76.5156494678
 30
0.0
 10
64.2910691984
 20
76.50607809
 30
0.0
 10
64.3195425066
 20
76.4842841533
 30
0.0
 10
64.3332233605
 20
76.4494241024
 30
0.0
 10
64.333166324
 20
76.4338129702
 30
0.0
  0
SPLINE
  5
6AA
100
AcDbEntity
  8
0
100
AcDbSpline
 62
7
  6
CONTINUOUS
 70
0
 71
3
 72
9
 73
5
 74
0
 42
0.0000001
 43
0.0000001
 44
0.0000000001
 40
0.0
 40
0.0
 40
0.0
 40
0.0
 40
0.5227584344
 40
1.0
 40
1.0
 40
1.0
 40
1.0
 10
64.080870199
 20
76.5456035879
 30
0.0
 10
64.1150625482
 20
76.5508094906
 30
0.0
 10
64.1821446501
 20
76.5510022003
 30
0.0
 10
64.2471458637
 20
76.5314366654
 30
0.0
 10
64.2744907108
 20
76.5156494678
 30
0.0
  0
SPLINE
  5
6AB
100
AcDbEntity
  8
0
100
AcDbSpline
 62
7
  6
CONTINUOUS
 70
0
 71
3
 72
9
 73
5
 74
0
 42
0.0000001
 43
0.0000001
 44
0.0000000001
 40
0.0
 40
0.0
 40
0.0
 40
0.0
 40
0.5510223221
 40
1.0
 40
1.0
 40
1.0
 40
1.0
 10
87.891042202
 20
62.8798809546
 30
0.0
 10
87.9077345195
 20
62.8702438586
 30
0.0
 10
87.9363685548
 20
62.8483280871
 30
0.0
 10
87.95021302
 20
62.8132037754
 30
0.0
 10
87.9500419766
 20
62.7974996647
 30
0.0
  0
SPLINE
  5
6AC
100
AcDbEntity
  8
0
100
AcDbSpline
 62
7
  6
CONTINUOUS
 70
0
 71
3
 72
9
 73
5
 74
0
 42
0.0000001
 43
0.0000001
 44
0.0000000001
 40
0.0
 40
0.0
 40
0.0
 40
0.0
 40
0.5510223221
 40
1.0
 40
1.0
 40
1.0
 40
1.0
 10
61.5865604207
 20
78.0664370253
 30
0.0
 10
61.6032527382
 20
78.0567999294
 30
0.0
 10
61.6318867735
 20
78.0348841578
 30
0.0
 10
61.6457312387
 20
77.9997598461
 30
0.0
 10
61.6455601952
 20
77.9840557354
 30
0.0
  0
SPLINE
  5
6AD
100
AcDbEntity
  8
0
100
AcDbSpline
 62
7
  6
CONTINUOUS
 70
0
 71
3
 72
10
 73
6
 74
0
 42
0.0000001
 43
0.0000001
 44
0.0000000001
 40
0.0
 40
0.0
 40
0.0
 40
0.0
 40
0.2615132959
 40
0.6495847874
 40
1.0
 40
1.0
 40
1.0
 40
1.0
 10
61.3917750674
 20
78.0965969589
 30
0.0
 10
61.4090398144
 20
78.0991060154
 30
0.0
 10
61.4524092264
 20
78.1024633536
 30
0.0
 10
61.5192509911
 20
78.0951935701
 30
0.0
 10
61.5663152733
 20
78.0781253022
 30
0.0
 10
61.5865604207
 20
78.0664370253
 30
0.0
  0
SPLINE
  5
6AE
100
AcDbEntity
  8
0
100
AcDbSpline
 62
7
  6
CONTINUOUS
 70
0
 71
3
 72
10
 73
6
 74
0
 42
0.0000001
 43
0.0000001
 44
0.0000000001
 40
0.0
 40
0.0
 40
0.0
 40
0.0
 40
0.2615132959
 40
0.6495847874
 40
1.0
 40
1.0
 40
1.0
 40
1.0
 10
87.6962568487
 20
62.9100408882
 30
0.0
 10
87.7135215957
 20
62.9125499447
 30
0.0
 10
87.7568910077
 20
62.9159072829
 30
0.0
 10
87.8237327724
 20
62.9086374994
 30
0.0
 10
87.8707970546
 20
62.8915692315
 30
0.0
 10
87.891042202
 20
62.8798809546
 30
0.0
  0
SPLINE
  5
6AF
100
AcDbEntity
  8
0
100
AcDbSpline
 62
7
  6
CONTINUOUS
 70
0
 71
3
 72
9
 73
5
 74
0
 42
0.0000001
 43
0.0000001
 44
0.0000000001
 40
0.0
 40
0.0
 40
0.0
 40
0.0
 40
0.5506946502
 40
1.0
 40
1.0
 40
1.0
 40
1.0
 10
59.8909255721
 20
79.0470395723
 30
0.0
 10
59.9074417145
 20
79.0375041888
 30
0.0
 10
59.9358265615
 20
79.0157774399
 30
0.0
 10
59.9494192291
 20
78.9810611951
 30
0.0
 10
59.9494230776
 20
78.965501315
 30
0.0
  0
SPLINE
  5
6B0
100
AcDbEntity
  8
0
100
AcDbSpline
 62
7
  6
CONTINUOUS
 70
0
 71
3
 72
9
 73
5
 74
0
 42
0.0000001
 43
0.0000001
 44
0.0000000001
 40
0.0
 40
0.0
 40
0.0
 40
0.0
 40
0.5227898457
 40
1.0
 40
1.0
 40
1.0
 40
1.0
 10
59.6980049114
 20
79.0768842296
 30
0.0
 10
59.7320551465
 20
79.0822014398
 30
0.0
 10
59.7989214193
 20
79.0821862749
 30
0.0
 10
59.8636817901
 20
79.0627684214
 30
0.0
 10
59.8909255721
 20
79.0470395723
 30
0.0
  0
SPLINE
  5
6B1
100
AcDbEntity
  8
0
100
AcDbSpline
 62
7
  6
CONTINUOUS
 70
0
 71
3
 72
9
 73
5
 74
0
 42
0.0000001
 43
0.0000001
 44
0.0000000001
 40
0.0
 40
0.0
 40
0.0
 40
0.0
 40
0.5507545976
 40
1.0
 40
1.0
 40
1.0
 40
1.0
 10
57.2036437796
 20
80.5982015358
 30
0.0
 10
57.2201918079
 20
80.5886477433
 30
0.0
 10
57.2486219383
 20
80.5668865921
 30
0.0
 10
57.2622595742
 20
80.5320968802
 30
0.0
 10
57.2622324262
 20
80.5165107601
 30
0.0
  0
SPLINE
  5
6B2
100
AcDbEntity
  8
0
100
AcDbSpline
 62
7
  6
CONTINUOUS
 70
0
 71
3
 72
9
 73
5
 74
0
 42
0.0000001
 43
0.0000001
 44
0.0000000001
 40
0.0
 40
0.0
 40
0.0
 40
0.0
 40
0.5227733777
 40
1.0
 40
1.0
 40
1.0
 40
1.0
 10
57.0103595411
 20
80.6281018792
 30
0.0
 10
57.0444834981
 20
80.6333621129
 30
0.0
 10
57.1114618371
 20
80.6334543157
 30
0.0
 10
57.1763475116
 20
80.6139606869
 30
0.0
 10
57.2036437796
 20
80.5982015358
 30
0.0
  0
SPLINE
  5
6B3
100
AcDbEntity
  8
0
100
AcDbSpline
 62
7
  6
CONTINUOUS
 70
0
 71
3
 72
9
 73
5
 74
0
 42
0.0000001
 43
0.0000001
 44
0.0000000001
 40
0.0
 40
0.0
 40
0.0
 40
0.0
 40
0.5508115856
 40
1.0
 40
1.0
 40
1.0
 40
1.0
 10
55.506330117
 20
81.5778348247
 30
0.0
 10
55.5229086046
 20
81.5682634469
 30
0.0
 10
55.5513819129
 20
81.5464695102
 30
0.0
 10
55.5650627668
 20
81.5116094593
 30
0.0
 10
55.5650057302
 20
81.4959983271
 30
0.0
  0
SPLINE
  5
6B4
100
AcDbEntity
  8
0
100
AcDbSpline
 62
7
  6
CONTINUOUS
 70
0
 71
3
 72
9
 73
5
 74
0
 42
0.0000001
 43
0.0000001
 44
0.0000000001
 40
0.0
 40
0.0
 40
0.0
 40
0.0
 40
0.5227584344
 40
1.0
 40
1.0
 40
1.0
 40
1.0
 10
55.3127096052
 20
81.6077889448
 30
0.0
 10
55.3469019544
 20
81.6129948475
 30
0.0
 10
55.4139840563
 20
81.6131875572
 30
0.0
 10
55.47898527
 20
81.5936220223
 30
0.0
 10
55.506330117
 20
81.5778348247
 30
0.0
  0
SPLINE
  5
6B5
100
AcDbEntity
  8
0
100
AcDbSpline
 62
7
  6
CONTINUOUS
 70
0
 71
3
 72
9
 73
5
 74
0
 42
0.0000001
 43
0.0000001
 44
0.0000000001
 40
0.0
 40
0.0
 40
0.0
 40
0.0
 40
0.5510223221
 40
1.0
 40
1.0
 40
1.0
 40
1.0
 10
52.8183998269
 20
83.1286223822
 30
0.0
 10
52.8350921444
 20
83.1189852863
 30
0.0
 10
52.8637261797
 20
83.0970695147
 30
0.0
 10
52.8775706449
 20
83.061945203
 30
0.0
 10
52.8773996015
 20
83.0462410924
 30
0.0
  0
SPLINE
  5
6B6
100
AcDbEntity
  8
0
100
AcDbSpline
 62
7
  6
CONTINUOUS
 70
0
 71
3
 72
10
 73
6
 74
0
 42
0.0000001
 43
0.0000001
 44
0.0000000001
 40
0.0
 40
0.0
 40
0.0
 40
0.0
 40
0.2615132959
 40
0.6495847874
 40
1.0
 40
1.0
 40
1.0
 40
1.0
 10
52.6236144736
 20
83.1587823158
 30
0.0
 10
52.6408792206
 20
83.1612913723
 30
0.0
 10
52.6842486326
 20
83.1646487105
 30
0.0
 10
52.7510903973
 20
83.157378927
 30
0.0
 10
52.7981546795
 20
83.1403106591
 30
0.0
 10
52.8183998269
 20
83.1286223822
 30
0.0
  0
SPLINE
  5
6B7
100
AcDbEntity
  8
0
100
AcDbSpline
 62
7
  6
CONTINUOUS
 70
0
 71
3
 72
9
 73
5
 74
0
 42
0.0000001
 43
0.0000001
 44
0.0000000001
 40
0.0
 40
0.0
 40
0.0
 40
0.0
 40
0.5506946502
 40
1.0
 40
1.0
 40
1.0
 40
1.0
 10
86.1954073535
 20
63.8604835016
 30
0.0
 10
86.2119234958
 20
63.8509481181
 30
0.0
 10
86.2403083428
 20
63.8292213692
 30
0.0
 10
86.2539010105
 20
63.7945051244
 30
0.0
 10
86.2539048589
 20
63.7789452443
 30
0.0
  0
SPLINE
  5
6B8
100
AcDbEntity
  8
0
100
AcDbSpline
 62
7
  6
CONTINUOUS
 70
0
 71
3
 72
9
 73
5
 74
0
 42
0.0000001
 43
0.0000001
 44
0.0000000001
 40
0.0
 40
0.0
 40
0.0
 40
0.0
 40
0.5506946502
 40
1.0
 40
1.0
 40
1.0
 40
1.0
 10
51.1227649784
 20
84.1092249292
 30
0.0
 10
51.1392811207
 20
84.0996895457
 30
0.0
 10
51.1676659677
 20
84.0779627968
 30
0.0
 10
51.1812586354
 20
84.043246552
 30
0.0
 10
51.1812624838
 20
84.0276866719
 30
0.0
  0
SPLINE
  5
6B9
100
AcDbEntity
  8
0
100
AcDbSpline
 62
7
  6
CONTINUOUS
 70
0
 71
3
 72
9
 73
5
 74
0
 42
0.0000001
 43
0.0000001
 44
0.0000000001
 40
0.0
 40
0.0
 40
0.0
 40
0.0
 40
0.5227898457
 40
1.0
 40
1.0
 40
1.0
 40
1.0
 10
50.9298443176
 20
84.1390695865
 30
0.0
 10
50.9638945528
 20
84.1443867967
 30
0.0
 10
51.0307608255
 20
84.1443716318
 30
0.0
 10
51.0955211964
 20
84.1249537783
 30
0.0
 10
51.1227649784
 20
84.1092249292
 30
0.0
  0
SPLINE
  5
6BA
100
AcDbEntity
  8
0
100
AcDbSpline
 62
7
  6
CONTINUOUS
 70
0
 71
3
 72
9
 73
5
 74
0
 42
0.0000001
 43
0.0000001
 44
0.0000000001
 40
0.0
 40
0.0
 40
0.0
 40
0.0
 40
0.5227898457
 40
1.0
 40
1.0
 40
1.0
 40
1.0
 10
86.0024866927
 20
63.8903281589
 30
0.0
 10
86.0365369279
 20
63.8956453691
 30
0.0
 10
86.1034032006
 20
63.8956302042
 30
0.0
 10
86.1681635715
 20
63.8762123507
 30
0.0
 10
86.1954073535
 20
63.8604835016
 30
0.0
  0
SPLINE
  5
6BB
100
AcDbEntity
  8
0
100
AcDbSpline
 62
7
  6
CONTINUOUS
 70
0
 71
3
 72
15
 73
11
 74
0
 42
0.0000001
 43
0.0000001
 44
0.0000000001
 40
0.0
 40
0.0
 40
0.0
 40
0.0
 40
0.1448901347
 40
0.2745103633
 40
0.3911004666
 40
0.49998369
 40
0.6088497921
 40
0.7254276636
 40
0.8552291348
 40
1.0
 40
1.0
 40
1.0
 40
1.0
 10
89.7813421262
 20
60.0112678062
 30
0.0
 10
89.7813408096
 20
59.9479172613
 30
0.0
 10
89.7717370302
 20
59.827474517
 30
0.0
 10
89.7229609606
 20
59.6620314669
 30
0.0
 10
89.6408138565
 20
59.5276461743
 30
0.0
 10
89.5266981362
 20
59.4317679275
 30
0.0
 10
89.3866300063
 20
59.3808572753
 30
0.0
 10
89.2291018226
 20
59.3768199656
 30
0.0
 10
89.0614393078
 20
59.4174301385
 30
0.0
 10
88.9522836557
 20
59.4692775861
 30
0.0
 10
88.8974653263
 20
59.5009262474
 30
0.0
  0
SPLINE
  5
6BC
100
AcDbEntity
  8
0
100
AcDbSpline
 62
7
  6
CONTINUOUS
 70
0
 71
3
 72
9
 73
5
 74
0
 42
0.0000001
 43
0.0000001
 44
0.0000000001
 40
0.0
 40
0.0
 40
0.0
 40
0.0
 40
0.5507545976
 40
1.0
 40
1.0
 40
1.0
 40
1.0
 10
48.4354831858
 20
85.6603868927
 30
0.0
 10
48.4520312141
 20
85.6508331002
 30
0.0
 10
48.4804613445
 20
85.629071949
 30
0.0
 10
48.4940989804
 20
85.5942822371
 30
0.0
 10
48.4940718324
 20
85.578696117
 30
0.0
  0
SPLINE
  5
6BD
100
AcDbEntity
  8
0
100
AcDbSpline
 62
7
  6
CONTINUOUS
 70
0
 71
3
 72
9
 73
5
 74
0
 42
0.0000001
 43
0.0000001
 44
0.0000000001
 40
0.0
 40
0.0
 40
0.0
 40
0.0
 40
0.5227733777
 40
1.0
 40
1.0
 40
1.0
 40
1.0
 10
48.2421989473
 20
85.6902872361
 30
0.0
 10
48.2763229044
 20
85.6955474698
 30
0.0
 10
48.3433012433
 20
85.6956396726
 30
0.0
 10
48.4081869178
 20
85.6761460438
 30
0.0
 10
48.4354831858
 20
85.6603868927
 30
0.0
  0
SPLINE
  5
6BE
100
AcDbEntity
  8
0
100
AcDbSpline
 62
7
  6
CONTINUOUS
 70
0
 71
3
 72
11
 73
7
 74
0
 42
0.0000001
 43
0.0000001
 44
0.0000000001
 40
0.0
 40
0.0
 40
0.0
 40
0.0
 40
0.2177039243
 40
0.4508923025
 40
0.7106103078
 40
1.0
 40
1.0
 40
1.0
 40
1.0
 10
89.6260020817
 20
60.0761796612
 30
0.0
 10
89.6012827888
 20
60.0618837483
 30
0.0
 10
89.5444481311
 20
60.0412398865
 30
0.0
 10
89.4499860044
 20
60.0388267987
 30
0.0
 10
89.3493824148
 20
60.0632428058
 30
0.0
 10
89.2838902666
 20
60.0943207119
 30
0.0
 10
89.2510172428
 20
60.1132995317
 30
0.0
  0
SPLINE
  5
6BF
100
AcDbEntity
  8
0
100
AcDbSpline
 62
7
  6
CONTINUOUS
 70
0
 71
3
 72
9
 73
5
 74
0
 42
0.0000001
 43
0.0000001
 44
0.0000000001
 40
0.0
 40
0.0
 40
0.0
 40
0.0
 40
0.5508115856
 40
1.0
 40
1.0
 40
1.0
 40
1.0
 10
46.7381695232
 20
86.6400201816
 30
0.0
 10
46.7547480109
 20
86.6304488038
 30
0.0
 10
46.7832213191
 20
86.6086548671
 30
0.0
 10
46.796902173
 20
86.5737948163
 30
0.0
 10
46.7968451365
 20
86.558183684
 30
0.0
  0
SPLINE
  5
6C0
100
AcDbEntity
  8
0
100
AcDbSpline
 62
7
  6
CONTINUOUS
 70
0
 71
3
 72
9
 73
5
 74
0
 42
0.0000001
 43
0.0000001
 44
0.0000000001
 40
0.0
 40
0.0
 40
0.0
 40
0.0
 40
0.5227584344
 40
1.0
 40
1.0
 40
1.0
 40
1.0
 10
46.5445490114
 20
86.6699743017
 30
0.0
 10
46.5787413606
 20
86.6751802044
 30
0.0
 10
46.6458234626
 20
86.6753729141
 30
0.0
 10
46.7108246762
 20
86.6558073792
 30
0.0
 10
46.7381695232
 20
86.6400201816
 30
0.0
  0
SPLINE
  5
6C1
100
AcDbEntity
  8
0
100
AcDbSpline
 62
7
  6
CONTINUOUS
 70
0
 71
3
 72
9
 73
5
 74
0
 42
0.0000001
 43
0.0000001
 44
0.0000000001
 40
0.0
 40
0.0
 40
0.0
 40
0.0
 40
0.5510223221
 40
1.0
 40
1.0
 40
1.0
 40
1.0
 10
44.0502392332
 20
88.1908077391
 30
0.0
 10
44.0669315506
 20
88.1811706432
 30
0.0
 10
44.095565586
 20
88.1592548716
 30
0.0
 10
44.1094100511
 20
88.1241305599
 30
0.0
 10
44.1092390077
 20
88.1084264493
 30
0.0
  0
SPLINE
  5
6C2
100
AcDbEntity
  8
0
100
AcDbSpline
 62
7
  6
CONTINUOUS
 70
0
 71
3
 72
10
 73
6
 74
0
 42
0.0000001
 43
0.0000001
 44
0.0000000001
 40
0.0
 40
0.0
 40
0.0
 40
0.0
 40
0.2615132959
 40
0.6495847874
 40
1.0
 40
1.0
 40
1.0
 40
1.0
 10
43.8554538798
 20
88.2209676727
 30
0.0
 10
43.8727186269
 20
88.2234767292
 30
0.0
 10
43.9160880389
 20
88.2268340674
 30
0.0
 10
43.9829298035
 20
88.219564284
 30
0.0
 10
44.0299940857
 20
88.202496016
 30
0.0
 10
44.0502392332
 20
88.1908077391
 30
0.0
  0
SPLINE
  5
6C3
100
AcDbEntity
  8
0
100
AcDbSpline
 62
7
  6
CONTINUOUS
 70
0
 71
3
 72
9
 73
5
 74
0
 42
0.0000001
 43
0.0000001
 44
0.0000000001
 40
0.0
 40
0.0
 40
0.0
 40
0.0
 40
0.5510579587
 40
1.0
 40
1.0
 40
1.0
 40
1.0
 10
92.2749699373
 20
60.348700211
 30
0.0
 10
92.2916816837
 20
60.339051898
 30
0.0
 10
92.3203430604
 20
60.3171154418
 30
0.0
 10
92.3342157594
 20
60.2819458024
 30
0.0
 10
92.3340249078
 20
60.2662259038
 30
0.0
  0
SPLINE
  5
6C4
100
AcDbEntity
  8
0
100
AcDbSpline
 62
7
  6
CONTINUOUS
 70
0
 71
3
 72
9
 73
5
 74
0
 42
0.0000001
 43
0.0000001
 44
0.0000000001
 40
0.0
 40
0.0
 40
0.0
 40
0.0
 40
0.5506946502
 40
1.0
 40
1.0
 40
1.0
 40
1.0
 10
42.3546043846
 20
89.1714102861
 30
0.0
 10
42.3711205269
 20
89.1618749026
 30
0.0
 10
42.399505374
 20
89.1401481537
 30
0.0
 10
42.4130980416
 20
89.1054319089
 30
0.0
 10
42.4131018901
 20
89.0898720288
 30
0.0
  0
SPLINE
  5
6C5
100
AcDbEntity
  8
0
100
AcDbSpline
 62
7
  6
CONTINUOUS
 70
0
 71
3
 72
9
 73
5
 74
0
 42
0.0000001
 43
0.0000001
 44
0.0000000001
 40
0.0
 40
0.0
 40
0.0
 40
0.0
 40
0.5227898457
 40
1.0
 40
1.0
 40
1.0
 40
1.0
 10
42.1616837239
 20
89.2012549434
 30
0.0
 10
42.195733959
 20
89.2065721536
 30
0.0
 10
42.2626002317
 20
89.2065569887
 30
0.0
 10
42.3273606026
 20
89.1871391352
 30
0.0
 10
42.3546043846
 20
89.1714102861
 30
0.0
  0
SPLINE
  5
6C6
100
AcDbEntity
  8
0
100
AcDbSpline
 62
7
  6
CONTINUOUS
 70
0
 71
3
 72
20
 73
16
 74
0
 42
0.0000001
 43
0.0000001
 44
0.0000000001
 40
0.0
 40
0.0
 40
0.0
 40
0.0
 40
0.1382278727
 40
0.2912959334
 40
0.4443786115
 40
0.5162818867
 40
0.5829315294
 40
0.6433611982
 40
0.6974221575
 40
0.7460484429
 40
0.7914601662
 40
0.8368645319
 40
0.8854851338
 40
0.9396208968
 40
1.0
 40
1.0
 40
1.0
 40
1.0
 10
23.1362608859
 20
97.4673164168
 30
0.0
 10
23.0107615753
 20
97.5397718385
 30
0.0
 10
22.7732515448
 20
97.7396878042
 30
0.0
 10
22.4962999534
 20
98.1181449231
 30
0.0
 10
22.3346568383
 20
98.4844364804
 30
0.0
 10
22.2652149027
 20
98.7829748828
 30
0.0
 10
22.2467911317
 20
98.991595296
 30
0.0
 10
22.2619861793
 20
99.1819687994
 30
0.0
 10
22.3107584726
 20
99.3474606423
 30
0.0
 10
22.3929042278
 20
99.4818413961
 30
0.0
 10
22.5070196918
 20
99.5777267673
 30
0.0
 10
22.6470890591
 20
99.6286402684
 30
0.0
 10
22.8046193654
 20
99.632679592
 30
0.0
 10
22.9722844379
 20
99.5920696591
 30
0.0
 10
23.0814417262
 20
99.5402216002
 30
0.0
 10
23.1362608859
 20
99.5085724596
 30
0.0
  0
SPLINE
  5
6C7
100
AcDbEntity
  8
0
100
AcDbSpline
 62
7
  6
CONTINUOUS
 70
0
 71
3
 72
9
 73
5
 74
0
 42
0.0000001
 43
0.0000001
 44
0.0000000001
 40
0.0
 40
0.0
 40
0.0
 40
0.0
 40
0.5507545976
 40
1.0
 40
1.0
 40
1.0
 40
1.0
 10
83.5081255609
 20
65.411645465
 30
0.0
 10
83.5246735892
 20
65.4020916726
 30
0.0
 10
83.5531037196
 20
65.3803305213
 30
0.0
 10
83.5667413555
 20
65.3455408095
 30
0.0
 10
83.5667142075
 20
65.3299546894
 30
0.0
  0
SPLINE
  5
6C8
100
AcDbEntity
  8
0
100
AcDbSpline
 62
7
  6
CONTINUOUS
 70
0
 71
3
 72
9
 73
5
 74
0
 42
0.0000001
 43
0.0000001
 44
0.0000000001
 40
0.0
 40
0.0
 40
0.0
 40
0.0
 40
0.5507545976
 40
1.0
 40
1.0
 40
1.0
 40
1.0
 10
39.667322592
 20
90.7225722496
 30
0.0
 10
39.6838706204
 20
90.7130184571
 30
0.0
 10
39.7123007508
 20
90.6912573059
 30
0.0
 10
39.7259383867
 20
90.656467594
 30
0.0
 10
39.7259112386
 20
90.6408814739
 30
0.0
  0
SPLINE
  5
6C9
100
AcDbEntity
  8
0
100
AcDbSpline
 62
7
  6
CONTINUOUS
 70
0
 71
3
 72
9
 73
5
 74
0
 42
0.0000001
 43
0.0000001
 44
0.0000000001
 40
0.0
 40
0.0
 40
0.0
 40
0.0
 40
0.5227733777
 40
1.0
 40
1.0
 40
1.0
 40
1.0
 10
39.4740383536
 20
90.752472593
 30
0.0
 10
39.5081623106
 20
90.7577328267
 30
0.0
 10
39.5751406495
 20
90.7578250295
 30
0.0
 10
39.640026324
 20
90.7383314007
 30
0.0
 10
39.667322592
 20
90.7225722496
 30
0.0
  0
SPLINE
  5
6CA
100
AcDbEntity
  8
0
100
AcDbSpline
 62
7
  6
CONTINUOUS
 70
0
 71
3
 72
20
 73
16
 74
0
 42
0.0000001
 43
0.0000001
 44
0.0000000001
 40
0.0
 40
0.0
 40
0.0
 40
0.0
 40
0.1382278727
 40
0.2912959334
 40
0.4443786115
 40
0.5162818867
 40
0.5829315294
 40
0.6433611982
 40
0.6974221575
 40
0.7460484429
 40
0.7914601662
 40
0.8368645319
 40
0.8854851338
 40
0.9396208968
 40
1.0
 40
1.0
 40
1.0
 40
1.0
 10
49.4407426621
 20
82.280760349
 30
0.0
 10
49.3152433515
 20
82.3532157707
 30
0.0
 10
49.077733321
 20
82.5531317365
 30
0.0
 10
48.8007817296
 20
82.9315888554
 30
0.0
 10
48.6391386144
 20
83.2978804126
 30
0.0
 10
48.5696966788
 20
83.596418815
 30
0.0
 10
48.5512729079
 20
83.8050392283
 30
0.0
 10
48.5664679554
 20
83.9954127316
 30
0.0
 10
48.6152402488
 20
84.1609045746
 30
0.0
 10
48.697386004
 20
84.2952853284
 30
0.0
 10
48.811501468
 20
84.3911706995
 30
0.0
 10
48.9515708352
 20
84.4420842007
 30
0.0
 10
49.1091011416
 20
84.4461235242
 30
0.0
 10
49.2767662141
 20
84.4055135913
 30
0.0
 10
49.3859235024
 20
84.3536655324
 30
0.0
 10
49.4407426621
 20
84.3220163919
 30
0.0
  0
SPLINE
  5
6CB
100
AcDbEntity
  8
0
100
AcDbSpline
 62
7
  6
CONTINUOUS
 70
0
 71
3
 72
9
 73
5
 74
0
 42
0.0000001
 43
0.0000001
 44
0.0000000001
 40
0.0
 40
0.0
 40
0.0
 40
0.0
 40
0.5227733777
 40
1.0
 40
1.0
 40
1.0
 40
1.0
 10
83.3148413224
 20
65.4415458085
 30
0.0
 10
83.3489652795
 20
65.4468060422
 30
0.0
 10
83.4159436184
 20
65.446898245
 30
0.0
 10
83.4808292929
 20
65.4274046162
 30
0.0
 10
83.5081255609
 20
65.411645465
 30
0.0
  0
SPLINE
  5
6CC
100
AcDbEntity
  8
0
100
AcDbSpline
 62
7
  6
CONTINUOUS
 70
0
 71
3
 72
9
 73
5
 74
0
 42
0.0000001
 43
0.0000001
 44
0.0000000001
 40
0.0
 40
0.0
 40
0.0
 40
0.0
 40
0.5508115856
 40
1.0
 40
1.0
 40
1.0
 40
1.0
 10
37.9700089294
 20
91.7022055385
 30
0.0
 10
37.9865874171
 20
91.6926341607
 30
0.0
 10
38.0150607253
 20
91.670840224
 30
0.0
 10
38.0287415792
 20
91.6359801732
 30
0.0
 10
38.0286845427
 20
91.6203690409
 30
0.0
  0
SPLINE
  5
6CD
100
AcDbEntity
  8
0
100
AcDbSpline
 62
7
  6
CONTINUOUS
 70
0
 71
3
 72
9
 73
5
 74
0
 42
0.0000001
 43
0.0000001
 44
0.0000000001
 40
0.0
 40
0.0
 40
0.0
 40
0.0
 40
0.5227584344
 40
1.0
 40
1.0
 40
1.0
 40
1.0
 10
37.7763884176
 20
91.7321596586
 30
0.0
 10
37.8105807668
 20
91.7373655613
 30
0.0
 10
37.8776628688
 20
91.737558271
 30
0.0
 10
37.9426640824
 20
91.7179927361
 30
0.0
 10
37.9700089294
 20
91.7022055385
 30
0.0
  0
SPLINE
  5
6CE
100
AcDbEntity
  8
0
100
AcDbSpline
 62
7
  6
CONTINUOUS
 70
0
 71
3
 72
9
 73
5
 74
0
 42
0.0000001
 43
0.0000001
 44
0.0000000001
 40
0.0
 40
0.0
 40
0.0
 40
0.0
 40
0.5510223221
 40
1.0
 40
1.0
 40
1.0
 40
1.0
 10
35.2820786394
 20
93.252993096
 30
0.0
 10
35.2987709569
 20
93.2433560001
 30
0.0
 10
35.3274049922
 20
93.2214402285
 30
0.0
 10
35.3412494574
 20
93.1863159168
 30
0.0
 10
35.3410784139
 20
93.1706118062
 30
0.0
  0
SPLINE
  5
6CF
100
AcDbEntity
  8
0
100
AcDbSpline
 62
7
  6
CONTINUOUS
 70
0
 71
3
 72
10
 73
6
 74
0
 42
0.0000001
 43
0.0000001
 44
0.0000000001
 40
0.0
 40
0.0
 40
0.0
 40
0.0
 40
0.2615132959
 40
0.6495847874
 40
1.0
 40
1.0
 40
1.0
 40
1.0
 10
35.087293286
 20
93.2831530296
 30
0.0
 10
35.1045580331
 20
93.2856620861
 30
0.0
 10
35.1479274451
 20
93.2890194243
 30
0.0
 10
35.2147692098
 20
93.2817496409
 30
0.0
 10
35.261833492
 20
93.2646813729
 30
0.0
 10
35.2820786394
 20
93.252993096
 30
0.0
  0
SPLINE
  5
6D0
100
AcDbEntity
  8
0
100
AcDbSpline
 62
7
  6
CONTINUOUS
 70
0
 71
3
 72
9
 73
5
 74
0
 42
0.0000001
 43
0.0000001
 44
0.0000000001
 40
0.0
 40
0.0
 40
0.0
 40
0.0
 40
0.5506946502
 40
1.0
 40
1.0
 40
1.0
 40
1.0
 10
33.5864437908
 20
94.233595643
 30
0.0
 10
33.6029599332
 20
94.2240602595
 30
0.0
 10
33.6313447802
 20
94.2023335106
 30
0.0
 10
33.6449374478
 20
94.1676172658
 30
0.0
 10
33.6449412963
 20
94.1520573857
 30
0.0
  0
SPLINE
  5
6D1
100
AcDbEntity
  8
0
100
AcDbSpline
 62
7
  6
CONTINUOUS
 70
0
 71
3
 72
15
 73
11
 74
0
 42
0.0000001
 43
0.0000001
 44
0.0000000001
 40
0.0
 40
0.0
 40
0.0
 40
0.0
 40
0.1287870268
 40
0.2705868348
 40
0.4178716689
 40
0.5623772395
 40
0.6961911338
 40
0.8135892312
 40
0.9130637159
 40
1.0
 40
1.0
 40
1.0
 40
1.0
 10
49.7942945796
 20
82.8931336339
 30
0.0
 10
49.7387943794
 20
82.9251759645
 30
0.0
 10
49.6310414183
 20
83.0081310664
 30
0.0
 10
49.4930699522
 20
83.1650088485
 30
0.0
 10
49.3795710479
 20
83.3497246908
 30
0.0
 10
49.2997971985
 20
83.5470287511
 30
0.0
 10
49.2601911903
 20
83.7412777383
 30
0.0
 10
49.2643488148
 20
83.9175833353
 30
0.0
 10
49.3138014514
 20
84.0639964268
 30
0.0
 10
49.381861045
 20
84.1333494194
 30
0.0
 10
49.4193097407
 20
84.1550071301
 30
0.0
  0
SPLINE
  5
6D2
100
AcDbEntity
  8
0
100
AcDbSpline
 62
7
  6
CONTINUOUS
 70
0
 71
3
 72
15
 73
11
 74
0
 42
0.0000001
 43
0.0000001
 44
0.0000000001
 40
0.0
 40
0.0
 40
0.0
 40
0.0
 40
0.1287870268
 40
0.2705868348
 40
0.4178716689
 40
0.5623772395
 40
0.6961911338
 40
0.8135892312
 40
0.9130637159
 40
1.0
 40
1.0
 40
1.0
 40
1.0
 10
23.4898128041
 20
98.0796897021
 30
0.0
 10
23.434312604
 20
98.1117320327
 30
0.0
 10
23.3265596428
 20
98.1946871346
 30
0.0
 10
23.1885881767
 20
98.3515649167
 30
0.0
 10
23.0750892724
 20
98.5362807589
 30
0.0
 10
22.995315423
 20
98.7335848193
 30
0.0
 10
22.9557094149
 20
98.9278338064
 30
0.0
 10
22.9598670393
 20
99.1041394034
 30
0.0
 10
23.0093196759
 20
99.250552495
 30
0.0
 10
23.0773792696
 20
99.3199054876
 30
0.0
 10
23.1148279652
 20
99.3415631982
 30
0.0
  0
SPLINE
  5
6D3
100
AcDbEntity
  8
0
100
AcDbSpline
 62
7
  6
CONTINUOUS
 70
0
 71
3
 72
9
 73
5
 74
0
 42
0.0000001
 43
0.0000001
 44
0.0000000001
 40
0.0
 40
0.0
 40
0.0
 40
0.0
 40
0.5227898457
 40
1.0
 40
1.0
 40
1.0
 40
1.0
 10
33.3935231301
 20
94.2634403003
 30
0.0
 10
33.4275733652
 20
94.2687575105
 30
0.0
 10
33.494439638
 20
94.2687423456
 30
0.0
 10
33.5592000088
 20
94.2493244921
 30
0.0
 10
33.5864437908
 20
94.233595643
 30
0.0
  0
SPLINE
  5
6D4
100
AcDbEntity
  8
0
100
AcDbSpline
 62
7
  6
CONTINUOUS
 70
0
 71
3
 72
9
 73
5
 74
0
 42
0.0000001
 43
0.0000001
 44
0.0000000001
 40
0.0
 40
0.0
 40
0.0
 40
0.0
 40
0.5510579587
 40
1.0
 40
1.0
 40
1.0
 40
1.0
 10
92.2749699373
 20
53.0001784568
 30
0.0
 10
92.2916816837
 20
52.9905301438
 30
0.0
 10
92.3203430604
 20
52.9685936876
 30
0.0
 10
92.3342157594
 20
52.9334240482
 30
0.0
 10
92.3340249078
 20
52.9177041496
 30
0.0
  0
SPLINE
  5
6D5
100
AcDbEntity
  8
0
100
AcDbSpline
 62
7
  6
CONTINUOUS
 70
0
 71
3
 72
10
 73
6
 74
0
 42
0.0000001
 43
0.0000001
 44
0.0000000001
 40
0.0
 40
0.0
 40
0.0
 40
0.0
 40
0.2615280776
 40
0.6495813299
 40
1.0
 40
1.0
 40
1.0
 40
1.0
 10
92.0799997391
 20
53.0303742568
 30
0.0
 10
92.0972846827
 20
53.0328662518
 30
0.0
 10
92.1406910277
 20
53.0362461772
 30
0.0
 10
92.2075992175
 20
53.0289638194
 30
0.0
 10
92.2547053765
 20
53.0118779418
 30
0.0
 10
92.2749699373
 20
53.0001784568
 30
0.0
  0
SPLINE
  5
6D6
100
AcDbEntity
  8
0
100
AcDbSpline
 62
7
  6
CONTINUOUS
 70
0
 71
3
 72
9
 73
5
 74
0
 42
0.0000001
 43
0.0000001
 44
0.0000000001
 40
0.0
 40
0.0
 40
0.0
 40
0.0
 40
0.5507637841
 40
1.0
 40
1.0
 40
1.0
 40
1.0
 10
90.5791823374
 20
53.9806928124
 30
0.0
 10
90.5957352707
 20
53.9711361881
 30
0.0
 10
90.6241723607
 20
53.9493697511
 30
0.0
 10
90.6378169365
 20
53.9145687237
 30
0.0
 10
90.6377849981
 20
53.8989785716
 30
0.0
  0
SPLINE
  5
6D7
100
AcDbEntity
  8
0
100
AcDbSpline
 62
7
  6
CONTINUOUS
 70
0
 71
3
 72
9
 73
5
 74
0
 42
0.0000001
 43
0.0000001
 44
0.0000000001
 40
0.0
 40
0.0
 40
0.0
 40
0.0
 40
0.5227709212
 40
1.0
 40
1.0
 40
1.0
 40
1.0
 10
90.3858432229
 20
54.0106017779
 30
0.0
 10
90.419978326
 20
54.0158532614
 30
0.0
 10
90.4869735914
 20
54.0159617756
 30
0.0
 10
90.5518781443
 20
53.996456539
 30
0.0
 10
90.5791823374
 20
53.9806928124
 30
0.0
  0
SPLINE
  5
6D8
100
AcDbEntity
  8
0
100
AcDbSpline
 62
7
  6
CONTINUOUS
 70
0
 71
3
 72
9
 73
5
 74
0
 42
0.0000001
 43
0.0000001
 44
0.0000000001
 40
0.0
 40
0.0
 40
0.0
 40
0.0
 40
0.5510223221
 40
1.0
 40
1.0
 40
1.0
 40
1.0
 10
87.891042202
 20
55.5313592004
 30
0.0
 10
87.9077345195
 20
55.5217221045
 30
0.0
 10
87.9363685548
 20
55.499806333
 30
0.0
 10
87.95021302
 20
55.4646820212
 30
0.0
 10
87.9500419766
 20
55.4489779106
 30
0.0
  0
SPLINE
  5
6D9
100
AcDbEntity
  8
0
100
AcDbSpline
 62
7
  6
CONTINUOUS
 70
0
 71
3
 72
10
 73
6
 74
0
 42
0.0000001
 43
0.0000001
 44
0.0000000001
 40
0.0
 40
0.0
 40
0.0
 40
0.0
 40
0.2615132959
 40
0.6495847874
 40
1.0
 40
1.0
 40
1.0
 40
1.0
 10
87.6962568487
 20
55.5615191341
 30
0.0
 10
87.7135215957
 20
55.5640281905
 30
0.0
 10
87.7568910077
 20
55.5673855288
 30
0.0
 10
87.8237327724
 20
55.5601157453
 30
0.0
 10
87.8707970546
 20
55.5430474773
 30
0.0
 10
87.891042202
 20
55.5313592004
 30
0.0
  0
SPLINE
  5
6DA
100
AcDbEntity
  8
0
100
AcDbSpline
 62
7
  6
CONTINUOUS
 70
0
 71
3
 72
9
 73
5
 74
0
 42
0.0000001
 43
0.0000001
 44
0.0000000001
 40
0.0
 40
0.0
 40
0.0
 40
0.0
 40
0.5506946502
 40
1.0
 40
1.0
 40
1.0
 40
1.0
 10
86.1954073535
 20
56.5119617475
 30
0.0
 10
86.2119234958
 20
56.502426364
 30
0.0
 10
86.2403083428
 20
56.480699615
 30
0.0
 10
86.2539010105
 20
56.4459833702
 30
0.0
 10
86.2539048589
 20
56.4304234901
 30
0.0
  0
SPLINE
  5
6DB
100
AcDbEntity
  8
0
100
AcDbSpline
 62
7
  6
CONTINUOUS
 70
0
 71
3
 72
9
 73
5
 74
0
 42
0.0000001
 43
0.0000001
 44
0.0000000001
 40
0.0
 40
0.0
 40
0.0
 40
0.0
 40
0.5227898457
 40
1.0
 40
1.0
 40
1.0
 40
1.0
 10
86.0024866927
 20
56.5418064047
 30
0.0
 10
86.0365369279
 20
56.5471236149
 30
0.0
 10
86.1034032006
 20
56.54710845
 30
0.0
 10
86.1681635715
 20
56.5276905965
 30
0.0
 10
86.1954073535
 20
56.5119617475
 30
0.0
  0
SPLINE
  5
6DC
100
AcDbEntity
  8
0
100
AcDbSpline
 62
7
  6
CONTINUOUS
 70
0
 71
3
 72
9
 73
5
 74
0
 42
0.0000001
 43
0.0000001
 44
0.0000000001
 40
0.0
 40
0.0
 40
0.0
 40
0.0
 40
0.5507545976
 40
1.0
 40
1.0
 40
1.0
 40
1.0
 10
83.5081255609
 20
58.0631237109
 30
0.0
 10
83.5246735892
 20
58.0535699184
 30
0.0
 10
83.5531037196
 20
58.0318087672
 30
0.0
 10
83.5667413555
 20
57.9970190553
 30
0.0
 10
83.5667142075
 20
57.9814329352
 30
0.0
  0
SPLINE
  5
6DD
100
AcDbEntity
  8
0
100
AcDbSpline
 62
7
  6
CONTINUOUS
 70
0
 71
3
 72
9
 73
5
 74
0
 42
0.0000001
 43
0.0000001
 44
0.0000000001
 40
0.0
 40
0.0
 40
0.0
 40
0.0
 40
0.5227733777
 40
1.0
 40
1.0
 40
1.0
 40
1.0
 10
83.3148413224
 20
58.0930240544
 30
0.0
 10
83.3489652795
 20
58.0982842881
 30
0.0
 10
83.4159436184
 20
58.0983764908
 30
0.0
 10
83.4808292929
 20
58.078882862
 30
0.0
 10
83.5081255609
 20
58.0631237109
 30
0.0
  0
SPLINE
  5
6DE
100
AcDbEntity
  8
0
100
AcDbSpline
 62
7
  6
CONTINUOUS
 70
0
 71
3
 72
9
 73
5
 74
0
 42
0.0000001
 43
0.0000001
 44
0.0000000001
 40
0.0
 40
0.0
 40
0.0
 40
0.0
 40
0.5508115856
 40
1.0
 40
1.0
 40
1.0
 40
1.0
 10
81.8108118983
 20
59.0427569998
 30
0.0
 10
81.8273903859
 20
59.033185622
 30
0.0
 10
81.8558636942
 20
59.0113916854
 30
0.0
 10
81.8695445481
 20
58.9765316345
 30
0.0
 10
81.8694875116
 20
58.9609205022
 30
0.0
  0
SPLINE
  5
6DF
100
AcDbEntity
  8
0
100
AcDbSpline
 62
7
  6
CONTINUOUS
 70
0
 71
3
 72
9
 73
5
 74
0
 42
0.0000001
 43
0.0000001
 44
0.0000000001
 40
0.0
 40
0.0
 40
0.0
 40
0.0
 40
0.5227584344
 40
1.0
 40
1.0
 40
1.0
 40
1.0
 10
81.6171913865
 20
59.0727111199
 30
0.0
 10
81.6513837357
 20
59.0779170227
 30
0.0
 10
81.7184658377
 20
59.0781097324
 30
0.0
 10
81.7834670513
 20
59.0585441974
 30
0.0
 10
81.8108118983
 20
59.0427569998
 30
0.0
  0
SPLINE
  5
6E0
100
AcDbEntity
  8
0
100
AcDbSpline
 62
7
  6
CONTINUOUS
 70
0
 71
3
 72
10
 73
6
 74
0
 42
0.0000001
 43
0.0000001
 44
0.0000000001
 40
0.0
 40
0.0
 40
0.0
 40
0.0
 40
0.2615280776
 40
0.6495813299
 40
1.0
 40
1.0
 40
1.0
 40
1.0
 10
92.0799997391
 20
60.378896011
 30
0.0
 10
92.0972846827
 20
60.381388006
 30
0.0
 10
92.1406910277
 20
60.3847679314
 30
0.0
 10
92.2075992175
 20
60.3774855735
 30
0.0
 10
92.2547053765
 20
60.3603996959
 30
0.0
 10
92.2749699373
 20
60.348700211
 30
0.0
  0
SPLINE
  5
6E1
100
AcDbEntity
  8
0
100
AcDbSpline
 62
7
  6
CONTINUOUS
 70
0
 71
3
 72
9
 73
5
 74
0
 42
0.0000001
 43
0.0000001
 44
0.0000000001
 40
0.0
 40
0.0
 40
0.0
 40
0.0
 40
0.5510223221
 40
1.0
 40
1.0
 40
1.0
 40
1.0
 10
79.1228816083
 20
60.5935445573
 30
0.0
 10
79.1395739257
 20
60.5839074614
 30
0.0
 10
79.1682079611
 20
60.5619916899
 30
0.0
 10
79.1820524262
 20
60.5268673781
 30
0.0
 10
79.1818813828
 20
60.5111632675
 30
0.0
  0
SPLINE
  5
6E2
100
AcDbEntity
  8
0
100
AcDbSpline
 62
7
  6
CONTINUOUS
 70
0
 71
3
 72
10
 73
6
 74
0
 42
0.0000001
 43
0.0000001
 44
0.0000000001
 40
0.0
 40
0.0
 40
0.0
 40
0.0
 40
0.2615132959
 40
0.6495847874
 40
1.0
 40
1.0
 40
1.0
 40
1.0
 10
78.9280962549
 20
60.623704491
 30
0.0
 10
78.9453610019
 20
60.6262135474
 30
0.0
 10
78.988730414
 20
60.6295708857
 30
0.0
 10
79.0555721786
 20
60.6223011022
 30
0.0
 10
79.1026364608
 20
60.6052328342
 30
0.0
 10
79.1228816083
 20
60.5935445573
 30
0.0
  0
SPLINE
  5
6E3
100
AcDbEntity
  8
0
100
AcDbSpline
 62
7
  6
CONTINUOUS
 70
0
 71
3
 72
9
 73
5
 74
0
 42
0.0000001
 43
0.0000001
 44
0.0000000001
 40
0.0
 40
0.0
 40
0.0
 40
0.0
 40
0.5506946502
 40
1.0
 40
1.0
 40
1.0
 40
1.0
 10
77.4272467597
 20
61.5741471044
 30
0.0
 10
77.443762902
 20
61.5646117209
 30
0.0
 10
77.4721477491
 20
61.5428849719
 30
0.0
 10
77.4857404167
 20
61.5081687271
 30
0.0
 10
77.4857442652
 20
61.492608847
 30
0.0
  0
SPLINE
  5
6E4
100
AcDbEntity
  8
0
100
AcDbSpline
 62
7
  6
CONTINUOUS
 70
0
 71
3
 72
9
 73
5
 74
0
 42
0.0000001
 43
0.0000001
 44
0.0000000001
 40
0.0
 40
0.0
 40
0.0
 40
0.0
 40
0.5227898457
 40
1.0
 40
1.0
 40
1.0
 40
1.0
 10
77.234326099
 20
61.6039917616
 30
0.0
 10
77.2683763341
 20
61.6093089718
 30
0.0
 10
77.3352426068
 20
61.6092938069
 30
0.0
 10
77.4000029777
 20
61.5898759534
 30
0.0
 10
77.4272467597
 20
61.5741471044
 30
0.0
  0
SPLINE
  5
6E5
100
AcDbEntity
  8
0
100
AcDbSpline
 62
7
  6
CONTINUOUS
 70
0
 71
3
 72
9
 73
5
 74
0
 42
0.0000001
 43
0.0000001
 44
0.0000000001
 40
0.0
 40
0.0
 40
0.0
 40
0.0
 40
0.5507545976
 40
1.0
 40
1.0
 40
1.0
 40
1.0
 10
74.7399649671
 20
63.1253090678
 30
0.0
 10
74.7565129954
 20
63.1157552753
 30
0.0
 10
74.7849431258
 20
63.0939941241
 30
0.0
 10
74.7985807617
 20
63.0592044122
 30
0.0
 10
74.7985536137
 20
63.0436182921
 30
0.0
  0
SPLINE
  5
6E6
100
AcDbEntity
  8
0
100
AcDbSpline
 62
7
  6
CONTINUOUS
 70
0
 71
3
 72
9
 73
5
 74
0
 42
0.0000001
 43
0.0000001
 44
0.0000000001
 40
0.0
 40
0.0
 40
0.0
 40
0.0
 40
0.5227733777
 40
1.0
 40
1.0
 40
1.0
 40
1.0
 10
74.5466807287
 20
63.1552094113
 30
0.0
 10
74.5808046857
 20
63.160469645
 30
0.0
 10
74.6477830246
 20
63.1605618477
 30
0.0
 10
74.7126686991
 20
63.1410682189
 30
0.0
 10
74.7399649671
 20
63.1253090678
 30
0.0
  0
SPLINE
  5
6E7
100
AcDbEntity
  8
0
100
AcDbSpline
 62
7
  6
CONTINUOUS
 70
0
 71
3
 72
9
 73
5
 74
0
 42
0.0000001
 43
0.0000001
 44
0.0000000001
 40
0.0
 40
0.0
 40
0.0
 40
0.0
 40
0.5508115856
 40
1.0
 40
1.0
 40
1.0
 40
1.0
 10
73.0426513045
 20
64.1049423567
 30
0.0
 10
73.0592297922
 20
64.0953709789
 30
0.0
 10
73.0877031004
 20
64.0735770423
 30
0.0
 10
73.1013839543
 20
64.0387169914
 30
0.0
 10
73.1013269178
 20
64.0231058591
 30
0.0
  0
SPLINE
  5
6E8
100
AcDbEntity
  8
0
100
AcDbSpline
 62
7
  6
CONTINUOUS
 70
0
 71
3
 72
9
 73
5
 74
0
 42
0.0000001
 43
0.0000001
 44
0.0000000001
 40
0.0
 40
0.0
 40
0.0
 40
0.0
 40
0.5227584344
 40
1.0
 40
1.0
 40
1.0
 40
1.0
 10
72.8490307927
 20
64.1348964768
 30
0.0
 10
72.8832231419
 20
64.1401023796
 30
0.0
 10
72.9503052439
 20
64.1402950893
 30
0.0
 10
73.0153064575
 20
64.1207295543
 30
0.0
 10
73.0426513045
 20
64.1049423567
 30
0.0
  0
SPLINE
  5
6E9
100
AcDbEntity
  8
0
100
AcDbSpline
 62
7
  6
CONTINUOUS
 70
0
 71
3
 72
9
 73
5
 74
0
 42
0.0000001
 43
0.0000001
 44
0.0000000001
 40
0.0
 40
0.0
 40
0.0
 40
0.0
 40
0.5507545976
 40
1.0
 40
1.0
 40
1.0
 40
1.0
 10
30.8991619983
 20
95.7847576065
 30
0.0
 10
30.9157100266
 20
95.775203814
 30
0.0
 10
30.944140157
 20
95.7534426628
 30
0.0
 10
30.9577777929
 20
95.7186529509
 30
0.0
 10
30.9577506448
 20
95.7030668308
 30
0.0
  0
SPLINE
  5
6EA
100
AcDbEntity
  8
0
100
AcDbSpline
 62
7
  6
CONTINUOUS
 70
0
 71
3
 72
9
 73
5
 74
0
 42
0.0000001
 43
0.0000001
 44
0.0000000001
 40
0.0
 40
0.0
 40
0.0
 40
0.0
 40
0.5510223221
 40
1.0
 40
1.0
 40
1.0
 40
1.0
 10
70.3547210145
 20
65.6557299142
 30
0.0
 10
70.371413332
 20
65.6460928183
 30
0.0
 10
70.4000473673
 20
65.6241770468
 30
0.0
 10
70.4138918325
 20
65.589052735
 30
0.0
 10
70.413720789
 20
65.5733486244
 30
0.0
  0
SPLINE
  5
6EB
100
AcDbEntity
  8
0
100
AcDbSpline
 62
7
  6
CONTINUOUS
 70
0
 71
3
 72
10
 73
6
 74
0
 42
0.0000001
 43
0.0000001
 44
0.0000000001
 40
0.0
 40
0.0
 40
0.0
 40
0.0
 40
0.2615132959
 40
0.6495847874
 40
1.0
 40
1.0
 40
1.0
 40
1.0
 10
70.1599356611
 20
65.6858898479
 30
0.0
 10
70.1772004082
 20
65.6883989043
 30
0.0
 10
70.2205698202
 20
65.6917562426
 30
0.0
 10
70.2874115849
 20
65.6844864591
 30
0.0
 10
70.334475867
 20
65.6674181911
 30
0.0
 10
70.3547210145
 20
65.6557299142
 30
0.0
  0
SPLINE
  5
6EC
100
AcDbEntity
  8
0
100
AcDbSpline
 62
7
  6
CONTINUOUS
 70
0
 71
3
 72
9
 73
5
 74
0
 42
0.0000001
 43
0.0000001
 44
0.0000000001
 40
0.0
 40
0.0
 40
0.0
 40
0.0
 40
0.5227733777
 40
1.0
 40
1.0
 40
1.0
 40
1.0
 10
30.7058777598
 20
95.8146579499
 30
0.0
 10
30.7400017168
 20
95.8199181837
 30
0.0
 10
30.8069800557
 20
95.8200103864
 30
0.0
 10
30.8718657303
 20
95.8005167576
 30
0.0
 10
30.8991619983
 20
95.7847576065
 30
0.0
  0
SPLINE
  5
6ED
100
AcDbEntity
  8
0
100
AcDbSpline
 62
7
  6
CONTINUOUS
 70
0
 71
3
 72
9
 73
5
 74
0
 42
0.0000001
 43
0.0000001
 44
0.0000000001
 40
0.0
 40
0.0
 40
0.0
 40
0.0
 40
0.5506946502
 40
1.0
 40
1.0
 40
1.0
 40
1.0
 10
68.6590861659
 20
66.6363324613
 30
0.0
 10
68.6756023082
 20
66.6267970778
 30
0.0
 10
68.7039871553
 20
66.6050703288
 30
0.0
 10
68.7175798229
 20
66.5703540841
 30
0.0
 10
68.7175836714
 20
66.5547942039
 30
0.0
  0
SPLINE
  5
6EE
100
AcDbEntity
  8
0
100
AcDbSpline
 62
7
  6
CONTINUOUS
 70
0
 71
3
 72
9
 73
5
 74
0
 42
0.0000001
 43
0.0000001
 44
0.0000000001
 40
0.0
 40
0.0
 40
0.0
 40
0.0
 40
0.5227898457
 40
1.0
 40
1.0
 40
1.0
 40
1.0
 10
68.4661655052
 20
66.6661771185
 30
0.0
 10
68.5002157403
 20
66.6714943287
 30
0.0
 10
68.567082013
 20
66.6714791638
 30
0.0
 10
68.6318423839
 20
66.6520613103
 30
0.0
 10
68.6590861659
 20
66.6363324613
 30
0.0
  0
SPLINE
  5
6EF
100
AcDbEntity
  8
0
100
AcDbSpline
 62
7
  6
CONTINUOUS
 70
0
 71
3
 72
9
 73
5
 74
0
 42
0.0000001
 43
0.0000001
 44
0.0000000001
 40
0.0
 40
0.0
 40
0.0
 40
0.0
 40
0.5507545976
 40
1.0
 40
1.0
 40
1.0
 40
1.0
 10
65.9718043734
 20
68.1874944247
 30
0.0
 10
65.9883524017
 20
68.1779406322
 30
0.0
 10
66.0167825321
 20
68.156179481
 30
0.0
 10
66.030420168
 20
68.1213897691
 30
0.0
 10
66.0303930199
 20
68.105803649
 30
0.0
  0
SPLINE
  5
6F0
100
AcDbEntity
  8
0
100
AcDbSpline
 62
7
  6
CONTINUOUS
 70
0
 71
3
 72
9
 73
5
 74
0
 42
0.0000001
 43
0.0000001
 44
0.0000000001
 40
0.0
 40
0.0
 40
0.0
 40
0.0
 40
0.5227733777
 40
1.0
 40
1.0
 40
1.0
 40
1.0
 10
65.7785201349
 20
68.2173947682
 30
0.0
 10
65.8126440919
 20
68.2226550019
 30
0.0
 10
65.8796224308
 20
68.2227472046
 30
0.0
 10
65.9445081053
 20
68.2032535758
 30
0.0
 10
65.9718043734
 20
68.1874944247
 30
0.0
  0
SPLINE
  5
6F1
100
AcDbEntity
  8
0
100
AcDbSpline
 62
7
  6
CONTINUOUS
 70
0
 71
3
 72
9
 73
5
 74
0
 42
0.0000001
 43
0.0000001
 44
0.0000000001
 40
0.0
 40
0.0
 40
0.0
 40
0.0
 40
0.5508115856
 40
1.0
 40
1.0
 40
1.0
 40
1.0
 10
64.2744907108
 20
69.1671277136
 30
0.0
 10
64.2910691984
 20
69.1575563358
 30
0.0
 10
64.3195425066
 20
69.1357623992
 30
0.0
 10
64.3332233605
 20
69.1009023483
 30
0.0
 10
64.333166324
 20
69.085291216
 30
0.0
  0
SPLINE
  5
6F2
100
AcDbEntity
  8
0
100
AcDbSpline
 62
7
  6
CONTINUOUS
 70
0
 71
3
 72
9
 73
5
 74
0
 42
0.0000001
 43
0.0000001
 44
0.0000000001
 40
0.0
 40
0.0
 40
0.0
 40
0.0
 40
0.5227584344
 40
1.0
 40
1.0
 40
1.0
 40
1.0
 10
64.080870199
 20
69.1970818337
 30
0.0
 10
64.1150625482
 20
69.2022877365
 30
0.0
 10
64.1821446501
 20
69.2024804462
 30
0.0
 10
64.2471458637
 20
69.1829149112
 30
0.0
 10
64.2744907108
 20
69.1671277136
 30
0.0
  0
SPLINE
  5
6F3
100
AcDbEntity
  8
0
100
AcDbSpline
 62
7
  6
CONTINUOUS
 70
0
 71
3
 72
9
 73
5
 74
0
 42
0.0000001
 43
0.0000001
 44
0.0000000001
 40
0.0
 40
0.0
 40
0.0
 40
0.0
 40
0.5510223221
 40
1.0
 40
1.0
 40
1.0
 40
1.0
 10
61.5865604207
 20
70.7179152711
 30
0.0
 10
61.6032527382
 20
70.7082781752
 30
0.0
 10
61.6318867735
 20
70.6863624037
 30
0.0
 10
61.6457312387
 20
70.6512380919
 30
0.0
 10
61.6455601952
 20
70.6355339813
 30
0.0
  0
SPLINE
  5
6F4
100
AcDbEntity
  8
0
100
AcDbSpline
 62
7
  6
CONTINUOUS
 70
0
 71
3
 72
10
 73
6
 74
0
 42
0.0000001
 43
0.0000001
 44
0.0000000001
 40
0.0
 40
0.0
 40
0.0
 40
0.0
 40
0.2615132959
 40
0.6495847874
 40
1.0
 40
1.0
 40
1.0
 40
1.0
 10
61.3917750674
 20
70.7480752048
 30
0.0
 10
61.4090398144
 20
70.7505842612
 30
0.0
 10
61.4524092264
 20
70.7539415995
 30
0.0
 10
61.5192509911
 20
70.746671816
 30
0.0
 10
61.5663152733
 20
70.729603548
 30
0.0
 10
61.5865604207
 20
70.7179152711
 30
0.0
  0
SPLINE
  5
6F5
100
AcDbEntity
  8
0
100
AcDbSpline
 62
7
  6
CONTINUOUS
 70
0
 71
3
 72
9
 73
5
 74
0
 42
0.0000001
 43
0.0000001
 44
0.0000000001
 40
0.0
 40
0.0
 40
0.0
 40
0.0
 40
0.5506946502
 40
1.0
 40
1.0
 40
1.0
 40
1.0
 10
59.8909255721
 20
71.6985178182
 30
0.0
 10
59.9074417145
 20
71.6889824347
 30
0.0
 10
59.9358265615
 20
71.6672556857
 30
0.0
 10
59.9494192291
 20
71.632539441
 30
0.0
 10
59.9494230776
 20
71.6169795608
 30
0.0
  0
SPLINE
  5
6F6
100
AcDbEntity
  8
0
100
AcDbSpline
 62
7
  6
CONTINUOUS
 70
0
 71
3
 72
9
 73
5
 74
0
 42
0.0000001
 43
0.0000001
 44
0.0000000001
 40
0.0
 40
0.0
 40
0.0
 40
0.0
 40
0.5227898457
 40
1.0
 40
1.0
 40
1.0
 40
1.0
 10
59.6980049114
 20
71.7283624754
 30
0.0
 10
59.7320551465
 20
71.7336796856
 30
0.0
 10
59.7989214193
 20
71.7336645207
 30
0.0
 10
59.8636817901
 20
71.7142466672
 30
0.0
 10
59.8909255721
 20
71.6985178182
 30
0.0
  0
SPLINE
  5
6F7
100
AcDbEntity
  8
0
100
AcDbSpline
 62
7
  6
CONTINUOUS
 70
0
 71
3
 72
9
 73
5
 74
0
 42
0.0000001
 43
0.0000001
 44
0.0000000001
 40
0.0
 40
0.0
 40
0.0
 40
0.0
 40
0.5507545976
 40
1.0
 40
1.0
 40
1.0
 40
1.0
 10
57.2036437796
 20
73.2496797816
 30
0.0
 10
57.2201918079
 20
73.2401259891
 30
0.0
 10
57.2486219383
 20
73.2183648379
 30
0.0
 10
57.2622595742
 20
73.183575126
 30
0.0
 10
57.2622324262
 20
73.1679890059
 30
0.0
  0
SPLINE
  5
6F8
100
AcDbEntity
  8
0
100
AcDbSpline
 62
7
  6
CONTINUOUS
 70
0
 71
3
 72
9
 73
5
 74
0
 42
0.0000001
 43
0.0000001
 44
0.0000000001
 40
0.0
 40
0.0
 40
0.0
 40
0.0
 40
0.5227733777
 40
1.0
 40
1.0
 40
1.0
 40
1.0
 10
57.0103595411
 20
73.2795801251
 30
0.0
 10
57.0444834981
 20
73.2848403588
 30
0.0
 10
57.1114618371
 20
73.2849325615
 30
0.0
 10
57.1763475116
 20
73.2654389328
 30
0.0
 10
57.2036437796
 20
73.2496797816
 30
0.0
  0
SPLINE
  5
6F9
100
AcDbEntity
  8
0
100
AcDbSpline
 62
7
  6
CONTINUOUS
 70
0
 71
3
 72
9
 73
5
 74
0
 42
0.0000001
 43
0.0000001
 44
0.0000000001
 40
0.0
 40
0.0
 40
0.0
 40
0.0
 40
0.5508115856
 40
1.0
 40
1.0
 40
1.0
 40
1.0
 10
55.506330117
 20
74.2293130705
 30
0.0
 10
55.5229086046
 20
74.2197416927
 30
0.0
 10
55.5513819129
 20
74.1979477561
 30
0.0
 10
55.5650627668
 20
74.1630877052
 30
0.0
 10
55.5650057302
 20
74.1474765729
 30
0.0
  0
SPLINE
  5
6FA
100
AcDbEntity
  8
0
100
AcDbSpline
 62
7
  6
CONTINUOUS
 70
0
 71
3
 72
9
 73
5
 74
0
 42
0.0000001
 43
0.0000001
 44
0.0000000001
 40
0.0
 40
0.0
 40
0.0
 40
0.0
 40
0.5227584344
 40
1.0
 40
1.0
 40
1.0
 40
1.0
 10
55.3127096052
 20
74.2592671906
 30
0.0
 10
55.3469019544
 20
74.2644730934
 30
0.0
 10
55.4139840563
 20
74.2646658031
 30
0.0
 10
55.47898527
 20
74.2451002681
 30
0.0
 10
55.506330117
 20
74.2293130705
 30
0.0
  0
SPLINE
  5
6FB
100
AcDbEntity
  8
0
100
AcDbSpline
 62
7
  6
CONTINUOUS
 70
0
 71
3
 72
9
 73
5
 74
0
 42
0.0000001
 43
0.0000001
 44
0.0000000001
 40
0.0
 40
0.0
 40
0.0
 40
0.0
 40
0.5510223221
 40
1.0
 40
1.0
 40
1.0
 40
1.0
 10
52.8183998269
 20
75.7801006281
 30
0.0
 10
52.8350921444
 20
75.7704635321
 30
0.0
 10
52.8637261797
 20
75.7485477606
 30
0.0
 10
52.8775706449
 20
75.7134234488
 30
0.0
 10
52.8773996015
 20
75.6977193382
 30
0.0
  0
SPLINE
  5
6FC
100
AcDbEntity
  8
0
100
AcDbSpline
 62
7
  6
CONTINUOUS
 70
0
 71
3
 72
10
 73
6
 74
0
 42
0.0000001
 43
0.0000001
 44
0.0000000001
 40
0.0
 40
0.0
 40
0.0
 40
0.0
 40
0.2615132959
 40
0.6495847874
 40
1.0
 40
1.0
 40
1.0
 40
1.0
 10
52.6236144736
 20
75.8102605617
 30
0.0
 10
52.6408792206
 20
75.8127696181
 30
0.0
 10
52.6842486326
 20
75.8161269564
 30
0.0
 10
52.7510903973
 20
75.8088571729
 30
0.0
 10
52.7981546795
 20
75.791788905
 30
0.0
 10
52.8183998269
 20
75.7801006281
 30
0.0
  0
SPLINE
  5
6FD
100
AcDbEntity
  8
0
100
AcDbSpline
 62
7
  6
CONTINUOUS
 70
0
 71
3
 72
9
 73
5
 74
0
 42
0.0000001
 43
0.0000001
 44
0.0000000001
 40
0.0
 40
0.0
 40
0.0
 40
0.0
 40
0.5506946502
 40
1.0
 40
1.0
 40
1.0
 40
1.0
 10
51.1227649784
 20
76.7607031751
 30
0.0
 10
51.1392811207
 20
76.7511677916
 30
0.0
 10
51.1676659677
 20
76.7294410426
 30
0.0
 10
51.1812586354
 20
76.6947247979
 30
0.0
 10
51.1812624838
 20
76.6791649177
 30
0.0
  0
SPLINE
  5
6FE
100
AcDbEntity
  8
0
100
AcDbSpline
 62
7
  6
CONTINUOUS
 70
0
 71
3
 72
9
 73
5
 74
0
 42
0.0000001
 43
0.0000001
 44
0.0000000001
 40
0.0
 40
0.0
 40
0.0
 40
0.0
 40
0.5227898457
 40
1.0
 40
1.0
 40
1.0
 40
1.0
 10
50.9298443176
 20
76.7905478323
 30
0.0
 10
50.9638945528
 20
76.7958650425
 30
0.0
 10
51.0307608255
 20
76.7958498776
 30
0.0
 10
51.0955211964
 20
76.7764320241
 30
0.0
 10
51.1227649784
 20
76.7607031751
 30
0.0
  0
SPLINE
  5
6FF
100
AcDbEntity
  8
0
100
AcDbSpline
 62
7
  6
CONTINUOUS
 70
0
 71
3
 72
9
 73
5
 74
0
 42
0.0000001
 43
0.0000001
 44
0.0000000001
 40
0.0
 40
0.0
 40
0.0
 40
0.0
 40
0.5507545976
 40
1.0
 40
1.0
 40
1.0
 40
1.0
 10
48.4354831858
 20
78.3118651385
 30
0.0
 10
48.4520312141
 20
78.302311346
 30
0.0
 10
48.4804613445
 20
78.2805501948
 30
0.0
 10
48.4940989804
 20
78.2457604829
 30
0.0
 10
48.4940718324
 20
78.2301743628
 30
0.0
  0
SPLINE
  5
700
100
AcDbEntity
  8
0
100
AcDbSpline
 62
7
  6
CONTINUOUS
 70
0
 71
3
 72
9
 73
5
 74
0
 42
0.0000001
 43
0.0000001
 44
0.0000000001
 40
0.0
 40
0.0
 40
0.0
 40
0.0
 40
0.5227733777
 40
1.0
 40
1.0
 40
1.0
 40
1.0
 10
48.2421989473
 20
78.341765482
 30
0.0
 10
48.2763229044
 20
78.3470257157
 30
0.0
 10
48.3433012433
 20
78.3471179184
 30
0.0
 10
48.4081869178
 20
78.3276242897
 30
0.0
 10
48.4354831858
 20
78.3118651385
 30
0.0
  0
SPLINE
  5
701
100
AcDbEntity
  8
0
100
AcDbSpline
 62
7
  6
CONTINUOUS
 70
0
 71
3
 72
9
 73
5
 74
0
 42
0.0000001
 43
0.0000001
 44
0.0000000001
 40
0.0
 40
0.0
 40
0.0
 40
0.0
 40
0.5508115856
 40
1.0
 40
1.0
 40
1.0
 40
1.0
 10
46.7381695232
 20
79.2914984274
 30
0.0
 10
46.7547480109
 20
79.2819270496
 30
0.0
 10
46.7832213191
 20
79.260133113
 30
0.0
 10
46.796902173
 20
79.2252730621
 30
0.0
 10
46.7968451365
 20
79.2096619298
 30
0.0
  0
SPLINE
  5
702
100
AcDbEntity
  8
0
100
AcDbSpline
 62
7
  6
CONTINUOUS
 70
0
 71
3
 72
9
 73
5
 74
0
 42
0.0000001
 43
0.0000001
 44
0.0000000001
 40
0.0
 40
0.0
 40
0.0
 40
0.0
 40
0.5227584344
 40
1.0
 40
1.0
 40
1.0
 40
1.0
 10
46.5445490114
 20
79.3214525475
 30
0.0
 10
46.5787413606
 20
79.3266584503
 30
0.0
 10
46.6458234626
 20
79.32685116
 30
0.0
 10
46.7108246762
 20
79.307285625
 30
0.0
 10
46.7381695232
 20
79.2914984274
 30
0.0
  0
SPLINE
  5
703
100
AcDbEntity
  8
0
100
AcDbSpline
 62
7
  6
CONTINUOUS
 70
0
 71
3
 72
9
 73
5
 74
0
 42
0.0000001
 43
0.0000001
 44
0.0000000001
 40
0.0
 40
0.0
 40
0.0
 40
0.0
 40
0.5508115856
 40
1.0
 40
1.0
 40
1.0
 40
1.0
 10
81.8108118983
 20
66.391278754
 30
0.0
 10
81.8273903859
 20
66.3817073762
 30
0.0
 10
81.8558636942
 20
66.3599134395
 30
0.0
 10
81.8695445481
 20
66.3250533886
 30
0.0
 10
81.8694875116
 20
66.3094422564
 30
0.0
  0
SPLINE
  5
704
100
AcDbEntity
  8
0
100
AcDbSpline
 62
7
  6
CONTINUOUS
 70
0
 71
3
 72
9
 73
5
 74
0
 42
0.0000001
 43
0.0000001
 44
0.0000000001
 40
0.0
 40
0.0
 40
0.0
 40
0.0
 40
0.5510223221
 40
1.0
 40
1.0
 40
1.0
 40
1.0
 10
44.0502392332
 20
80.842285985
 30
0.0
 10
44.0669315506
 20
80.832648889
 30
0.0
 10
44.095565586
 20
80.8107331175
 30
0.0
 10
44.1094100511
 20
80.7756088057
 30
0.0
 10
44.1092390077
 20
80.7599046951
 30
0.0
  0
SPLINE
  5
705
100
AcDbEntity
  8
0
100
AcDbSpline
 62
7
  6
CONTINUOUS
 70
0
 71
3
 72
10
 73
6
 74
0
 42
0.0000001
 43
0.0000001
 44
0.0000000001
 40
0.0
 40
0.0
 40
0.0
 40
0.0
 40
0.2615132959
 40
0.6495847874
 40
1.0
 40
1.0
 40
1.0
 40
1.0
 10
43.8554538798
 20
80.8724459186
 30
0.0
 10
43.8727186269
 20
80.874954975
 30
0.0
 10
43.9160880389
 20
80.8783123133
 30
0.0
 10
43.9829298035
 20
80.8710425298
 30
0.0
 10
44.0299940857
 20
80.8539742619
 30
0.0
 10
44.0502392332
 20
80.842285985
 30
0.0
  0
SPLINE
  5
706
100
AcDbEntity
  8
0
100
AcDbSpline
 62
7
  6
CONTINUOUS
 70
0
 71
3
 72
9
 73
5
 74
0
 42
0.0000001
 43
0.0000001
 44
0.0000000001
 40
0.0
 40
0.0
 40
0.0
 40
0.0
 40
0.5506946502
 40
1.0
 40
1.0
 40
1.0
 40
1.0
 10
42.3546043846
 20
81.822888532
 30
0.0
 10
42.3711205269
 20
81.8133531485
 30
0.0
 10
42.399505374
 20
81.7916263995
 30
0.0
 10
42.4130980416
 20
81.7569101548
 30
0.0
 10
42.4131018901
 20
81.7413502746
 30
0.0
  0
SPLINE
  5
707
100
AcDbEntity
  8
0
100
AcDbSpline
 62
7
  6
CONTINUOUS
 70
0
 71
3
 72
9
 73
5
 74
0
 42
0.0000001
 43
0.0000001
 44
0.0000000001
 40
0.0
 40
0.0
 40
0.0
 40
0.0
 40
0.5227898457
 40
1.0
 40
1.0
 40
1.0
 40
1.0
 10
42.1616837239
 20
81.8527331892
 30
0.0
 10
42.195733959
 20
81.8580503994
 30
0.0
 10
42.2626002317
 20
81.8580352345
 30
0.0
 10
42.3273606026
 20
81.838617381
 30
0.0
 10
42.3546043846
 20
81.822888532
 30
0.0
  0
SPLINE
  5
708
100
AcDbEntity
  8
0
100
AcDbSpline
 62
7
  6
CONTINUOUS
 70
0
 71
3
 72
9
 73
5
 74
0
 42
0.0000001
 43
0.0000001
 44
0.0000000001
 40
0.0
 40
0.0
 40
0.0
 40
0.0
 40
0.5507545976
 40
1.0
 40
1.0
 40
1.0
 40
1.0
 10
39.667322592
 20
83.3740504954
 30
0.0
 10
39.6838706204
 20
83.3644967029
 30
0.0
 10
39.7123007508
 20
83.3427355517
 30
0.0
 10
39.7259383867
 20
83.3079458398
 30
0.0
 10
39.7259112386
 20
83.2923597197
 30
0.0
  0
SPLINE
  5
709
100
AcDbEntity
  8
0
100
AcDbSpline
 62
7
  6
CONTINUOUS
 70
0
 71
3
 72
9
 73
5
 74
0
 42
0.0000001
 43
0.0000001
 44
0.0000000001
 40
0.0
 40
0.0
 40
0.0
 40
0.0
 40
0.5227733777
 40
1.0
 40
1.0
 40
1.0
 40
1.0
 10
39.4740383536
 20
83.4039508389
 30
0.0
 10
39.5081623106
 20
83.4092110726
 30
0.0
 10
39.5751406495
 20
83.4093032753
 30
0.0
 10
39.640026324
 20
83.3898096466
 30
0.0
 10
39.667322592
 20
83.3740504954
 30
0.0
  0
SPLINE
  5
70A
100
AcDbEntity
  8
0
100
AcDbSpline
 62
7
  6
CONTINUOUS
 70
0
 71
3
 72
9
 73
5
 74
0
 42
0.0000001
 43
0.0000001
 44
0.0000000001
 40
0.0
 40
0.0
 40
0.0
 40
0.0
 40
0.5508115856
 40
1.0
 40
1.0
 40
1.0
 40
1.0
 10
37.9700089294
 20
84.3536837843
 30
0.0
 10
37.9865874171
 20
84.3441124065
 30
0.0
 10
38.0150607253
 20
84.3223184699
 30
0.0
 10
38.0287415792
 20
84.287458419
 30
0.0
 10
38.0286845427
 20
84.2718472867
 30
0.0
  0
SPLINE
  5
70B
100
AcDbEntity
  8
0
100
AcDbSpline
 62
7
  6
CONTINUOUS
 70
0
 71
3
 72
9
 73
5
 74
0
 42
0.0000001
 43
0.0000001
 44
0.0000000001
 40
0.0
 40
0.0
 40
0.0
 40
0.0
 40
0.5227584344
 40
1.0
 40
1.0
 40
1.0
 40
1.0
 10
37.7763884176
 20
84.3836379044
 30
0.0
 10
37.8105807668
 20
84.3888438072
 30
0.0
 10
37.8776628688
 20
84.3890365169
 30
0.0
 10
37.9426640824
 20
84.3694709819
 30
0.0
 10
37.9700089294
 20
84.3536837843
 30
0.0
  0
SPLINE
  5
70C
100
AcDbEntity
  8
0
100
AcDbSpline
 62
7
  6
CONTINUOUS
 70
0
 71
3
 72
9
 73
5
 74
0
 42
0.0000001
 43
0.0000001
 44
0.0000000001
 40
0.0
 40
0.0
 40
0.0
 40
0.0
 40
0.5508115856
 40
1.0
 40
1.0
 40
1.0
 40
1.0
 10
29.2018483357
 20
96.7643908954
 30
0.0
 10
29.2184268233
 20
96.7548195176
 30
0.0
 10
29.2469001316
 20
96.7330255809
 30
0.0
 10
29.2605809855
 20
96.6981655301
 30
0.0
 10
29.2605239489
 20
96.6825543978
 30
0.0
  0
SPLINE
  5
70D
100
AcDbEntity
  8
0
100
AcDbSpline
 62
7
  6
CONTINUOUS
 70
0
 71
3
 72
9
 73
5
 74
0
 42
0.0000001
 43
0.0000001
 44
0.0000000001
 40
0.0
 40
0.0
 40
0.0
 40
0.0
 40
0.5510223221
 40
1.0
 40
1.0
 40
1.0
 40
1.0
 10
35.2820786394
 20
85.9044713419
 30
0.0
 10
35.2987709569
 20
85.8948342459
 30
0.0
 10
35.3274049922
 20
85.8729184744
 30
0.0
 10
35.3412494574
 20
85.8377941626
 30
0.0
 10
35.3410784139
 20
85.822090052
 30
0.0
  0
SPLINE
  5
70E
100
AcDbEntity
  8
0
100
AcDbSpline
 62
7
  6
CONTINUOUS
 70
0
 71
3
 72
10
 73
6
 74
0
 42
0.0000001
 43
0.0000001
 44
0.0000000001
 40
0.0
 40
0.0
 40
0.0
 40
0.0
 40
0.2615132959
 40
0.6495847874
 40
1.0
 40
1.0
 40
1.0
 40
1.0
 10
35.087293286
 20
85.9346312755
 30
0.0
 10
35.1045580331
 20
85.9371403319
 30
0.0
 10
35.1479274451
 20
85.9404976702
 30
0.0
 10
35.2147692098
 20
85.9332278867
 30
0.0
 10
35.261833492
 20
85.9161596188
 30
0.0
 10
35.2820786394
 20
85.9044713419
 30
0.0
  0
SPLINE
  5
70F
100
AcDbEntity
  8
0
100
AcDbSpline
 62
7
  6
CONTINUOUS
 70
0
 71
3
 72
9
 73
5
 74
0
 42
0.0000001
 43
0.0000001
 44
0.0000000001
 40
0.0
 40
0.0
 40
0.0
 40
0.0
 40
0.5227584344
 40
1.0
 40
1.0
 40
1.0
 40
1.0
 10
29.0082278239
 20
96.7943450155
 30
0.0
 10
29.0424201731
 20
96.7995509182
 30
0.0
 10
29.109502275
 20
96.7997436279
 30
0.0
 10
29.1745034887
 20
96.780178093
 30
0.0
 10
29.2018483357
 20
96.7643908954
 30
0.0
  0
SPLINE
  5
710
100
AcDbEntity
  8
0
100
AcDbSpline
 62
7
  6
CONTINUOUS
 70
0
 71
3
 72
9
 73
5
 74
0
 42
0.0000001
 43
0.0000001
 44
0.0000000001
 40
0.0
 40
0.0
 40
0.0
 40
0.0
 40
0.5506946502
 40
1.0
 40
1.0
 40
1.0
 40
1.0
 10
33.5864437908
 20
86.8850738889
 30
0.0
 10
33.6029599332
 20
86.8755385054
 30
0.0
 10
33.6313447802
 20
86.8538117564
 30
0.0
 10
33.6449374478
 20
86.8190955117
 30
0.0
 10
33.6449412963
 20
86.8035356315
 30
0.0
  0
SPLINE
  5
711
100
AcDbEntity
  8
0
100
AcDbSpline
 62
7
  6
CONTINUOUS
 70
0
 71
3
 72
9
 73
5
 74
0
 42
0.0000001
 43
0.0000001
 44
0.0000000001
 40
0.0
 40
0.0
 40
0.0
 40
0.0
 40
0.5227898457
 40
1.0
 40
1.0
 40
1.0
 40
1.0
 10
33.3935231301
 20
86.9149185461
 30
0.0
 10
33.4275733652
 20
86.9202357563
 30
0.0
 10
33.494439638
 20
86.9202205914
 30
0.0
 10
33.5592000088
 20
86.9008027379
 30
0.0
 10
33.5864437908
 20
86.8850738889
 30
0.0
  0
SPLINE
  5
712
100
AcDbEntity
  8
0
100
AcDbSpline
 62
7
  6
CONTINUOUS
 70
0
 71
3
 72
9
 73
5
 74
0
 42
0.0000001
 43
0.0000001
 44
0.0000000001
 40
0.0
 40
0.0
 40
0.0
 40
0.0
 40
0.5507545976
 40
1.0
 40
1.0
 40
1.0
 40
1.0
 10
30.8991619983
 20
88.4362358523
 30
0.0
 10
30.9157100266
 20
88.4266820598
 30
0.0
 10
30.944140157
 20
88.4049209086
 30
0.0
 10
30.9577777929
 20
88.3701311967
 30
0.0
 10
30.9577506448
 20
88.3545450766
 30
0.0
  0
SPLINE
  5
713
100
AcDbEntity
  8
0
100
AcDbSpline
 62
7
  6
CONTINUOUS
 70
0
 71
3
 72
9
 73
5
 74
0
 42
0.0000001
 43
0.0000001
 44
0.0000000001
 40
0.0
 40
0.0
 40
0.0
 40
0.0
 40
0.5227733777
 40
1.0
 40
1.0
 40
1.0
 40
1.0
 10
30.7058777598
 20
88.4661361958
 30
0.0
 10
30.7400017168
 20
88.4713964295
 30
0.0
 10
30.8069800557
 20
88.4714886322
 30
0.0
 10
30.8718657303
 20
88.4519950035
 30
0.0
 10
30.8991619983
 20
88.4362358523
 30
0.0
  0
SPLINE
  5
714
100
AcDbEntity
  8
0
100
AcDbSpline
 62
7
  6
CONTINUOUS
 70
0
 71
3
 72
9
 73
5
 74
0
 42
0.0000001
 43
0.0000001
 44
0.0000000001
 40
0.0
 40
0.0
 40
0.0
 40
0.0
 40
0.5508115856
 40
1.0
 40
1.0
 40
1.0
 40
1.0
 10
29.2018483357
 20
89.4158691412
 30
0.0
 10
29.2184268233
 20
89.4062977634
 30
0.0
 10
29.2469001316
 20
89.3845038268
 30
0.0
 10
29.2605809855
 20
89.3496437759
 30
0.0
 10
29.2605239489
 20
89.3340326436
 30
0.0
  0
SPLINE
  5
715
100
AcDbEntity
  8
0
100
AcDbSpline
 62
7
  6
CONTINUOUS
 70
0
 71
3
 72
9
 73
5
 74
0
 42
0.0000001
 43
0.0000001
 44
0.0000000001
 40
0.0
 40
0.0
 40
0.0
 40
0.0
 40
0.5227584344
 40
1.0
 40
1.0
 40
1.0
 40
1.0
 10
29.0082278239
 20
89.4458232613
 30
0.0
 10
29.0424201731
 20
89.4510291641
 30
0.0
 10
29.109502275
 20
89.4512218738
 30
0.0
 10
29.1745034887
 20
89.4316563388
 30
0.0
 10
29.2018483357
 20
89.4158691412
 30
0.0
  0
SPLINE
  5
716
100
AcDbEntity
  8
0
100
AcDbSpline
 62
7
  6
CONTINUOUS
 70
0
 71
3
 72
9
 73
5
 74
0
 42
0.0000001
 43
0.0000001
 44
0.0000000001
 40
0.0
 40
0.0
 40
0.0
 40
0.0
 40
0.5510223221
 40
1.0
 40
1.0
 40
1.0
 40
1.0
 10
26.5139180456
 20
90.9666566988
 30
0.0
 10
26.5306103631
 20
90.9570196028
 30
0.0
 10
26.5592443984
 20
90.9351038313
 30
0.0
 10
26.5730888636
 20
90.8999795195
 30
0.0
 10
26.5729178202
 20
90.8842754089
 30
0.0
  0
SPLINE
  5
717
100
AcDbEntity
  8
0
100
AcDbSpline
 62
7
  6
CONTINUOUS
 70
0
 71
3
 72
10
 73
6
 74
0
 42
0.0000001
 43
0.0000001
 44
0.0000000001
 40
0.0
 40
0.0
 40
0.0
 40
0.0
 40
0.2615132959
 40
0.6495847874
 40
1.0
 40
1.0
 40
1.0
 40
1.0
 10
26.3191326923
 20
90.9968166324
 30
0.0
 10
26.3363974393
 20
90.9993256888
 30
0.0
 10
26.3797668513
 20
91.0026830271
 30
0.0
 10
26.446608616
 20
90.9954132436
 30
0.0
 10
26.4936728982
 20
90.9783449757
 30
0.0
 10
26.5139180456
 20
90.9666566988
 30
0.0
  0
SPLINE
  5
718
100
AcDbEntity
  8
0
100
AcDbSpline
 62
7
  6
CONTINUOUS
 70
0
 71
3
 72
11
 73
7
 74
0
 42
0.0000001
 43
0.0000001
 44
0.0000000001
 40
0.0
 40
0.0
 40
0.0
 40
0.0
 40
0.2177039243
 40
0.4508923025
 40
0.7106103078
 40
1.0
 40
1.0
 40
1.0
 40
1.0
 10
23.8647976431
 20
98.0425698316
 30
0.0
 10
23.8400783502
 20
98.0282739187
 30
0.0
 10
23.7832436924
 20
98.0076300568
 30
0.0
 10
23.6887815658
 20
98.0052169691
 30
0.0
 10
23.5881779761
 20
98.0296329762
 30
0.0
 10
23.5226858279
 20
98.0607108823
 30
0.0
 10
23.4898128041
 20
98.0796897021
 30
0.0
  0
SPLINE
  5
719
100
AcDbEntity
  8
0
100
AcDbSpline
 62
7
  6
CONTINUOUS
 70
0
 71
3
 72
9
 73
5
 74
0
 42
0.0000001
 43
0.0000001
 44
0.0000000001
 40
0.0
 40
0.0
 40
0.0
 40
0.0
 40
0.5506946502
 40
1.0
 40
1.0
 40
1.0
 40
1.0
 10
24.8182831971
 20
91.9472592458
 30
0.0
 10
24.8347993394
 20
91.9377238623
 30
0.0
 10
24.8631841864
 20
91.9159971133
 30
0.0
 10
24.8767768541
 20
91.8812808686
 30
0.0
 10
24.8767807025
 20
91.8657209884
 30
0.0
  0
SPLINE
  5
71A
100
AcDbEntity
  8
0
100
AcDbSpline
 62
7
  6
CONTINUOUS
 70
0
 71
3
 72
9
 73
5
 74
0
 42
0.0000001
 43
0.0000001
 44
0.0000000001
 40
0.0
 40
0.0
 40
0.0
 40
0.0
 40
0.5227898457
 40
1.0
 40
1.0
 40
1.0
 40
1.0
 10
24.6253625363
 20
91.977103903
 30
0.0
 10
24.6594127715
 20
91.9824211132
 30
0.0
 10
24.7262790442
 20
91.9824059483
 30
0.0
 10
24.7910394151
 20
91.9629880948
 30
0.0
 10
24.8182831971
 20
91.9472592458
 30
0.0
  0
SPLINE
  5
71B
100
AcDbEntity
  8
0
100
AcDbSpline
 62
7
  6
CONTINUOUS
 70
0
 71
3
 72
9
 73
5
 74
0
 42
0.0000001
 43
0.0000001
 44
0.0000000001
 40
0.0
 40
0.0
 40
0.0
 40
0.0
 40
0.5507545976
 40
1.0
 40
1.0
 40
1.0
 40
1.0
 10
22.1310014045
 20
93.4984212092
 30
0.0
 10
22.1475494328
 20
93.4888674167
 30
0.0
 10
22.1759795632
 20
93.4671062655
 30
0.0
 10
22.1896171991
 20
93.4323165536
 30
0.0
 10
22.1895900511
 20
93.4167304335
 30
0.0
  0
SPLINE
  5
71C
100
AcDbEntity
  8
0
100
AcDbSpline
 62
7
  6
CONTINUOUS
 70
0
 71
3
 72
9
 73
5
 74
0
 42
0.0000001
 43
0.0000001
 44
0.0000000001
 40
0.0
 40
0.0
 40
0.0
 40
0.0
 40
0.5227733777
 40
1.0
 40
1.0
 40
1.0
 40
1.0
 10
21.937717166
 20
93.5283215527
 30
0.0
 10
21.9718411231
 20
93.5335817864
 30
0.0
 10
22.038819462
 20
93.5336739891
 30
0.0
 10
22.1037051365
 20
93.5141803604
 30
0.0
 10
22.1310014045
 20
93.4984212092
 30
0.0
  0
SPLINE
  5
71D
100
AcDbEntity
  8
0
100
AcDbSpline
 62
7
  6
CONTINUOUS
 70
0
 71
3
 72
9
 73
5
 74
0
 42
0.0000001
 43
0.0000001
 44
0.0000000001
 40
0.0
 40
0.0
 40
0.0
 40
0.0
 40
0.5508115856
 40
1.0
 40
1.0
 40
1.0
 40
1.0
 10
20.4336877419
 20
94.4780544981
 30
0.0
 10
20.4502662295
 20
94.4684831204
 30
0.0
 10
20.4787395378
 20
94.4466891837
 30
0.0
 10
20.4924203917
 20
94.4118291328
 30
0.0
 10
20.4923633552
 20
94.3962180005
 30
0.0
  0
SPLINE
  5
71E
100
AcDbEntity
  8
0
100
AcDbSpline
 62
7
  6
CONTINUOUS
 70
0
 71
3
 72
9
 73
5
 74
0
 42
0.0000001
 43
0.0000001
 44
0.0000000001
 40
0.0
 40
0.0
 40
0.0
 40
0.0
 40
0.5227584344
 40
1.0
 40
1.0
 40
1.0
 40
1.0
 10
20.2400672301
 20
94.5080086182
 30
0.0
 10
20.2742595793
 20
94.513214521
 30
0.0
 10
20.3413416813
 20
94.5134072307
 30
0.0
 10
20.4063428949
 20
94.4938416957
 30
0.0
 10
20.4336877419
 20
94.4780544981
 30
0.0
  0
SPLINE
  5
71F
100
AcDbEntity
  8
0
100
AcDbSpline
 62
7
  6
CONTINUOUS
 70
0
 71
3
 72
9
 73
5
 74
0
 42
0.0000001
 43
0.0000001
 44
0.0000000001
 40
0.0
 40
0.0
 40
0.0
 40
0.0
 40
0.5227584344
 40
1.0
 40
1.0
 40
1.0
 40
1.0
 10
81.6171913865
 20
66.4212328741
 30
0.0
 10
81.6513837357
 20
66.4264387768
 30
0.0
 10
81.7184658377
 20
66.4266314865
 30
0.0
 10
81.7834670513
 20
66.4070659516
 30
0.0
 10
81.8108118983
 20
66.391278754
 30
0.0
  0
SPLINE
  5
720
100
AcDbEntity
  8
0
100
AcDbSpline
 62
7
  6
CONTINUOUS
 70
0
 71
3
 72
9
 73
5
 74
0
 42
0.0000001
 43
0.0000001
 44
0.0000000001
 40
0.0
 40
0.0
 40
0.0
 40
0.0
 40
0.5510223221
 40
1.0
 40
1.0
 40
1.0
 40
1.0
 10
26.5139180456
 20
98.3151784529
 30
0.0
 10
26.5306103631
 20
98.305541357
 30
0.0
 10
26.5592443984
 20
98.2836255854
 30
0.0
 10
26.5730888636
 20
98.2485012737
 30
0.0
 10
26.5729178202
 20
98.2327971631
 30
0.0
  0
SPLINE
  5
721
100
AcDbEntity
  8
0
100
AcDbSpline
 62
7
  6
CONTINUOUS
 70
0
 71
3
 72
15
 73
11
 74
0
 42
0.0000001
 43
0.0000001
 44
0.0000000001
 40
0.0
 40
0.0
 40
0.0
 40
0.0
 40
0.1448901347
 40
0.2745103633
 40
0.3911004666
 40
0.49998369
 40
0.6088497921
 40
0.7254276636
 40
0.8552291348
 40
1.0
 40
1.0
 40
1.0
 40
1.0
 10
24.0201376857
 20
97.9776579755
 30
0.0
 10
24.020136369
 20
97.9143074306
 30
0.0
 10
24.0105325896
 20
97.7938646863
 30
0.0
 10
23.9617565201
 20
97.6284216363
 30
0.0
 10
23.8796094159
 20
97.4940363437
 30
0.0
 10
23.7654936957
 20
97.3981580968
 30
0.0
 10
23.6254255658
 20
97.3472474446
 30
0.0
 10
23.4678973821
 20
97.343210135
 30
0.0
 10
23.3002348673
 20
97.3838203079
 30
0.0
 10
23.1910792153
 20
97.4356677555
 30
0.0
 10
23.1362608859
 20
97.4673164168
 30
0.0
  0
SPLINE
  5
722
100
AcDbEntity
  8
0
100
AcDbSpline
 62
7
  6
CONTINUOUS
 70
0
 71
3
 72
10
 73
6
 74
0
 42
0.0000001
 43
0.0000001
 44
0.0000000001
 40
0.0
 40
0.0
 40
0.0
 40
0.0
 40
0.2615132959
 40
0.6495847874
 40
1.0
 40
1.0
 40
1.0
 40
1.0
 10
26.3191326923
 20
98.3453383865
 30
0.0
 10
26.3363974393
 20
98.347847443
 30
0.0
 10
26.3797668513
 20
98.3512047812
 30
0.0
 10
26.446608616
 20
98.3439349978
 30
0.0
 10
26.4936728982
 20
98.3268667298
 30
0.0
 10
26.5139180456
 20
98.3151784529
 30
0.0
  0
SPLINE
  5
723
100
AcDbEntity
  8
0
100
AcDbSpline
 62
7
  6
CONTINUOUS
 70
0
 71
3
 72
11
 73
7
 74
0
 42
0.0000001
 43
0.0000001
 44
0.0000000001
 40
0.0
 40
0.0
 40
0.0
 40
0.0
 40
0.2177039243
 40
0.4508923025
 40
0.7106103078
 40
1.0
 40
1.0
 40
1.0
 40
1.0
 10
50.1692794185
 20
82.8560137635
 30
0.0
 10
50.1445601256
 20
82.8417178505
 30
0.0
 10
50.0877254679
 20
82.8210739887
 30
0.0
 10
49.9932633412
 20
82.818660901
 30
0.0
 10
49.8926597516
 20
82.843076908
 30
0.0
 10
49.8271676034
 20
82.8741548141
 30
0.0
 10
49.7942945796
 20
82.8931336339
 30
0.0
  0
SPLINE
  5
724
100
AcDbEntity
  8
0
100
AcDbSpline
 62
7
  6
CONTINUOUS
 70
0
 71
3
 72
9
 73
5
 74
0
 42
0.0000001
 43
0.0000001
 44
0.0000000001
 40
0.0
 40
0.0
 40
0.0
 40
0.0
 40
0.5506946502
 40
1.0
 40
1.0
 40
1.0
 40
1.0
 10
24.8182831971
 20
99.2957809999
 30
0.0
 10
24.8347993394
 20
99.2862456164
 30
0.0
 10
24.8631841864
 20
99.2645188675
 30
0.0
 10
24.8767768541
 20
99.2298026227
 30
0.0
 10
24.8767807025
 20
99.2142427426
 30
0.0
  0
SPLINE
  5
725
100
AcDbEntity
  8
0
100
AcDbSpline
 62
7
  6
CONTINUOUS
 70
0
 71
3
 72
9
 73
5
 74
0
 42
0.0000001
 43
0.0000001
 44
0.0000000001
 40
0.0
 40
0.0
 40
0.0
 40
0.0
 40
0.5227898457
 40
1.0
 40
1.0
 40
1.0
 40
1.0
 10
24.6253625363
 20
99.3256256572
 30
0.0
 10
24.6594127715
 20
99.3309428674
 30
0.0
 10
24.7262790442
 20
99.3309277025
 30
0.0
 10
24.7910394151
 20
99.311509849
 30
0.0
 10
24.8182831971
 20
99.2957809999
 30
0.0
  0
SPLINE
  5
726
100
AcDbEntity
  8
0
100
AcDbSpline
 62
7
  6
CONTINUOUS
 70
0
 71
3
 72
15
 73
11
 74
0
 42
0.0000001
 43
0.0000001
 44
0.0000000001
 40
0.0
 40
0.0
 40
0.0
 40
0.0
 40
0.1448901347
 40
0.2745103633
 40
0.3911004666
 40
0.49998369
 40
0.6088497921
 40
0.7254276636
 40
0.8552291348
 40
1.0
 40
1.0
 40
1.0
 40
1.0
 10
50.3246194619
 20
82.7911019077
 30
0.0
 10
50.3246181452
 20
82.7277513629
 30
0.0
 10
50.3150143658
 20
82.6073086186
 30
0.0
 10
50.2662382962
 20
82.4418655685
 30
0.0
 10
50.1840911921
 20
82.3074802759
 30
0.0
 10
50.0699754719
 20
82.211602029
 30
0.0
 10
49.929907342
 20
82.1606913769
 30
0.0
 10
49.7723791583
 20
82.1566540672
 30
0.0
 10
49.6047166435
 20
82.1972642401
 30
0.0
 10
49.4955609915
 20
82.2491116877
 30
0.0
 10
49.4407426621
 20
82.280760349
 30
0.0
  0
SPLINE
  5
727
100
AcDbEntity
  8
0
100
AcDbSpline
 62
7
  6
CONTINUOUS
 70
0
 71
3
 72
9
 73
5
 74
0
 42
0.0000001
 43
0.0000001
 44
0.0000000001
 40
0.0
 40
0.0
 40
0.0
 40
0.0
 40
0.5507545976
 40
1.0
 40
1.0
 40
1.0
 40
1.0
 10
22.1310014045
 20
100.8469429634
 30
0.0
 10
22.1475494328
 20
100.8373891709
 30
0.0
 10
22.1759795632
 20
100.8156280197
 30
0.0
 10
22.1896171991
 20
100.7808383078
 30
0.0
 10
22.1895900511
 20
100.7652521877
 30
0.0
  0
SPLINE
  5
728
100
AcDbEntity
  8
0
100
AcDbSpline
 62
7
  6
CONTINUOUS
 70
0
 71
3
 72
9
 73
5
 74
0
 42
0.0000001
 43
0.0000001
 44
0.0000000001
 40
0.0
 40
0.0
 40
0.0
 40
0.0
 40
0.5227733777
 40
1.0
 40
1.0
 40
1.0
 40
1.0
 10
21.937717166
 20
100.8768433068
 30
0.0
 10
21.9718411231
 20
100.8821035406
 30
0.0
 10
22.038819462
 20
100.8821957433
 30
0.0
 10
22.1037051365
 20
100.8627021145
 30
0.0
 10
22.1310014045
 20
100.8469429634
 30
0.0
  0
SPLINE
  5
729
100
AcDbEntity
  8
0
100
AcDbSpline
 62
7
  6
CONTINUOUS
 70
0
 71
3
 72
9
 73
5
 74
0
 42
0.0000001
 43
0.0000001
 44
0.0000000001
 40
0.0
 40
0.0
 40
0.0
 40
0.0
 40
0.5508115856
 40
1.0
 40
1.0
 40
1.0
 40
1.0
 10
20.4336877419
 20
101.8265762523
 30
0.0
 10
20.4502662295
 20
101.8170048745
 30
0.0
 10
20.4787395378
 20
101.7952109378
 30
0.0
 10
20.4924203917
 20
101.760350887
 30
0.0
 10
20.4923633552
 20
101.7447397547
 30
0.0
  0
SPLINE
  5
72A
100
AcDbEntity
  8
0
100
AcDbSpline
 62
7
  6
CONTINUOUS
 70
0
 71
3
 72
9
 73
5
 74
0
 42
0.0000001
 43
0.0000001
 44
0.0000000001
 40
0.0
 40
0.0
 40
0.0
 40
0.0
 40
0.5227584344
 40
1.0
 40
1.0
 40
1.0
 40
1.0
 10
20.2400672301
 20
101.8565303724
 30
0.0
 10
20.2742595793
 20
101.8617362751
 30
0.0
 10
20.3413416813
 20
101.8619289849
 30
0.0
 10
20.4063428949
 20
101.8423634499
 30
0.0
 10
20.4336877419
 20
101.8265762523
 30
0.0
  0
ENDSEC
  0
SECTION
  2
OBJECTS
  0
DICTIONARY
  5
C
100
AcDbDictionary
280
0
281
1
  3
ACAD_GROUP
350
D
  3
ACAD_MLINESTYLE
350
17
  3
ACAD_LAYOUT
350
1A
  3
ACAD_PLOTSETTINGS
350
19
  3
ACAD_PLOTSTYLENAME
350
E
  0
DICTIONARY
  5
D
102
{ACAD_REACTORS
330
C
102
}
100
AcDbDictionary
280
0
281
1
  0
ACDBDICTIONARYWDFLT
  5
E
102
{ACAD_REACTORS
330
C
102
}
100
AcDbDictionary
281
1
  3
Normal
350
F
100
AcDbDictionaryWithDefault
340
F
  0
DICTIONARY
  5
17
102
{ACAD_REACTORS
330
C
102
}
100
AcDbDictionary
280
0
281
1
  3
Standard
350
18
  0
DICTIONARY
  5
19
102
{ACAD_REACTORS
330
C
102
}
100
AcDbDictionary
281
1
  0
DICTIONARY
  5
1A
102
{ACAD_REACTORS
330
C
102
}
100
AcDbDictionary
281
1
  3
Model
350
72B
  3
Layout1
350
72C
  0
ACDBPLACEHOLDER
  5
F
102
{ACAD_REACTORS
330
E
102
}
  0
MLINESTYLE
  5
18
102
{ACAD_REACTORS
330
17
102
}
100
AcDbMlineStyle
  2
STANDARD
 70
0
  3

 62
256
 51
90.0
 52
90.0
 71
2
 49
0.5
 62
256
  6
BYLAYER
 49
-0.5
 62
256
  6
BYLAYER
  0
LAYOUT
  5
72B
102
{ACAD_REACTORS
330
1A
102
}
100
AcDbPlotSettings
  1

  2
none_device
  4

  6

 40
0.0
 41
0.0
 42
0.0
 43
0.0
 44
210.0
 45
297.0
 46
0.0
 47
0.0
 48
0.0
 49
0.0
140
0.0
141
0.0
142
1.0
143
1.0
 70
1024
 72
1
 73
0
 74
0
  7

 75
0
147
1.0
148
0.0
149
0.0
100
AcDbLayout
  1
Model
 70
0
 71
0
 10
0.0
 20
0.0
 11
210.0
 21
297.0
 12
0.0
 22
0.0
 32
0.0
 14
0.0
 24
0.0
 34
0.0
 15
0.0
 25
0.0
 35
0.0
146
0.0
 13
0.0
 23
0.0
 33
0.0
 16
1.0
 26
0.0
 36
0.0
 17
0.0
 27
1.0
 37
0.0
 76
0
330
210
345
0
346
0
  0
LAYOUT
  5
72C
102
{ACAD_REACTORS
330
1A
102
}
100
AcDbPlotSettings
  1

  2
none_device
  4

  6

 40
0.0
 41
0.0
 42
0.0
 43
0.0
 44
210.0
 45
297.0
 46
0.0
 47
0.0
 48
0.0
 49
0.0
140
0.0
141
0.0
142
1.0
143
1.0
 70
0
 72
1
 73
0
 74
0
  7

 75
0
147
1.0
148
0.0
149
0.0
100
AcDbLayout
  1
Layout1
 70
0
 71
1
 10
0.0
 20
0.0
 11
210.0
 21
297.0
 12
0.0
 22
0.0
 32
0.0
 14
0.0
 24
0.0
 34
0.0
 15
0.0
 25
0.0
 35
0.0
146
0.0
 13
0.0
 23
0.0
 33
0.0
 16
1.0
 26
0.0
 36
0.0
 17
0.0
 27
1.0
 37
0.0
 76
0
330
211
345
0
346
0
  0
ENDSEC
  0
EOF
