999
DXF file: C:\Users\sesa63760\Dev\_Creo\CAD\MCADID0000901_3D-CAD\drw0001_5.dxf
999
Pro/ENGINEER 2019471 by Parametric Technology Corporation
  0
SECTION
  2
HEADER
  9
$ACADVER
  1
AC1024
  9
$DWGCODEPAGE
  3
ANSI_1252
  9
$EXTMAX
 10
427.8840475529
 20
605.1502958248
 30
0.0
  9
$EXTMIN
 10
0.0
 20
0.0
 30
0.0
  9
$LIMMIN
 10
0.0
 20
0.0
  9
$LIMMAX
 10
427.8840475529
 20
605.1502958248
  9
$VIEWCTR
 10
213.9420237765
 20
302.5751479124
  9
$VIEWSIZE
 40
605.1502958248
  9
$CLAYER
  8
0
  9
$LTSCALE
 40
39.4468340982
  9
$CELTYPE
  6
BYLAYER
  9
$DIMSCALE
 40
1.0
  9
$DIMASZ
 40
5.093857709
  9
$DIMEXO
 40
1.0
  9
$DIMDLI
 40
27.254176286
  9
$DIMEXE
 40
1.0
  9
$DIMCEN
 40
6.4549364888
  9
$DIMLFAC
 40
1.0
  9
$DIMBLK
  1
_FILLED
  9
$DIMALT
 70
0
  9
$DIMALTF
 40
0.0393700787
  9
$DIMTXT
 40
7.1314007925
  9
$DIMTOL
 70
1
  9
$DIMLIM
 70
0
  9
$DIMTFAC
 40
1.0
  9
$DIMTP
 40
0.01
  9
$DIMTM
 40
0.01
  9
$DIMGAP
 40
0.625
  9
$DIMDSEP
 70
46
  9
$AUNITS
 70
0
  9
$PDMODE
 70
3
  9
$PDSIZE
 40
0.3125
  9
$HANDSEED
  5
3B4
  9
$TILEMODE
 70
1
  9
$MEASUREMENT
 70
1
  9
$INSUNITS
 70
4
  0
ENDSEC
  0
SECTION
  2
CLASSES
  0
CLASS
  1
ACDBDICTIONARYWDFLT
  2
AcDbDictionaryWithDefault
  3
AutoCAD 2000
 90
0
 91
1
280
0
281
0
  0
CLASS
  1
ACDBPLACEHOLDER
  2
AcDbPlaceHolder
  3
AutoCAD 2000
 90
0
 91
1
280
0
281
0
  0
CLASS
  1
LAYOUT
  2
AcDbLayout
  3
AutoCAD 2000
 90
0
 91
0
280
0
281
0
  0
ENDSEC
  0
SECTION
  2
TABLES
  0
TABLE
  2
VPORT
  5
8
100
AcDbSymbolTable
 70
2
  0
VPORT
  5
1F4
100
AcDbSymbolTableRecord
100
AcDbViewportTableRecord
  2
*ACTIVE
 70
0
 10
0.0
 20
0.0
 11
1.0
 21
1.0
 12
213.9420237765
 22
302.5751479124
 13
0.0
 23
0.0
 14
1.0
 24
1.0
 15
0.0
 25
0.0
 16
0.0
 26
0.0
 36
1.0
 17
0.0
 27
0.0
 37
0.0
 40
605.1502958248
 41
0.7070707071
 42
50.0
 43
0.0
 44
0.0
 50
0.0
 51
0.0
 71
0
 72
100
 73
1
 74
1
 75
0
 76
0
 77
0
 78
0
  0
ENDTAB
  0
TABLE
  2
LTYPE
  5
5
100
AcDbSymbolTable
 70
6
  0
LTYPE
  5
14
100
AcDbSymbolTableRecord
100
AcDbLinetypeTableRecord
  2
BYBLOCK
 70
0
  3

 72
65
 73
0
 40
0.0
  0
LTYPE
  5
15
100
AcDbSymbolTableRecord
100
AcDbLinetypeTableRecord
  2
BYLAYER
 70
0
  3

 72
65
 73
0
 40
0.0
  0
LTYPE
  5
16
100
AcDbSymbolTableRecord
100
AcDbLinetypeTableRecord
  2
CONTINUOUS
 70
64
  3
Solid line
 72
65
 73
0
 40
0.0
  0
LTYPE
  5
1F5
100
AcDbSymbolTableRecord
100
AcDbLinetypeTableRecord
  2
CENTER
 70
64
  3
____ _ ____ _ ____ _ ____ _ ____ _ ____ _ ____
 72
65
 73
4
 40
0.6
 49
0.375
 74
0
 49
-0.075
 74
0
 49
0.075
 74
0
 49
-0.075
 74
0
  0
LTYPE
  5
1F6
100
AcDbSymbolTableRecord
100
AcDbLinetypeTableRecord
  2
HIDDEN
 70
64
  3
- - - - - - - - - - - - - - - - - - - -
 72
65
 73
2
 40
0.2
 49
0.1
 74
0
 49
-0.1
 74
0
  0
LTYPE
  5
1F7
100
AcDbSymbolTableRecord
100
AcDbLinetypeTableRecord
  2
PHANTOM
 70
64
  3
_____ _ _ _____ _ _ _____ _ _ _____
 72
65
 73
6
 40
0.8
 49
0.45
 74
0
 49
-0.05
 74
0
 49
0.1
 74
0
 49
-0.05
 74
0
 49
0.1
 74
0
 49
-0.05
 74
0
  0
LTYPE
  5
1F8
100
AcDbSymbolTableRecord
100
AcDbLinetypeTableRecord
  2
DOT
 70
64
  3
. . . . . . . . . . . . . . . . . . . .
 72
65
 73
2
 40
0.2
 49
0.1
 74
0
 49
-0.1
 74
0
  0
LTYPE
  5
1F9
100
AcDbSymbolTableRecord
100
AcDbLinetypeTableRecord
  2
DASHED
 70
64
  3
- - - - - - - - - - - - - - - - - - - -
 72
65
 73
2
 40
0.2
 49
0.1
 74
0
 49
-0.1
 74
0
  0
ENDTAB
  0
TABLE
  2
LAYER
  5
2
100
AcDbSymbolTable
 70
36
  0
LAYER
  5
10
100
AcDbSymbolTableRecord
100
AcDbLayerTableRecord
  2
0
 70
0
 62
7
  6
CONTINUOUS
370
-3
390
F
  0
LAYER
  5
1FA
100
AcDbSymbolTableRecord
100
AcDbLayerTableRecord
  2
DEFAULT_1
 70
0
 62
7
  6
CENTER
370
-3
390
F
  0
LAYER
  5
1FB
100
AcDbSymbolTableRecord
100
AcDbLayerTableRecord
  2
DEFAULT_2
 70
0
 62
8
  6
HIDDEN
370
-3
390
F
  0
LAYER
  5
1FC
100
AcDbSymbolTableRecord
100
AcDbLayerTableRecord
  2
DEFAULT_3
 70
0
 62
7
  6
PHANTOM
370
-3
390
F
  0
LAYER
  5
1FD
100
AcDbSymbolTableRecord
100
AcDbLayerTableRecord
  2
00_COMPONENTS
 70
0
 62
7
  6
CONTINUOUS
370
-3
390
F
  0
LAYER
  5
1FE
100
AcDbSymbolTableRecord
100
AcDbLayerTableRecord
  2
01_1_DEFAULT_DATUMS
 70
0
 62
7
  6
CONTINUOUS
370
-3
390
F
  0
LAYER
  5
1FF
100
AcDbSymbolTableRecord
100
AcDbLayerTableRecord
  2
01_PLANES
 70
0
 62
7
  6
CONTINUOUS
370
-3
390
F
  0
LAYER
  5
200
100
AcDbSymbolTableRecord
100
AcDbLayerTableRecord
  2
02_COORD_SYS
 70
0
 62
7
  6
CONTINUOUS
370
-3
390
F
  0
LAYER
  5
201
100
AcDbSymbolTableRecord
100
AcDbLayerTableRecord
  2
03_AXES
 70
0
 62
7
  6
CONTINUOUS
370
-3
390
F
  0
LAYER
  5
202
100
AcDbSymbolTableRecord
100
AcDbLayerTableRecord
  2
04_POINTS
 70
0
 62
7
  6
CONTINUOUS
370
-3
390
F
  0
LAYER
  5
203
100
AcDbSymbolTableRecord
100
AcDbLayerTableRecord
  2
05_CURVES
 70
0
 62
7
  6
CONTINUOUS
370
-3
390
F
  0
LAYER
  5
204
100
AcDbSymbolTableRecord
100
AcDbLayerTableRecord
  2
06_SURFS
 70
0
 62
7
  6
CONTINUOUS
370
-3
390
F
  0
LAYER
  5
205
100
AcDbSymbolTableRecord
100
AcDbLayerTableRecord
  2
07_COSMETICS
 70
0
 62
7
  6
CONTINUOUS
370
-3
390
F
  0
LAYER
  5
206
100
AcDbSymbolTableRecord
100
AcDbLayerTableRecord
  2
10_NOTES
 70
0
 62
7
  6
CONTINUOUS
370
-3
390
F
  0
LAYER
  5
207
100
AcDbSymbolTableRecord
100
AcDbLayerTableRecord
  2
11_NOTES_PUB
 70
0
 62
7
  6
CONTINUOUS
370
-3
390
F
  0
LAYER
  5
208
100
AcDbSymbolTableRecord
100
AcDbLayerTableRecord
  2
13_REF_GTOL
 70
0
 62
7
  6
CONTINUOUS
370
-3
390
F
  0
LAYER
  5
209
100
AcDbSymbolTableRecord
100
AcDbLayerTableRecord
  2
16_MISC
 70
0
 62
7
  6
CONTINUOUS
370
-3
390
F
  0
LAYER
  5
20A
100
AcDbSymbolTableRecord
100
AcDbLayerTableRecord
  2
17_NO_PRINT
 70
0
 62
7
  6
CONTINUOUS
370
-3
390
F
  0
LAYER
  5
20B
100
AcDbSymbolTableRecord
100
AcDbLayerTableRecord
  2
18_DATUM_CAMS_JOINTS
 70
0
 62
7
  6
CONTINUOUS
370
-3
390
F
  0
LAYER
  5
20C
100
AcDbSymbolTableRecord
100
AcDbLayerTableRecord
  2
19_DATUM_FUNCTIONAL
 70
0
 62
7
  6
CONTINUOUS
370
-3
390
F
  0
LAYER
  5
20D
100
AcDbSymbolTableRecord
100
AcDbLayerTableRecord
  2
20_DATUM_KINEMATIC_SCHEME
 70
0
 62
7
  6
CONTINUOUS
370
-3
390
F
  0
ENDTAB
  0
TABLE
  2
STYLE
  5
3
100
AcDbSymbolTable
 70
1
  0
STYLE
  5
11
100
AcDbSymbolTableRecord
100
AcDbTextStyleTableRecord
  2
STANDARD
 70
0
 40
0.0
 41
0.8
 50
0.0
 71
0
 42
0.2
  3
txt
  4

  0
STYLE
  5
20E
100
AcDbSymbolTableRecord
100
AcDbTextStyleTableRecord
  2
TEXTSTYLE_1
 70
0
 40
0.0
 41
0.8
 50
0.0
 71
0
 42
0.2
  3
gdt
  4

  0
ENDTAB
  0
TABLE
  2
VIEW
  5
6
100
AcDbSymbolTable
 70
0
  0
ENDTAB
  0
TABLE
  2
UCS
  5
7
100
AcDbSymbolTable
 70
0
  0
ENDTAB
  0
TABLE
  2
APPID
  5
9
100
AcDbSymbolTable
 70
1
  0
APPID
  5
20F
100
AcDbSymbolTableRecord
100
AcDbRegAppTableRecord
  2
ACAD
 70
0
  0
ENDTAB
  0
TABLE
  2
BLOCK_RECORD
  5
1
100
AcDbSymbolTable
 70
0
  0
BLOCK_RECORD
  5
210
100
AcDbSymbolTableRecord
100
AcDbBlockTableRecord
  2
*Model_Space
  0
BLOCK_RECORD
  5
211
100
AcDbSymbolTableRecord
100
AcDbBlockTableRecord
  2
*Paper_Space
  0
BLOCK_RECORD
  5
212
100
AcDbSymbolTableRecord
100
AcDbBlockTableRecord
  2
_FILLED
  0
ENDTAB
  0
TABLE
  2
DIMSTYLE
  5
A
100
AcDbSymbolTable
 70
1
100
AcDbDimStyleTable
 71
0
  0
DIMSTYLE
105
213
100
AcDbSymbolTableRecord
100
AcDbDimStyleTableRecord
  2
STANDARD
 70
0
  3

  4

 40
1.0
 41
5.093857709
 42
1.0
 43
0.38
 44
1.0
 45
0.0
 46
0.0
 47
0.01
 48
0.01
140
7.1314007925
141
0.09
142
0.0
143
25.4
144
1.0
145
0.0
146
1.0
147
0.625
 71
1
 72
0
 73
0
 74
0
 75
0
 76
0
 77
1
 78
8
 79
2
170
0
171
1
172
0
173
0
174
0
175
0
176
0
177
0
178
0
270
2
179
2
271
2
272
2
273
2
274
2
275
0
280
0
281
0
282
0
283
1
284
8
285
0
286
0
287
3
288
0
340
11
278
46
341
212
342
212
343
212
344
212
  0
ENDTAB
  0
ENDSEC
  0
SECTION
  2
BLOCKS
  0
BLOCK
  5
20
100
AcDbEntity
  8
0
100
AcDbBlockBegin
  2
*Model_Space
 70
0
 10
0.0
 20
0.0
 30
0.0
  3
*Model_Space
  1

  0
ENDBLK
  5
21
100
AcDbEntity
  8
0
100
AcDbBlockEnd
  0
BLOCK
  5
1C
100
AcDbEntity
  8
0
100
AcDbBlockBegin
  2
*Paper_Space
 70
0
 10
0.0
 20
0.0
 30
0.0
  3
*Paper_Space
  1

  0
ENDBLK
  5
1D
100
AcDbEntity
  8
0
100
AcDbBlockEnd
  0
BLOCK
  5
214
100
AcDbEntity
  8
0
100
AcDbBlockBegin
  2
_FILLED
 70
64
 10
0.0
 20
0.0
  3
_FILLED
  1

  0
SOLID
  5
215
100
AcDbEntity
  8
0
  6
BYBLOCK
 62
0
100
AcDbTrace
 10
0.0
 20
0.0
 11
-1.0
 21
0.25
 12
-1.0
 22
-0.25
 13
-1.0
 23
-0.25
  0
ENDBLK
  5
216
100
AcDbEntity
  8
0
  6
BYBLOCK
 62
0
100
AcDbBlockEnd
  0
ENDSEC
  0
SECTION
  2
ENTITIES
  0
LINE
  5
217
100
AcDbEntity
  8
0
100
AcDbLine
 62
7
  6
CONTINUOUS
 10
60.355591521
 20
376.9158459489
 11
60.3512280871
 21
377.4158459489
  0
LINE
  5
218
100
AcDbEntity
  8
0
100
AcDbLine
 62
7
  6
CONTINUOUS
 10
52.0774086905
 20
198.9158459489
 11
52.0774086905
 21
266.9158459489
  0
LINE
  5
219
100
AcDbEntity
  8
0
100
AcDbLine
 62
7
  6
CONTINUOUS
 10
54.0774086905
 20
201.9158459489
 11
54.0774086905
 21
198.9158459489
  0
LINE
  5
21A
100
AcDbEntity
  8
0
100
AcDbLine
 62
7
  6
CONTINUOUS
 10
54.0774086905
 20
265.9158459489
 11
54.0774086905
 21
266.9158459489
  0
LINE
  5
21B
100
AcDbEntity
  8
0
100
AcDbLine
 62
7
  6
CONTINUOUS
 10
59.5883532276
 20
279.4158459489
 11
59.588368787
 21
279.9027574748
  0
LINE
  5
21C
100
AcDbEntity
  8
0
100
AcDbLine
 62
7
  6
CONTINUOUS
 10
59.8774086905
 20
279.4158459489
 11
59.8774086905
 21
266.9158459489
  0
LINE
  5
21D
100
AcDbEntity
  8
0
100
AcDbLine
 62
7
  6
CONTINUOUS
 10
60.0774086905
 20
266.9158459489
 11
60.0774086905
 21
260.9158459489
  0
LINE
  5
21E
100
AcDbEntity
  8
0
100
AcDbLine
 62
7
  6
CONTINUOUS
 10
60.1989526586
 20
384.9158459489
 11
60.1989526586
 21
385.3983962006
  0
LINE
  5
21F
100
AcDbEntity
  8
0
100
AcDbLine
 62
7
  6
CONTINUOUS
 10
61.2965846556
 20
406.7332956973
 11
61.2965846556
 21
407.2158459489
  0
LINE
  5
220
100
AcDbEntity
  8
0
100
AcDbLine
 62
7
  6
CONTINUOUS
 10
51.2965190979
 20
279.4158459489
 11
51.2964346988
 21
278.9332956973
  0
LINE
  5
221
100
AcDbEntity
  8
0
100
AcDbLine
 62
7
  6
CONTINUOUS
 10
63.4751947005
 20
384.4420138773
 11
63.4781882006
 21
384.5375988941
  0
LINE
  5
222
100
AcDbEntity
  8
0
100
AcDbLine
 62
7
  6
CONTINUOUS
 10
49.8774086905
 20
266.9158459489
 11
50.2970672831
 21
278.9332956973
  0
LINE
  5
223
100
AcDbEntity
  8
0
100
AcDbLine
 62
7
  6
CONTINUOUS
 10
51.2964581101
 20
278.9332956973
 11
50.8767995176
 21
266.9158459489
  0
LINE
  5
224
100
AcDbEntity
  8
0
100
AcDbLine
 62
7
  6
CONTINUOUS
 10
63.7550059051
 20
376.5263167282
 11
59.5883654298
 21
279.9027574748
  0
LINE
  5
225
100
AcDbEntity
  8
0
100
AcDbLine
 62
7
  6
CONTINUOUS
 10
58.3600687633
 20
376.5339911093
 11
53.9716345042
 21
279.8931644549
  0
LINE
  5
226
100
AcDbEntity
  8
0
100
AcDbLine
 62
7
  6
CONTINUOUS
 10
63.9107956449
 20
377.4158461244
 11
64.271624768
 21
385.0655170535
  0
LINE
  5
227
100
AcDbEntity
  8
0
100
AcDbLine
 62
7
  6
CONTINUOUS
 10
64.7681989264
 20
385.0655168755
 11
64.4073508512
 21
377.4158459489
  0
LINE
  5
228
100
AcDbEntity
  8
0
100
AcDbLine
 62
7
  6
CONTINUOUS
 10
59.1506183348
 20
384.4420020521
 11
59.176354283
 21
384.9422436164
  0
LINE
  5
229
100
AcDbEntity
  8
0
100
AcDbLine
 62
7
  6
CONTINUOUS
 10
61.2965846556
 20
406.7332956973
 11
60.1989525995
 21
385.3983962006
  0
LINE
  5
22A
100
AcDbEntity
  8
0
100
AcDbLine
 62
7
  6
CONTINUOUS
 10
59.9143280292
 20
406.742013927
 11
58.3774086906
 21
377.4158459489
  0
LINE
  5
22B
100
AcDbEntity
  8
0
100
AcDbLine
 62
7
  6
CONTINUOUS
 10
63.4781882006
 20
384.5375988941
 11
63.6451234864
 21
387.5149302349
  0
LINE
  5
22C
100
AcDbEntity
  8
0
100
AcDbLine
 62
7
  6
CONTINUOUS
 10
63.6473559274
 20
387.5124443085
 11
63.4751947005
 21
384.4420138773
  0
LINE
  5
22D
100
AcDbEntity
  8
0
100
AcDbLine
 62
7
  6
CONTINUOUS
 10
74.8274086905
 20
280.9158459489
 11
74.8535912879
 21
279.4158459489
  0
LINE
  5
22E
100
AcDbEntity
  8
0
100
AcDbLine
 62
7
  6
CONTINUOUS
 10
66.3774086905
 20
376.9158459489
 11
66.3730452566
 21
377.4158459489
  0
LINE
  5
22F
100
AcDbEntity
  8
0
100
AcDbLine
 62
7
  6
CONTINUOUS
 10
62.7138401827
 20
376.9158459615
 11
62.7096002586
 21
377.4158459924
  0
LINE
  5
230
100
AcDbEntity
  8
0
100
AcDbLine
 62
7
  6
CONTINUOUS
 10
64.381617829
 20
376.9158459489
 11
64.377377466
 21
377.4158459489
  0
LINE
  5
231
100
AcDbEntity
  8
0
100
AcDbLine
 62
7
  6
CONTINUOUS
 10
63.7550059051
 20
376.5263167293
 11
63.7550059051
 21
376.9158459489
  0
LINE
  5
232
100
AcDbEntity
  8
0
100
AcDbLine
 62
7
  6
CONTINUOUS
 10
64.1443010935
 20
387.9796633567
 11
64.1443010935
 21
387.9862768269
  0
LINE
  5
233
100
AcDbEntity
  8
0
100
AcDbLine
 62
7
  6
CONTINUOUS
 10
66.0774086905
 20
263.9158459489
 11
66.0774086905
 21
266.9158459489
  0
LINE
  5
234
100
AcDbEntity
  8
0
100
AcDbLine
 62
7
  6
CONTINUOUS
 10
68.0774086905
 20
263.9158459489
 11
68.0774086905
 21
266.9158459489
  0
LINE
  5
235
100
AcDbEntity
  8
0
100
AcDbLine
 62
7
  6
CONTINUOUS
 10
71.0774086906
 20
280.9158459489
 11
71.0774086955
 21
376.9158459489
  0
LINE
  5
236
100
AcDbEntity
  8
0
100
AcDbLine
 62
7
  6
CONTINUOUS
 10
65.2965766073
 20
279.4158459489
 11
65.2964125467
 21
278.9333589009
  0
LINE
  5
237
100
AcDbEntity
  8
0
100
AcDbLine
 62
7
  6
CONTINUOUS
 10
67.3274086905
 20
280.9158459489
 11
67.3012260931
 21
279.4158459489
  0
LINE
  5
238
100
AcDbEntity
  8
0
100
AcDbLine
 62
7
  6
CONTINUOUS
 10
63.8774086905
 20
266.9158459489
 11
64.2970672831
 21
278.9332956973
  0
LINE
  5
239
100
AcDbEntity
  8
0
100
AcDbLine
 62
7
  6
CONTINUOUS
 10
65.2964581101
 20
278.9332956973
 11
64.8767995176
 21
266.9158459489
  0
LINE
  5
23A
100
AcDbEntity
  8
0
100
AcDbLine
 62
7
  6
CONTINUOUS
 10
77.2356465851
 20
279.4158459489
 11
77.2356653128
 21
279.8896779708
  0
LINE
  5
23B
100
AcDbEntity
  8
0
100
AcDbLine
 62
7
  6
CONTINUOUS
 10
79.7664548339
 20
376.5367803315
 11
79.7664548339
 21
376.9158459489
  0
LINE
  5
23C
100
AcDbEntity
  8
0
100
AcDbLine
 62
7
  6
CONTINUOUS
 10
76.3774086905
 20
376.9158459489
 11
76.3817721244
 21
377.4158459489
  0
LINE
  5
23D
100
AcDbEntity
  8
0
100
AcDbLine
 62
7
  6
CONTINUOUS
 10
76.2370315646
 20
279.9027574748
 11
78.7672085089
 21
376.5263167282
  0
LINE
  5
23E
100
AcDbEntity
  8
0
100
AcDbLine
 62
7
  6
CONTINUOUS
 10
79.7664548336
 20
376.5367803315
 11
77.2356613929
 21
279.8896779708
  0
LINE
  5
23F
100
AcDbEntity
  8
0
100
AcDbLine
 62
7
  6
CONTINUOUS
 10
64.1442431115
 20
387.9862768229
 11
63.8018114703
 21
387.8505581319
  0
LINE
  5
240
100
AcDbEntity
  8
0
100
AcDbLine
 62
7
  6
CONTINUOUS
 10
94.2010287427
 20
376.9158459489
 11
94.199228827
 21
377.4158459489
  0
LINE
  5
241
100
AcDbEntity
  8
0
100
AcDbLine
 62
7
  6
CONTINUOUS
 10
98.2195685275
 20
376.9158459489
 11
98.2177686119
 21
377.4158459489
  0
LINE
  5
242
100
AcDbEntity
  8
0
100
AcDbLine
 62
7
  6
CONTINUOUS
 10
59.6894579927
 20
384.9158459489
 11
59.3631466309
 21
384.8055442319
  0
LINE
  5
243
100
AcDbEntity
  8
0
100
AcDbLine
 62
7
  6
CONTINUOUS
 10
387.6774086905
 20
198.9158459489
 11
52.0774086905
 21
198.9158459489
  0
LINE
  5
244
100
AcDbEntity
  8
0
100
AcDbLine
 62
7
  6
CONTINUOUS
 10
52.0774086905
 20
201.9158459489
 11
387.6774086905
 21
201.9158459489
  0
LINE
  5
245
100
AcDbEntity
  8
0
100
AcDbLine
 62
7
  6
CONTINUOUS
 10
388.0973570849
 20
203.7158459489
 11
388.1043782716
 21
203.7158459489
  0
LINE
  5
246
100
AcDbEntity
  8
0
100
AcDbLine
 62
7
  6
CONTINUOUS
 10
388.0973570849
 20
205.5658459489
 11
388.330341171
 21
205.5658459489
  0
LINE
  5
247
100
AcDbEntity
  8
0
100
AcDbLine
 62
7
  6
CONTINUOUS
 10
388.330341171
 20
206.2658459489
 11
388.0973570849
 21
206.2658459489
  0
LINE
  5
248
100
AcDbEntity
  8
0
100
AcDbLine
 62
7
  6
CONTINUOUS
 10
388.1043782613
 20
208.1158459489
 11
388.0973570849
 21
208.1158459489
  0
LINE
  5
249
100
AcDbEntity
  8
0
100
AcDbLine
 62
7
  6
CONTINUOUS
 10
162.8721721711
 20
407.5158459489
 11
162.8774086905
 21
407.2158459489
  0
LINE
  5
24A
100
AcDbEntity
  8
0
100
AcDbLine
 62
7
  6
CONTINUOUS
 10
157.38264521
 20
407.5158459489
 11
157.3774086905
 21
407.2158459489
  0
LINE
  5
24B
100
AcDbEntity
  8
0
100
AcDbLine
 62
7
  6
CONTINUOUS
 10
380.9774086905
 20
280.3428156346
 11
380.7146688621
 21
280.2723413409
  0
LWPOLYLINE
  5
24C
100
AcDbEntity
  8
0
100
AcDbPolyline
 62
7
  6
CONTINUOUS
 90
4
 70
0
 10
297.0866726969
 20
388.0427668792
 10
297.104677132
 20
388.0515794846
 10
297.002146864
 20
388.0295392426
 10
296.6741515175
 20
387.9952246574
  0
LINE
  5
24D
100
AcDbEntity
  8
0
100
AcDbLine
 62
7
  6
CONTINUOUS
 10
388.0973570849
 20
253.7158459489
 11
388.1043782716
 21
253.7158459489
  0
LINE
  5
24E
100
AcDbEntity
  8
0
100
AcDbLine
 62
7
  6
CONTINUOUS
 10
388.0973570849
 20
255.5658459489
 11
388.330341171
 21
255.5658459489
  0
LINE
  5
24F
100
AcDbEntity
  8
0
100
AcDbLine
 62
7
  6
CONTINUOUS
 10
388.330341171
 20
256.2658459489
 11
388.0973570849
 21
256.2658459489
  0
LINE
  5
250
100
AcDbEntity
  8
0
100
AcDbLine
 62
7
  6
CONTINUOUS
 10
388.1043782613
 20
258.1158459489
 11
388.0973570849
 21
258.1158459489
  0
LINE
  5
251
100
AcDbEntity
  8
0
100
AcDbLine
 62
7
  6
CONTINUOUS
 10
60.0774086905
 20
260.9158459489
 11
379.6774086905
 21
260.9158459489
  0
LINE
  5
252
100
AcDbEntity
  8
0
100
AcDbLine
 62
7
  6
CONTINUOUS
 10
374.481258885
 20
263.9158459489
 11
65.2735532618
 21
263.9158459489
  0
LINE
  5
253
100
AcDbEntity
  8
0
100
AcDbLine
 62
7
  6
CONTINUOUS
 10
195.0072265966
 20
377.4158459489
 11
195.0047073669
 21
376.9158459489
  0
LINE
  5
254
100
AcDbEntity
  8
0
100
AcDbLine
 62
7
  6
CONTINUOUS
 10
387.6774086905
 20
265.9158459489
 11
385.6774086905
 21
265.9158459489
  0
LINE
  5
255
100
AcDbEntity
  8
0
100
AcDbLine
 62
7
  6
CONTINUOUS
 10
54.0774086905
 20
265.9158459489
 11
52.0774086905
 21
265.9158459489
  0
LINE
  5
256
100
AcDbEntity
  8
0
100
AcDbLine
 62
7
  6
CONTINUOUS
 10
49.8774086905
 20
266.9158459489
 11
389.6592203789
 21
266.9158459489
  0
LINE
  5
257
100
AcDbEntity
  8
0
100
AcDbLine
 62
7
  6
CONTINUOUS
 10
207.779305622
 20
279.9027574748
 11
205.9902003471
 21
376.5263167307
  0
LINE
  5
258
100
AcDbEntity
  8
0
100
AcDbLine
 62
7
  6
CONTINUOUS
 10
206.6875894639
 20
376.9158459489
 11
206.6840676977
 21
377.4158459489
  0
LINE
  5
259
100
AcDbEntity
  8
0
100
AcDbLine
 62
7
  6
CONTINUOUS
 10
205.7556097211
 20
376.9158459487
 11
205.752191703
 21
377.4158459493
  0
LINE
  5
25A
100
AcDbEntity
  8
0
100
AcDbLine
 62
7
  6
CONTINUOUS
 10
200.682630245
 20
279.4158459489
 11
200.682630245
 21
279.8896779708
  0
LINE
  5
25B
100
AcDbEntity
  8
0
100
AcDbLine
 62
7
  6
CONTINUOUS
 10
202.1686078806
 20
376.9158459489
 11
202.1686078806
 21
376.5367803315
  0
LINE
  5
25C
100
AcDbEntity
  8
0
100
AcDbLine
 62
7
  6
CONTINUOUS
 10
199.9433834373
 20
377.4158459489
 11
199.9408642076
 21
376.9158459489
  0
LINE
  5
25D
100
AcDbEntity
  8
0
100
AcDbLine
 62
7
  6
CONTINUOUS
 10
200.682630245
 20
279.8896779708
 11
202.1686078442
 21
376.5367803314
  0
LINE
  5
25E
100
AcDbEntity
  8
0
100
AcDbLine
 62
7
  6
CONTINUOUS
 10
202.8757136376
 20
376.5263167283
 11
201.390098022
 21
279.9027574748
  0
LINE
  5
25F
100
AcDbEntity
  8
0
100
AcDbLine
 62
7
  6
CONTINUOUS
 10
207.9274086905
 20
280.9158459489
 11
207.9012260931
 21
279.4158459489
  0
LINE
  5
260
100
AcDbEntity
  8
0
100
AcDbLine
 62
7
  6
CONTINUOUS
 10
51.2964581101
 20
278.9332956973
 11
64.2970672831
 21
278.9332956973
  0
LINE
  5
261
100
AcDbEntity
  8
0
100
AcDbLine
 62
7
  6
CONTINUOUS
 10
65.2964581101
 20
278.9332956973
 11
374.6671085895
 21
278.933422048
  0
LINE
  5
262
100
AcDbEntity
  8
0
100
AcDbLine
 62
7
  6
CONTINUOUS
 10
383.0774086905
 20
279.079748964
 11
386.2830613019
 21
279.079746299
  0
LINE
  5
263
100
AcDbEntity
  8
0
100
AcDbLine
 62
7
  6
CONTINUOUS
 10
386.0724486145
 20
279.1352611387
 11
386.5794725516
 21
279.1352611387
  0
LINE
  5
264
100
AcDbEntity
  8
0
100
AcDbLine
 62
7
  6
CONTINUOUS
 10
50.7967626966
 20
279.4158459489
 11
374.6755327517
 21
279.4158459489
  0
LINE
  5
265
100
AcDbEntity
  8
0
100
AcDbLine
 62
7
  6
CONTINUOUS
 10
360.0795142092
 20
279.8896779708
 11
222.672187136
 21
279.8896779708
  0
LINE
  5
266
100
AcDbEntity
  8
0
100
AcDbLine
 62
7
  6
CONTINUOUS
 10
200.682630245
 20
279.8896779708
 11
77.2356613929
 21
279.8896779708
  0
LINE
  5
267
100
AcDbEntity
  8
0
100
AcDbLine
 62
7
  6
CONTINUOUS
 10
58.5927506196
 20
279.8931644549
 11
53.9716345042
 21
279.8931644549
  0
LINE
  5
268
100
AcDbEntity
  8
0
100
AcDbLine
 62
7
  6
CONTINUOUS
 10
76.2370315646
 20
279.9027574748
 11
74.8450922156
 21
279.9027574748
  0
LINE
  5
269
100
AcDbEntity
  8
0
100
AcDbLine
 62
7
  6
CONTINUOUS
 10
67.3097251654
 20
279.9027574748
 11
59.5883654298
 21
279.9027574748
  0
LINE
  5
26A
100
AcDbEntity
  8
0
100
AcDbLine
 62
7
  6
CONTINUOUS
 10
201.390098022
 20
279.9027574748
 11
207.9097251654
 21
279.9027574748
  0
LINE
  5
26B
100
AcDbEntity
  8
0
100
AcDbLine
 62
7
  6
CONTINUOUS
 10
215.4450922156
 20
279.9027574748
 11
221.964719359
 21
279.9027574748
  0
LINE
  5
26C
100
AcDbEntity
  8
0
100
AcDbLine
 62
7
  6
CONTINUOUS
 10
372.4449392292
 20
279.9115220592
 11
374.6841923272
 21
279.9115454638
  0
LINE
  5
26D
100
AcDbEntity
  8
0
100
AcDbLine
 62
7
  6
CONTINUOUS
 10
360.9468267421
 20
279.9114826812
 11
364.9098774645
 21
279.9114826812
  0
LINE
  5
26E
100
AcDbEntity
  8
0
100
AcDbLine
 62
7
  6
CONTINUOUS
 10
380.7146686778
 20
280.2723412884
 11
385.6401507151
 21
280.2723407142
  0
LINE
  5
26F
100
AcDbEntity
  8
0
100
AcDbLine
 62
7
  6
CONTINUOUS
 10
67.3274535068
 20
280.9158459489
 11
74.8273638743
 21
280.9158459489
  0
LINE
  5
270
100
AcDbEntity
  8
0
100
AcDbLine
 62
7
  6
CONTINUOUS
 10
207.9274535068
 20
280.9158459489
 11
215.4273638743
 21
280.9158459489
  0
LINE
  5
271
100
AcDbEntity
  8
0
100
AcDbLine
 62
7
  6
CONTINUOUS
 10
364.9274535068
 20
280.9158459489
 11
372.4273638743
 21
280.9158459489
  0
LINE
  5
272
100
AcDbEntity
  8
0
100
AcDbLine
 62
7
  6
CONTINUOUS
 10
389.8578074462
 20
278.2928914125
 11
388.8930009316
 21
278.318460884
  0
LINE
  5
273
100
AcDbEntity
  8
0
100
AcDbLine
 62
7
  6
CONTINUOUS
 10
374.6755433004
 20
279.4158458528
 11
376.8774086905
 21
279.3543421835
  0
LINE
  5
274
100
AcDbEntity
  8
0
100
AcDbLine
 62
7
  6
CONTINUOUS
 10
375.4060213785
 20
279.2891320017
 11
375.8837611801
 21
279.2724489602
  0
LINE
  5
275
100
AcDbEntity
  8
0
100
AcDbLine
 62
7
  6
CONTINUOUS
 10
376.8774086901
 20
279.2377500245
 11
389.3753333443
 21
278.8013128785
  0
LINE
  5
276
100
AcDbEntity
  8
0
100
AcDbLine
 62
7
  6
CONTINUOUS
 10
215.4274086905
 20
280.9158459489
 11
215.4535912879
 21
279.4158459489
  0
LINE
  5
277
100
AcDbEntity
  8
0
100
AcDbLine
 62
7
  6
CONTINUOUS
 10
221.964719359
 20
279.9027574748
 11
220.479103745
 21
376.5263167283
  0
LINE
  5
278
100
AcDbEntity
  8
0
100
AcDbLine
 62
7
  6
CONTINUOUS
 10
221.1862095368
 20
376.5367803314
 11
221.1862095368
 21
376.9158459489
  0
LINE
  5
279
100
AcDbEntity
  8
0
100
AcDbLine
 62
7
  6
CONTINUOUS
 10
217.5992076707
 20
376.9158459487
 11
217.6026256806
 21
377.4158459493
  0
LINE
  5
27A
100
AcDbEntity
  8
0
100
AcDbLine
 62
7
  6
CONTINUOUS
 10
216.6672272436
 20
376.9158459489
 11
216.6707496832
 21
377.4158459489
  0
LINE
  5
27B
100
AcDbEntity
  8
0
100
AcDbLine
 62
7
  6
CONTINUOUS
 10
217.3646170432
 20
376.5263167291
 11
215.5755117591
 21
279.9027574748
  0
LINE
  5
27C
100
AcDbEntity
  8
0
100
AcDbLine
 62
7
  6
CONTINUOUS
 10
379.2774086905
 20
295.2658459489
 11
376.8774086905
 21
295.2658459489
  0
LINE
  5
27D
100
AcDbEntity
  8
0
100
AcDbLine
 62
7
  6
CONTINUOUS
 10
379.2774086905
 20
298.0158459489
 11
376.8774086905
 21
298.0158459489
  0
LINE
  5
27E
100
AcDbEntity
  8
0
100
AcDbLine
 62
7
  6
CONTINUOUS
 10
221.1862095368
 20
376.5367803314
 11
222.672187136
 21
279.8896779708
  0
LINE
  5
27F
100
AcDbEntity
  8
0
100
AcDbLine
 62
7
  6
CONTINUOUS
 10
223.4139531735
 20
376.9158459489
 11
223.4114339437
 21
377.4158459489
  0
LINE
  5
280
100
AcDbEntity
  8
0
100
AcDbLine
 62
7
  6
CONTINUOUS
 10
228.3501100142
 20
376.9158459489
 11
228.3475907844
 21
377.4158459489
  0
LINE
  5
281
100
AcDbEntity
  8
0
100
AcDbLine
 62
7
  6
CONTINUOUS
 10
222.6721854605
 20
279.4158459489
 11
222.6721854605
 21
279.8896779708
  0
LINE
  5
282
100
AcDbEntity
  8
0
100
AcDbLine
 62
7
  6
CONTINUOUS
 10
380.6031656401
 20
320.5158459489
 11
379.5774086905
 21
320.5158459489
  0
LINE
  5
283
100
AcDbEntity
  8
0
100
AcDbLine
 62
7
  6
CONTINUOUS
 10
379.2774086905
 20
358.5158459489
 11
378.4331246391
 21
358.5158459489
  0
LINE
  5
284
100
AcDbEntity
  8
0
100
AcDbLine
 62
7
  6
CONTINUOUS
 10
377.621692742
 20
358.5158459489
 11
376.8774086905
 21
358.5158459489
  0
LINE
  5
285
100
AcDbEntity
  8
0
100
AcDbLine
 62
7
  6
CONTINUOUS
 10
380.6031656401
 20
360.5158459489
 11
379.5774086905
 21
360.5158459489
  0
LINE
  5
286
100
AcDbEntity
  8
0
100
AcDbLine
 62
7
  6
CONTINUOUS
 10
295.7804433593
 20
395.7179726065
 11
295.2031547367
 21
406.7332956973
  0
LINE
  5
287
100
AcDbEntity
  8
0
100
AcDbLine
 62
7
  6
CONTINUOUS
 10
295.2031548803
 20
407.2158459489
 11
295.2031548803
 21
406.7332956973
  0
LINE
  5
288
100
AcDbEntity
  8
0
100
AcDbLine
 62
7
  6
CONTINUOUS
 10
296.3617371561
 20
387.9862768422
 11
296.3617371561
 21
387.9796633567
  0
LINE
  5
289
100
AcDbEntity
  8
0
100
AcDbLine
 62
7
  6
CONTINUOUS
 10
296.3785111172
 20
387.9856889785
 11
296.6043292912
 21
394.4528098086
  0
LINE
  5
28A
100
AcDbEntity
  8
0
100
AcDbLine
 62
7
  6
CONTINUOUS
 10
296.8793456983
 20
388.0166918924
 11
297.1128963524
 21
394.7047075781
  0
LINE
  5
28B
100
AcDbEntity
  8
0
100
AcDbLine
 62
7
  6
CONTINUOUS
 10
297.6125873395
 20
395.1866583516
 11
297.3667988324
 21
388.1421910859
  0
LINE
  5
28C
100
AcDbEntity
  8
0
100
AcDbLine
 62
7
  6
CONTINUOUS
 10
362.8964434229
 20
376.5193365631
 11
375.8774086906
 21
376.5193365631
  0
LINE
  5
28D
100
AcDbEntity
  8
0
100
AcDbLine
 62
7
  6
CONTINUOUS
 10
63.7550059051
 20
376.5263167282
 11
78.7672085061
 21
376.5263166227
  0
LINE
  5
28E
100
AcDbEntity
  8
0
100
AcDbLine
 62
7
  6
CONTINUOUS
 10
202.8757136376
 20
376.5263167283
 11
220.479103745
 21
376.5263167283
  0
LINE
  5
28F
100
AcDbEntity
  8
0
100
AcDbLine
 62
7
  6
CONTINUOUS
 10
58.3600687633
 20
376.5339911093
 11
62.7599339143
 21
376.5339911093
  0
LINE
  5
290
100
AcDbEntity
  8
0
100
AcDbLine
 62
7
  6
CONTINUOUS
 10
79.7664548336
 20
376.5367803315
 11
202.1686078442
 21
376.5367803314
  0
LINE
  5
291
100
AcDbEntity
  8
0
100
AcDbLine
 62
7
  6
CONTINUOUS
 10
221.1862095368
 20
376.5367803314
 11
362.0299229557
 21
376.5367803314
  0
LINE
  5
292
100
AcDbEntity
  8
0
100
AcDbLine
 62
7
  6
CONTINUOUS
 10
58.7596606564
 20
376.9158459489
 11
376.8774086905
 21
376.9158459489
  0
LINE
  5
293
100
AcDbEntity
  8
0
100
AcDbLine
 62
7
  6
CONTINUOUS
 10
58.3774157032
 20
377.4158459489
 11
376.8774086905
 21
377.4158459489
  0
LINE
  5
294
100
AcDbEntity
  8
0
100
AcDbLine
 62
7
  6
CONTINUOUS
 10
59.1506390895
 20
384.442013927
 11
63.475194374
 21
384.442013927
  0
LINE
  5
295
100
AcDbEntity
  8
0
100
AcDbLine
 62
7
  6
CONTINUOUS
 10
296.2022411745
 20
406.7420139271
 11
296.7790866467
 21
395.7351466258
  0
LINE
  5
296
100
AcDbEntity
  8
0
100
AcDbLine
 62
7
  6
CONTINUOUS
 10
296.8196893915
 20
394.9604001013
 11
296.8338552244
 21
394.6900999079
  0
LINE
  5
297
100
AcDbEntity
  8
0
100
AcDbLine
 62
7
  6
CONTINUOUS
 10
297.2441102264
 20
395.9158459489
 11
297.2786974073
 21
395.2562379602
  0
LINE
  5
298
100
AcDbEntity
  8
0
100
AcDbLine
 62
7
  6
CONTINUOUS
 10
296.6741515175
 20
387.9952246574
 11
296.3617371542
 21
387.986271376
  0
LINE
  5
299
100
AcDbEntity
  8
0
100
AcDbLine
 62
7
  6
CONTINUOUS
 10
59.6894579939
 20
384.9158459489
 11
63.4993960452
 21
384.9158459489
  0
LINE
  5
29A
100
AcDbEntity
  8
0
100
AcDbLine
 62
7
  6
CONTINUOUS
 10
64.7681989264
 20
385.0655168755
 11
375.9771916572
 21
385.0655168843
  0
LINE
  5
29B
100
AcDbEntity
  8
0
100
AcDbLine
 62
7
  6
CONTINUOUS
 10
63.526452041
 20
385.3983962006
 11
60.1989525995
 21
385.3983962006
  0
LINE
  5
29C
100
AcDbEntity
  8
0
100
AcDbLine
 62
7
  6
CONTINUOUS
 10
64.7122289201
 20
386.9308951273
 11
375.9038711921
 21
386.9308951273
  0
LINE
  5
29D
100
AcDbEntity
  8
0
100
AcDbLine
 62
7
  6
CONTINUOUS
 10
296.3617371422
 20
387.9796633567
 11
64.1443010935
 21
387.9796633567
  0
LINE
  5
29E
100
AcDbEntity
  8
0
100
AcDbLine
 62
7
  6
CONTINUOUS
 10
296.3617371561
 20
387.9862768422
 11
64.1443010935
 21
387.9862768422
  0
LINE
  5
29F
100
AcDbEntity
  8
0
100
AcDbLine
 62
7
  6
CONTINUOUS
 10
375.4334005158
 20
395.9158459489
 11
297.2437005393
 21
395.9158459489
  0
LINE
  5
2A0
100
AcDbEntity
  8
0
100
AcDbLine
 62
7
  6
CONTINUOUS
 10
61.2965846556
 20
406.7332956973
 11
295.2031547367
 21
406.7332956973
  0
LINE
  5
2A1
100
AcDbEntity
  8
0
100
AcDbLine
 62
7
  6
CONTINUOUS
 10
59.9143280292
 20
406.742013927
 11
60.2978901094
 21
406.742013927
  0
LINE
  5
2A2
100
AcDbEntity
  8
0
100
AcDbLine
 62
7
  6
CONTINUOUS
 10
60.4136413758
 20
407.2158459489
 11
295.7029264071
 21
407.2158459489
  0
LINE
  5
2A3
100
AcDbEntity
  8
0
100
AcDbLine
 62
7
  6
CONTINUOUS
 10
83.040274411
 20
407.2747811524
 11
88.91454297
 21
407.2747811524
  0
LINE
  5
2A4
100
AcDbEntity
  8
0
100
AcDbLine
 62
7
  6
CONTINUOUS
 10
162.8721721711
 20
407.5158459489
 11
157.38264521
 21
407.5158459489
  0
LINE
  5
2A5
100
AcDbEntity
  8
0
100
AcDbLine
 62
7
  6
CONTINUOUS
 10
332.5750054405
 20
376.9158459489
 11
332.5767748038
 21
377.4158459489
  0
LINE
  5
2A6
100
AcDbEntity
  8
0
100
AcDbLine
 62
7
  6
CONTINUOUS
 10
336.5447639284
 20
376.9158459489
 11
336.5465332918
 21
377.4158459489
  0
LINE
  5
2A7
100
AcDbEntity
  8
0
100
AcDbLine
 62
7
  6
CONTINUOUS
 10
297.2437005393
 20
395.9157952285
 11
296.9686074827
 21
395.9983845822
  0
LINE
  5
2A8
100
AcDbEntity
  8
0
100
AcDbLine
 62
7
  6
CONTINUOUS
 10
296.9686074827
 20
395.9983845822
 11
296.7448008464
 21
396.3892871541
  0
LINE
  5
2A9
100
AcDbEntity
  8
0
100
AcDbLine
 62
7
  6
CONTINUOUS
 10
346.8774086905
 20
376.9158459489
 11
346.8730452566
 21
377.4158459489
  0
LINE
  5
2AA
100
AcDbEntity
  8
0
100
AcDbLine
 62
7
  6
CONTINUOUS
 10
363.8679749351
 20
279.9114826812
 11
363.1378428017
 21
376.5193365631
  0
LINE
  5
2AB
100
AcDbEntity
  8
0
100
AcDbLine
 62
7
  6
CONTINUOUS
 10
360.0795142091
 20
279.4158459489
 11
360.0795142091
 21
279.8896779708
  0
LINE
  5
2AC
100
AcDbEntity
  8
0
100
AcDbLine
 62
7
  6
CONTINUOUS
 10
360.1774086905
 20
376.9158459489
 11
360.1774086905
 21
377.4158459489
  0
LINE
  5
2AD
100
AcDbEntity
  8
0
100
AcDbLine
 62
7
  6
CONTINUOUS
 10
362.0299229162
 20
376.9158459489
 11
362.0299229162
 21
376.5367803314
  0
LINE
  5
2AE
100
AcDbEntity
  8
0
100
AcDbLine
 62
7
  6
CONTINUOUS
 10
356.8774086905
 20
376.9158459489
 11
356.8817721244
 21
377.4158459489
  0
LINE
  5
2AF
100
AcDbEntity
  8
0
100
AcDbLine
 62
7
  6
CONTINUOUS
 10
364.9274086905
 20
280.9158459489
 11
364.9012260931
 21
279.4158459489
  0
LINE
  5
2B0
100
AcDbEntity
  8
0
100
AcDbLine
 62
7
  6
CONTINUOUS
 10
360.0795142092
 20
279.8896779708
 11
362.0299229557
 21
376.5367803314
  0
LINE
  5
2B1
100
AcDbEntity
  8
0
100
AcDbLine
 62
7
  6
CONTINUOUS
 10
362.8964434229
 20
376.5193365631
 11
360.9468267421
 21
279.9114826812
  0
LINE
  5
2B2
100
AcDbEntity
  8
0
100
AcDbLine
 62
7
  6
CONTINUOUS
 10
388.0339040825
 20
208.3785856965
 11
388.1043783715
 21
208.1158459489
  0
LINE
  5
2B3
100
AcDbEntity
  8
0
100
AcDbLine
 62
7
  6
CONTINUOUS
 10
376.3780939232
 20
377.4158459489
 11
375.9771916572
 21
385.0655168843
  0
LINE
  5
2B4
100
AcDbEntity
  8
0
100
AcDbLine
 62
7
  6
CONTINUOUS
 10
375.9327153551
 20
395.4416686101
 11
376.8774086905
 21
377.4158459489
  0
LINE
  5
2B5
100
AcDbEntity
  8
0
100
AcDbLine
 62
7
  6
CONTINUOUS
 10
375.9038711921
 20
386.9308951273
 11
375.4334005158
 21
395.9158459489
  0
LINE
  5
2B6
100
AcDbEntity
  8
0
100
AcDbLine
 62
7
  6
CONTINUOUS
 10
375.9771912209
 20
385.0655168758
 11
375.9038701035
 21
386.9308951273
  0
LINE
  5
2B7
100
AcDbEntity
  8
0
100
AcDbLine
 62
7
  6
CONTINUOUS
 10
372.4274086905
 20
280.9158459489
 11
372.4535912879
 21
279.4158459489
  0
LINE
  5
2B8
100
AcDbEntity
  8
0
100
AcDbLine
 62
7
  6
CONTINUOUS
 10
368.1774086905
 20
376.9158459489
 11
368.1774086905
 21
377.4158459489
  0
LINE
  5
2B9
100
AcDbEntity
  8
0
100
AcDbLine
 62
7
  6
CONTINUOUS
 10
368.6774086906
 20
280.9158459489
 11
368.6774086905
 21
376.9158459489
  0
LINE
  5
2BA
100
AcDbEntity
  8
0
100
AcDbLine
 62
7
  6
CONTINUOUS
 10
371.6774086905
 20
263.9158459489
 11
371.6774086905
 21
266.9158459489
  0
LINE
  5
2BB
100
AcDbEntity
  8
0
100
AcDbLine
 62
7
  6
CONTINUOUS
 10
373.6774086905
 20
263.9158459489
 11
373.6774086905
 21
266.9158459489
  0
LINE
  5
2BC
100
AcDbEntity
  8
0
100
AcDbLine
 62
7
  6
CONTINUOUS
 10
374.9123081808
 20
266.9158459489
 11
374.9123171979
 21
278.9288545516
  0
LINE
  5
2BD
100
AcDbEntity
  8
0
100
AcDbLine
 62
7
  6
CONTINUOUS
 10
375.8774087672
 20
376.9158459489
 11
375.8774087672
 21
376.5193365631
  0
LINE
  5
2BE
100
AcDbEntity
  8
0
100
AcDbLine
 62
7
  6
CONTINUOUS
 10
375.8774086905
 20
279.0905374604
 11
375.8774086905
 21
278.9694139354
  0
LINE
  5
2BF
100
AcDbEntity
  8
0
100
AcDbLine
 62
7
  6
CONTINUOUS
 10
375.8774086905
 20
278.9143994885
 11
375.8774086905
 21
266.9158459489
  0
LINE
  5
2C0
100
AcDbEntity
  8
0
100
AcDbLine
 62
7
  6
CONTINUOUS
 10
376.4913684866
 20
375.9190907855
 11
376.4913684866
 21
279.6635542875
  0
LINE
  5
2C1
100
AcDbEntity
  8
0
100
AcDbLine
 62
7
  6
CONTINUOUS
 10
376.8297896429
 20
279.1573348395
 11
376.8297896429
 21
279.0464083617
  0
LINE
  5
2C2
100
AcDbEntity
  8
0
100
AcDbLine
 62
7
  6
CONTINUOUS
 10
376.8774086905
 20
279.1725442065
 11
376.8774086905
 21
376.9158459489
  0
LINE
  5
2C3
100
AcDbEntity
  8
0
100
AcDbLine
 62
7
  6
CONTINUOUS
 10
379.2774086905
 20
358.5157619741
 11
379.2774086905
 21
357.9690480684
  0
LINE
  5
2C4
100
AcDbEntity
  8
0
100
AcDbLine
 62
7
  6
CONTINUOUS
 10
379.2774086905
 20
323.0157416647
 11
379.2774086905
 21
295.2659727236
  0
LINE
  5
2C5
100
AcDbEntity
  8
0
100
AcDbLine
 62
7
  6
CONTINUOUS
 10
379.5774086905
 20
320.5158459489
 11
379.5774086905
 21
360.5158459489
  0
LINE
  5
2C6
100
AcDbEntity
  8
0
100
AcDbLine
 62
7
  6
CONTINUOUS
 10
379.6774086905
 20
260.9158459489
 11
379.6774086905
 21
266.9158459489
  0
LINE
  5
2C7
100
AcDbEntity
  8
0
100
AcDbLine
 62
7
  6
CONTINUOUS
 10
379.7378107037
 20
266.9158459489
 11
379.7378107037
 21
278.837716364
  0
LINE
  5
2C8
100
AcDbEntity
  8
0
100
AcDbLine
 62
7
  6
CONTINUOUS
 10
380.6031656401
 20
360.5158459489
 11
380.6031656401
 21
320.5158459489
  0
LINE
  5
2C9
100
AcDbEntity
  8
0
100
AcDbLine
 62
7
  6
CONTINUOUS
 10
380.6274086905
 20
279.2630796103
 11
380.6274086905
 21
279.2578645147
  0
LINE
  5
2CA
100
AcDbEntity
  8
0
100
AcDbLine
 62
7
  6
CONTINUOUS
 10
380.9774086905
 20
280.3428155243
 11
380.9774086905
 21
280.3357943433
  0
LINE
  5
2CB
100
AcDbEntity
  8
0
100
AcDbLine
 62
7
  6
CONTINUOUS
 10
368.89922586
 20
376.9158459489
 11
368.9035892939
 21
377.4158459489
  0
LINE
  5
2CC
100
AcDbEntity
  8
0
100
AcDbLine
 62
7
  6
CONTINUOUS
 10
374.4573515485
 20
266.9158459489
 11
374.6671085895
 21
278.933422048
  0
LINE
  5
2CD
100
AcDbEntity
  8
0
100
AcDbLine
 62
7
  6
CONTINUOUS
 10
376.366249486
 20
376.2765355482
 11
374.6841923272
 21
279.9115454638
  0
LINE
  5
2CE
100
AcDbEntity
  8
0
100
AcDbLine
 62
7
  6
CONTINUOUS
 10
388.0339040825
 20
258.3785856965
 11
388.1043783715
 21
258.1158459489
  0
LINE
  5
2CF
100
AcDbEntity
  8
0
100
AcDbLine
 62
7
  6
CONTINUOUS
 10
375.8774095718
 20
278.9143995737
 11
375.8467664278
 21
279.0833157552
  0
LINE
  5
2D0
100
AcDbEntity
  8
0
100
AcDbLine
 62
7
  6
CONTINUOUS
 10
386.5794725516
 20
279.1352611387
 11
386.5984358734
 21
278.9185093788
  0
LINE
  5
2D1
100
AcDbEntity
  8
0
100
AcDbLine
 62
7
  6
CONTINUOUS
 10
382.7274086905
 20
279.2578645147
 11
382.7274086905
 21
279.4805858124
  0
LINE
  5
2D2
100
AcDbEntity
  8
0
100
AcDbLine
 62
7
  6
CONTINUOUS
 10
382.8274086905
 20
280.3357943433
 11
382.8274086905
 21
280.5687784294
  0
LINE
  5
2D3
100
AcDbEntity
  8
0
100
AcDbLine
 62
7
  6
CONTINUOUS
 10
383.4274086905
 20
279.4805858124
 11
383.4274086905
 21
279.2578645147
  0
LINE
  5
2D4
100
AcDbEntity
  8
0
100
AcDbLine
 62
7
  6
CONTINUOUS
 10
383.5274086905
 20
280.5687784294
 11
383.5274086905
 21
280.3357943433
  0
LINE
  5
2D5
100
AcDbEntity
  8
0
100
AcDbLine
 62
7
  6
CONTINUOUS
 10
385.3774086905
 20
280.3357943433
 11
385.3774086905
 21
280.3428155185
  0
LINE
  5
2D6
100
AcDbEntity
  8
0
100
AcDbLine
 62
7
  6
CONTINUOUS
 10
385.5274086905
 20
279.2578645147
 11
385.5274086905
 21
279.2630796196
  0
LINE
  5
2D7
100
AcDbEntity
  8
0
100
AcDbLine
 62
7
  6
CONTINUOUS
 10
385.6774086905
 20
201.9158459489
 11
385.6774086905
 21
198.9158459489
  0
LINE
  5
2D8
100
AcDbEntity
  8
0
100
AcDbLine
 62
7
  6
CONTINUOUS
 10
385.6774086905
 20
265.9158459489
 11
385.6774086905
 21
266.9158459489
  0
LINE
  5
2D9
100
AcDbEntity
  8
0
100
AcDbLine
 62
7
  6
CONTINUOUS
 10
387.6774086905
 20
198.9158459489
 11
387.6774086905
 21
266.9158459489
  0
LINE
  5
2DA
100
AcDbEntity
  8
0
100
AcDbLine
 62
7
  6
CONTINUOUS
 10
388.0339040825
 20
205.9158459489
 11
388.0339308693
 21
203.4532002898
  0
LINE
  5
2DB
100
AcDbEntity
  8
0
100
AcDbLine
 62
7
  6
CONTINUOUS
 10
388.0339347867
 20
258.3784777691
 11
388.0339308693
 21
253.4532002898
  0
LINE
  5
2DC
100
AcDbEntity
  8
0
100
AcDbLine
 62
7
  6
CONTINUOUS
 10
388.0339347867
 20
208.3784777691
 11
388.0339040825
 21
205.9158459489
  0
LINE
  5
2DD
100
AcDbEntity
  8
0
100
AcDbLine
 62
7
  6
CONTINUOUS
 10
388.6939675476
 20
266.9158459489
 11
388.8930009316
 21
278.318460884
  0
LINE
  5
2DE
100
AcDbEntity
  8
0
100
AcDbLine
 62
7
  6
CONTINUOUS
 10
389.6592203789
 20
266.9158459489
 11
389.8578074436
 21
278.2928912618
  0
LINE
  5
2DF
100
AcDbEntity
  8
0
100
AcDbLine
 62
7
  6
CONTINUOUS
 10
388.1043783818
 20
253.7158459489
 11
388.0339040825
 21
253.4531061326
  0
LINE
  5
2E0
100
AcDbEntity
  8
0
100
AcDbLine
 62
7
  6
CONTINUOUS
 10
388.1043783818
 20
203.7158459489
 11
388.0339040825
 21
203.4531061326
  0
ARC
  5
2E1
100
AcDbEntity
  8
0
100
AcDbCircle
 62
7
  6
CONTINUOUS
 10
53.4721492195
 20
279.9158459489
 40
0.5
100
AcDbArc
 50
270.0
 51
357.4
  0
ARC
  5
2E2
100
AcDbEntity
  8
0
100
AcDbCircle
 62
7
  6
CONTINUOUS
 10
75.7372029021
 20
279.9158459489
 40
0.5
100
AcDbArc
 50
270.0
 51
358.5
  0
ARC
  5
2E3
100
AcDbEntity
  8
0
100
AcDbCircle
 62
7
  6
CONTINUOUS
 10
50.7965536765
 20
278.9158518763
 40
0.4997866673
100
AcDbArc
 50
89.9760477854
 51
177.9998428422
  0
ARC
  5
2E4
100
AcDbEntity
  8
0
100
AcDbCircle
 62
7
  6
CONTINUOUS
 10
64.7965526922
 20
278.9158536177
 40
0.4997854366
100
AcDbArc
 50
89.9759348982
 51
178.0000384149
  0
ARC
  5
2E5
100
AcDbEntity
  8
0
100
AcDbCircle
 62
7
  6
CONTINUOUS
 10
58.803139986
 20
439.7470724057
 40
54.3665984198
100
AcDbArc
 50
271.1127082232
 51
271.4712379088
  0
ARC
  5
2E6
100
AcDbEntity
  8
0
100
AcDbCircle
 62
7
  6
CONTINUOUS
 10
201.8874093158
 20
330.2921680045
 40
46.2454671739
100
AcDbArc
 50
89.3310316168
 51
89.6516071935
  0
ARC
  5
2E7
100
AcDbEntity
  8
0
100
AcDbCircle
 62
7
  6
CONTINUOUS
 10
85.9774086905
 20
397.7158459489
 40
10.0
100
AcDbArc
 50
72.9195950896
 51
107.0804049104
  0
ARC
  5
2E8
100
AcDbEntity
  8
0
100
AcDbCircle
 62
7
  6
CONTINUOUS
 10
83.333987839
 20
406.318887632
 40
1.0
100
AcDbArc
 50
107.0804049104
 51
114.226319051
  0
ARC
  5
2E9
100
AcDbEntity
  8
0
100
AcDbCircle
 62
7
  6
CONTINUOUS
 10
88.6208295421
 20
406.318887632
 40
1.0
100
AcDbArc
 50
65.773680949
 51
72.9195950896
  0
ARC
  5
2EA
100
AcDbEntity
  8
0
100
AcDbCircle
 62
7
  6
CONTINUOUS
 10
64.1516799822
 20
387.4729764457
 40
0.5068674794
100
AcDbArc
 50
141.4194341617
 51
151.1342871366
  0
ARC
  5
2EB
100
AcDbEntity
  8
0
100
AcDbCircle
 62
7
  6
CONTINUOUS
 10
64.1491553395
 20
387.4745836548
 40
0.5038917067
100
AcDbArc
 50
133.2057350674
 51
141.3832758303
  0
ARC
  5
2EC
100
AcDbEntity
  8
0
100
AcDbCircle
 62
7
  6
CONTINUOUS
 10
60.4136427965
 20
406.7158459489
 40
0.5
100
AcDbArc
 50
90.0
 51
177.0
  0
ARC
  5
2ED
100
AcDbEntity
  8
0
100
AcDbCircle
 62
7
  6
CONTINUOUS
 10
64.1443010935
 20
387.4862768422
 40
0.5
100
AcDbArc
 50
133.2339750102
 51
176.7153081511
  0
ARC
  5
2EE
100
AcDbEntity
  8
0
100
AcDbCircle
 62
7
  6
CONTINUOUS
 10
64.143118872
 20
387.47829875
 40
0.49680095
100
AcDbArc
 50
151.1951902227
 51
161.5851555641
  0
ARC
  5
2EF
100
AcDbEntity
  8
0
100
AcDbCircle
 62
7
  6
CONTINUOUS
 10
58.7596569932
 20
376.5158459489
 40
0.4
100
AcDbArc
 50
90.0001098933
 51
177.4
  0
ARC
  5
2F0
100
AcDbEntity
  8
0
100
AcDbCircle
 62
7
  6
CONTINUOUS
 10
79.1670714389
 20
376.5158459489
 40
0.4
100
AcDbArc
 50
90.0
 51
178.499999938
  0
ARC
  5
2F1
100
AcDbEntity
  8
0
100
AcDbCircle
 62
7
  6
CONTINUOUS
 10
364.6960728991
 20
205.8374979159
 40
74.7560757064
100
AcDbArc
 50
81.4005153248
 51
81.7130118568
  0
ARC
  5
2F2
100
AcDbEntity
  8
0
100
AcDbCircle
 62
7
  6
CONTINUOUS
 10
371.4357408515
 20
251.9583971719
 40
28.1453558302
100
AcDbArc
 50
81.7574366094
 51
82.1608719163
  0
ARC
  5
2F3
100
AcDbEntity
  8
0
100
AcDbCircle
 62
7
  6
CONTINUOUS
 10
379.3774086905
 20
205.9158459489
 40
8.9931918694
100
AcDbArc
 50
5.4234599647
 51
14.1599391949
  0
ARC
  5
2F4
100
AcDbEntity
  8
0
100
AcDbCircle
 62
7
  6
CONTINUOUS
 10
379.3774086905
 20
205.9158459489
 40
8.9931918694
100
AcDbArc
 50
345.8400608051
 51
354.5765400353
  0
ARC
  5
2F5
100
AcDbEntity
  8
0
100
AcDbCircle
 62
7
  6
CONTINUOUS
 10
379.3774086905
 20
205.9158459489
 40
8.7269696917
100
AcDbArc
 50
357.7015042677
 51
2.2984957323
  0
ARC
  5
2F6
100
AcDbEntity
  8
0
100
AcDbCircle
 62
7
  6
CONTINUOUS
 10
386.7835214148
 20
208.0228567025
 40
1.3
100
AcDbArc
 50
15.8808500083
 51
43.5675078056
  0
ARC
  5
2F7
100
AcDbEntity
  8
0
100
AcDbCircle
 62
7
  6
CONTINUOUS
 10
386.7835214148
 20
203.8088351953
 40
1.3
100
AcDbArc
 50
316.4324921944
 51
344.1191499917
  0
ARC
  5
2F8
100
AcDbEntity
  8
0
100
AcDbCircle
 62
7
  6
CONTINUOUS
 10
379.3774086905
 20
255.9158459489
 40
8.9931918694
100
AcDbArc
 50
5.4234599647
 51
14.1599391949
  0
ARC
  5
2F9
100
AcDbEntity
  8
0
100
AcDbCircle
 62
7
  6
CONTINUOUS
 10
379.3774086905
 20
255.9158459489
 40
8.9931918694
100
AcDbArc
 50
345.8400608051
 51
354.5765400353
  0
ARC
  5
2FA
100
AcDbEntity
  8
0
100
AcDbCircle
 62
7
  6
CONTINUOUS
 10
379.3774086905
 20
255.9158459489
 40
8.7269696917
100
AcDbArc
 50
357.7015042677
 51
2.2984957323
  0
ARC
  5
2FB
100
AcDbEntity
  8
0
100
AcDbCircle
 62
7
  6
CONTINUOUS
 10
383.0774086905
 20
267.5158459489
 40
12.0
100
AcDbArc
 50
101.7807208742
 51
104.8172769964
  0
ARC
  5
2FC
100
AcDbEntity
  8
0
100
AcDbCircle
 62
7
  6
CONTINUOUS
 10
383.0774086905
 20
267.5158459489
 40
12.0
100
AcDbArc
 50
74.5060325195
 51
78.2192791349
  0
ARC
  5
2FD
100
AcDbEntity
  8
0
100
AcDbCircle
 62
7
  6
CONTINUOUS
 10
383.0774086905
 20
267.5158459489
 40
11.9948947473
100
AcDbArc
 50
78.2141931175
 51
85.9364157753
  0
ARC
  5
2FE
100
AcDbEntity
  8
0
100
AcDbCircle
 62
7
  6
CONTINUOUS
 10
383.0774086905
 20
267.5158459489
 40
11.9948947473
100
AcDbArc
 50
94.0635842247
 51
101.7858068825
  0
ARC
  5
2FF
100
AcDbEntity
  8
0
100
AcDbCircle
 62
7
  6
CONTINUOUS
 10
383.0774086905
 20
267.5158459489
 40
11.7472337169
100
AcDbArc
 50
88.2926626465
 51
91.7073373535
  0
ARC
  5
300
100
AcDbEntity
  8
0
100
AcDbCircle
 62
7
  6
CONTINUOUS
 10
383.1774086905
 20
271.6158459489
 40
9.0
100
AcDbArc
 50
74.1191501146
 51
75.8509954725
  0
ARC
  5
301
100
AcDbEntity
  8
0
100
AcDbCircle
 62
7
  6
CONTINUOUS
 10
383.1774086905
 20
271.6158459489
 40
8.9931918694
100
AcDbArc
 50
75.8400608051
 51
84.5765400353
  0
ARC
  5
302
100
AcDbEntity
  8
0
100
AcDbCircle
 62
7
  6
CONTINUOUS
 10
383.1774086905
 20
271.6158459489
 40
8.9931918694
100
AcDbArc
 50
95.4234599647
 51
104.1599391949
  0
ARC
  5
303
100
AcDbEntity
  8
0
100
AcDbCircle
 62
7
  6
CONTINUOUS
 10
383.1774086905
 20
271.6158459489
 40
8.7269696917
100
AcDbArc
 50
87.7015042677
 51
92.2984957323
  0
ARC
  5
304
100
AcDbEntity
  8
0
100
AcDbCircle
 62
7
  6
CONTINUOUS
 10
382.7029292247
 20
272.8043022333
 40
6.6931960712
100
AcDbArc
 50
92.3726640777
 51
94.0740315202
  0
ARC
  5
305
100
AcDbEntity
  8
0
100
AcDbCircle
 62
7
  6
CONTINUOUS
 10
383.4686357054
 20
273.1019322493
 40
6.3951289227
100
AcDbArc
 50
85.8861886402
 51
87.6670800112
  0
ARC
  5
306
100
AcDbEntity
  8
0
100
AcDbCircle
 62
7
  6
CONTINUOUS
 10
382.822016337
 20
275.3604155571
 40
5.231795154
100
AcDbArc
 50
94.2200594887
 51
95.4247756475
  0
ARC
  5
307
100
AcDbEntity
  8
0
100
AcDbCircle
 62
7
  6
CONTINUOUS
 10
383.5383257359
 20
275.4260163003
 40
5.1659659748
100
AcDbArc
 50
84.5674399272
 51
85.787516511
  0
ARC
  5
308
100
AcDbEntity
  8
0
100
AcDbCircle
 62
7
  6
CONTINUOUS
 10
382.6234402421
 20
274.6068816725
 40
4.8888735826
100
AcDbArc
 50
91.4051195982
 51
92.316457763
  0
ARC
  5
309
100
AcDbEntity
  8
0
100
AcDbCircle
 62
7
  6
CONTINUOUS
 10
382.7797934048
 20
275.9232092401
 40
4.6674203089
100
AcDbArc
 50
93.3191881742
 51
94.2115406927
  0
ARC
  5
30A
100
AcDbEntity
  8
0
100
AcDbCircle
 62
7
  6
CONTINUOUS
 10
383.5389548277
 20
274.8405362877
 40
4.6551035139
100
AcDbArc
 50
87.6607957507
 51
88.6175914916
  0
ARC
  5
30B
100
AcDbEntity
  8
0
100
AcDbCircle
 62
7
  6
CONTINUOUS
 10
383.5818313146
 20
276.0261472984
 40
4.5642605621
100
AcDbArc
 50
85.7787937487
 51
86.6912784267
  0
ARC
  5
30C
100
AcDbEntity
  8
0
100
AcDbCircle
 62
7
  6
CONTINUOUS
 10
382.6824992688
 20
278.3544708729
 40
2.2339478581
100
AcDbArc
 50
90.0394863225
 51
91.1037103263
  0
ARC
  5
30D
100
AcDbEntity
  8
0
100
AcDbCircle
 62
7
  6
CONTINUOUS
 10
383.6732645373
 20
278.4549475284
 40
2.1334707545
100
AcDbArc
 50
88.8696200008
 51
89.9840658234
  0
ARC
  5
30E
100
AcDbEntity
  8
0
100
AcDbCircle
 62
7
  6
CONTINUOUS
 10
378.5360285569
 20
279.388438773
 40
2.0631095268
100
AcDbArc
 50
172.3366681145
 51
174.5528933895
  0
ARC
  5
30F
100
AcDbEntity
  8
0
100
AcDbCircle
 62
7
  6
CONTINUOUS
 10
378.1372591304
 20
279.4253993706
 40
1.6626326281
100
AcDbArc
 50
174.5163575551
 51
176.8176043075
  0
ARC
  5
310
100
AcDbEntity
  8
0
100
AcDbCircle
 62
7
  6
CONTINUOUS
 10
382.6814695903
 20
278.9744300368
 40
1.6139882442
100
AcDbArc
 50
88.7006547201
 51
90.0181005969
  0
ARC
  5
311
100
AcDbEntity
  8
0
100
AcDbCircle
 62
7
  6
CONTINUOUS
 10
383.6721531669
 20
279.0772975866
 40
1.5111215754
100
AcDbArc
 50
89.9353645986
 51
91.3426612669
  0
ARC
  5
312
100
AcDbEntity
  8
0
100
AcDbCircle
 62
7
  6
CONTINUOUS
 10
381.0703979369
 20
279.0219586732
 40
1.3
100
AcDbArc
 50
105.8808500083
 51
175.0
  0
ARC
  5
313
100
AcDbEntity
  8
0
100
AcDbCircle
 62
7
  6
CONTINUOUS
 10
386.7835214148
 20
258.0228567025
 40
1.3
100
AcDbArc
 50
15.8808500083
 51
43.5675078056
  0
ARC
  5
314
100
AcDbEntity
  8
0
100
AcDbCircle
 62
7
  6
CONTINUOUS
 10
386.7835214148
 20
253.8088351953
 40
1.3
100
AcDbArc
 50
316.4324921944
 51
344.1191499917
  0
ARC
  5
315
100
AcDbEntity
  8
0
100
AcDbCircle
 62
7
  6
CONTINUOUS
 10
385.8556326259
 20
277.5378952286
 40
1.6
100
AcDbArc
 50
60.0155707441
 51
74.5060324995
  0
ARC
  5
316
100
AcDbEntity
  8
0
100
AcDbCircle
 62
7
  6
CONTINUOUS
 10
385.2844194441
 20
279.0219586732
 40
1.3
100
AcDbArc
 50
5.0
 51
74.1191499917
  0
ARC
  5
317
100
AcDbEntity
  8
0
100
AcDbCircle
 62
7
  6
CONTINUOUS
 10
389.3578835959
 20
278.301617465
 40
0.5
100
AcDbArc
 50
359.0
 51
87.9999999982
  0
ARC
  5
318
100
AcDbEntity
  8
0
100
AcDbCircle
 62
7
  6
CONTINUOUS
 10
334.7774086905
 20
340.5158459489
 40
50.0
100
AcDbArc
 50
336.4218215218
 51
23.5781784782
  0
ARC
  5
319
100
AcDbEntity
  8
0
100
AcDbCircle
 62
7
  6
CONTINUOUS
 10
221.4689730691
 20
330.1190131465
 40
46.4186289299
100
AcDbArc
 50
90.3490249069
 51
90.6684049164
  0
ARC
  5
31A
100
AcDbEntity
  8
0
100
AcDbCircle
 62
7
  6
CONTINUOUS
 10
361.6714823694
 20
331.4306037558
 40
45.1076005277
100
AcDbArc
 50
89.1122423815
 51
89.5447031461
  0
ARC
  5
31B
100
AcDbEntity
  8
0
100
AcDbCircle
 62
7
  6
CONTINUOUS
 10
221.3544274877
 20
339.5252261666
 40
37.011720029
100
AcDbArc
 50
90.6609609129
 51
91.0343618504
  0
ARC
  5
31C
100
AcDbEntity
  8
0
100
AcDbCircle
 62
7
  6
CONTINUOUS
 10
221.1399156437
 20
351.4219742555
 40
25.1130381565
100
AcDbArc
 50
91.0350090606
 51
91.5078264662
  0
ARC
  5
31D
100
AcDbEntity
  8
0
100
AcDbCircle
 62
7
  6
CONTINUOUS
 10
295.8921421607
 20
415.7493566659
 40
20.5399719994
100
AcDbArc
 50
273.1908998217
 51
273.8707075496
  0
ARC
  5
31E
100
AcDbEntity
  8
0
100
AcDbCircle
 62
7
  6
CONTINUOUS
 10
296.1161665811
 20
411.8171590821
 40
16.601401665
100
AcDbArc
 50
272.7282432495
 51
273.1743355532
  0
ARC
  5
31F
100
AcDbEntity
  8
0
100
AcDbCircle
 62
7
  6
CONTINUOUS
 10
296.3619728599
 20
393.9916252153
 40
6.0119618633
100
AcDbArc
 50
269.997753541
 51
271.7273681651
  0
ARC
  5
320
100
AcDbEntity
  8
0
100
AcDbCircle
 62
7
  6
CONTINUOUS
 10
292.3468777379
 20
393.8595448083
 40
4.298493835
100
AcDbArc
 50
7.9328597959
 51
13.6352499139
  0
ARC
  5
321
100
AcDbEntity
  8
0
100
AcDbCircle
 62
7
  6
CONTINUOUS
 10
378.0274086905
 20
323.9658459489
 40
1.55
100
AcDbArc
 50
224.3887043368
 51
360.0
  0
ARC
  5
322
100
AcDbEntity
  8
0
100
AcDbCircle
 62
7
  6
CONTINUOUS
 10
378.0274086905
 20
357.0658459489
 40
1.55
100
AcDbArc
 50
0.0
 51
135.6112956632
  0
ARC
  5
323
100
AcDbEntity
  8
0
100
AcDbCircle
 62
7
  6
CONTINUOUS
 10
375.8774086905
 20
375.9158459489
 40
1.0
100
AcDbArc
 50
0.0000000048
 51
90.0
  0
ARC
  5
324
100
AcDbEntity
  8
0
100
AcDbCircle
 62
7
  6
CONTINUOUS
 10
375.9524738644
 20
375.9320424832
 40
0.5378060345
100
AcDbArc
 50
12.7797361025
 51
26.1419476741
  0
ARC
  5
325
100
AcDbEntity
  8
0
100
AcDbCircle
 62
7
  6
CONTINUOUS
 10
375.433384333
 20
395.4158160802
 40
0.4999999992
100
AcDbArc
 50
3.0
 51
90.0244689388
  0
ARC
  5
326
100
AcDbEntity
  8
0
100
AcDbCircle
 62
7
  6
CONTINUOUS
 10
295.7032328089
 20
406.7158393444
 40
0.4996732249
100
AcDbArc
 50
3.002594958
 51
90.0351105827
  0
SPLINE
  5
327
100
AcDbEntity
  8
0
100
AcDbSpline
 62
7
  6
CONTINUOUS
 70
0
 71
3
 72
9
 73
5
 74
0
 42
0.0000001
 43
0.0000001
 44
0.0000000001
 40
0.0
 40
0.0
 40
0.0
 40
0.0
 40
0.2655566954
 40
1.0
 40
1.0
 40
1.0
 40
1.0
 10
382.5095573991
 20
280.5827998703
 30
0.0
 10
382.5210474695
 20
280.5834630231
 30
0.0
 10
382.5643249098
 20
280.5857830997
 30
0.0
 10
382.6076436468
 20
280.5873979212
 30
0.0
 10
382.6394685455
 20
280.5880042596
 30
0.0
  0
SPLINE
  5
328
100
AcDbEntity
  8
0
100
AcDbSpline
 62
7
  6
CONTINUOUS
 70
0
 71
3
 72
13
 73
9
 74
0
 42
0.0000001
 43
0.0000001
 44
0.0000000001
 40
0.0
 40
0.0
 40
0.0
 40
0.0
 40
0.4133246141
 40
0.5799719356
 40
0.7185849794
 40
0.8287778874
 40
0.9107384808
 40
1.0
 40
1.0
 40
1.0
 40
1.0
 10
382.7180682417
 20
280.5880032738
 30
0.0
 10
382.733704143
 20
280.5876305248
 30
0.0
 10
382.7556298171
 20
280.5867606397
 30
0.0
 10
382.7827529056
 20
280.5842584559
 30
0.0
 10
382.7982516519
 20
280.5821609617
 30
0.0
 10
382.8107427229
 20
280.5794952535
 30
0.0
 10
382.8203063339
 20
280.5765838842
 30
0.0
 10
382.8274086905
 20
280.5721561156
 30
0.0
 10
382.8274086905
 20
280.5687784294
 30
0.0
  0
SPLINE
  5
329
100
AcDbEntity
  8
0
100
AcDbSpline
 62
7
  6
CONTINUOUS
 70
0
 71
3
 72
13
 73
9
 74
0
 42
0.0000001
 43
0.0000001
 44
0.0000000001
 40
0.0
 40
0.0
 40
0.0
 40
0.0
 40
0.0892805841
 40
0.171240884
 40
0.281448967
 40
0.4200663856
 40
0.5866990723
 40
1.0
 40
1.0
 40
1.0
 40
1.0
 10
383.5274086905
 20
280.5687784294
 30
0.0
 10
383.5274086905
 20
280.5721566934
 30
0.0
 10
383.5345140385
 20
280.576582146
 30
0.0
 10
383.5440768089
 20
280.5794967554
 30
0.0
 10
383.5565686559
 20
280.5821615177
 30
0.0
 10
383.572066701
 20
280.5842593585
 30
0.0
 10
383.599187372
 20
280.5867620622
 30
0.0
 10
383.6211106616
 20
280.5876313159
 30
0.0
 10
383.6367449966
 20
280.5880042679
 30
0.0
  0
SPLINE
  5
32A
100
AcDbEntity
  8
0
100
AcDbSpline
 62
7
  6
CONTINUOUS
 70
0
 71
3
 72
9
 73
5
 74
0
 42
0.0000001
 43
0.0000001
 44
0.0000000001
 40
0.0
 40
0.0
 40
0.0
 40
0.0
 40
0.2330116171
 40
1.0
 40
1.0
 40
1.0
 40
1.0
 10
383.7153527373
 20
280.5880030935
 30
0.0
 10
383.7254494903
 20
280.5878107558
 30
0.0
 10
383.7687759606
 20
280.5867231181
 30
0.0
 10
383.812076542
 20
280.584714515
 30
0.0
 10
383.84526215
 20
280.5827994327
 30
0.0
  0
SPLINE
  5
32B
100
AcDbEntity
  8
0
100
AcDbSpline
 62
7
  6
CONTINUOUS
 70
0
 71
3
 72
9
 73
5
 74
0
 42
0.0000001
 43
0.0000001
 44
0.0000000001
 40
0.0
 40
0.0
 40
0.0
 40
0.0
 40
0.2851246695
 40
1.0
 40
1.0
 40
1.0
 40
1.0
 10
382.503557703
 20
279.4942851838
 30
0.0
 10
382.5166559287
 20
279.4945984089
 30
0.0
 10
382.5625971661
 20
279.4954617799
 30
0.0
 10
382.6085728356
 20
279.495492145
 30
0.0
 10
382.6414038764
 20
279.4943834831
 30
0.0
  0
SPLINE
  5
32C
100
AcDbEntity
  8
0
100
AcDbSpline
 62
7
  6
CONTINUOUS
 70
0
 71
3
 72
11
 73
7
 74
0
 42
0.0000001
 43
0.0000001
 44
0.0000000001
 40
0.0
 40
0.0
 40
0.0
 40
0.0
 40
0.4187048151
 40
0.7258455445
 40
0.9168744567
 40
1.0
 40
1.0
 40
1.0
 40
1.0
 10
382.6414038764
 20
279.4943834831
 30
0.0
 10
382.6537536163
 20
279.4939664483
 30
0.0
 10
382.6748736839
 20
279.4930929994
 30
0.0
 10
382.7027022046
 20
279.4899920758
 30
0.0
 10
382.7179618791
 20
279.4875176771
 30
0.0
 10
382.7274086905
 20
279.4830374389
 30
0.0
 10
382.7274086905
 20
279.4805842453
 30
0.0
  0
SPLINE
  5
32D
100
AcDbEntity
  8
0
100
AcDbSpline
 62
7
  6
CONTINUOUS
 70
0
 71
3
 72
11
 73
7
 74
0
 42
0.0000001
 43
0.0000001
 44
0.0000000001
 40
0.0
 40
0.0
 40
0.0
 40
0.0
 40
0.083125318
 40
0.2741539246
 40
0.5812947357
 40
1.0
 40
1.0
 40
1.0
 40
1.0
 10
383.4274086905
 20
279.4805851714
 30
0.0
 10
383.4274086905
 20
279.4830382819
 30
0.0
 10
383.4368552173
 20
279.4875183509
 30
0.0
 10
383.4521144272
 20
279.4899925062
 30
0.0
 10
383.4799420918
 20
279.4930932904
 30
0.0
 10
383.5010615199
 20
279.493966652
 30
0.0
 10
383.5134108892
 20
279.4943836446
 30
0.0
  0
SPLINE
  5
32E
100
AcDbEntity
  8
0
100
AcDbSpline
 62
7
  6
CONTINUOUS
 70
0
 71
3
 72
9
 73
5
 74
0
 42
0.0000001
 43
0.0000001
 44
0.0000000001
 40
0.0
 40
0.0
 40
0.0
 40
0.0
 40
0.2125196902
 40
1.0
 40
1.0
 40
1.0
 40
1.0
 10
383.5134108892
 20
279.4943836446
 30
0.0
 10
383.5231713419
 20
279.4947132191
 30
0.0
 10
383.5691165485
 20
279.4957280358
 30
0.0
 10
383.6150832128
 20
279.4951501435
 30
0.0
 10
383.6512603135
 20
279.4942849061
 30
0.0
  0
SPLINE
  5
32F
100
AcDbEntity
  8
0
100
AcDbSpline
 62
7
  6
CONTINUOUS
 70
0
 71
3
 72
9
 73
5
 74
0
 42
0.0000001
 43
0.0000001
 44
0.0000000001
 40
0.0
 40
0.0
 40
0.0
 40
0.0
 40
0.2604252841
 40
1.0
 40
1.0
 40
1.0
 40
1.0
 10
388.330341171
 20
206.7658459489
 30
0.0
 10
388.3323669952
 20
206.7445082231
 30
0.0
 10
388.3396399301
 20
206.6625283247
 30
0.0
 10
388.345048545
 20
206.5803714633
 30
0.0
 10
388.3475479227
 20
206.5195538801
 30
0.0
  0
SPLINE
  5
330
100
AcDbEntity
  8
0
100
AcDbSpline
 62
7
  6
CONTINUOUS
 70
0
 71
3
 72
9
 73
5
 74
0
 42
0.0000001
 43
0.0000001
 44
0.0000000001
 40
0.0
 40
0.0
 40
0.0
 40
0.0
 40
0.268645305
 40
1.0
 40
1.0
 40
1.0
 40
1.0
 10
388.3475479227
 20
206.5195538801
 30
0.0
 10
388.3479424325
 20
206.5099542365
 30
0.0
 10
388.3492602803
 20
206.4742152036
 30
0.0
 10
388.3499824048
 20
206.4384503012
 30
0.0
 10
388.3499831523
 20
206.4122943607
 30
0.0
  0
SPLINE
  5
331
100
AcDbEntity
  8
0
100
AcDbSpline
 62
7
  6
CONTINUOUS
 70
0
 71
3
 72
9
 73
5
 74
0
 42
0.0000001
 43
0.0000001
 44
0.0000000001
 40
0.0
 40
0.0
 40
0.0
 40
0.0
 40
0.2827089459
 40
1.0
 40
1.0
 40
1.0
 40
1.0
 10
388.3499831523
 20
206.4122943607
 30
0.0
 10
388.3499833722
 20
206.4046021269
 30
0.0
 10
388.3498055161
 20
206.3773955925
 30
0.0
 10
388.3489605506
 20
206.3501778642
 30
0.0
 10
388.3475475783
 20
206.3307122916
 30
0.0
  0
SPLINE
  5
332
100
AcDbEntity
  8
0
100
AcDbSpline
 62
7
  6
CONTINUOUS
 70
0
 71
3
 72
10
 73
6
 74
0
 42
0.0000001
 43
0.0000001
 44
0.0000000001
 40
0.0
 40
0.0
 40
0.0
 40
0.0
 40
0.7068773438
 40
0.8983022976
 40
1.0
 40
1.0
 40
1.0
 40
1.0
 10
388.3475475783
 20
206.3307122916
 30
0.0
 10
388.3463682074
 20
206.3144648877
 30
0.0
 10
388.3439882779
 20
206.2934180043
 30
0.0
 10
388.3381576139
 20
206.2717167226
 30
0.0
 10
388.3326848181
 20
206.2658459489
 30
0.0
 10
388.330341171
 20
206.2658459489
 30
0.0
  0
SPLINE
  5
333
100
AcDbEntity
  8
0
100
AcDbSpline
 62
7
  6
CONTINUOUS
 70
0
 71
3
 72
10
 73
6
 74
0
 42
0.0000001
 43
0.0000001
 44
0.0000000001
 40
0.0
 40
0.0
 40
0.0
 40
0.0
 40
0.1017152528
 40
0.2931581172
 40
1.0
 40
1.0
 40
1.0
 40
1.0
 10
388.330341171
 20
205.5658459489
 30
0.0
 10
388.3326851907
 20
205.5658459489
 30
0.0
 10
388.3381555721
 20
205.5599705127
 30
0.0
 10
388.3439918401
 20
205.5382749201
 30
0.0
 10
388.3463686319
 20
205.517225648
 30
0.0
 10
388.3475479183
 20
205.5009792791
 30
0.0
  0
SPLINE
  5
334
100
AcDbEntity
  8
0
100
AcDbSpline
 62
7
  6
CONTINUOUS
 70
0
 71
3
 72
9
 73
5
 74
0
 42
0.0000001
 43
0.0000001
 44
0.0000000001
 40
0.0
 40
0.0
 40
0.0
 40
0.0
 40
0.216277955
 40
1.0
 40
1.0
 40
1.0
 40
1.0
 10
388.3475479183
 20
205.5009792791
 30
0.0
 10
388.3479739461
 20
205.4951101317
 30
0.0
 10
388.3495656791
 20
205.4679457068
 30
0.0
 10
388.3499825428
 20
205.4407243971
 30
0.0
 10
388.3499831523
 20
205.4194005302
 30
0.0
  0
SPLINE
  5
335
100
AcDbEntity
  8
0
100
AcDbSpline
 62
7
  6
CONTINUOUS
 70
0
 71
3
 72
9
 73
5
 74
0
 42
0.0000001
 43
0.0000001
 44
0.0000000001
 40
0.0
 40
0.0
 40
0.0
 40
0.0
 40
0.2301660672
 40
1.0
 40
1.0
 40
1.0
 40
1.0
 10
388.3499831523
 20
205.4194005302
 30
0.0
 10
388.3499833876
 20
205.411168759
 30
0.0
 10
388.3497442306
 20
205.3754043095
 30
0.0
 10
388.3486784368
 20
205.3396485598
 30
0.0
 10
388.3475477804
 20
205.31213907
 30
0.0
  0
SPLINE
  5
336
100
AcDbEntity
  8
0
100
AcDbSpline
 62
7
  6
CONTINUOUS
 70
0
 71
3
 72
9
 73
5
 74
0
 42
0.0000001
 43
0.0000001
 44
0.0000000001
 40
0.0
 40
0.0
 40
0.0
 40
0.0
 40
0.2351268954
 40
1.0
 40
1.0
 40
1.0
 40
1.0
 10
388.3475477804
 20
205.31213907
 30
0.0
 10
388.3467530837
 20
205.292803667
 30
0.0
 10
388.3426879581
 20
205.2105985528
 30
0.0
 10
388.3362911014
 20
205.1285157428
 30
0.0
 10
388.330341171
 20
205.0658459489
 30
0.0
  0
SPLINE
  5
337
100
AcDbEntity
  8
0
100
AcDbSpline
 62
7
  6
CONTINUOUS
 70
0
 71
3
 72
9
 73
5
 74
0
 42
0.0000001
 43
0.0000001
 44
0.0000000001
 40
0.0
 40
0.0
 40
0.0
 40
0.0
 40
0.2604252841
 40
1.0
 40
1.0
 40
1.0
 40
1.0
 10
388.330341171
 20
256.7658459489
 30
0.0
 10
388.3323669952
 20
256.7445082231
 30
0.0
 10
388.3396399301
 20
256.6625283247
 30
0.0
 10
388.345048545
 20
256.5803714633
 30
0.0
 10
388.3475479227
 20
256.5195538801
 30
0.0
  0
SPLINE
  5
338
100
AcDbEntity
  8
0
100
AcDbSpline
 62
7
  6
CONTINUOUS
 70
0
 71
3
 72
9
 73
5
 74
0
 42
0.0000001
 43
0.0000001
 44
0.0000000001
 40
0.0
 40
0.0
 40
0.0
 40
0.0
 40
0.268645305
 40
1.0
 40
1.0
 40
1.0
 40
1.0
 10
388.3475479227
 20
256.5195538801
 30
0.0
 10
388.3479424325
 20
256.5099542365
 30
0.0
 10
388.3492602803
 20
256.4742152036
 30
0.0
 10
388.3499824048
 20
256.4384503012
 30
0.0
 10
388.3499831523
 20
256.4122943607
 30
0.0
  0
SPLINE
  5
339
100
AcDbEntity
  8
0
100
AcDbSpline
 62
7
  6
CONTINUOUS
 70
0
 71
3
 72
9
 73
5
 74
0
 42
0.0000001
 43
0.0000001
 44
0.0000000001
 40
0.0
 40
0.0
 40
0.0
 40
0.0
 40
0.2827089459
 40
1.0
 40
1.0
 40
1.0
 40
1.0
 10
388.3499831523
 20
256.4122943607
 30
0.0
 10
388.3499833722
 20
256.4046021269
 30
0.0
 10
388.3498055161
 20
256.3773955925
 30
0.0
 10
388.3489605506
 20
256.3501778642
 30
0.0
 10
388.3475475783
 20
256.3307122916
 30
0.0
  0
SPLINE
  5
33A
100
AcDbEntity
  8
0
100
AcDbSpline
 62
7
  6
CONTINUOUS
 70
0
 71
3
 72
10
 73
6
 74
0
 42
0.0000001
 43
0.0000001
 44
0.0000000001
 40
0.0
 40
0.0
 40
0.0
 40
0.0
 40
0.7068773438
 40
0.8983022976
 40
1.0
 40
1.0
 40
1.0
 40
1.0
 10
388.3475475783
 20
256.3307122916
 30
0.0
 10
388.3463682074
 20
256.3144648877
 30
0.0
 10
388.3439882779
 20
256.2934180043
 30
0.0
 10
388.3381576139
 20
256.2717167226
 30
0.0
 10
388.3326848181
 20
256.2658459489
 30
0.0
 10
388.330341171
 20
256.2658459489
 30
0.0
  0
SPLINE
  5
33B
100
AcDbEntity
  8
0
100
AcDbSpline
 62
7
  6
CONTINUOUS
 70
0
 71
3
 72
10
 73
6
 74
0
 42
0.0000001
 43
0.0000001
 44
0.0000000001
 40
0.0
 40
0.0
 40
0.0
 40
0.0
 40
0.1017152528
 40
0.2931581172
 40
1.0
 40
1.0
 40
1.0
 40
1.0
 10
388.330341171
 20
255.5658459489
 30
0.0
 10
388.3326851907
 20
255.5658459489
 30
0.0
 10
388.3381555721
 20
255.5599705127
 30
0.0
 10
388.3439918401
 20
255.5382749201
 30
0.0
 10
388.3463686319
 20
255.517225648
 30
0.0
 10
388.3475479183
 20
255.5009792791
 30
0.0
  0
SPLINE
  5
33C
100
AcDbEntity
  8
0
100
AcDbSpline
 62
7
  6
CONTINUOUS
 70
0
 71
3
 72
9
 73
5
 74
0
 42
0.0000001
 43
0.0000001
 44
0.0000000001
 40
0.0
 40
0.0
 40
0.0
 40
0.0
 40
0.216277955
 40
1.0
 40
1.0
 40
1.0
 40
1.0
 10
388.3475479183
 20
255.5009792791
 30
0.0
 10
388.3479739461
 20
255.4951101317
 30
0.0
 10
388.3495656791
 20
255.4679457068
 30
0.0
 10
388.3499825428
 20
255.4407243971
 30
0.0
 10
388.3499831523
 20
255.4194005302
 30
0.0
  0
SPLINE
  5
33D
100
AcDbEntity
  8
0
100
AcDbSpline
 62
7
  6
CONTINUOUS
 70
0
 71
3
 72
9
 73
5
 74
0
 42
0.0000001
 43
0.0000001
 44
0.0000000001
 40
0.0
 40
0.0
 40
0.0
 40
0.0
 40
0.2301660672
 40
1.0
 40
1.0
 40
1.0
 40
1.0
 10
388.3499831523
 20
255.4194005302
 30
0.0
 10
388.3499833876
 20
255.411168759
 30
0.0
 10
388.3497442306
 20
255.3754043095
 30
0.0
 10
388.3486784368
 20
255.3396485598
 30
0.0
 10
388.3475477804
 20
255.31213907
 30
0.0
  0
SPLINE
  5
33E
100
AcDbEntity
  8
0
100
AcDbSpline
 62
7
  6
CONTINUOUS
 70
0
 71
3
 72
9
 73
5
 74
0
 42
0.0000001
 43
0.0000001
 44
0.0000000001
 40
0.0
 40
0.0
 40
0.0
 40
0.0
 40
0.2351268954
 40
1.0
 40
1.0
 40
1.0
 40
1.0
 10
388.3475477804
 20
255.31213907
 30
0.0
 10
388.3467530837
 20
255.292803667
 30
0.0
 10
388.3426879581
 20
255.2105985528
 30
0.0
 10
388.3362911014
 20
255.1285157428
 30
0.0
 10
388.330341171
 20
255.0658459489
 30
0.0
  0
SPLINE
  5
33F
100
AcDbEntity
  8
0
100
AcDbSpline
 62
7
  6
CONTINUOUS
 70
0
 71
3
 72
12
 73
8
 74
0
 42
0.0000001
 43
0.0000001
 44
0.0000000001
 40
0.0
 40
0.0
 40
0.0
 40
0.0
 40
0.3715742721
 40
0.6868425454
 40
0.9016100226
 40
0.9639249588
 40
1.0
 40
1.0
 40
1.0
 40
1.0
 10
351.8774086905
 20
387.2597985991
 30
0.0
 10
352.4622488395
 20
387.2597985991
 30
0.0
 10
353.5452242808
 20
387.2948995688
 30
0.0
 10
354.9529134779
 20
387.4399977037
 30
0.0
 10
355.878099783
 20
387.6383766978
 30
0.0
 10
356.3240543189
 20
387.8321654021
 30
0.0
 10
356.4393672064
 20
387.9663282439
 30
0.0
 10
356.4403729618
 20
388.0230997266
 30
0.0
  0
SPLINE
  5
340
100
AcDbEntity
  8
0
100
AcDbSpline
 62
7
  6
CONTINUOUS
 70
0
 71
3
 72
9
 73
5
 74
0
 42
0.0000001
 43
0.0000001
 44
0.0000000001
 40
0.0
 40
0.0
 40
0.0
 40
0.0
 40
0.261110327
 40
1.0
 40
1.0
 40
1.0
 40
1.0
 10
297.2085958717
 20
394.9803477314
 30
0.0
 10
297.193796478
 20
394.9594732961
 30
0.0
 10
297.1433990638
 20
394.8753515325
 30
0.0
 10
297.1154124129
 20
394.7770900688
 30
0.0
 10
297.1128835964
 20
394.7047243348
 30
0.0
  0
SPLINE
  5
341
100
AcDbEntity
  8
0
100
AcDbSpline
 62
7
  6
CONTINUOUS
 70
0
 71
3
 72
12
 73
8
 74
0
 42
0.0000001
 43
0.0000001
 44
0.0000000001
 40
0.0
 40
0.0
 40
0.0
 40
0.0
 40
0.0360763416
 40
0.0983902051
 40
0.313154469
 40
0.6284163912
 40
1.0
 40
1.0
 40
1.0
 40
1.0
 10
347.3144440452
 20
388.0230997458
 30
0.0
 10
347.3154310914
 20
387.9663258901
 30
0.0
 10
347.4307852119
 20
387.8321678203
 30
0.0
 10
347.8766902764
 20
387.6383667943
 30
0.0
 10
348.8018997159
 20
387.4400055235
 30
0.0
 10
350.2095679428
 20
387.2948980657
 30
0.0
 10
351.2925538735
 20
387.2597985991
 30
0.0
 10
351.8774086905
 20
387.2597985991
 30
0.0
  0
SPLINE
  5
342
100
AcDbEntity
  8
0
100
AcDbSpline
 62
7
  6
CONTINUOUS
 70
0
 71
3
 72
8
 73
4
 74
0
 42
0.0000001
 43
0.0000001
 44
0.0000000001
 40
0.0
 40
0.0
 40
0.0
 40
0.0
 40
1.0
 40
1.0
 40
1.0
 40
1.0
 10
296.7790840329
 20
395.7352168646
 30
0.0
 10
296.78510587
 20
395.6197510144
 30
0.0
 10
296.8355735308
 20
395.5005496714
 30
0.0
 10
296.9141406673
 20
395.4157214323
 30
0.0
  0
SPLINE
  5
343
100
AcDbEntity
  8
0
100
AcDbSpline
 62
7
  6
CONTINUOUS
 70
0
 71
3
 72
14
 73
10
 74
0
 42
0.0000001
 43
0.0000001
 44
0.0000000001
 40
0.0
 40
0.0
 40
0.0
 40
0.0
 40
0.3728089201
 40
0.6886466244
 40
0.8105460784
 40
0.9029157317
 40
0.9375213289
 40
0.9645456128
 40
1.0
 40
1.0
 40
1.0
 40
1.0
 10
351.8774086905
 20
388.7545717602
 30
0.0
 10
351.2908280294
 20
388.7545717602
 30
0.0
 10
350.2072824958
 20
388.722282263
 30
0.0
 10
348.9354981425
 20
388.603498613
 30
0.0
 10
348.1149396456
 20
388.4495273044
 30
0.0
 10
347.7371228079
 20
388.3450048249
 30
0.0
 10
347.5138552093
 20
388.2455057803
 30
0.0
 10
347.3858985534
 20
388.1683480779
 30
0.0
 10
347.3134743507
 20
388.0788755454
 30
0.0
 10
347.3144440452
 20
388.0230997458
 30
0.0
  0
SPLINE
  5
344
100
AcDbEntity
  8
0
100
AcDbSpline
 62
7
  6
CONTINUOUS
 70
0
 71
3
 72
9
 73
5
 74
0
 42
0.0000001
 43
0.0000001
 44
0.0000000001
 40
0.0
 40
0.0
 40
0.0
 40
0.0
 40
0.7095544204
 40
1.0
 40
1.0
 40
1.0
 40
1.0
 10
63.6473559274
 20
387.5124443085
 30
0.0
 10
63.6466859566
 20
387.5128859536
 30
0.0
 10
63.6454113228
 20
387.5129975419
 30
0.0
 10
63.6451987573
 20
387.514737333
 30
0.0
 10
63.6455092036
 20
387.5148446356
 30
0.0
  0
SPLINE
  5
345
100
AcDbEntity
  8
0
100
AcDbSpline
 62
7
  6
CONTINUOUS
 70
0
 71
3
 72
9
 73
5
 74
0
 42
0.0000001
 43
0.0000001
 44
0.0000000001
 40
0.0
 40
0.0
 40
0.0
 40
0.0
 40
0.2799430441
 40
1.0
 40
1.0
 40
1.0
 40
1.0
 10
59.362005335
 20
384.8051936747
 30
0.0
 10
59.3302903123
 20
384.7810996909
 30
0.0
 10
59.2265492158
 20
384.68290414
 30
0.0
 10
59.1631274525
 20
384.5436967112
 30
0.0
 10
59.1506390895
 20
384.442013927
 30
0.0
  0
SPLINE
  5
346
100
AcDbEntity
  8
0
100
AcDbSpline
 62
7
  6
CONTINUOUS
 70
0
 71
3
 72
9
 73
5
 74
0
 42
0.0000001
 43
0.0000001
 44
0.0000000001
 40
0.0
 40
0.0
 40
0.0
 40
0.0
 40
0.4997350836
 40
1.0
 40
1.0
 40
1.0
 40
1.0
 10
60.7970128627
 20
407.2155176333
 30
0.0
 10
60.6736118302
 20
407.2155924001
 30
0.0
 10
60.4169588389
 20
407.1164538559
 30
0.0
 10
60.3043781264
 20
406.8653753223
 30
0.0
 10
60.2979100099
 20
406.7420128851
 30
0.0
  0
SPLINE
  5
347
100
AcDbEntity
  8
0
100
AcDbSpline
 62
7
  6
CONTINUOUS
 70
0
 71
3
 72
9
 73
5
 74
0
 42
0.0000001
 43
0.0000001
 44
0.0000000001
 40
0.0
 40
0.0
 40
0.0
 40
0.0
 40
0.3609158206
 40
1.0
 40
1.0
 40
1.0
 40
1.0
 10
59.689461636
 20
384.9158187114
 30
0.0
 10
59.7239534906
 20
384.9158764426
 30
0.0
 10
59.8000608116
 20
385.0024167281
 30
0.0
 10
59.8206778074
 20
385.091462527
 30
0.0
 10
59.833294508
 20
385.1512209957
 30
0.0
  0
SPLINE
  5
348
100
AcDbEntity
  8
0
100
AcDbSpline
 62
7
  6
CONTINUOUS
 70
0
 71
3
 72
9
 73
5
 74
0
 42
0.0000001
 43
0.0000001
 44
0.0000000001
 40
0.0
 40
0.0
 40
0.0
 40
0.0
 40
0.2362325707
 40
1.0
 40
1.0
 40
1.0
 40
1.0
 10
59.833294508
 20
385.1512209957
 30
0.0
 10
59.8372159055
 20
385.1697945287
 30
0.0
 10
59.8514403354
 20
385.2489097428
 30
0.0
 10
59.857832923
 20
385.3293588345
 30
0.0
 10
59.8589263026
 20
385.3907232773
 30
0.0
  0
SPLINE
  5
349
100
AcDbEntity
  8
0
100
AcDbSpline
 62
7
  6
CONTINUOUS
 70
0
 71
3
 72
13
 73
9
 74
0
 42
0.0000001
 43
0.0000001
 44
0.0000000001
 40
0.0
 40
0.0
 40
0.0
 40
0.0
 40
0.3761418475
 40
0.6970165648
 40
0.8214343821
 40
0.9155920157
 40
0.9757536835
 40
1.0
 40
1.0
 40
1.0
 40
1.0
 10
61.2965846246
 20
406.7332941121
 30
0.0
 10
61.171368256
 20
406.7363953519
 30
0.0
 10
60.9394228168
 20
406.7415272595
 30
0.0
 10
60.6655969802
 20
406.7464747326
 30
0.0
 10
60.4864373971
 20
406.7464258
 30
0.0
 10
60.3927420604
 20
406.7482099274
 30
0.0
 10
60.3349751846
 20
406.7429617196
 30
0.0
 10
60.304924874
 20
406.7459872459
 30
0.0
 10
60.2978887871
 20
406.7420270882
 30
0.0
  0
SPLINE
  5
34A
100
AcDbEntity
  8
0
100
AcDbSpline
 62
7
  6
CONTINUOUS
 70
0
 71
3
 72
9
 73
5
 74
0
 42
0.0000001
 43
0.0000001
 44
0.0000000001
 40
0.0
 40
0.0
 40
0.0
 40
0.0
 40
0.7432278935
 40
1.0
 40
1.0
 40
1.0
 40
1.0
 10
59.1506183348
 20
384.4420020521
 30
0.0
 10
59.1653373081
 20
384.6402735481
 30
0.0
 10
59.239345405
 20
384.9105850408
 30
0.0
 10
59.3963928461
 20
385.1292220135
 30
0.0
 10
59.4425499133
 20
385.1800898601
 30
0.0
  0
SPLINE
  5
34B
100
AcDbEntity
  8
0
100
AcDbSpline
 62
7
  6
CONTINUOUS
 70
0
 71
3
 72
8
 73
4
 74
0
 42
0.0000001
 43
0.0000001
 44
0.0000000001
 40
0.0
 40
0.0
 40
0.0
 40
0.0
 40
1.0
 40
1.0
 40
1.0
 40
1.0
 10
59.4425499133
 20
385.1800898601
 30
0.0
 10
59.4637281607
 20
385.2034295544
 30
0.0
 10
59.486154622
 20
385.2257278139
 30
0.0
 10
59.5099223479
 20
385.2464245455
 30
0.0
  0
SPLINE
  5
34C
100
AcDbEntity
  8
0
100
AcDbSpline
 62
7
  6
CONTINUOUS
 70
0
 71
3
 72
9
 73
5
 74
0
 42
0.0000001
 43
0.0000001
 44
0.0000000001
 40
0.0
 40
0.0
 40
0.0
 40
0.0
 40
0.2413772848
 40
1.0
 40
1.0
 40
1.0
 40
1.0
 10
59.5099223479
 20
385.2464245455
 30
0.0
 10
59.5330747318
 20
385.2665854427
 30
0.0
 10
59.6339256526
 20
385.3440699191
 30
0.0
 10
59.7624773152
 20
385.3871493997
 30
0.0
 10
59.8588980031
 20
385.3907265455
 30
0.0
  0
SPLINE
  5
34D
100
AcDbEntity
  8
0
100
AcDbSpline
 62
7
  6
CONTINUOUS
 70
0
 71
3
 72
14
 73
10
 74
0
 42
0.0000001
 43
0.0000001
 44
0.0000000001
 40
0.0
 40
0.0
 40
0.0
 40
0.0
 40
0.0354562366
 40
0.0624819622
 40
0.0970860789
 40
0.1894588345
 40
0.3113543905
 40
0.6271851312
 40
1.0
 40
1.0
 40
1.0
 40
1.0
 10
356.4403729618
 20
388.0230997266
 30
0.0
 10
356.4413611234
 20
388.0788780906
 30
0.0
 10
356.3689026436
 20
388.1683533338
 30
0.0
 10
356.2409507256
 20
388.2455078739
 30
0.0
 10
356.0176802188
 20
388.3450207233
 30
0.0
 10
355.6398625997
 20
388.449522825
 30
0.0
 10
354.8193197181
 20
388.6035067686
 30
0.0
 10
353.5475412679
 20
388.7222783742
 30
0.0
 10
352.4639984835
 20
388.7545717602
 30
0.0
 10
351.8774086905
 20
388.7545717602
 30
0.0
  0
LINE
  5
34E
100
AcDbEntity
  8
0
100
AcDbLine
 62
7
  6
CONTINUOUS
 10
59.1763510942
 20
384.9422432716
 11
60.2978887871
 21
406.7420270882
  0
LINE
  5
34F
100
AcDbEntity
  8
0
100
AcDbLine
 62
7
  6
CONTINUOUS
 10
64.2155937327
 20
386.4645505025
 11
63.8329544302
 21
387.1703377295
  0
LINE
  5
350
100
AcDbEntity
  8
0
100
AcDbLine
 62
7
  6
CONTINUOUS
 10
63.8329544302
 20
387.1703377295
 11
63.6473547326
 21
387.5124447634
  0
SPLINE
  5
351
100
AcDbEntity
  8
0
100
AcDbSpline
 62
7
  6
CONTINUOUS
 70
0
 71
3
 72
11
 73
7
 74
0
 42
0.0000001
 43
0.0000001
 44
0.0000000001
 40
0.0
 40
0.0
 40
0.0
 40
0.0
 40
0.3490354991
 40
0.6527113012
 40
0.8771920799
 40
1.0
 40
1.0
 40
1.0
 40
1.0
 10
64.2716281535
 20
385.0655168758
 30
0.0
 10
64.2793294137
 20
385.2288025402
 30
0.0
 10
64.2879970185
 20
385.5339615474
 30
0.0
 10
64.2867942957
 20
385.946624637
 30
0.0
 10
64.2625542797
 20
386.2471445979
 30
0.0
 10
64.2429842007
 20
386.4139755515
 30
0.0
 10
64.2155937292
 20
386.4645505644
 30
0.0
  0
SPLINE
  5
352
100
AcDbEntity
  8
0
100
AcDbSpline
 62
7
  6
CONTINUOUS
 70
0
 71
3
 72
14
 73
10
 74
0
 42
0.0000001
 43
0.0000001
 44
0.0000000001
 40
0.0
 40
0.0
 40
0.0
 40
0.0
 40
0.0196276668
 40
0.0765807094
 40
0.1690877372
 40
0.2933282975
 40
0.4447136965
 40
0.6175583942
 40
1.0
 40
1.0
 40
1.0
 40
1.0
 10
296.2022411251
 20
406.7420148699
 30
0.0
 10
296.2019044949
 20
406.7485452498
 30
0.0
 10
296.1620912124
 20
406.7396357758
 30
0.0
 10
296.1192566129
 20
406.7509065272
 30
0.0
 10
296.0206508843
 20
406.7457670724
 30
0.0
 10
295.9011105167
 20
406.7473553826
 30
0.0
 10
295.7505936586
 20
406.7446889517
 30
0.0
 10
295.5156674306
 20
406.7410228301
 30
0.0
 10
295.3305233284
 20
406.73663028
 30
0.0
 10
295.2031547262
 20
406.7332958984
 30
0.0
  0
LINE
  5
353
100
AcDbEntity
  8
0
100
AcDbLine
 62
7
  6
CONTINUOUS
 10
64.1438151488
 20
387.979656187
 11
64.3296427345
 21
387.637254317
  0
LINE
  5
354
100
AcDbEntity
  8
0
100
AcDbLine
 62
7
  6
CONTINUOUS
 10
64.3296427345
 20
387.637254317
 11
64.7127277814
 21
386.9309029025
  0
SPLINE
  5
355
100
AcDbEntity
  8
0
100
AcDbSpline
 62
7
  6
CONTINUOUS
 70
0
 71
3
 72
14
 73
10
 74
0
 42
0.0000001
 43
0.0000001
 44
0.0000000001
 40
0.0
 40
0.0
 40
0.0
 40
0.0
 40
0.0179094387
 40
0.0716052453
 40
0.1646993313
 40
0.2940830001
 40
0.4537362482
 40
0.6324555411
 40
1.0
 40
1.0
 40
1.0
 40
1.0
 10
296.7790878291
 20
395.7351441844
 30
0.0
 10
296.7787751959
 20
395.7411067434
 30
0.0
 10
296.7431917705
 20
395.7394690194
 30
0.0
 10
296.7000012768
 20
395.7471961856
 30
0.0
 10
296.6010792091
 20
395.7450725692
 30
0.0
 10
296.476682143
 20
395.7449541038
 30
0.0
 10
296.3196892441
 20
395.740550944
 30
0.0
 10
296.0849263577
 20
395.7326126146
 30
0.0
 10
295.9028237777
 20
395.7241125004
 30
0.0
 10
295.7804572541
 20
395.7177074348
 30
0.0
  0
SPLINE
  5
356
100
AcDbEntity
  8
0
100
AcDbSpline
 62
7
  6
CONTINUOUS
 70
0
 71
3
 72
9
 73
5
 74
0
 42
0.0000001
 43
0.0000001
 44
0.0000000001
 40
0.0
 40
0.0
 40
0.0
 40
0.0
 40
0.4999198777
 40
1.0
 40
1.0
 40
1.0
 40
1.0
 10
295.7804433593
 20
395.7179726065
 30
0.0
 10
295.7940561632
 20
395.4577955425
 30
0.0
 10
295.9615526746
 20
394.9352596109
 30
0.0
 10
296.371620315
 20
394.57014466
 30
0.0
 10
296.6043292912
 20
394.4528098086
 30
0.0
  0
SPLINE
  5
357
100
AcDbEntity
  8
0
100
AcDbSpline
 62
7
  6
CONTINUOUS
 70
0
 71
3
 72
13
 73
9
 74
0
 42
0.0000001
 43
0.0000001
 44
0.0000000001
 40
0.0
 40
0.0
 40
0.0
 40
0.0
 40
0.402327689
 40
0.7105093645
 40
0.8235903387
 40
0.9157691525
 40
0.9772073685
 40
1.0
 40
1.0
 40
1.0
 40
1.0
 10
296.6043692277
 20
394.4528745236
 30
0.0
 10
296.671432722
 20
394.4505355349
 30
0.0
 10
296.7894931754
 20
394.4474052878
 30
0.0
 10
296.928038053
 20
394.4449826719
 30
0.0
 10
297.0120027182
 20
394.4462606075
 30
0.0
 10
297.0597314347
 20
394.4457527871
 30
0.0
 10
297.0825472959
 20
394.4506022798
 30
0.0
 10
297.1039697149
 20
394.4489882353
 30
0.0
 10
297.1040894848
 20
394.4527879331
 30
0.0
  0
SPLINE
  5
358
100
AcDbEntity
  8
0
100
AcDbSpline
 62
7
  6
CONTINUOUS
 70
0
 71
3
 72
10
 73
6
 74
0
 42
0.0000001
 43
0.0000001
 44
0.0000000001
 40
0.0
 40
0.0
 40
0.0
 40
0.0
 40
0.1244045257
 40
0.3491550062
 40
1.0
 40
1.0
 40
1.0
 40
1.0
 10
297.1128826115
 20
394.7046961216
 30
0.0
 10
297.1138179123
 20
394.7313016629
 30
0.0
 10
297.0512202165
 20
394.7932702838
 30
0.0
 10
296.8625211586
 20
394.8766503739
 30
0.0
 10
296.6618493418
 20
394.8945094271
 30
0.0
 10
296.5242589238
 20
394.8728954767
 30
0.0
  0
SPLINE
  5
359
100
AcDbEntity
  8
0
100
AcDbSpline
 62
7
  6
CONTINUOUS
 70
0
 71
3
 72
8
 73
4
 74
0
 42
0.0000001
 43
0.0000001
 44
0.0000000001
 40
0.0
 40
0.0
 40
0.0
 40
0.0
 40
1.0
 40
1.0
 40
1.0
 40
1.0
 10
296.906373967
 20
395.2345732968
 30
0.0
 10
296.8583668164
 20
395.2322819649
 30
0.0
 10
296.8096983902
 20
395.215804072
 30
0.0
 10
296.7693547751
 20
395.1896826357
 30
0.0
  0
SPLINE
  5
35A
100
AcDbEntity
  8
0
100
AcDbSpline
 62
7
  6
CONTINUOUS
 70
0
 71
3
 72
8
 73
4
 74
0
 42
0.0000001
 43
0.0000001
 44
0.0000000001
 40
0.0
 40
0.0
 40
0.0
 40
0.0
 40
1.0
 40
1.0
 40
1.0
 40
1.0
 10
296.7693547751
 20
395.1896826357
 30
0.0
 10
296.7433406032
 20
395.1728391394
 30
0.0
 10
296.7196412806
 20
395.1522551986
 30
0.0
 10
296.6980365896
 20
395.1300363363
 30
0.0
  0
SPLINE
  5
35B
100
AcDbEntity
  8
0
100
AcDbSpline
 62
7
  6
CONTINUOUS
 70
0
 71
3
 72
8
 73
4
 74
0
 42
0.0000001
 43
0.0000001
 44
0.0000000001
 40
0.0
 40
0.0
 40
0.0
 40
0.0
 40
1.0
 40
1.0
 40
1.0
 40
1.0
 10
296.6980365896
 20
395.1300363363
 30
0.0
 10
296.6778118019
 20
395.1092366049
 30
0.0
 10
296.6592147111
 20
395.086810261
 30
0.0
 10
296.641830671
 20
395.0635838532
 30
0.0
  0
SPLINE
  5
35C
100
AcDbEntity
  8
0
100
AcDbSpline
 62
7
  6
CONTINUOUS
 70
0
 71
3
 72
8
 73
4
 74
0
 42
0.0000001
 43
0.0000001
 44
0.0000000001
 40
0.0
 40
0.0
 40
0.0
 40
0.0
 40
1.0
 40
1.0
 40
1.0
 40
1.0
 10
296.641830671
 20
395.0635838532
 30
0.0
 10
296.6307999288
 20
395.0488459376
 30
0.0
 10
296.62024003
 20
395.0337494511
 30
0.0
 10
296.6100485237
 20
395.0184191989
 30
0.0
  0
SPLINE
  5
35D
100
AcDbEntity
  8
0
100
AcDbSpline
 62
7
  6
CONTINUOUS
 70
0
 71
3
 72
8
 73
4
 74
0
 42
0.0000001
 43
0.0000001
 44
0.0000000001
 40
0.0
 40
0.0
 40
0.0
 40
0.0
 40
1.0
 40
1.0
 40
1.0
 40
1.0
 10
296.6100485237
 20
395.0184191989
 30
0.0
 10
296.5788721288
 20
394.9715230892
 30
0.0
 10
296.5509850171
 20
394.9224492746
 30
0.0
 10
296.5242629026
 20
394.8728797143
 30
0.0
  0
SPLINE
  5
35E
100
AcDbEntity
  8
0
100
AcDbSpline
 62
7
  6
CONTINUOUS
 70
0
 71
3
 72
9
 73
5
 74
0
 42
0.0000001
 43
0.0000001
 44
0.0000000001
 40
0.0
 40
0.0
 40
0.0
 40
0.0
 40
0.2378112821
 40
1.0
 40
1.0
 40
1.0
 40
1.0
 10
297.6300171971
 20
395.186276227
 30
0.0
 10
297.5920866703
 20
395.1879294734
 30
0.0
 10
297.4325618959
 20
395.1729525965
 30
0.0
 10
297.278973166
 20
395.0796143835
 30
0.0
 10
297.2085958717
 20
394.9803477314
 30
0.0
  0
SPLINE
  5
35F
100
AcDbEntity
  8
0
100
AcDbSpline
 62
7
  6
CONTINUOUS
 70
0
 71
3
 72
9
 73
5
 74
0
 42
0.0000001
 43
0.0000001
 44
0.0000000001
 40
0.0
 40
0.0
 40
0.0
 40
0.0
 40
0.2663299615
 40
1.0
 40
1.0
 40
1.0
 40
1.0
 10
297.3840219751
 20
388.1418718019
 30
0.0
 10
297.3555929157
 20
388.1428717134
 30
0.0
 10
297.2486438618
 20
388.137772547
 30
0.0
 10
297.143961041
 20
388.0974525401
 30
0.0
 10
297.0795228397
 20
388.0528599782
 30
0.0
  0
SPLINE
  5
360
100
AcDbEntity
  8
0
100
AcDbSpline
 62
7
  6
CONTINUOUS
 70
0
 71
3
 72
9
 73
5
 74
0
 42
0.0000001
 43
0.0000001
 44
0.0000000001
 40
0.0
 40
0.0
 40
0.0
 40
0.0
 40
0.3072039313
 40
1.0
 40
1.0
 40
1.0
 40
1.0
 10
297.3667988324
 20
388.1421910859
 30
0.0
 10
297.3656444273
 20
388.1088096888
 30
0.0
 10
297.2330961643
 20
388.056659462
 30
0.0
 10
297.1428568198
 20
388.0391693085
 30
0.0
 10
297.0684924764
 20
388.0271737721
 30
0.0
  0
SPLINE
  5
361
100
AcDbEntity
  8
0
100
AcDbSpline
 62
7
  6
CONTINUOUS
 70
0
 71
3
 72
9
 73
5
 74
0
 42
0.0000001
 43
0.0000001
 44
0.0000000001
 40
0.0
 40
0.0
 40
0.0
 40
0.0
 40
0.2310687721
 40
1.0
 40
1.0
 40
1.0
 40
1.0
 10
297.0684924764
 20
388.0271737721
 30
0.0
 10
297.0520358833
 20
388.024519198
 30
0.0
 10
296.9806913489
 20
388.0138081344
 30
0.0
 10
296.9089546169
 20
388.0058194673
 30
0.0
 10
296.8537166813
 20
388.0007424864
 30
0.0
  0
SPLINE
  5
362
100
AcDbEntity
  8
0
100
AcDbSpline
 62
7
  6
CONTINUOUS
 70
0
 71
3
 72
9
 73
5
 74
0
 42
0.0000001
 43
0.0000001
 44
0.0000000001
 40
0.0
 40
0.0
 40
0.0
 40
0.0
 40
0.2378613224
 40
1.0
 40
1.0
 40
1.0
 40
1.0
 10
296.8537166813
 20
388.0007424864
 30
0.0
 10
296.8291547274
 20
387.9984849696
 30
0.0
 10
296.7258088119
 20
387.9899174822
 30
0.0
 10
296.6221910689
 20
387.984778911
 30
0.0
 10
296.5431956049
 20
387.9823953344
 30
0.0
  0
SPLINE
  5
363
100
AcDbEntity
  8
0
100
AcDbSpline
 62
7
  6
CONTINUOUS
 70
0
 71
3
 72
9
 73
5
 74
0
 42
0.0000001
 43
0.0000001
 44
0.0000000001
 40
0.0
 40
0.0
 40
0.0
 40
0.0
 40
0.2704786969
 40
1.0
 40
1.0
 40
1.0
 40
1.0
 10
296.906373967
 20
395.234574557
 30
0.0
 10
296.9391535856
 20
395.2340832601
 30
0.0
 10
297.0603379594
 20
395.2318992258
 30
0.0
 10
297.1815055721
 20
395.2283888352
 30
0.0
 10
297.2698441722
 20
395.224562248
 30
0.0
  0
SPLINE
  5
364
100
AcDbEntity
  8
0
100
AcDbSpline
 62
7
  6
CONTINUOUS
 70
0
 71
3
 72
9
 73
5
 74
0
 42
0.0000001
 43
0.0000001
 44
0.0000000001
 40
0.0
 40
0.0
 40
0.0
 40
0.0
 40
0.3034400995
 40
1.0
 40
1.0
 40
1.0
 40
1.0
 10
297.2698441722
 20
395.224562248
 30
0.0
 10
297.2953854542
 20
395.2234558694
 30
0.0
 10
297.3795273298
 20
395.2193562008
 30
0.0
 10
297.4636797273
 20
395.2140846578
 30
0.0
 10
297.5220135283
 20
395.2076638965
 30
0.0
  0
SPLINE
  5
365
100
AcDbEntity
  8
0
100
AcDbSpline
 62
7
  6
CONTINUOUS
 70
0
 71
3
 72
9
 73
5
 74
0
 42
0.0000001
 43
0.0000001
 44
0.0000000001
 40
0.0
 40
0.0
 40
0.0
 40
0.0
 40
0.7305916995
 40
1.0
 40
1.0
 40
1.0
 40
1.0
 10
297.5220135283
 20
395.2076638965
 30
0.0
 10
297.5447069195
 20
395.2051660505
 30
0.0
 10
297.5666345422
 20
395.1991446006
 30
0.0
 10
297.612890146
 20
395.1950717125
 30
0.0
 10
297.6125873395
 20
395.1866583516
 30
0.0
  0
SPLINE
  5
366
100
AcDbEntity
  8
0
100
AcDbSpline
 62
7
  6
CONTINUOUS
 70
0
 71
3
 72
8
 73
4
 74
0
 42
0.0000001
 43
0.0000001
 44
0.0000000001
 40
0.0
 40
0.0
 40
0.0
 40
0.0
 40
1.0
 40
1.0
 40
1.0
 40
1.0
 10
296.9141406673
 20
395.4157214323
 30
0.0
 10
297.0042752716
 20
395.3184039008
 30
0.0
 10
297.1460761466
 20
395.2562822864
 30
0.0
 10
297.2787220922
 20
395.2562381289
 30
0.0
  0
SPLINE
  5
367
100
AcDbEntity
  8
0
100
AcDbSpline
 62
7
  6
CONTINUOUS
 70
0
 71
3
 72
9
 73
5
 74
0
 42
0.0000001
 43
0.0000001
 44
0.0000000001
 40
0.0
 40
0.0
 40
0.0
 40
0.0
 40
0.5027789995
 40
1.0
 40
1.0
 40
1.0
 40
1.0
 10
375.9037708786
 20
386.9308781263
 30
0.0
 10
376.0271093676
 20
386.9310948932
 30
0.0
 10
376.2825611343
 20
386.8351045956
 30
0.0
 10
376.3968459211
 20
386.5862032881
 30
0.0
 10
376.4031943169
 20
386.4643933814
 30
0.0
  0
SPLINE
  5
368
100
AcDbEntity
  8
0
100
AcDbSpline
 62
7
  6
CONTINUOUS
 70
0
 71
3
 72
13
 73
9
 74
0
 42
0.0000001
 43
0.0000001
 44
0.0000000001
 40
0.0
 40
0.0
 40
0.0
 40
0.0
 40
0.3807883013
 40
0.7045658242
 40
0.8285400519
 40
0.9207366149
 40
0.978181665
 40
1.0
 40
1.0
 40
1.0
 40
1.0
 10
375.9771916572
 20
385.065516884
 30
0.0
 10
376.0406655082
 20
385.068834296
 30
0.0
 10
376.1578429465
 20
385.0737206197
 30
0.0
 10
376.2971769452
 20
385.07692404
 30
0.0
 10
376.385759319
 20
385.0758149787
 30
0.0
 10
376.4341842983
 20
385.0746843655
 30
0.0
 10
376.4575151893
 20
385.0707875676
 30
0.0
 10
376.4763158235
 20
385.0691537692
 30
0.0
 10
376.4765064245
 20
385.065516884
 30
0.0
  0
SPLINE
  5
369
100
AcDbEntity
  8
0
100
AcDbSpline
 62
7
  6
CONTINUOUS
 70
0
 71
3
 72
11
 73
7
 74
0
 42
0.0000001
 43
0.0000001
 44
0.0000000001
 40
0.0
 40
0.0
 40
0.0
 40
0.0
 40
0.3495624649
 40
0.6536423242
 40
0.8783868007
 40
1.0
 40
1.0
 40
1.0
 40
1.0
 10
64.7682438139
 20
385.0655168758
 30
0.0
 10
64.7759459595
 20
385.2832630561
 30
0.0
 10
64.7843821236
 20
385.6902263929
 30
0.0
 10
64.7837600062
 20
386.2393065359
 30
0.0
 10
64.7585673054
 20
386.6410027874
 30
0.0
 10
64.7408080005
 20
386.860690214
 30
0.0
 10
64.7122222955
 20
386.9308951273
 30
0.0
  0
SPLINE
  5
36A
100
AcDbEntity
  8
0
100
AcDbSpline
 62
7
  6
CONTINUOUS
 70
0
 71
3
 72
11
 73
7
 74
0
 42
0.0000001
 43
0.0000001
 44
0.0000000001
 40
0.0
 40
0.0
 40
0.0
 40
0.0
 40
0.1138248694
 40
0.3307123804
 40
0.6256115858
 40
1.0
 40
1.0
 40
1.0
 40
1.0
 10
64.2716322576
 20
385.0655162902
 30
0.0
 10
64.2889100299
 20
385.0730847235
 30
0.0
 10
64.3459283923
 20
385.0713634501
 30
0.0
 10
64.4480321098
 20
385.0762909022
 30
0.0
 10
64.5955915884
 20
385.0721131653
 30
0.0
 10
64.7062249253
 20
385.0684317239
 30
0.0
 10
64.7681989653
 20
385.0655163879
 30
0.0
  0
SPLINE
  5
36B
100
AcDbEntity
  8
0
100
AcDbSpline
 62
7
  6
CONTINUOUS
 70
0
 71
3
 72
9
 73
5
 74
0
 42
0.0000001
 43
0.0000001
 44
0.0000000001
 40
0.0
 40
0.0
 40
0.0
 40
0.0
 40
0.2669457972
 40
1.0
 40
1.0
 40
1.0
 40
1.0
 10
64.14430117
 20
387.9796632205
 30
0.0
 10
64.1112121145
 20
387.9791916117
 30
0.0
 10
63.9875811993
 20
387.9652760137
 30
0.0
 10
63.8703886388
 20
387.9041174396
 30
0.0
 10
63.8041809643
 20
387.841870372
 30
0.0
  0
SPLINE
  5
36C
100
AcDbEntity
  8
0
100
AcDbSpline
 62
7
  6
CONTINUOUS
 70
0
 71
3
 72
9
 73
5
 74
0
 42
0.0000001
 43
0.0000001
 44
0.0000000001
 40
0.0
 40
0.0
 40
0.0
 40
0.0
 40
0.4984543985
 40
1.0
 40
1.0
 40
1.0
 40
1.0
 10
64.2155937415
 20
386.4645504862
 30
0.0
 10
64.2240952674
 20
386.5856445297
 30
0.0
 10
64.3394115843
 20
386.8299807488
 30
0.0
 10
64.5900999763
 20
386.928921381
 30
0.0
 10
64.7122289573
 20
386.9308950722
 30
0.0
  0
SPLINE
  5
36D
100
AcDbEntity
  8
0
100
AcDbSpline
 62
7
  6
CONTINUOUS
 70
0
 71
3
 72
8
 73
4
 74
0
 42
0.0000001
 43
0.0000001
 44
0.0000000001
 40
0.0
 40
0.0
 40
0.0
 40
0.0
 40
1.0
 40
1.0
 40
1.0
 40
1.0
 10
63.671757012
 20
387.6352356191
 30
0.0
 10
63.6585610284
 20
387.5956460892
 30
0.0
 10
63.650191018
 20
387.5540786406
 30
0.0
 10
63.6473547803
 20
387.5124442724
 30
0.0
  0
SPLINE
  5
36E
100
AcDbEntity
  8
0
100
AcDbSpline
 62
7
  6
CONTINUOUS
 70
0
 71
3
 72
12
 73
8
 74
0
 42
0.0000001
 43
0.0000001
 44
0.0000000001
 40
0.0
 40
0.0
 40
0.0
 40
0.0
 40
0.2901298116
 40
0.5677605222
 40
0.8144286145
 40
0.9170431621
 40
1.0
 40
1.0
 40
1.0
 40
1.0
 10
379.6774086905
 20
260.9158459489
 30
0.0
 10
379.2000244997
 20
261.2534075475
 30
0.0
 10
378.265892319
 20
261.9146796678
 30
0.0
 10
376.9061689668
 20
262.8318882611
 30
0.0
 10
375.8196818883
 20
263.4857041733
 30
0.0
 10
375.0197003164
 20
263.8297813122
 30
0.0
 10
374.6484865312
 20
263.9158459489
 30
0.0
 10
374.4813106983
 20
263.9158459489
 30
0.0
  0
SPLINE
  5
36F
100
AcDbEntity
  8
0
100
AcDbSpline
 62
7
  6
CONTINUOUS
 70
0
 71
3
 72
12
 73
8
 74
0
 42
0.0000001
 43
0.0000001
 44
0.0000000001
 40
0.0
 40
0.0
 40
0.0
 40
0.0
 40
0.0829562354
 40
0.1855698617
 40
0.4322380219
 40
0.7098692735
 40
1.0
 40
1.0
 40
1.0
 40
1.0
 10
65.2735066827
 20
263.9158459489
 30
0.0
 10
65.1063320596
 20
263.9158459489
 30
0.0
 10
64.7351209911
 20
263.8297836161
 30
0.0
 10
63.9351426114
 20
263.4857060251
 30
0.0
 10
62.8486534579
 20
262.8318952899
 30
0.0
 10
61.4889297831
 20
261.9146812089
 30
0.0
 10
60.5547943989
 20
261.2534086206
 30
0.0
 10
60.0774086905
 20
260.9158459489
 30
0.0
  0
SPLINE
  5
370
100
AcDbEntity
  8
0
100
AcDbSpline
 62
7
  6
CONTINUOUS
 70
0
 71
3
 72
14
 73
10
 74
0
 42
0.0000001
 43
0.0000001
 44
0.0000000001
 40
0.0
 40
0.0
 40
0.0
 40
0.0
 40
0.0195972251
 40
0.0765331015
 40
0.1690305
 40
0.2932700076
 40
0.4446676807
 40
0.6175285425
 40
1.0
 40
1.0
 40
1.0
 40
1.0
 10
50.2970673091
 20
278.9332964428
 30
0.0
 10
50.2972730181
 20
278.9398238553
 30
0.0
 10
50.3373198498
 20
278.9312707661
 30
0.0
 10
50.3798839791
 20
278.9429185242
 30
0.0
 10
50.4786398338
 20
278.9386396319
 30
0.0
 10
50.5981553109
 20
278.9412729877
 30
0.0
 10
50.748753191
 20
278.93991897
 30
0.0
 10
50.9837786705
 20
278.938299621
 30
0.0
 10
51.1690212233
 20
278.9355160902
 30
0.0
 10
51.2964581111
 20
278.9332957261
 30
0.0
  0
SPLINE
  5
371
100
AcDbEntity
  8
0
100
AcDbSpline
 62
7
  6
CONTINUOUS
 70
0
 71
3
 72
14
 73
10
 74
0
 42
0.0000001
 43
0.0000001
 44
0.0000000001
 40
0.0
 40
0.0
 40
0.0
 40
0.0
 40
0.0195972146
 40
0.0765330299
 40
0.1690298364
 40
0.293268464
 40
0.4446651083
 40
0.6175261671
 40
1.0
 40
1.0
 40
1.0
 40
1.0
 10
64.2970673016
 20
278.9332962279
 30
0.0
 10
64.2972727891
 20
278.9398236439
 30
0.0
 10
64.3373201627
 20
278.9312702229
 30
0.0
 10
64.3798835614
 20
278.942918494
 30
0.0
 10
64.4786391512
 20
278.9386394
 30
0.0
 10
64.5981536959
 20
278.9412728243
 30
0.0
 10
64.7487510425
 20
278.9399189744
 30
0.0
 10
64.9837770158
 20
278.9382996821
 30
0.0
 10
65.1690204247
 20
278.9355156364
 30
0.0
 10
65.2964581112
 20
278.9332957281
 30
0.0
  0
SPLINE
  5
372
100
AcDbEntity
  8
0
100
AcDbSpline
 62
7
  6
CONTINUOUS
 70
0
 71
3
 72
10
 73
6
 74
0
 42
0.0000001
 43
0.0000001
 44
0.0000000001
 40
0.0
 40
0.0
 40
0.0
 40
0.0
 40
0.1599193094
 40
0.4827609583
 40
1.0
 40
1.0
 40
1.0
 40
1.0
 10
374.675511435
 20
279.4143349627
 30
0.0
 10
374.6661127289
 20
279.4145054649
 30
0.0
 10
374.6369356857
 20
279.4036954974
 30
0.0
 10
374.6142283321
 20
279.3436233203
 30
0.0
 10
374.6119943543
 20
279.2950627707
 30
0.0
 10
374.6134567527
 20
279.2646940178
 30
0.0
  0
SPLINE
  5
373
100
AcDbEntity
  8
0
100
AcDbSpline
 62
7
  6
CONTINUOUS
 70
0
 71
3
 72
9
 73
5
 74
0
 42
0.0000001
 43
0.0000001
 44
0.0000000001
 40
0.0
 40
0.0
 40
0.0
 40
0.0
 40
0.461162603
 40
1.0
 40
1.0
 40
1.0
 40
1.0
 10
374.6134567527
 20
279.2646940178
 30
0.0
 10
374.6159389668
 20
279.213147359
 30
0.0
 10
374.6369620294
 20
279.1027430525
 30
0.0
 10
374.654827973
 20
278.9924076643
 30
0.0
 10
374.6670772595
 20
278.9333663707
 30
0.0
  0
SPLINE
  5
374
100
AcDbEntity
  8
0
100
AcDbSpline
 62
7
  6
CONTINUOUS
 70
0
 71
3
 72
13
 73
9
 74
0
 42
0.0000001
 43
0.0000001
 44
0.0000000001
 40
0.0
 40
0.0
 40
0.0
 40
0.0
 40
0.3843908959
 40
0.7085903978
 40
0.8321267624
 40
0.9236640804
 40
0.9801988374
 40
1.0
 40
1.0
 40
1.0
 40
1.0
 10
374.9122977588
 20
278.9288764048
 30
0.0
 10
374.9132831831
 20
278.990548027
 30
0.0
 10
374.9143573463
 20
279.103822625
 30
0.0
 10
374.9154954919
 20
279.238673244
 30
0.0
 10
374.9133348434
 20
279.3232499187
 30
0.0
 10
374.9143767678
 20
279.3702919738
 30
0.0
 10
374.9091020431
 20
279.390829204
 30
0.0
 10
374.9119488977
 20
279.4098587216
 30
0.0
 10
374.9087728183
 20
279.4099468326
 30
0.0
  0
SPLINE
  5
375
100
AcDbEntity
  8
0
100
AcDbSpline
 62
7
  6
CONTINUOUS
 70
0
 71
3
 72
8
 73
4
 74
0
 42
0.0000001
 43
0.0000001
 44
0.0000000001
 40
0.0
 40
0.0
 40
0.0
 40
0.0
 40
1.0
 40
1.0
 40
1.0
 40
1.0
 10
374.6671227218
 20
278.9334217972
 30
0.0
 10
374.7488056635
 20
278.9302199891
 30
0.0
 10
374.8306344199
 20
278.9320605329
 30
0.0
 10
374.9123171979
 20
278.9288545516
 30
0.0
  0
SPLINE
  5
376
100
AcDbEntity
  8
0
100
AcDbSpline
 62
7
  6
CONTINUOUS
 70
0
 71
3
 72
9
 73
5
 74
0
 42
0.0000001
 43
0.0000001
 44
0.0000000001
 40
0.0
 40
0.0
 40
0.0
 40
0.0
 40
0.5252366161
 40
1.0
 40
1.0
 40
1.0
 40
1.0
 10
363.8679749351
 20
279.9114826812
 30
0.0
 10
363.8689156808
 20
279.787007381
 30
0.0
 10
363.9471498126
 20
279.5385636986
 30
0.0
 10
364.1884542366
 20
279.4158459489
 30
0.0
 10
364.3009711492
 20
279.4158459489
 30
0.0
  0
SPLINE
  5
377
100
AcDbEntity
  8
0
100
AcDbSpline
 62
7
  6
CONTINUOUS
 70
0
 71
3
 72
9
 73
5
 74
0
 42
0.0000001
 43
0.0000001
 44
0.0000000001
 40
0.0
 40
0.0
 40
0.0
 40
0.0
 40
0.4747597499
 40
1.0
 40
1.0
 40
1.0
 40
1.0
 10
361.3798149846
 20
279.4158459489
 30
0.0
 10
361.2672996368
 20
279.4158459489
 30
0.0
 10
361.0259948314
 20
279.5385613092
 30
0.0
 10
360.9477674027
 20
279.7870072805
 30
0.0
 10
360.9468289917
 20
279.9114826812
 30
0.0
  0
SPLINE
  5
378
100
AcDbEntity
  8
0
100
AcDbSpline
 62
7
  6
CONTINUOUS
 70
0
 71
3
 72
10
 73
6
 74
0
 42
0.0000001
 43
0.0000001
 44
0.0000000001
 40
0.0
 40
0.0
 40
0.0
 40
0.0
 40
0.4381732482
 40
0.7171993377
 40
1.0
 40
1.0
 40
1.0
 40
1.0
 10
221.6112786198
 20
279.415845949
 30
0.0
 10
221.7061408742
 20
279.4158450492
 30
0.0
 10
221.8586055552
 20
279.5199553576
 30
0.0
 10
221.9425247113
 20
279.7197964071
 30
0.0
 10
221.9635874293
 20
279.8415430606
 30
0.0
 10
221.9647201928
 20
279.9027574694
 30
0.0
  0
SPLINE
  5
379
100
AcDbEntity
  8
0
100
AcDbSpline
 62
7
  6
CONTINUOUS
 70
0
 71
3
 72
9
 73
5
 74
0
 42
0.0000001
 43
0.0000001
 44
0.0000000001
 40
0.0
 40
0.0
 40
0.0
 40
0.0
 40
0.2638225244
 40
1.0
 40
1.0
 40
1.0
 40
1.0
 10
207.7793056221
 20
279.9027574748
 30
0.0
 10
207.7799247515
 20
279.8693203758
 30
0.0
 10
207.7914573006
 20
279.7432668911
 30
0.0
 10
207.8384175163
 20
279.6177889306
 30
0.0
 10
207.8960231585
 20
279.5443711513
 30
0.0
  0
SPLINE
  5
37A
100
AcDbEntity
  8
0
100
AcDbSpline
 62
7
  6
CONTINUOUS
 70
0
 71
3
 72
8
 73
4
 74
0
 42
0.0000001
 43
0.0000001
 44
0.0000000001
 40
0.0
 40
0.0
 40
0.0
 40
0.0
 40
1.0
 40
1.0
 40
1.0
 40
1.0
 10
215.4587942447
 20
279.544371798
 30
0.0
 10
215.4859259498
 20
279.5789510023
 30
0.0
 10
215.5080118666
 20
279.6178460219
 30
0.0
 10
215.5251334426
 20
279.6583269114
 30
0.0
  0
SPLINE
  5
37B
100
AcDbEntity
  8
0
100
AcDbSpline
 62
7
  6
CONTINUOUS
 70
0
 71
3
 72
8
 73
4
 74
0
 42
0.0000001
 43
0.0000001
 44
0.0000000001
 40
0.0
 40
0.0
 40
0.0
 40
0.0
 40
1.0
 40
1.0
 40
1.0
 40
1.0
 10
215.5251334426
 20
279.6583269114
 30
0.0
 10
215.5575393905
 20
279.7349449518
 30
0.0
 10
215.5739711834
 20
279.8195823721
 30
0.0
 10
215.5755112738
 20
279.9027574748
 30
0.0
  0
SPLINE
  5
37C
100
AcDbEntity
  8
0
100
AcDbSpline
 62
7
  6
CONTINUOUS
 70
0
 71
3
 72
9
 73
5
 74
0
 42
0.0000001
 43
0.0000001
 44
0.0000000001
 40
0.0
 40
0.0
 40
0.0
 40
0.0
 40
0.440658795
 40
1.0
 40
1.0
 40
1.0
 40
1.0
 10
201.7435233889
 20
279.4158459489
 30
0.0
 10
201.6486638137
 20
279.4158459489
 30
0.0
 10
201.4415514657
 20
279.5591265165
 30
0.0
 10
201.3923270449
 20
279.7823700171
 30
0.0
 10
201.3900999124
 20
279.9027574748
 30
0.0
  0
SPLINE
  5
37D
100
AcDbEntity
  8
0
100
AcDbSpline
 62
7
  6
CONTINUOUS
 70
0
 71
3
 72
9
 73
5
 74
0
 42
0.0000001
 43
0.0000001
 44
0.0000000001
 40
0.0
 40
0.0
 40
0.0
 40
0.0
 40
0.4982412348
 40
1.0
 40
1.0
 40
1.0
 40
1.0
 10
58.0955635503
 20
279.4158459493
 30
0.0
 10
58.218892891
 20
279.4158482015
 30
0.0
 10
58.4759965006
 20
279.5164307423
 30
0.0
 10
58.5871422111
 20
279.7690911135
 30
0.0
 10
58.592750242
 20
279.8931644714
 30
0.0
  0
LINE
  5
37E
100
AcDbEntity
  8
0
100
AcDbLine
 62
7
  6
CONTINUOUS
 10
58.5926320381
 20
279.8931655366
 11
62.7598154124
 21
376.533996315
  0
SPLINE
  5
37F
100
AcDbEntity
  8
0
100
AcDbSpline
 62
7
  6
CONTINUOUS
 70
0
 71
3
 72
9
 73
5
 74
0
 42
0.0000001
 43
0.0000001
 44
0.0000000001
 40
0.0
 40
0.0
 40
0.0
 40
0.0
 40
0.2721955819
 40
1.0
 40
1.0
 40
1.0
 40
1.0
 10
63.7550058622
 20
376.5263127948
 30
0.0
 10
63.6939653143
 20
376.5273113314
 30
0.0
 10
63.4697125368
 20
376.5309418376
 30
0.0
 10
63.245446831
 20
376.5339394845
 30
0.0
 10
63.0822177935
 20
376.5351888502
 30
0.0
  0
SPLINE
  5
380
100
AcDbEntity
  8
0
100
AcDbSpline
 62
7
  6
CONTINUOUS
 70
0
 71
3
 72
9
 73
5
 74
0
 42
0.0000001
 43
0.0000001
 44
0.0000000001
 40
0.0
 40
0.0
 40
0.0
 40
0.0
 40
0.3851542014
 40
1.0
 40
1.0
 40
1.0
 40
1.0
 10
63.0822177935
 20
376.5351888502
 30
0.0
 10
63.0408260131
 20
376.5355056655
 30
0.0
 10
62.9334395969
 20
376.5349397069
 30
0.0
 10
62.8256186343
 20
376.5400186421
 30
0.0
 10
62.7598154124
 20
376.533996315
 30
0.0
  0
SPLINE
  5
381
100
AcDbEntity
  8
0
100
AcDbSpline
 62
7
  6
CONTINUOUS
 70
0
 71
3
 72
10
 73
6
 74
0
 42
0.0000001
 43
0.0000001
 44
0.0000000001
 40
0.0
 40
0.0
 40
0.0
 40
0.0
 40
0.1018242472
 40
0.3245396715
 40
1.0
 40
1.0
 40
1.0
 40
1.0
 10
58.5926320381
 20
279.8931655366
 30
0.0
 10
58.6262126914
 20
279.8891681007
 30
0.0
 10
58.7344205622
 20
279.8922952002
 30
0.0
 10
59.0660731212
 20
279.890185091
 30
0.0
 10
59.3645962248
 20
279.8974599918
 30
0.0
 10
59.5888673064
 20
279.9027325678
 30
0.0
  0
SPLINE
  5
382
100
AcDbEntity
  8
0
100
AcDbSpline
 62
7
  6
CONTINUOUS
 70
0
 71
3
 72
14
 73
10
 74
0
 42
0.0000001
 43
0.0000001
 44
0.0000000001
 40
0.0
 40
0.0
 40
0.0
 40
0.0
 40
0.0196551841
 40
0.0763504107
 40
0.1686037981
 40
0.2926954167
 40
0.444092183
 40
0.6170846567
 40
1.0
 40
1.0
 40
1.0
 40
1.0
 10
76.2370315646
 20
279.9027574748
 30
0.0
 10
76.236851717
 20
279.8962116054
 30
0.0
 10
76.2768819269
 20
279.9007800578
 30
0.0
 10
76.3191095787
 20
279.8900356959
 30
0.0
 10
76.4176635199
 20
279.8911518639
 30
0.0
 10
76.5369661829
 20
279.8873115551
 30
0.0
 10
76.6875329706
 20
279.8867650212
 30
0.0
 10
76.922693543
 20
279.8863663793
 30
0.0
 10
77.1080997694
 20
279.8880171333
 30
0.0
 10
77.2356613921
 20
279.8896779708
 30
0.0
  0
SPLINE
  5
383
100
AcDbEntity
  8
0
100
AcDbSpline
 62
7
  6
CONTINUOUS
 70
0
 71
3
 72
9
 73
5
 74
0
 42
0.0000001
 43
0.0000001
 44
0.0000000001
 40
0.0
 40
0.0
 40
0.0
 40
0.0
 40
0.2753414281
 40
1.0
 40
1.0
 40
1.0
 40
1.0
 10
79.7664548468
 20
376.5367808041
 30
0.0
 10
79.7016260594
 20
376.5374601939
 30
0.0
 10
79.4661737688
 20
376.5393971737
 30
0.0
 10
79.230696829
 20
376.539827587
 30
0.0
 10
79.0600768741
 20
376.5380414486
 30
0.0
  0
SPLINE
  5
384
100
AcDbEntity
  8
0
100
AcDbSpline
 62
7
  6
CONTINUOUS
 70
0
 71
3
 72
11
 73
7
 74
0
 42
0.0000001
 43
0.0000001
 44
0.0000000001
 40
0.0
 40
0.0
 40
0.0
 40
0.0
 40
0.4233908956
 40
0.7386433626
 40
0.9328168003
 40
1.0
 40
1.0
 40
1.0
 40
1.0
 10
79.0600768741
 20
376.5380414486
 30
0.0
 10
79.0186712466
 20
376.5376079929
 30
0.0
 10
78.9488947241
 20
376.5350204322
 30
0.0
 10
78.849966616
 20
376.5376378582
 30
0.0
 10
78.8073875756
 20
376.5260907677
 30
0.0
 10
78.7673009788
 20
376.5328869428
 30
0.0
 10
78.7672085169
 20
376.5263170342
 30
0.0
  0
SPLINE
  5
385
100
AcDbEntity
  8
0
100
AcDbSpline
 62
7
  6
CONTINUOUS
 70
0
 71
3
 72
9
 73
5
 74
0
 42
0.0000001
 43
0.0000001
 44
0.0000000001
 40
0.0
 40
0.0
 40
0.0
 40
0.0
 40
0.2759007846
 40
1.0
 40
1.0
 40
1.0
 40
1.0
 10
200.682630241
 20
279.8896777072
 30
0.0
 10
200.7477039233
 20
279.8901775817
 30
0.0
 10
200.9835549189
 20
279.8926351955
 30
0.0
 10
201.2194048582
 20
279.8969981609
 30
0.0
 10
201.3900980389
 20
279.9027586186
 30
0.0
  0
SPLINE
  5
386
100
AcDbEntity
  8
0
100
AcDbSpline
 62
7
  6
CONTINUOUS
 70
0
 71
3
 72
9
 73
5
 74
0
 42
0.0000001
 43
0.0000001
 44
0.0000000001
 40
0.0
 40
0.0
 40
0.0
 40
0.0
 40
0.2192723969
 40
1.0
 40
1.0
 40
1.0
 40
1.0
 10
202.8757136309
 20
376.5263162438
 30
0.0
 10
202.8429484435
 20
376.5272042123
 30
0.0
 10
202.6935097175
 20
376.530813379
 30
0.0
 10
202.5440417826
 20
376.5331148249
 30
0.0
 10
202.4273452898
 20
376.5344830771
 30
0.0
  0
SPLINE
  5
387
100
AcDbEntity
  8
0
100
AcDbSpline
 62
7
  6
CONTINUOUS
 70
0
 71
3
 72
9
 73
5
 74
0
 42
0.0000001
 43
0.0000001
 44
0.0000000001
 40
0.0
 40
0.0
 40
0.0
 40
0.0
 40
0.2142199986
 40
1.0
 40
1.0
 40
1.0
 40
1.0
 10
221.964719355
 20
279.9027578305
 30
0.0
 10
222.0152181191
 20
279.9010591738
 30
0.0
 10
222.2509924453
 20
279.8943719985
 30
0.0
 10
222.4868533803
 20
279.8910927648
 30
0.0
 10
222.6721871614
 20
279.889676312
 30
0.0
  0
SPLINE
  5
388
100
AcDbEntity
  8
0
100
AcDbSpline
 62
7
  6
CONTINUOUS
 70
0
 71
3
 72
9
 73
5
 74
0
 42
0.0000001
 43
0.0000001
 44
0.0000000001
 40
0.0
 40
0.0
 40
0.0
 40
0.0
 40
0.1906338806
 40
1.0
 40
1.0
 40
1.0
 40
1.0
 10
362.8964433967
 20
376.5193352628
 30
0.0
 10
362.8630352608
 20
376.5208174205
 30
0.0
 10
362.6877267454
 20
376.5271835385
 30
0.0
 10
362.5123265312
 20
376.5305743789
 30
0.0
 10
362.3703648021
 20
376.5327898305
 30
0.0
  0
SPLINE
  5
389
100
AcDbEntity
  8
0
100
AcDbSpline
 62
7
  6
CONTINUOUS
 70
0
 71
3
 72
9
 73
5
 74
0
 42
0.0000001
 43
0.0000001
 44
0.0000000001
 40
0.0
 40
0.0
 40
0.0
 40
0.0
 40
0.2988000416
 40
1.0
 40
1.0
 40
1.0
 40
1.0
 10
360.0795141338
 20
279.8896741649
 30
0.0
 10
360.1659238666
 20
279.8905467312
 30
0.0
 10
360.4550787709
 20
279.8947543
 30
0.0
 10
360.744345292
 20
279.9003054583
 30
0.0
 10
360.9468267558
 20
279.9114833605
 30
0.0
  0
SPLINE
  5
38A
100
AcDbEntity
  8
0
100
AcDbSpline
 62
7
  6
CONTINUOUS
 70
0
 71
3
 72
8
 73
4
 74
0
 42
0.0000001
 43
0.0000001
 44
0.0000000001
 40
0.0
 40
0.0
 40
0.0
 40
0.0
 40
1.0
 40
1.0
 40
1.0
 40
1.0
 10
376.366249486
 20
376.2765355482
 30
0.0
 10
376.2915444788
 20
376.3724552837
 30
0.0
 10
376.1842194064
 20
376.4492085409
 30
0.0
 10
376.0689280514
 20
376.487800473
 30
0.0
  0
SPLINE
  5
38B
100
AcDbEntity
  8
0
100
AcDbSpline
 62
7
  6
CONTINUOUS
 70
0
 71
3
 72
8
 73
4
 74
0
 42
0.0000001
 43
0.0000001
 44
0.0000000001
 40
0.0
 40
0.0
 40
0.0
 40
0.0
 40
1.0
 40
1.0
 40
1.0
 40
1.0
 10
376.0689280514
 20
376.487800473
 30
0.0
 10
376.0075745754
 20
376.5083375651
 30
0.0
 10
375.9420986344
 20
376.5182264538
 30
0.0
 10
375.8774086906
 20
376.5193365631
 30
0.0
  0
SPLINE
  5
38C
100
AcDbEntity
  8
0
100
AcDbSpline
 62
7
  6
CONTINUOUS
 70
0
 71
3
 72
11
 73
7
 74
0
 42
0.0000001
 43
0.0000001
 44
0.0000000001
 40
0.0
 40
0.0
 40
0.0
 40
0.0
 40
0.0708941712
 40
0.2695367419
 40
0.5861918658
 40
1.0
 40
1.0
 40
1.0
 40
1.0
 10
374.675534234
 20
279.4158464287
 30
0.0
 10
374.6813810115
 20
279.415767317
 30
0.0
 10
374.6799832785
 20
279.4500952507
 30
0.0
 10
374.6766168939
 20
279.4871838181
 30
0.0
 10
374.6762921958
 20
279.5699646196
 30
0.0
 10
374.6775997897
 20
279.628295909
 30
0.0
 10
374.6785080075
 20
279.6624144933
 30
0.0
  0
SPLINE
  5
38D
100
AcDbEntity
  8
0
100
AcDbSpline
 62
7
  6
CONTINUOUS
 70
0
 71
3
 72
9
 73
5
 74
0
 42
0.0000001
 43
0.0000001
 44
0.0000000001
 40
0.0
 40
0.0
 40
0.0
 40
0.0
 40
0.2352293147
 40
1.0
 40
1.0
 40
1.0
 40
1.0
 10
374.6785080075
 20
279.6624144933
 30
0.0
 10
374.679027888
 20
279.6819445979
 30
0.0
 10
374.6814858445
 20
279.7649617269
 30
0.0
 10
374.6838655706
 20
279.8479967109
 30
0.0
 10
374.6841916448
 20
279.9115140725
 30
0.0
  0
SPLINE
  5
38E
100
AcDbEntity
  8
0
100
AcDbSpline
 62
7
  6
CONTINUOUS
 70
0
 71
3
 72
9
 73
5
 74
0
 42
0.0000001
 43
0.0000001
 44
0.0000000001
 40
0.0
 40
0.0
 40
0.0
 40
0.0
 40
0.3126124907
 40
1.0
 40
1.0
 40
1.0
 40
1.0
 10
376.4934552074
 20
279.3650687171
 30
0.0
 10
376.4772697321
 20
279.3655910431
 30
0.0
 10
376.4777368846
 20
279.4444578755
 30
0.0
 10
376.4752509779
 20
279.4821448948
 30
0.0
 10
376.4771905007
 20
279.5176999692
 30
0.0
  0
SPLINE
  5
38F
100
AcDbEntity
  8
0
100
AcDbSpline
 62
7
  6
CONTINUOUS
 70
0
 71
3
 72
8
 73
4
 74
0
 42
0.0000001
 43
0.0000001
 44
0.0000000001
 40
0.0
 40
0.0
 40
0.0
 40
0.0
 40
1.0
 40
1.0
 40
1.0
 40
1.0
 10
374.6841976309
 20
279.9115968952
 30
0.0
 10
374.8814434637
 20
279.8922183711
 30
0.0
 10
375.0781962838
 20
279.8677180159
 30
0.0
 10
375.2745460573
 20
279.8407326085
 30
0.0
  0
SPLINE
  5
390
100
AcDbEntity
  8
0
100
AcDbSpline
 62
7
  6
CONTINUOUS
 70
0
 71
3
 72
8
 73
4
 74
0
 42
0.0000001
 43
0.0000001
 44
0.0000000001
 40
0.0
 40
0.0
 40
0.0
 40
0.0
 40
1.0
 40
1.0
 40
1.0
 40
1.0
 10
375.8740835491
 20
279.7531453319
 30
0.0
 10
376.079694471
 20
279.7222647557
 30
0.0
 10
376.285335767
 20
279.6914823197
 30
0.0
 10
376.4913919203
 20
279.6637276281
 30
0.0
  0
SPLINE
  5
391
100
AcDbEntity
  8
0
100
AcDbSpline
 62
7
  6
CONTINUOUS
 70
0
 71
3
 72
8
 73
4
 74
0
 42
0.0000001
 43
0.0000001
 44
0.0000000001
 40
0.0
 40
0.0
 40
0.0
 40
0.0
 40
1.0
 40
1.0
 40
1.0
 40
1.0
 10
376.4913684866
 20
375.9190907855
 30
0.0
 10
376.4911229377
 20
375.9633238313
 30
0.0
 10
376.4867204259
 20
376.0078643095
 30
0.0
 10
376.4769571789
 20
376.0510071147
 30
0.0
  0
SPLINE
  5
392
100
AcDbEntity
  8
0
100
AcDbSpline
 62
7
  6
CONTINUOUS
 70
0
 71
3
 72
8
 73
4
 74
0
 42
0.0000001
 43
0.0000001
 44
0.0000000001
 40
0.0
 40
0.0
 40
0.0
 40
0.0
 40
1.0
 40
1.0
 40
1.0
 40
1.0
 10
376.4352651622
 20
376.1689979506
 30
0.0
 10
376.4164872788
 20
376.2072282735
 30
0.0
 10
376.3930204432
 20
376.2434072771
 30
0.0
 10
376.366249486
 20
376.2765355482
 30
0.0
  0
SPLINE
  5
393
100
AcDbEntity
  8
0
100
AcDbSpline
 62
7
  6
CONTINUOUS
 70
0
 71
3
 72
13
 73
9
 74
0
 42
0.0000001
 43
0.0000001
 44
0.0000000001
 40
0.0
 40
0.0
 40
0.0
 40
0.0
 40
0.3847646699
 40
0.7092141811
 40
0.8327881163
 40
0.9242952296
 40
0.9806951783
 40
1.0
 40
1.0
 40
1.0
 40
1.0
 10
376.4913684866
 20
375.9190907857
 30
0.0
 10
376.5408855253
 20
375.9190767499
 30
0.0
 10
376.6317886844
 20
375.9186014909
 30
0.0
 10
376.7401258731
 20
375.9190427402
 30
0.0
 10
376.8078426424
 20
375.9169232403
 30
0.0
 10
376.845823258
 20
375.9189822411
 30
0.0
 10
376.86177145
 20
375.9137887523
 30
0.0
 10
376.8774086905
 20
375.9183303707
 30
0.0
 10
376.8774086905
 20
375.9158459491
 30
0.0
  0
SPLINE
  5
394
100
AcDbEntity
  8
0
100
AcDbSpline
 62
7
  6
CONTINUOUS
 70
0
 71
3
 72
9
 73
5
 74
0
 42
0.0000001
 43
0.0000001
 44
0.0000000001
 40
0.0
 40
0.0
 40
0.0
 40
0.0
 40
0.2977078434
 40
1.0
 40
1.0
 40
1.0
 40
1.0
 10
376.4913684866
 20
279.6635542875
 30
0.0
 10
376.5247132171
 20
279.6557674673
 30
0.0
 10
376.6365773856
 20
279.629430762
 30
0.0
 10
376.7504394295
 20
279.6088573954
 30
0.0
 10
376.826667841
 20
279.5821352786
 30
0.0
  0
SPLINE
  5
395
100
AcDbEntity
  8
0
100
AcDbSpline
 62
7
  6
CONTINUOUS
 70
0
 71
3
 72
9
 73
5
 74
0
 42
0.0000001
 43
0.0000001
 44
0.0000000001
 40
0.0
 40
0.0
 40
0.0
 40
0.0
 40
0.3814016666
 40
1.0
 40
1.0
 40
1.0
 40
1.0
 10
376.826667841
 20
279.5821352786
 30
0.0
 10
376.8340604287
 20
279.579543783
 30
0.0
 10
376.8513460581
 20
279.5723389006
 30
0.0
 10
376.8774086905
 20
279.5613312669
 30
0.0
 10
376.8774086905
 20
279.5486257955
 30
0.0
  0
SPLINE
  5
396
100
AcDbEntity
  8
0
100
AcDbSpline
 62
7
  6
CONTINUOUS
 70
0
 71
3
 72
8
 73
4
 74
0
 42
0.0000001
 43
0.0000001
 44
0.0000000001
 40
0.0
 40
0.0
 40
0.0
 40
0.0
 40
1.0
 40
1.0
 40
1.0
 40
1.0
 10
376.8297896429
 20
279.1573348395
 30
0.0
 10
376.8331048849
 20
279.1700032297
 30
0.0
 10
376.8388582553
 20
279.1822762414
 30
0.0
 10
376.8465853322
 20
279.1928484323
 30
0.0
  0
SPLINE
  5
397
100
AcDbEntity
  8
0
100
AcDbSpline
 62
7
  6
CONTINUOUS
 70
0
 71
3
 72
9
 73
5
 74
0
 42
0.0000001
 43
0.0000001
 44
0.0000000001
 40
0.0
 40
0.0
 40
0.0
 40
0.0
 40
0.3291995866
 40
1.0
 40
1.0
 40
1.0
 40
1.0
 10
376.8706077903
 20
279.2084007209
 30
0.0
 10
376.8693056892
 20
279.2174038785
 30
0.0
 10
376.8668228597
 20
279.2452942227
 30
0.0
 10
376.8774086905
 20
279.2720953713
 30
0.0
 10
376.8774086905
 20
279.2906317167
 30
0.0
  0
SPLINE
  5
398
100
AcDbEntity
  8
0
100
AcDbSpline
 62
7
  6
CONTINUOUS
 70
0
 71
3
 72
9
 73
5
 74
0
 42
0.0000001
 43
0.0000001
 44
0.0000000001
 40
0.0
 40
0.0
 40
0.0
 40
0.0
 40
0.6140498517
 40
1.0
 40
1.0
 40
1.0
 40
1.0
 10
376.8480424397
 20
279.1935974704
 30
0.0
 10
376.8508607751
 20
279.1985449065
 30
0.0
 10
376.8577533765
 20
279.2061131958
 30
0.0
 10
376.867127439
 20
279.2075671611
 30
0.0
 10
376.8706077903
 20
279.2084007209
 30
0.0
  0
SPLINE
  5
399
100
AcDbEntity
  8
0
100
AcDbSpline
 62
7
  6
CONTINUOUS
 70
0
 71
3
 72
9
 73
5
 74
0
 42
0.0000001
 43
0.0000001
 44
0.0000000001
 40
0.0
 40
0.0
 40
0.0
 40
0.0
 40
0.2825825617
 40
1.0
 40
1.0
 40
1.0
 40
1.0
 10
376.8297896429
 20
279.0464083617
 30
0.0
 10
376.8368870705
 20
279.0570366937
 30
0.0
 10
376.8600385293
 20
279.0955597266
 30
0.0
 10
376.8774086905
 20
279.1400978381
 30
0.0
 10
376.8774086905
 20
279.1725442065
 30
0.0
  0
SPLINE
  5
39A
100
AcDbEntity
  8
0
100
AcDbSpline
 62
7
  6
CONTINUOUS
 70
0
 71
3
 72
11
 73
7
 74
0
 42
0.0000001
 43
0.0000001
 44
0.0000000001
 40
0.0
 40
0.0
 40
0.0
 40
0.0
 40
0.3686828654
 40
0.704092981
 40
0.9220420646
 40
1.0
 40
1.0
 40
1.0
 40
1.0
 10
379.7378112679
 20
278.8377163241
 30
0.0
 10
379.7402156513
 20
278.8746387883
 30
0.0
 10
379.7427766905
 20
278.9432571394
 30
0.0
 10
379.7493461527
 20
279.0429978689
 30
0.0
 10
379.7405118313
 20
279.0921066854
 30
0.0
 10
379.7456473797
 20
279.1374458486
 30
0.0
 10
379.7378346442
 20
279.1378615234
 30
0.0
  0
SPLINE
  5
39B
100
AcDbEntity
  8
0
100
AcDbSpline
 62
7
  6
CONTINUOUS
 70
0
 71
3
 72
13
 73
9
 74
0
 42
0.0000001
 43
0.0000001
 44
0.0000000001
 40
0.0
 40
0.0
 40
0.0
 40
0.0
 40
0.3971792531
 40
0.7362225897
 40
0.8549400239
 40
0.9365694112
 40
0.9838609181
 40
1.0
 40
1.0
 40
1.0
 40
1.0
 10
388.8930694137
 20
278.3181717572
 30
0.0
 10
388.8953815174
 20
278.3844157524
 30
0.0
 10
388.8984468182
 20
278.5068034598
 30
0.0
 10
388.9010810588
 20
278.6508573431
 30
0.0
 10
388.8994819554
 20
278.7389661234
 30
0.0
 10
388.8993150163
 20
278.7832816017
 30
0.0
 10
388.8953758306
 20
278.8023158351
 30
0.0
 10
388.8956888424
 20
278.8180588798
 30
0.0
 10
388.8929971949
 20
278.8181564219
 30
0.0
  0
SPLINE
  5
39C
100
AcDbEntity
  8
0
100
AcDbSpline
 62
7
  6
CONTINUOUS
 70
0
 71
3
 72
9
 73
5
 74
0
 42
0.0000001
 43
0.0000001
 44
0.0000000001
 40
0.0
 40
0.0
 40
0.0
 40
0.0
 40
0.7400639613
 40
1.0
 40
1.0
 40
1.0
 40
1.0
 10
375.8774086677
 20
279.0906543689
 30
0.0
 10
375.8773799579
 20
279.1642665895
 30
0.0
 10
375.8362559418
 20
279.2689039118
 30
0.0
 10
375.7577194558
 20
279.331187659
 30
0.0
 10
375.7356259037
 20
279.3446176307
 30
0.0
  0
SPLINE
  5
39D
100
AcDbEntity
  8
0
100
AcDbSpline
 62
7
  6
CONTINUOUS
 70
0
 71
3
 72
8
 73
4
 74
0
 42
0.0000001
 43
0.0000001
 44
0.0000000001
 40
0.0
 40
0.0
 40
0.0
 40
0.0
 40
1.0
 40
1.0
 40
1.0
 40
1.0
 10
375.7356259037
 20
279.3446176307
 30
0.0
 10
375.6909966877
 20
279.37174632
 30
0.0
 10
375.6379943303
 20
279.3889618441
 30
0.0
 10
375.5857870013
 20
279.3904204441
 30
0.0
  0
SPLINE
  5
39E
100
AcDbEntity
  8
0
100
AcDbSpline
 62
7
  6
CONTINUOUS
 70
0
 71
3
 72
15
 73
11
 74
0
 42
0.0000001
 43
0.0000001
 44
0.0000000001
 40
0.0
 40
0.0
 40
0.0
 40
0.0
 40
0.3852887789
 40
0.5582326676
 40
0.7092006368
 40
0.8327554109
 40
0.924530503
 40
0.9572758479
 40
0.9808801138
 40
1.0
 40
1.0
 40
1.0
 40
1.0
 10
374.9123126889
 20
278.9289141364
 30
0.0
 10
375.0362729818
 20
278.9277742032
 30
0.0
 10
375.2158148557
 20
278.9258339865
 30
0.0
 10
375.444121037
 20
278.9231447874
 30
0.0
 10
375.587748097
 20
278.9208628764
 30
0.0
 10
375.7065025261
 20
278.9197801015
 30
0.0
 10
375.7843169221
 20
278.9164981854
 30
0.0
 10
375.834706977
 20
278.9177446326
 30
0.0
 10
375.8540613603
 20
278.9126531668
 30
0.0
 10
375.8774145236
 20
278.9205511387
 30
0.0
 10
375.8774086905
 20
278.9143993742
 30
0.0
  0
SPLINE
  5
39F
100
AcDbEntity
  8
0
100
AcDbSpline
 62
7
  6
CONTINUOUS
 70
0
 71
3
 72
8
 73
4
 74
0
 42
0.0000001
 43
0.0000001
 44
0.0000000001
 40
0.0
 40
0.0
 40
0.0
 40
0.0
 40
1.0
 40
1.0
 40
1.0
 40
1.0
 10
375.8465903778
 20
279.0832501617
 30
0.0
 10
375.8097905503
 20
279.1819163602
 30
0.0
 10
375.735090068
 20
279.2721133781
 30
0.0
 10
375.6448177959
 20
279.3263366472
 30
0.0
  0
SPLINE
  5
3A0
100
AcDbEntity
  8
0
100
AcDbSpline
 62
7
  6
CONTINUOUS
 70
0
 71
3
 72
8
 73
4
 74
0
 42
0.0000001
 43
0.0000001
 44
0.0000000001
 40
0.0
 40
0.0
 40
0.0
 40
0.0
 40
1.0
 40
1.0
 40
1.0
 40
1.0
 10
375.6448177959
 20
279.3263366472
 30
0.0
 10
375.5747875896
 20
279.368401244
 30
0.0
 10
375.4913160192
 20
279.3930661256
 30
0.0
 10
375.4096552057
 20
279.3953402489
 30
0.0
  0
SPLINE
  5
3A1
100
AcDbEntity
  8
0
100
AcDbSpline
 62
7
  6
CONTINUOUS
 70
0
 71
3
 72
9
 73
5
 74
0
 42
0.0000001
 43
0.0000001
 44
0.0000000001
 40
0.0
 40
0.0
 40
0.0
 40
0.0
 40
0.4990315799
 40
1.0
 40
1.0
 40
1.0
 40
1.0
 10
63.157764038
 20
376.915837034
 30
0.0
 10
63.0589310902
 20
376.9158331177
 30
0.0
 10
62.8531468676
 20
376.8352852724
 30
0.0
 10
62.7644344089
 20
376.6331055183
 30
0.0
 10
62.7599516804
 20
376.5339902996
 30
0.0
  0
SPLINE
  5
3A2
100
AcDbEntity
  8
0
100
AcDbSpline
 62
7
  6
CONTINUOUS
 70
0
 71
3
 72
9
 73
5
 74
0
 42
0.0000001
 43
0.0000001
 44
0.0000000001
 40
0.0
 40
0.0
 40
0.0
 40
0.0
 40
0.5591207606
 40
1.0
 40
1.0
 40
1.0
 40
1.0
 10
202.8757136378
 20
376.5263167295
 30
0.0
 10
202.8739310342
 20
376.6225891428
 30
0.0
 10
202.8345770901
 20
376.8011690589
 30
0.0
 10
202.6688938143
 20
376.9158459489
 30
0.0
 10
202.5929678484
 20
376.9158459489
 30
0.0
  0
SPLINE
  5
3A3
100
AcDbEntity
  8
0
100
AcDbSpline
 62
7
  6
CONTINUOUS
 70
0
 71
3
 72
9
 73
5
 74
0
 42
0.0000001
 43
0.0000001
 44
0.0000000001
 40
0.0
 40
0.0
 40
0.0
 40
0.0
 40
0.4406631285
 40
1.0
 40
1.0
 40
1.0
 40
1.0
 10
205.7074545573
 20
376.9158459489
 30
0.0
 10
205.7833433874
 20
376.9158459489
 30
0.0
 10
205.9490332714
 20
376.8012202287
 30
0.0
 10
205.9884170521
 20
376.6226264576
 30
0.0
 10
205.9902003467
 20
376.5263167295
 30
0.0
  0
SPLINE
  5
3A4
100
AcDbEntity
  8
0
100
AcDbSpline
 62
7
  6
CONTINUOUS
 70
0
 71
3
 72
9
 73
5
 74
0
 42
0.0000001
 43
0.0000001
 44
0.0000000001
 40
0.0
 40
0.0
 40
0.0
 40
0.0
 40
0.5593368732
 40
1.0
 40
1.0
 40
1.0
 40
1.0
 10
217.364617034
 20
376.5263167287
 30
0.0
 10
217.3664003284
 20
376.6226264573
 30
0.0
 10
217.405784109
 20
376.8012202289
 30
0.0
 10
217.5714739934
 20
376.9158459489
 30
0.0
 10
217.6473628233
 20
376.9158459489
 30
0.0
  0
SPLINE
  5
3A5
100
AcDbEntity
  8
0
100
AcDbSpline
 62
7
  6
CONTINUOUS
 70
0
 71
3
 72
9
 73
5
 74
0
 42
0.0000001
 43
0.0000001
 44
0.0000000001
 40
0.0
 40
0.0
 40
0.0
 40
0.0
 40
0.4406814762
 40
1.0
 40
1.0
 40
1.0
 40
1.0
 10
220.7618495242
 20
376.9158459485
 30
0.0
 10
220.6859642273
 20
376.915840949
 30
0.0
 10
220.5203431852
 20
376.8011529021
 30
0.0
 10
220.4809068846
 20
376.6226140592
 30
0.0
 10
220.4791239849
 20
376.5263159801
 30
0.0
  0
SPLINE
  5
3A6
100
AcDbEntity
  8
0
100
AcDbSpline
 62
7
  6
CONTINUOUS
 70
0
 71
3
 72
8
 73
4
 74
0
 42
0.0000001
 43
0.0000001
 44
0.0000000001
 40
0.0
 40
0.0
 40
0.0
 40
0.0
 40
1.0
 40
1.0
 40
1.0
 40
1.0
 10
362.896444939
 20
376.5193365784
 30
0.0
 10
362.895488105
 20
376.6459295346
 30
0.0
 10
362.8317584254
 20
376.7886527791
 30
0.0
 10
362.7264916493
 20
376.8589777246
 30
0.0
  0
SPLINE
  5
3A7
100
AcDbEntity
  8
0
100
AcDbSpline
 62
7
  6
CONTINUOUS
 70
0
 71
3
 72
8
 73
4
 74
0
 42
0.0000001
 43
0.0000001
 44
0.0000000001
 40
0.0
 40
0.0
 40
0.0
 40
0.0
 40
1.0
 40
1.0
 40
1.0
 40
1.0
 10
362.7264916493
 20
376.8589777246
 30
0.0
 10
362.6751087861
 20
376.8933047667
 30
0.0
 10
362.6118408315
 20
376.9158457996
 30
0.0
 10
362.5500464591
 20
376.9158459489
 30
0.0
  0
SPLINE
  5
3A8
100
AcDbEntity
  8
0
100
AcDbSpline
 62
7
  6
CONTINUOUS
 70
0
 71
3
 72
8
 73
4
 74
0
 42
0.0000001
 43
0.0000001
 44
0.0000000001
 40
0.0
 40
0.0
 40
0.0
 40
0.0
 40
1.0
 40
1.0
 40
1.0
 40
1.0
 10
362.7914458304
 20
376.9158459489
 30
0.0
 10
362.8515459502
 20
376.9158459489
 30
0.0
 10
362.9135953009
 20
376.8959086111
 30
0.0
 10
362.963777515
 20
376.8628364204
 30
0.0
  0
SPLINE
  5
3A9
100
AcDbEntity
  8
0
100
AcDbSpline
 62
7
  6
CONTINUOUS
 70
0
 71
3
 72
9
 73
5
 74
0
 42
0.0000001
 43
0.0000001
 44
0.0000000001
 40
0.0
 40
0.0
 40
0.0
 40
0.0
 40
0.7375886155
 40
1.0
 40
1.0
 40
1.0
 40
1.0
 10
362.963777515
 20
376.8628364204
 30
0.0
 10
363.0445353473
 20
376.8096136108
 30
0.0
 10
363.1224292428
 20
376.6840393108
 30
0.0
 10
363.1375827526
 20
376.5537451024
 30
0.0
 10
363.1378428017
 20
376.5193365631
 30
0.0
  0
LINE
  5
3AA
100
AcDbEntity
  8
0
100
AcDbLine
 62
7
  6
CONTINUOUS
 10
376.3662490989
 20
376.27653467
 11
376.5227138463
 21
376.3929741311
  0
SPLINE
  5
3AB
100
AcDbEntity
  8
0
100
AcDbSpline
 62
7
  6
CONTINUOUS
 70
0
 71
3
 72
11
 73
7
 74
0
 42
0.0000001
 43
0.0000001
 44
0.0000000001
 40
0.0
 40
0.0
 40
0.0
 40
0.0
 40
0.4147403844
 40
0.7322860314
 40
0.93141969
 40
1.0
 40
1.0
 40
1.0
 40
1.0
 10
376.5227138463
 20
376.3929741311
 30
0.0
 10
376.5445959059
 20
376.4092897391
 30
0.0
 10
376.5808575436
 20
376.4384098351
 30
0.0
 10
376.6375259276
 20
376.4742045702
 30
0.0
 10
376.6544591021
 20
376.4990986139
 30
0.0
 10
376.6832488861
 20
376.5079484481
 30
0.0
 10
376.6805586536
 20
376.5115725111
 30
0.0
  0
SPLINE
  5
3AC
100
AcDbEntity
  8
0
100
AcDbSpline
 62
7
  6
CONTINUOUS
 70
0
 71
3
 72
8
 73
4
 74
0
 42
0.0000001
 43
0.0000001
 44
0.0000000001
 40
0.0
 40
0.0
 40
0.0
 40
0.0
 40
1.0
 40
1.0
 40
1.0
 40
1.0
 10
388.8929896108
 20
278.3181745246
 30
0.0
 10
385.8382153273
 20
278.4248473739
 30
0.0
 10
382.7879820855
 20
278.6390340786
 30
0.0
 10
379.7378158747
 20
278.837808086
 30
0.0
  0
SPLINE
  5
3AD
100
AcDbEntity
  8
0
100
AcDbSpline
 62
7
  6
CONTINUOUS
 70
0
 71
3
 72
9
 73
5
 74
0
 42
0.0000001
 43
0.0000001
 44
0.0000000001
 40
0.0
 40
0.0
 40
0.0
 40
0.0
 40
0.2839399972
 40
1.0
 40
1.0
 40
1.0
 40
1.0
 10
376.829789129
 20
279.1573462237
 30
0.0
 10
376.7807090753
 20
279.1560353429
 30
0.0
 10
376.6078649392
 20
279.151116774
 30
0.0
 10
376.4350445894
 20
279.1450452177
 30
0.0
 10
376.3113661299
 20
279.1391748852
 30
0.0
  0
SPLINE
  5
3AE
100
AcDbEntity
  8
0
100
AcDbSpline
 62
7
  6
CONTINUOUS
 70
0
 71
3
 72
9
 73
5
 74
0
 42
0.0000001
 43
0.0000001
 44
0.0000000001
 40
0.0
 40
0.0
 40
0.0
 40
0.0
 40
0.3085056335
 40
1.0
 40
1.0
 40
1.0
 40
1.0
 10
376.3113661299
 20
279.1391748852
 30
0.0
 10
376.2781901682
 20
279.1376002058
 30
0.0
 10
376.1706897598
 20
279.1320023509
 30
0.0
 10
376.063164062
 20
279.1252467191
 30
0.0
 10
375.9891656628
 20
279.1171011167
 30
0.0
  0
SPLINE
  5
3AF
100
AcDbEntity
  8
0
100
AcDbSpline
 62
7
  6
CONTINUOUS
 70
0
 71
3
 72
9
 73
5
 74
0
 42
0.0000001
 43
0.0000001
 44
0.0000000001
 40
0.0
 40
0.0
 40
0.0
 40
0.0
 40
0.7286890001
 40
1.0
 40
1.0
 40
1.0
 40
1.0
 10
375.9891656628
 20
279.1171011167
 30
0.0
 10
375.9611755101
 20
279.1140200141
 30
0.0
 10
375.9332378016
 20
279.1071031959
 30
0.0
 10
375.8774106516
 20
279.1010224026
 30
0.0
 10
375.8774086905
 20
279.0905379479
 30
0.0
  0
SPLINE
  5
3B0
100
AcDbEntity
  8
0
100
AcDbSpline
 62
7
  6
CONTINUOUS
 70
0
 71
3
 72
9
 73
5
 74
0
 42
0.0000001
 43
0.0000001
 44
0.0000000001
 40
0.0
 40
0.0
 40
0.0
 40
0.0
 40
0.2606886624
 40
1.0
 40
1.0
 40
1.0
 40
1.0
 10
379.7378113821
 20
278.8377260534
 30
0.0
 10
379.5730788761
 20
278.849272498
 30
0.0
 10
378.9411702132
 20
278.8936233942
 30
0.0
 10
378.3092672206
 20
278.9380579568
 30
0.0
 10
377.8421255288
 20
278.9713499383
 30
0.0
  0
SPLINE
  5
3B1
100
AcDbEntity
  8
0
100
AcDbSpline
 62
7
  6
CONTINUOUS
 70
0
 71
3
 72
9
 73
5
 74
0
 42
0.0000001
 43
0.0000001
 44
0.0000000001
 40
0.0
 40
0.0
 40
0.0
 40
0.0
 40
0.2746988767
 40
1.0
 40
1.0
 40
1.0
 40
1.0
 10
377.8421255288
 20
278.9713499383
 30
0.0
 10
377.7494101398
 20
278.9779575245
 30
0.0
 10
377.4119037429
 20
279.0021434583
 30
0.0
 10
377.0744368299
 20
279.0269443406
 30
0.0
 10
376.8297879393
 20
279.0464084973
 30
0.0
  0
ENDSEC
  0
SECTION
  2
OBJECTS
  0
DICTIONARY
  5
C
100
AcDbDictionary
280
0
281
1
  3
ACAD_GROUP
350
D
  3
ACAD_MLINESTYLE
350
17
  3
ACAD_LAYOUT
350
1A
  3
ACAD_PLOTSETTINGS
350
19
  3
ACAD_PLOTSTYLENAME
350
E
  0
DICTIONARY
  5
D
102
{ACAD_REACTORS
330
C
102
}
100
AcDbDictionary
280
0
281
1
  0
ACDBDICTIONARYWDFLT
  5
E
102
{ACAD_REACTORS
330
C
102
}
100
AcDbDictionary
281
1
  3
Normal
350
F
100
AcDbDictionaryWithDefault
340
F
  0
DICTIONARY
  5
17
102
{ACAD_REACTORS
330
C
102
}
100
AcDbDictionary
280
0
281
1
  3
Standard
350
18
  0
DICTIONARY
  5
19
102
{ACAD_REACTORS
330
C
102
}
100
AcDbDictionary
281
1
  0
DICTIONARY
  5
1A
102
{ACAD_REACTORS
330
C
102
}
100
AcDbDictionary
281
1
  3
Model
350
3B2
  3
Layout1
350
3B3
  0
ACDBPLACEHOLDER
  5
F
102
{ACAD_REACTORS
330
E
102
}
  0
MLINESTYLE
  5
18
102
{ACAD_REACTORS
330
17
102
}
100
AcDbMlineStyle
  2
STANDARD
 70
0
  3

 62
256
 51
90.0
 52
90.0
 71
2
 49
0.5
 62
256
  6
BYLAYER
 49
-0.5
 62
256
  6
BYLAYER
  0
LAYOUT
  5
3B2
102
{ACAD_REACTORS
330
1A
102
}
100
AcDbPlotSettings
  1

  2
none_device
  4

  6

 40
0.0
 41
0.0
 42
0.0
 43
0.0
 44
210.0
 45
297.0
 46
0.0
 47
0.0
 48
0.0
 49
0.0
140
0.0
141
0.0
142
1.0
143
1.0
 70
1024
 72
1
 73
0
 74
0
  7

 75
0
147
1.0
148
0.0
149
0.0
100
AcDbLayout
  1
Model
 70
0
 71
0
 10
0.0
 20
0.0
 11
210.0
 21
297.0
 12
0.0
 22
0.0
 32
0.0
 14
0.0
 24
0.0
 34
0.0
 15
0.0
 25
0.0
 35
0.0
146
0.0
 13
0.0
 23
0.0
 33
0.0
 16
1.0
 26
0.0
 36
0.0
 17
0.0
 27
1.0
 37
0.0
 76
0
330
210
345
0
346
0
  0
LAYOUT
  5
3B3
102
{ACAD_REACTORS
330
1A
102
}
100
AcDbPlotSettings
  1

  2
none_device
  4

  6

 40
0.0
 41
0.0
 42
0.0
 43
0.0
 44
210.0
 45
297.0
 46
0.0
 47
0.0
 48
0.0
 49
0.0
140
0.0
141
0.0
142
1.0
143
1.0
 70
0
 72
1
 73
0
 74
0
  7

 75
0
147
1.0
148
0.0
149
0.0
100
AcDbLayout
  1
Layout1
 70
0
 71
1
 10
0.0
 20
0.0
 11
210.0
 21
297.0
 12
0.0
 22
0.0
 32
0.0
 14
0.0
 24
0.0
 34
0.0
 15
0.0
 25
0.0
 35
0.0
146
0.0
 13
0.0
 23
0.0
 33
0.0
 16
1.0
 26
0.0
 36
0.0
 17
0.0
 27
1.0
 37
0.0
 76
0
330
211
345
0
346
0
  0
ENDSEC
  0
EOF
