  0
SECTION
  2
HEADER
  9
$ACADVER
  1
AC1015
  9
$ACADMAINTVER
 70
     6
  9
$DWGCODEPAGE
  3
ANSI_1252
  9
$INSBASE
 10
0.0
 20
0.0
 30
0.0
  9
$EXTMIN
 10
-0.5
 20
-0.5
 30
-0.5
  9
$EXTMAX
 10
5.0
 20
5.0
 30
5.0
  9
$LIMMIN
 10
-0.5
 20
-0.5
  9
$LIMMAX
 10
5.0
 20
5.0
  9
$ORTHOMODE
 70
     0
  9
$REGENMODE
 70
     1
  9
$FILLMODE
 70
     1
  9
$QTEXTMODE
 70
     0
  9
$MIRRTEXT
 70
     1
  9
$LTSCALE
 40
1.0
  9
$ATTMODE
 70
     1
  9
$TEXTSIZE
 40
0.2
  9
$TRACEWID
 40
0.05
  9
$TEXTSTYLE
  7
Standard
  9
$CLAYER
  8
0
  9
$CELTYPE
  6
ByLayer
  9
$CECOLOR
 62
   256
  9
$CELTSCALE
 40
1.0
  9
$DISPSILH
 70
     0
  9
$DIMSCALE
 40
1.0
  9
$DIMASZ
 40
0.18
  9
$DIMEXO
 40
0.0625
  9
$DIMDLI
 40
0.38
  9
$DIMRND
 40
0.0
  9
$DIMDLE
 40
0.0
  9
$DIMEXE
 40
0.18
  9
$DIMTP
 40
0.0
  9
$DIMTM
 40
0.0
  9
$DIMTXT
 40
0.18
  9
$DIMCEN
 40
0.09
  9
$DIMTSZ
 40
0.0
  9
$DIMTOL
 70
     0
  9
$DIMLIM
 70
     0
  9
$DIMTIH
 70
     1
  9
$DIMTOH
 70
     1
  9
$DIMSE1
 70
     0
  9
$DIMSE2
 70
     0
  9
$DIMTAD
 70
     0
  9
$DIMZIN
 70
     0
  9
$DIMBLK
  1

  9
$DIMASO
 70
     1
  9
$DIMSHO
 70
     1
  9
$DIMPOST
  1

  9
$DIMAPOST
  1

  9
$DIMALT
 70
     0
  9
$DIMALTD
 70
     2
  9
$DIMALTF
 40
25.4
  9
$DIMLFAC
 40
1.0
  9
$DIMTOFL
 70
     0
  9
$DIMTVP
 40
0.0
  9
$DIMTIX
 70
     0
  9
$DIMSOXD
 70
     0
  9
$DIMSAH
 70
     0
  9
$DIMBLK1
  1

  9
$DIMBLK2
  1

  9
$DIMSTYLE
  2
Standard
  9
$DIMCLRD
 70
     0
  9
$DIMCLRE
 70
     0
  9
$DIMCLRT
 70
     0
  9
$DIMTFAC
 40
1.0
  9
$DIMGAP
 40
0.09
  9
$DIMJUST
 70
     0
  9
$DIMSD1
 70
     0
  9
$DIMSD2
 70
     0
  9
$DIMTOLJ
 70
     1
  9
$DIMTZIN
 70
     0
  9
$DIMALTZ
 70
     0
  9
$DIMALTTZ
 70
     0
  9
$DIMUPT
 70
     0
  9
$DIMDEC
 70
     4
  9
$DIMTDEC
 70
     4
  9
$DIMALTU
 70
     2
  9
$DIMALTTD
 70
     2
  9
$DIMTXSTY
  7
Standard
  9
$DIMAUNIT
 70
     0
  9
$DIMADEC
 70
     0
  9
$DIMALTRND
 40
0.0
  9
$DIMAZIN
 70
     0
  9
$DIMDSEP
 70
    46
  9
$DIMATFIT
 70
     3
  9
$DIMFRAC
 70
     0
  9
$DIMLDRBLK
  1

  9
$DIMLUNIT
 70
     2
  9
$DIMLWD
 70
    -2
  9
$DIMLWE
 70
    -2
  9
$DIMTMOVE
 70
     0
  9
$LUNITS
 70
     2
  9
$LUPREC
 70
     4
  9
$SKETCHINC
 40
0.1
  9
$FILLETRAD
 40
0.5
  9
$AUNITS
 70
     0
  9
$AUPREC
 70
     0
  9
$MENU
  1
.
  9
$ELEVATION
 40
0.0
  9
$PELEVATION
 40
0.0
  9
$THICKNESS
 40
0.0
  9
$LIMCHECK
 70
     0
  9
$CHAMFERA
 40
0.5
  9
$CHAMFERB
 40
0.5
  9
$CHAMFERC
 40
1.0
  9
$CHAMFERD
 40
0.0
  9
$SKPOLY
 70
     0
  9
$TDCREATE
 40
2456776.5732639
  9
$TDUCREATE
 40
2456776.781597234
  9
$TDUPDATE
 40
2456776.573263912
  9
$TDUUPDATE
 40
2456776.781597245
  9
$TDINDWG
 40
0.0000000116
  9
$TDUSRTIMER
 40
0.0000000116
  9
$USRTIMER
 70
     1
  9
$ANGBASE
 50
0.0
  9
$ANGDIR
 70
     0
  9
$PDMODE
 70
     0
  9
$PDSIZE
 40
0.0
  9
$PLINEWID
 40
0.0
  9
$SPLFRAME
 70
     0
  9
$SPLINETYPE
 70
     6
  9
$SPLINESEGS
 70
     8
  9
$HANDSEED
  5
1F0
  9
$SURFTAB1
 70
     6
  9
$SURFTAB2
 70
     6
  9
$SURFTYPE
 70
     6
  9
$SURFU
 70
     6
  9
$SURFV
 70
     6
  9
$UCSBASE
  2

  9
$UCSNAME
  2

  9
$UCSORG
 10
0.0
 20
0.0
 30
0.0
  9
$UCSXDIR
 10
1.0
 20
0.0
 30
0.0
  9
$UCSYDIR
 10
0.0
 20
1.0
 30
0.0
  9
$UCSORTHOREF
  2

  9
$UCSORTHOVIEW
 70
     0
  9
$UCSORGTOP
 10
0.0
 20
0.0
 30
0.0
  9
$UCSORGBOTTOM
 10
0.0
 20
0.0
 30
0.0
  9
$UCSORGLEFT
 10
0.0
 20
0.0
 30
0.0
  9
$UCSORGRIGHT
 10
0.0
 20
0.0
 30
0.0
  9
$UCSORGFRONT
 10
0.0
 20
0.0
 30
0.0
  9
$UCSORGBACK
 10
0.0
 20
0.0
 30
0.0
  9
$PUCSBASE
  2

  9
$PUCSNAME
  2

  9
$PUCSORG
 10
0.0
 20
0.0
 30
0.0
  9
$PUCSXDIR
 10
1.0
 20
0.0
 30
0.0
  9
$PUCSYDIR
 10
0.0
 20
1.0
 30
0.0
  9
$PUCSORTHOREF
  2

  9
$PUCSORTHOVIEW
 70
     0
  9
$PUCSORGTOP
 10
0.0
 20
0.0
 30
0.0
  9
$PUCSORGBOTTOM
 10
0.0
 20
0.0
 30
0.0
  9
$PUCSORGLEFT
 10
0.0
 20
0.0
 30
0.0
  9
$PUCSORGRIGHT
 10
0.0
 20
0.0
 30
0.0
  9
$PUCSORGFRONT
 10
0.0
 20
0.0
 30
0.0
  9
$PUCSORGBACK
 10
0.0
 20
0.0
 30
0.0
  9
$USERI1
 70
     0
  9
$USERI2
 70
     0
  9
$USERI3
 70
     0
  9
$USERI4
 70
     0
  9
$USERI5
 70
     0
  9
$USERR1
 40
0.0
  9
$USERR2
 40
0.0
  9
$USERR3
 40
0.0
  9
$USERR4
 40
0.0
  9
$USERR5
 40
0.0
  9
$WORLDVIEW
 70
     1
  9
$SHADEDGE
 70
     3
  9
$SHADEDIF
 70
    70
  9
$TILEMODE
 70
     0
  9
$MAXACTVP
 70
    64
  9
$PINSBASE
 10
0.0
 20
0.0
 30
0.0
  9
$PLIMCHECK
 70
     0
  9
$PEXTMIN
 10
0.0
 20
0.0
 30
0.0
  9
$PEXTMAX
 10
11.0
 20
8.5
 30
0.0
  9
$PLIMMIN
 10
0.0
 20
0.0
  9
$PLIMMAX
 10
11.0
 20
8.5
  9
$UNITMODE
 70
     0
  9
$VISRETAIN
 70
     1
  9
$PLINEGEN
 70
     0
  9
$PSLTSCALE
 70
     1
  9
$TREEDEPTH
 70
  3020
  9
$CMLSTYLE
  2
Standard
  9
$CMLJUST
 70
     0
  9
$CMLSCALE
 40
1.0
  9
$PROXYGRAPHICS
 70
     1
  9
$MEASUREMENT
 70
     0
  9
$CELWEIGHT
370
    -1
  9
$ENDCAPS
280
     0
  9
$JOINSTYLE
280
     0
  9
$LWDISPLAY
290
     0
  9
$INSUNITS
 70
     1
  9
$HYPERLINKBASE
  1

  9
$STYLESHEET
  1

  9
$XEDIT
290
     1
  9
$CEPSNTYPE
380
     0
  9
$PSTYLEMODE
290
     1
  9
$FINGERPRINTGUID
  2
{347785DF-2C35-486B-BEA1-575AD3A226BB}
  9
$VERSIONGUID
  2
{FAEB1C32-E019-11D5-929B-00C0DF256EC4}
  9
$EXTNAMES
290
     1
  9
$PSVPSCALE
 40
0.0
  9
$OLESTARTUP
290
     0
  0
ENDSEC
  0
SECTION
  2
CLASSES
  0
CLASS
  1
ACDBDICTIONARYWDFLT
  2
AcDbDictionaryWithDefault
  3
ObjectDBX Classes
 90
        0
280
     0
281
     0
  0
CLASS
  1
VISUALSTYLE
  2
AcDbVisualStyle
  3
ObjectDBX Classes
 90
     4095
280
     0
281
     0
  0
CLASS
  1
MATERIAL
  2
AcDbMaterial
  3
ObjectDBX Classes
 90
     1153
280
     0
281
     0
  0
CLASS
  1
DICTIONARYVAR
  2
AcDbDictionaryVar
  3
ObjectDBX Classes
 90
        0
280
     0
281
     0
  0
CLASS
  1
ACDBPLACEHOLDER
  2
AcDbPlaceHolder
  3
ObjectDBX Classes
 90
        0
280
     0
281
     0
  0
CLASS
  1
LAYOUT
  2
AcDbLayout
  3
ObjectDBX Classes
 90
        0
280
     0
281
     0
  0
ENDSEC
  0
SECTION
  2
TABLES
  0
TABLE
  2
VPORT
  5
8
330
0
100
AcDbSymbolTable
 70
    17
  0
VPORT
  5
29
330
8
100
AcDbSymbolTableRecord
100
AcDbViewportTableRecord
  2
DUMMY
 70
     0
 10
0.0
 20
0.0
 11
1.0
 21
1.0
 12
10.429907
 22
4.5
 13
0.0
 23
0.0
 14
0.5
 24
0.5
 15
0.5
 25
0.5
 16
0.0
 26
0.0
 36
1.0
 17
0.0
 27
0.0
 37
0.0
 40
9.0
 41
1.972973
 42
50.0
 43
0.0
 44
0.0
 50
0.0
 51
0.0
 71
     0
 72
   100
 73
     1
 74
     3
 75
     0
 76
     0
 77
     0
 78
     0
281
     0
 65
     1
110
0.0
120
0.0
130
0.0
111
1.0
121
0.0
131
0.0
112
0.0
122
1.0
132
0.0
 79
     0
146
0.0
  0
VPORT
  5
1B5
330
8
100
AcDbSymbolTableRecord
100
AcDbViewportTableRecord
  2
*ACTIVE
 70
     0
 10
0.0
 20
0.0
 11
1.0
 21
1.0
 12
-6.834472
 22
-6.834472
 13
0.0
 23
0.0
 14
0.5
 24
0.5
 15
0.5
 25
0.5
 16
0.7188730927569434
 26
-0.5850486126764431
 36
0.3754192287502549
 17
0.0
 27
0.0
 37
0.0
 40
61.350868
 41
0.28943
 42
50.0
 43
482.07238
 44
-482.07238
 50
0.0
 51
0.0
 71
     0
 72
   100
 73
     1
 74
     3
 75
     0
 76
     0
 77
     0
 78
     0
281
     0
 65
     1
110
0.0
120
0.0
130
0.0
111
1.0
121
0.0
131
0.0
112
0.0
122
1.0
132
0.0
 79
     0
146
0.0
  0
VPORT
  5
1B6
330
8
100
AcDbSymbolTableRecord
100
AcDbViewportTableRecord
  2
L1
 70
     0
 10
0.0
 20
0.0
 11
1.0
 21
1.0
 12
-6.834472
 22
-6.834472
 13
0.0
 23
0.0
 14
0.5
 24
0.5
 15
0.5
 25
0.5
 16
0.7188730927569434
 26
-0.5850486126764431
 36
0.3754192287502549
 17
0.0
 27
0.0
 37
0.0
 40
61.350868
 41
0.28943
 42
50.0
 43
482.07238
 44
-482.07238
 50
0.0
 51
0.0
 71
     0
 72
   100
 73
     1
 74
     3
 75
     0
 76
     0
 77
     0
 78
     0
281
     0
 65
     1
110
0.0
120
0.0
130
0.0
111
1.0
121
0.0
131
0.0
112
0.0
122
1.0
132
0.0
 79
     0
146
0.0
  0
VPORT
  5
1B7
330
8
100
AcDbSymbolTableRecord
100
AcDbViewportTableRecord
  2
L2
 70
     0
 10
0.0
 20
0.0
 11
0.5
 21
1.0
 12
0.0
 22
0.0
 13
0.0
 23
0.0
 14
0.5
 24
0.5
 15
0.5
 25
0.5
 16
0.0
 26
-1.0
 36
0.0
 17
0.0
 27
0.0
 37
0.0
 40
59.28775
 41
0.299501
 42
50.0
 43
30.446227
 44
-30.446227
 50
0.0
 51
0.0
 71
     0
 72
   100
 73
     1
 74
     3
 75
     0
 76
     0
 77
     0
 78
     0
281
     0
 65
     1
110
0.0
120
0.0
130
0.0
111
1.0
121
0.0
131
0.0
112
0.0
122
1.0
132
0.0
 79
     0
146
0.0
  0
VPORT
  5
1B8
330
8
100
AcDbSymbolTableRecord
100
AcDbViewportTableRecord
  2
L2
 70
     0
 10
0.5
 20
0.0
 11
1.0
 21
1.0
 12
0.0
 22
0.0
 13
0.0
 23
0.0
 14
0.5
 24
0.5
 15
0.5
 25
0.5
 16
1.0
 26
0.0
 36
0.0
 17
0.0
 27
0.0
 37
0.0
 40
59.28775
 41
0.299501
 42
50.0
 43
30.05782
 44
-30.05782
 50
0.0
 51
0.0
 71
     0
 72
   100
 73
     1
 74
     3
 75
     0
 76
     0
 77
     0
 78
     0
281
     0
 65
     1
110
0.0
120
0.0
130
0.0
111
1.0
121
0.0
131
0.0
112
0.0
122
1.0
132
0.0
 79
     0
146
0.0
  0
VPORT
  5
1B9
330
8
100
AcDbSymbolTableRecord
100
AcDbViewportTableRecord
  2
L3
 70
     0
 10
0.0
 20
0.5
 11
1.0
 21
1.0
 12
0.0
 22
0.0
 13
0.0
 23
0.0
 14
0.5
 24
0.5
 15
0.5
 25
0.5
 16
0.0
 26
0.0
 36
1.0
 17
0.0
 27
0.0
 37
0.0
 40
9.942483
 41
1.785948
 42
50.0
 43
29.643875
 44
-29.643875
 50
0.0
 51
0.0
 71
     0
 72
   100
 73
     1
 74
     3
 75
     0
 76
     0
 77
     0
 78
     0
281
     0
 65
     1
110
0.0
120
0.0
130
0.0
111
1.0
121
0.0
131
0.0
112
0.0
122
1.0
132
0.0
 79
     0
146
0.0
  0
VPORT
  5
1BA
330
8
100
AcDbSymbolTableRecord
100
AcDbViewportTableRecord
  2
L3
 70
     0
 10
0.0
 20
0.0
 11
1.0
 21
0.5
 12
0.0
 22
0.0
 13
0.0
 23
0.0
 14
0.5
 24
0.5
 15
0.5
 25
0.5
 16
0.0
 26
-1.0
 36
0.0
 17
0.0
 27
0.0
 37
0.0
 40
59.28775
 41
0.299501
 42
50.0
 43
30.446227
 44
-30.446227
 50
0.0
 51
0.0
 71
     0
 72
   100
 73
     1
 74
     3
 75
     0
 76
     0
 77
     0
 78
     0
281
     0
 65
     1
110
0.0
120
0.0
130
0.0
111
1.0
121
0.0
131
0.0
112
0.0
122
1.0
132
0.0
 79
     0
146
0.0
  0
VPORT
  5
1BB
330
8
100
AcDbSymbolTableRecord
100
AcDbViewportTableRecord
  2
L4
 70
     0
 10
0.0
 20
0.5
 11
0.5
 21
1.0
 12
0.0
 22
0.0
 13
0.0
 23
0.0
 14
0.5
 24
0.5
 15
0.5
 25
0.5
 16
0.0
 26
0.0
 36
1.0
 17
0.0
 27
0.0
 37
0.0
 40
9.942483
 41
1.785948
 42
50.0
 43
29.643875
 44
-29.643875
 50
0.0
 51
0.0
 71
     0
 72
   100
 73
     1
 74
     3
 75
     0
 76
     0
 77
     0
 78
     0
281
     0
 65
     1
110
0.0
120
0.0
130
0.0
111
1.0
121
0.0
131
0.0
112
0.0
122
1.0
132
0.0
 79
     0
146
0.0
  0
VPORT
  5
1BC
330
8
100
AcDbSymbolTableRecord
100
AcDbViewportTableRecord
  2
L4
 70
     0
 10
0.0
 20
0.0
 11
0.5
 21
0.5
 12
0.0
 22
0.0
 13
0.0
 23
0.0
 14
0.5
 24
0.5
 15
0.5
 25
0.5
 16
0.0
 26
-1.0
 36
0.0
 17
0.0
 27
0.0
 37
0.0
 40
59.28775
 41
0.299501
 42
50.0
 43
30.446227
 44
-30.446227
 50
0.0
 51
0.0
 71
     0
 72
   100
 73
     1
 74
     3
 75
     0
 76
     0
 77
     0
 78
     0
281
     0
 65
     1
110
0.0
120
0.0
130
0.0
111
1.0
121
0.0
131
0.0
112
0.0
122
1.0
132
0.0
 79
     0
146
0.0
  0
VPORT
  5
1BD
330
8
100
AcDbSymbolTableRecord
100
AcDbViewportTableRecord
  2
L4
 70
     0
 10
0.5
 20
0.0
 11
1.0
 21
0.5
 12
0.0
 22
0.0
 13
0.0
 23
0.0
 14
0.5
 24
0.5
 15
0.5
 25
0.5
 16
1.0
 26
0.0
 36
0.0
 17
0.0
 27
0.0
 37
0.0
 40
59.28775
 41
0.299501
 42
50.0
 43
30.05782
 44
-30.05782
 50
0.0
 51
0.0
 71
     0
 72
   100
 73
     1
 74
     3
 75
     0
 76
     0
 77
     0
 78
     0
281
     0
 65
     1
110
0.0
120
0.0
130
0.0
111
1.0
121
0.0
131
0.0
112
0.0
122
1.0
132
0.0
 79
     0
146
0.0
  0
VPORT
  5
1BE
330
8
100
AcDbSymbolTableRecord
100
AcDbViewportTableRecord
  2
L4
 70
     0
 10
0.5
 20
0.5
 11
1.0
 21
1.0
 12
0.0
 22
0.0
 13
0.0
 23
0.0
 14
0.5
 24
0.5
 15
0.5
 25
0.5
 16
0.5773502691896258
 26
-0.5773502691896258
 36
0.5773502691896258
 17
0.0
 27
0.0
 37
0.0
 40
58.136664
 41
0.305431
 42
50.0
 43
30.264658
 44
-30.264658
 50
0.0
 51
0.0
 71
     0
 72
   100
 73
     1
 74
     3
 75
     0
 76
     0
 77
     0
 78
     0
281
     0
 65
     1
110
0.0
120
0.0
130
0.0
111
1.0
121
0.0
131
0.0
112
0.0
122
1.0
132
0.0
 79
     0
146
0.0
  0
VPORT
  5
1BF
330
8
100
AcDbSymbolTableRecord
100
AcDbViewportTableRecord
  2
L6
 70
     0
 10
0.0
 20
0.5
 11
0.333333
 21
1.0
 12
-6.834472
 22
-6.834472
 13
0.0
 23
0.0
 14
0.5
 24
0.5
 15
0.5
 25
0.5
 16
0.7188730927569434
 26
-0.5850486126764431
 36
0.3754192287502549
 17
0.0
 27
0.0
 37
0.0
 40
61.350868
 41
0.28943
 42
50.0
 43
482.07238
 44
-482.07238
 50
0.0
 51
0.0
 71
     0
 72
   100
 73
     1
 74
     3
 75
     0
 76
     0
 77
     0
 78
     0
281
     0
 65
     1
110
0.0
120
0.0
130
0.0
111
1.0
121
0.0
131
0.0
112
0.0
122
1.0
132
0.0
 79
     0
146
0.0
  0
VPORT
  5
1C0
330
8
100
AcDbSymbolTableRecord
100
AcDbViewportTableRecord
  2
L6
 70
     0
 10
0.0
 20
0.0
 11
0.333333
 21
0.5
 12
0.0
 22
0.0
 13
0.0
 23
0.0
 14
0.5
 24
0.5
 15
0.5
 25
0.5
 16
-1.0
 26
0.0
 36
0.0
 17
0.0
 27
0.0
 37
0.0
 40
59.28775
 41
0.299501
 42
50.0
 43
30.05782
 44
-30.05782
 50
0.0
 51
0.0
 71
     0
 72
   100
 73
     1
 74
     3
 75
     0
 76
     0
 77
     0
 78
     0
281
     0
 65
     1
110
0.0
120
0.0
130
0.0
111
1.0
121
0.0
131
0.0
112
0.0
122
1.0
132
0.0
 79
     0
146
0.0
  0
VPORT
  5
1C1
330
8
100
AcDbSymbolTableRecord
100
AcDbViewportTableRecord
  2
L6
 70
     0
 10
0.333333
 20
0.5
 11
0.666667
 21
1.0
 12
0.0
 22
0.0
 13
0.0
 23
0.0
 14
0.5
 24
0.5
 15
0.5
 25
0.5
 16
0.0
 26
0.0
 36
1.0
 17
0.0
 27
0.0
 37
0.0
 40
9.942483
 41
1.785948
 42
50.0
 43
29.643875
 44
-29.643875
 50
0.0
 51
0.0
 71
     0
 72
   100
 73
     1
 74
     3
 75
     0
 76
     0
 77
     0
 78
     0
281
     0
 65
     1
110
0.0
120
0.0
130
0.0
111
1.0
121
0.0
131
0.0
112
0.0
122
1.0
132
0.0
 79
     0
146
0.0
  0
VPORT
  5
1C2
330
8
100
AcDbSymbolTableRecord
100
AcDbViewportTableRecord
  2
L6
 70
     0
 10
0.333333
 20
0.0
 11
0.666667
 21
0.5
 12
0.0
 22
0.0
 13
0.0
 23
0.0
 14
0.5
 24
0.5
 15
0.5
 25
0.5
 16
0.0
 26
-1.0
 36
0.0
 17
0.0
 27
0.0
 37
0.0
 40
59.28775
 41
0.299501
 42
50.0
 43
30.446227
 44
-30.446227
 50
0.0
 51
0.0
 71
     0
 72
   100
 73
     1
 74
     3
 75
     0
 76
     0
 77
     0
 78
     0
281
     0
 65
     1
110
0.0
120
0.0
130
0.0
111
1.0
121
0.0
131
0.0
112
0.0
122
1.0
132
0.0
 79
     0
146
0.0
  0
VPORT
  5
1C3
330
8
100
AcDbSymbolTableRecord
100
AcDbViewportTableRecord
  2
L6
 70
     0
 10
0.666667
 20
0.5
 11
1.0
 21
1.0
 12
0.0
 22
0.0
 13
0.0
 23
0.0
 14
0.5
 24
0.5
 15
0.5
 25
0.5
 16
0.5773502691896258
 26
-0.5773502691896258
 36
0.5773502691896258
 17
0.0
 27
0.0
 37
0.0
 40
58.136664
 41
0.305431
 42
50.0
 43
30.264658
 44
-30.264658
 50
0.0
 51
0.0
 71
     0
 72
   100
 73
     1
 74
     3
 75
     0
 76
     0
 77
     0
 78
     0
281
     0
 65
     1
110
0.0
120
0.0
130
0.0
111
1.0
121
0.0
131
0.0
112
0.0
122
1.0
132
0.0
 79
     0
146
0.0
  0
VPORT
  5
1C4
330
8
100
AcDbSymbolTableRecord
100
AcDbViewportTableRecord
  2
L6
 70
     0
 10
0.666667
 20
0.0
 11
1.0
 21
0.5
 12
0.0
 22
0.0
 13
0.0
 23
0.0
 14
0.5
 24
0.5
 15
0.5
 25
0.5
 16
1.0
 26
0.0
 36
0.0
 17
0.0
 27
0.0
 37
0.0
 40
59.28775
 41
0.299501
 42
50.0
 43
30.05782
 44
-30.05782
 50
0.0
 51
0.0
 71
     0
 72
   100
 73
     1
 74
     3
 75
     0
 76
     0
 77
     0
 78
     0
281
     0
 65
     1
110
0.0
120
0.0
130
0.0
111
1.0
121
0.0
131
0.0
112
0.0
122
1.0
132
0.0
 79
     0
146
0.0
  0
ENDTAB
  0
TABLE
  2
LTYPE
  5
5
330
0
100
AcDbSymbolTable
 70
     7
  0
LTYPE
  5
14
330
5
100
AcDbSymbolTableRecord
100
AcDbLinetypeTableRecord
  2
BYBLOCK
 70
     0
  3

 72
    65
 73
     0
 40
0.0
  0
LTYPE
  5
15
330
5
100
AcDbSymbolTableRecord
100
AcDbLinetypeTableRecord
  2
BYLAYER
 70
     0
  3

 72
    65
 73
     0
 40
0.0
  0
LTYPE
  5
16
330
5
100
AcDbSymbolTableRecord
100
AcDbLinetypeTableRecord
  2
CONTINUOUS
 70
     0
  3
Solid line
 72
    65
 73
     0
 40
0.0
  0
LTYPE
  5
40
330
5
100
AcDbSymbolTableRecord
100
AcDbLinetypeTableRecord
  2
DASHED
 70
     0
  3
__ __ __ __ __ __ __ __ __
 72
    65
 73
     2
 40
25.72
 49
12.86
 74
     4
 75
     0
340
0
 46
0.0
 50
0.0
 44
0.0
 45
0.0
 49
-12.86
 74
     4
 75
     0
340
0
 46
0.0
 50
0.0
 44
0.0
 45
0.0
  0
LTYPE
  5
41
330
5
100
AcDbSymbolTableRecord
100
AcDbLinetypeTableRecord
  2
HIDDEN
 70
     0
  3
_ _ _ _ _ _ _ _ _ _ _ _ _ _ _
 72
    65
 73
     2
 40
0.5
 49
0.25
 74
     4
 75
     0
340
0
 46
0.0
 50
0.0
 44
0.0
 45
0.0
 49
-0.25
 74
     4
 75
     0
340
0
 46
0.0
 50
0.0
 44
0.0
 45
0.0
  0
LTYPE
  5
42
330
5
100
AcDbSymbolTableRecord
100
AcDbLinetypeTableRecord
  2
PHANTOM
 70
     0
  3
____ _ _ ____ _ _ _____ _ _ ____
 72
    65
 73
     6
 40
50.5
 49
18.0
 74
     4
 75
     0
340
0
 46
0.0
 50
0.0
 44
0.0
 45
0.0
 49
-6.5
 74
     4
 75
     0
340
0
 46
0.0
 50
0.0
 44
0.0
 45
0.0
 49
6.5
 74
     4
 75
     0
340
0
 46
0.0
 50
0.0
 44
0.0
 45
0.0
 49
-6.5
 74
     4
 75
     0
340
0
 46
0.0
 50
0.0
 44
0.0
 45
0.0
 49
6.5
 74
     4
 75
     0
340
0
 46
0.0
 50
0.0
 44
0.0
 45
0.0
 49
-6.5
 74
     4
 75
     0
340
0
 46
0.0
 50
0.0
 44
0.0
 45
0.0
  0
LTYPE
  5
43
330
5
100
AcDbSymbolTableRecord
100
AcDbLinetypeTableRecord
  2
CENTER
 70
     0
  3
____ _ ____ _ ____ _ ____
 72
    65
 73
     4
 40
47.4
 49
22.0
 74
     4
 75
     0
340
0
 46
0.0
 50
0.0
 44
0.0
 45
0.0
 49
-8.5
 74
     4
 75
     0
340
0
 46
0.0
 50
0.0
 44
0.0
 45
0.0
 49
8.5
 74
     4
 75
     0
340
0
 46
0.0
 50
0.0
 44
0.0
 45
0.0
 49
-8.5
 74
     4
 75
     0
340
0
 46
0.0
 50
0.0
 44
0.0
 45
0.0
  0
LTYPE
  5
44
330
5
100
AcDbSymbolTableRecord
100
AcDbLinetypeTableRecord
  2
DOT
 70
     0
  3
.........................
 72
    65
 73
     2
 40
10.0
 49
0.0
 74
     4
 75
     0
340
0
 46
0.0
 50
0.0
 44
0.0
 45
0.0
 49
-10.0
 74
     4
 75
     0
340
0
 46
0.0
 50
0.0
 44
0.0
 45
0.0
  0
LTYPE
  5
45
330
5
100
AcDbSymbolTableRecord
100
AcDbLinetypeTableRecord
  2
DASHDOT
 70
     0
  3
_._._._._._._._._._._._._._._._.
 72
    65
 73
     4
 40
70.0
 49
31.0
 74
     4
 75
     0
340
0
 46
0.0
 50
0.0
 44
0.0
 45
0.0
 49
-13.0
 74
     4
 75
     0
340
0
 46
0.0
 50
0.0
 44
0.0
 45
0.0
 49
13.0
 74
     4
 75
     0
340
0
 46
0.0
 50
0.0
 44
0.0
 45
0.0
 49
-13.0
 74
     4
 75
     0
340
0
 46
0.0
 50
0.0
 44
0.0
 45
0.0
  0
ENDTAB
  0
TABLE
  2
LAYER
  5
2
330
0
100
AcDbSymbolTable
 70
     2
  0
LAYER
  5
10
330
2
100
AcDbSymbolTableRecord
100
AcDbLayerTableRecord
  2
0
 70
     0
 62
     7
  6
CONTINUOUS
370
    -3
390
F
  0
LAYER
  5
58
330
2
100
AcDbSymbolTableRecord
100
AcDbLayerTableRecord
  2
1
 70
     0
 62
     7
  6
CONTINUOUS
370
    -3
390
F
  0
ENDTAB
  0
TABLE
  2
STYLE
  5
3
330
0
100
AcDbSymbolTable
 70
     1
  0
STYLE
  5
11
330
3
100
AcDbSymbolTableRecord
100
AcDbTextStyleTableRecord
  2
Standard
 70
     0
 40
0.0
 41
1.0
 50
0.0
 71
     0
 42
0.2
  3
txt
  4

  0
ENDTAB
  0
TABLE
  2
VIEW
  5
6
330
0
100
AcDbSymbolTable
 70
     8
  0
VIEW
  5
46
330
6
100
AcDbSymbolTableRecord
100
AcDbViewTableRecord
  2
TOP
 70
     0
 40
9.942483
 10
0.0
 20
0.0
 41
13.88718
 11
0.0
 21
0.0
 31
1.0
 12
0.0
 22
0.0
 32
0.0
 42
50.0
 43
29.643875
 44
-29.643875
 50
0.0
 71
     0
281
     0
 72
     0
  0
VIEW
  5
47
330
6
100
AcDbSymbolTableRecord
100
AcDbViewTableRecord
  2
FRONT
 70
     0
 40
59.28775
 10
0.0
 20
0.0
 41
13.88718
 11
0.0
 21
-1.0
 31
0.0
 12
0.0
 22
0.0
 32
0.0
 42
50.0
 43
30.446227
 44
-30.446227
 50
0.0
 71
     0
281
     0
 72
     0
  0
VIEW
  5
48
330
6
100
AcDbSymbolTableRecord
100
AcDbViewTableRecord
  2
RIGHT
 70
     0
 40
59.28775
 10
0.0
 20
0.0
 41
9.942483
 11
1.0
 21
0.0
 31
0.0
 12
0.0
 22
0.0
 32
0.0
 42
50.0
 43
30.05782
 44
-30.05782
 50
0.0
 71
     0
281
     0
 72
     0
  0
VIEW
  5
49
330
6
100
AcDbSymbolTableRecord
100
AcDbViewTableRecord
  2
BACK
 70
     0
 40
59.28775
 10
0.0
 20
0.0
 41
13.88718
 11
0.0
 21
1.0
 31
0.0
 12
0.0
 22
0.0
 32
0.0
 42
50.0
 43
30.446227
 44
-30.446227
 50
0.0
 71
     0
281
     0
 72
     0
  0
VIEW
  5
4A
330
6
100
AcDbSymbolTableRecord
100
AcDbViewTableRecord
  2
BOTTOM
 70
     0
 40
9.942483
 10
0.0
 20
0.0
 41
13.88718
 11
0.0
 21
0.0
 31
-1.0
 12
0.0
 22
0.0
 32
0.0
 42
50.0
 43
29.643875
 44
-29.643875
 50
180.0
 71
     0
281
     0
 72
     0
  0
VIEW
  5
4B
330
6
100
AcDbSymbolTableRecord
100
AcDbViewTableRecord
  2
LEFT
 70
     0
 40
59.28775
 10
0.0
 20
0.0
 41
9.942483
 11
-1.0
 21
0.0
 31
0.0
 12
0.0
 22
0.0
 32
0.0
 42
50.0
 43
30.05782
 44
-30.05782
 50
0.0
 71
     0
281
     0
 72
     0
  0
VIEW
  5
4C
330
6
100
AcDbSymbolTableRecord
100
AcDbViewTableRecord
  2
TFR-ISO
 70
     0
 40
58.136664
 10
0.0
 20
0.0
 41
16.850116
 11
0.5773502691896258
 21
-0.5773502691896258
 31
0.5773502691896258
 12
0.0
 22
0.0
 32
0.0
 42
50.0
 43
30.264658
 44
-30.264658
 50
0.0
 71
     0
281
     0
 72
     0
  0
VIEW
  5
4D
330
6
100
AcDbSymbolTableRecord
100
AcDbViewTableRecord
  2
TFR-TRI
 70
     0
 40
61.350868
 10
0.0
 20
0.0
 41
16.477288
 11
0.7188730927569434
 21
-0.5850486126764431
 31
0.3754192287502549
 12
0.0
 22
0.0
 32
0.0
 42
50.0
 43
31.762517
 44
-31.762517
 50
0.0
 71
     0
281
     0
 72
     0
  0
ENDTAB
  0
TABLE
  2
UCS
  5
7
330
0
100
AcDbSymbolTable
 70
     0
  0
ENDTAB
  0
TABLE
  2
APPID
  5
9
330
0
100
AcDbSymbolTable
 70
     1
  0
APPID
  5
12
330
9
100
AcDbSymbolTableRecord
100
AcDbRegAppTableRecord
  2
ACAD
 70
     0
  0
ENDTAB
  0
TABLE
  2
DIMSTYLE
  5
A
330
0
100
AcDbSymbolTable
 70
     1
100
AcDbDimStyleTable
  0
DIMSTYLE
105
27
330
A
100
AcDbSymbolTableRecord
100
AcDbDimStyleTableRecord
  2
Standard
 70
     0
178
     0
340
11
  0
ENDTAB
  0
TABLE
  2
BLOCK_RECORD
  5
1
330
0
100
AcDbSymbolTable
 70
     3
  0
BLOCK_RECORD
  5
1F
330
1
100
AcDbSymbolTableRecord
100
AcDbBlockTableRecord
  2
*Model_Space
340
22
  0
BLOCK_RECORD
  5
53
330
1
100
AcDbSymbolTableRecord
100
AcDbBlockTableRecord
  2
*PAPER_SPACE
340
1B4
  0
BLOCK_RECORD
  5
4E
330
1
100
AcDbSymbolTableRecord
100
AcDbBlockTableRecord
  2
*PAPER_SPACE1
340
52
  0
ENDTAB
  0
ENDSEC
  0
SECTION
  2
BLOCKS
  0
BLOCK
  5
20
330
1F
100
AcDbEntity
  8
0
100
AcDbBlockBegin
  2
*Model_Space
 70
     0
 10
0.0
 20
0.0
 30
0.0
  3
*Model_Space
  1

  0
ENDBLK
  5
21
330
1F
100
AcDbEntity
  8
0
100
AcDbBlockEnd
  0
BLOCK
  5
54
330
53
100
AcDbEntity
 67
     1
  8
0
100
AcDbBlockBegin
  2
*PAPER_SPACE
 70
     0
 10
0.0
 20
0.0
 30
0.0
  3
*PAPER_SPACE
  1

  0
ENDBLK
  5
55
330
53
100
AcDbEntity
 67
     1
  8
0
100
AcDbBlockEnd
  0
BLOCK
  5
4F
330
4E
100
AcDbEntity
  8
0
100
AcDbBlockBegin
  2
*PAPER_SPACE1
 70
     0
 10
0.0
 20
0.0
 30
0.0
  3
*PAPER_SPACE1
  1

  0
VIEWPORT
  5
51
330
4E
100
AcDbEntity
  8
0
100
AcDbViewport
 10
5.5
 20
4.25
 30
0.0
 40
11.0
 41
8.5
 68
     1
 69
     1
 12
5.5
 22
4.25
 13
0.0
 23
0.0
 14
1.0
 24
1.0
 15
1.0
 25
1.0
 16
0.0
 26
0.0
 36
1.0
 17
0.0
 27
0.0
 37
0.0
 42
43.280727
 43
0.0
 44
0.0
 45
8.5
 50
0.0
 51
0.0
 72
   100
 90
   557152
  1

281
     0
 71
     1
 74
     0
110
0.0
120
0.0
130
0.0
111
1.0
121
0.0
131
0.0
112
0.0
122
1.0
132
0.0
 79
     0
146
0.0
  0
ENDBLK
  5
50
330
4E
100
AcDbEntity
  8
0
100
AcDbBlockEnd
  0
ENDSEC
  0
SECTION
  2
ENTITIES
  0
VIEWPORT
  5
56
330
53
100
AcDbEntity
 67
     1
  8
0
100
AcDbViewport
 10
5.5
 20
4.25
 30
0.0
 40
11.0
 41
8.5
 68
     1
 69
     1
 12
5.5
 22
4.25
 13
0.0
 23
0.0
 14
1.0
 24
1.0
 15
1.0
 25
1.0
 16
0.0
 26
0.0
 36
1.0
 17
0.0
 27
0.0
 37
0.0
 42
43.280727
 43
0.0
 44
0.0
 45
8.5
 50
0.0
 51
0.0
 72
   100
 90
   557152
  1

281
     0
 71
     1
 74
     0
110
0.0
120
0.0
130
0.0
111
1.0
121
0.0
131
0.0
112
0.0
122
1.0
132
0.0
 79
     0
146
0.0
  0
LINE
  5
57
330
53
100
AcDbEntity
 67
     1
  8
1
  6
CONTINUOUS
 62
    18
100
AcDbLine
 10
5.452554
 20
6.968153
 30
0.0
 11
4.907554
 21
6.968153
 31
0.0
  0
LINE
  5
59
330
53
100
AcDbEntity
 67
     1
  8
1
  6
CONTINUOUS
 62
    18
100
AcDbLine
 10
4.907554
 20
5.686152
 30
0.0
 11
5.452554
 21
5.686152
 31
0.0
  0
LINE
  5
5A
330
53
100
AcDbEntity
 67
     1
  8
1
  6
CONTINUOUS
 62
    18
100
AcDbLine
 10
5.577554
 20
5.877152
 30
0.0
 11
5.577554
 21
6.777153
 31
0.0
  0
LINE
  5
5B
330
53
100
AcDbEntity
 67
     1
  8
1
  6
CONTINUOUS
 62
    18
100
AcDbLine
 10
4.219554
 20
6.639652
 30
0.0
 11
4.950409
 21
6.639652
 31
0.0
  0
LINE
  5
5C
330
53
100
AcDbEntity
 67
     1
  8
1
  6
CONTINUOUS
 62
    18
100
AcDbLine
 10
5.377554
 20
6.562152
 30
0.0
 11
5.377554
 21
6.609653
 31
0.0
  0
LINE
  5
5D
330
53
100
AcDbEntity
 67
     1
  8
1
  6
CONTINUOUS
 62
    18
100
AcDbLine
 10
5.377554
 20
6.092152
 30
0.0
 11
5.377554
 21
6.562152
 31
0.0
  0
LINE
  5
5E
330
53
100
AcDbEntity
 67
     1
  8
1
  6
CONTINUOUS
 62
    18
100
AcDbLine
 10
5.377554
 20
6.044652
 30
0.0
 11
5.377554
 21
6.092152
 31
0.0
  0
LINE
  5
5F
330
53
100
AcDbEntity
 67
     1
  8
1
  6
CONTINUOUS
 62
    18
100
AcDbLine
 10
4.219554
 20
6.014652
 30
0.0
 11
4.950409
 21
6.014652
 31
0.0
  0
LINE
  5
60
330
53
100
AcDbEntity
 67
     1
  8
1
  6
CONTINUOUS
 62
    18
100
AcDbLine
 10
4.189554
 20
6.609653
 30
0.0
 11
4.189554
 21
6.044652
 31
0.0
  0
LINE
  5
61
330
53
100
AcDbEntity
 67
     1
  8
1
  6
CONTINUOUS
 62
    18
100
AcDbLine
 10
4.44524
 20
6.837152
 30
0.0
 11
4.907554
 21
6.837152
 31
0.0
  0
LINE
  5
62
330
53
100
AcDbEntity
 67
     1
  8
1
  6
CONTINUOUS
 62
    18
100
AcDbLine
 10
4.44524
 20
6.837152
 30
0.0
 11
4.09524
 21
7.187152
 31
0.0
  0
LINE
  5
63
330
53
100
AcDbEntity
 67
     1
  8
1
  6
CONTINUOUS
 62
    18
100
AcDbLine
 10
3.427103
 20
7.187152
 30
0.0
 11
4.09524
 21
7.187152
 31
0.0
  0
LINE
  5
64
330
53
100
AcDbEntity
 67
     1
  8
1
  6
CONTINUOUS
 62
    18
100
AcDbLine
 10
3.427103
 20
7.187152
 30
0.0
 11
3.427103
 21
5.467152
 31
0.0
  0
LINE
  5
65
330
53
100
AcDbEntity
 67
     1
  8
1
  6
CONTINUOUS
 62
    18
100
AcDbLine
 10
4.09524
 20
5.467152
 30
0.0
 11
3.427103
 21
5.467152
 31
0.0
  0
LINE
  5
66
330
53
100
AcDbEntity
 67
     1
  8
1
  6
CONTINUOUS
 62
    18
100
AcDbLine
 10
4.44524
 20
5.817153
 30
0.0
 11
4.09524
 21
5.467152
 31
0.0
  0
LINE
  5
67
330
53
100
AcDbEntity
 67
     1
  8
1
  6
CONTINUOUS
 62
    18
100
AcDbLine
 10
4.44524
 20
5.817153
 30
0.0
 11
4.907554
 21
5.817153
 31
0.0
  0
LINE
  5
68
330
53
100
AcDbEntity
 67
     1
  8
1
  6
CONTINUOUS
 62
    18
100
AcDbLine
 10
5.517554
 20
5.817153
 30
0.0
 11
5.452554
 21
5.817153
 31
0.0
  0
LINE
  5
69
330
53
100
AcDbEntity
 67
     1
  8
1
  6
CONTINUOUS
 62
    18
100
AcDbLine
 10
5.517554
 20
6.837152
 30
0.0
 11
5.452554
 21
6.837152
 31
0.0
  0
LINE
  5
6A
330
53
100
AcDbEntity
 67
     1
  8
1
  6
CONTINUOUS
 62
    18
100
AcDbLine
 10
5.347554
 20
6.122152
 30
0.0
 11
4.701854
 21
6.122152
 31
0.0
  0
LINE
  5
6B
330
53
100
AcDbEntity
 67
     1
  8
1
  6
CONTINUOUS
 62
    18
100
AcDbLine
 10
5.347554
 20
6.532152
 30
0.0
 11
4.701854
 21
6.532152
 31
0.0
  0
LINE
  5
6C
330
53
100
AcDbEntity
 67
     1
  8
1
  6
CONTINUOUS
 62
    18
100
AcDbLine
 10
5.347554
 20
6.532152
 30
0.0
 11
4.695317
 21
6.532152
 31
0.0
  0
LINE
  5
6D
330
53
100
AcDbEntity
 67
     1
  8
1
  6
CONTINUOUS
 62
    18
100
AcDbLine
 10
4.695317
 20
6.532152
 30
0.0
 11
4.687154
 21
6.532152
 31
0.0
  0
LINE
  5
6E
330
53
100
AcDbEntity
 67
     1
  8
1
  6
CONTINUOUS
 62
    18
100
AcDbLine
 10
4.687154
 20
6.532152
 30
0.0
 11
4.679223
 21
6.532152
 31
0.0
  0
LINE
  5
6F
330
53
100
AcDbEntity
 67
     1
  8
1
  6
CONTINUOUS
 62
    18
100
AcDbLine
 10
4.679223
 20
6.532152
 30
0.0
 11
4.472491
 21
6.532152
 31
0.0
  0
LINE
  5
70
330
53
100
AcDbEntity
 67
     1
  8
1
  6
CONTINUOUS
 62
    18
100
AcDbLine
 10
4.472491
 20
6.532152
 30
0.0
 11
4.446839
 21
6.532152
 31
0.0
  0
LINE
  5
71
330
53
100
AcDbEntity
 67
     1
  8
1
  6
CONTINUOUS
 62
    18
100
AcDbLine
 10
4.653572
 20
6.532152
 30
0.0
 11
4.446839
 21
6.532152
 31
0.0
  0
LINE
  5
72
330
53
100
AcDbEntity
 67
     1
  8
1
  6
CONTINUOUS
 62
    18
100
AcDbLine
 10
4.701854
 20
6.532152
 30
0.0
 11
4.677365
 21
6.532152
 31
0.0
  0
LINE
  5
73
330
53
100
AcDbEntity
 67
     1
  8
1
  6
CONTINUOUS
 62
    18
100
AcDbLine
 10
4.677365
 20
6.532152
 30
0.0
 11
4.653572
 21
6.532152
 31
0.0
  0
LINE
  5
74
330
53
100
AcDbEntity
 67
     1
  8
1
  6
CONTINUOUS
 62
    18
100
AcDbLine
 10
5.377554
 20
6.562152
 30
0.0
 11
5.376701
 21
6.555052
 31
0.0
  0
LINE
  5
75
330
53
100
AcDbEntity
 67
     1
  8
1
  6
CONTINUOUS
 62
    18
100
AcDbLine
 10
5.376701
 20
6.555052
 30
0.0
 11
5.374285
 21
6.548535
 31
0.0
  0
LINE
  5
76
330
53
100
AcDbEntity
 67
     1
  8
1
  6
CONTINUOUS
 62
    18
100
AcDbLine
 10
5.374285
 20
6.548535
 30
0.0
 11
5.374285
 21
6.105769
 31
0.0
  0
LINE
  5
77
330
53
100
AcDbEntity
 67
     1
  8
1
  6
CONTINUOUS
 62
    18
100
AcDbLine
 10
5.374285
 20
6.105769
 30
0.0
 11
5.37498
 21
6.104309
 31
0.0
  0
LINE
  5
78
330
53
100
AcDbEntity
 67
     1
  8
1
  6
CONTINUOUS
 62
    18
100
AcDbLine
 10
5.37498
 20
6.104309
 30
0.0
 11
5.377413
 21
6.095058
 31
0.0
  0
LINE
  5
79
330
53
100
AcDbEntity
 67
     1
  8
1
  6
CONTINUOUS
 62
    18
100
AcDbLine
 10
5.377413
 20
6.095058
 30
0.0
 11
5.377554
 21
6.092152
 31
0.0
  0
LINE
  5
7A
330
53
100
AcDbEntity
 67
     1
  8
1
  6
CONTINUOUS
 62
    18
100
AcDbLine
 10
5.374285
 20
6.548535
 30
0.0
 11
5.36323
 21
6.536574
 31
0.0
  0
LINE
  5
7B
330
53
100
AcDbEntity
 67
     1
  8
1
  6
CONTINUOUS
 62
    18
100
AcDbLine
 10
5.36323
 20
6.536574
 30
0.0
 11
5.347554
 21
6.532152
 31
0.0
  0
LINE
  5
7C
330
53
100
AcDbEntity
 67
     1
  8
1
  6
CONTINUOUS
 62
    18
100
AcDbLine
 10
4.701854
 20
6.532152
 30
0.0
 11
4.701854
 21
6.122152
 31
0.0
  0
LINE
  5
7D
330
53
100
AcDbEntity
 67
     1
  8
1
  6
CONTINUOUS
 62
    18
100
AcDbLine
 10
5.347554
 20
6.122152
 30
0.0
 11
5.36323
 21
6.117731
 31
0.0
  0
LINE
  5
7E
330
53
100
AcDbEntity
 67
     1
  8
1
  6
CONTINUOUS
 62
    18
100
AcDbLine
 10
5.36323
 20
6.117731
 30
0.0
 11
5.374285
 21
6.105769
 31
0.0
  0
LINE
  5
7F
330
53
100
AcDbEntity
 67
     1
  8
1
  6
CONTINUOUS
 62
    18
100
AcDbLine
 10
5.452554
 20
6.837152
 30
0.0
 11
5.452554
 21
6.697152
 31
0.0
  0
LINE
  5
80
330
53
100
AcDbEntity
 67
     1
  8
1
  6
CONTINUOUS
 62
    18
100
AcDbLine
 10
5.452554
 20
6.968153
 30
0.0
 11
5.452554
 21
6.963688
 31
0.0
  0
LINE
  5
81
330
53
100
AcDbEntity
 67
     1
  8
1
  6
CONTINUOUS
 62
    18
100
AcDbLine
 10
5.452554
 20
6.963688
 30
0.0
 11
5.452554
 21
6.950602
 31
0.0
  0
LINE
  5
82
330
53
100
AcDbEntity
 67
     1
  8
1
  6
CONTINUOUS
 62
    18
100
AcDbLine
 10
5.452554
 20
6.950602
 30
0.0
 11
5.452554
 21
6.929783
 31
0.0
  0
LINE
  5
83
330
53
100
AcDbEntity
 67
     1
  8
1
  6
CONTINUOUS
 62
    18
100
AcDbLine
 10
5.452554
 20
6.929783
 30
0.0
 11
5.452554
 21
6.902652
 31
0.0
  0
LINE
  5
84
330
53
100
AcDbEntity
 67
     1
  8
1
  6
CONTINUOUS
 62
    18
100
AcDbLine
 10
5.452554
 20
6.902652
 30
0.0
 11
5.452554
 21
6.871058
 31
0.0
  0
LINE
  5
85
330
53
100
AcDbEntity
 67
     1
  8
1
  6
CONTINUOUS
 62
    18
100
AcDbLine
 10
5.452554
 20
6.871058
 30
0.0
 11
5.452554
 21
6.837152
 31
0.0
  0
LINE
  5
86
330
53
100
AcDbEntity
 67
     1
  8
1
  6
CONTINUOUS
 62
    18
100
AcDbLine
 10
4.967554
 20
6.637152
 30
0.0
 11
5.392554
 21
6.637152
 31
0.0
  0
LINE
  5
87
330
53
100
AcDbEntity
 67
     1
  8
1
  6
CONTINUOUS
 62
    18
100
AcDbLine
 10
4.907554
 20
6.968153
 30
0.0
 11
4.907554
 21
6.963688
 31
0.0
  0
LINE
  5
88
330
53
100
AcDbEntity
 67
     1
  8
1
  6
CONTINUOUS
 62
    18
100
AcDbLine
 10
4.907554
 20
6.963688
 30
0.0
 11
4.907554
 21
6.950602
 31
0.0
  0
LINE
  5
89
330
53
100
AcDbEntity
 67
     1
  8
1
  6
CONTINUOUS
 62
    18
100
AcDbLine
 10
4.907554
 20
6.950602
 30
0.0
 11
4.907554
 21
6.929783
 31
0.0
  0
LINE
  5
8A
330
53
100
AcDbEntity
 67
     1
  8
1
  6
CONTINUOUS
 62
    18
100
AcDbLine
 10
4.907554
 20
6.929783
 30
0.0
 11
4.907554
 21
6.902652
 31
0.0
  0
LINE
  5
8B
330
53
100
AcDbEntity
 67
     1
  8
1
  6
CONTINUOUS
 62
    18
100
AcDbLine
 10
4.907554
 20
6.902652
 30
0.0
 11
4.907554
 21
6.871058
 31
0.0
  0
LINE
  5
8C
330
53
100
AcDbEntity
 67
     1
  8
1
  6
CONTINUOUS
 62
    18
100
AcDbLine
 10
4.907554
 20
6.871058
 30
0.0
 11
4.907554
 21
6.837152
 31
0.0
  0
LINE
  5
8D
330
53
100
AcDbEntity
 67
     1
  8
1
  6
CONTINUOUS
 62
    18
100
AcDbLine
 10
4.907554
 20
6.837152
 30
0.0
 11
5.452554
 21
6.837152
 31
0.0
  0
LINE
  5
8E
330
53
100
AcDbEntity
 67
     1
  8
1
  6
CONTINUOUS
 62
    18
100
AcDbLine
 10
4.907554
 20
6.837152
 30
0.0
 11
4.907554
 21
6.697152
 31
0.0
  0
LINE
  5
8F
330
53
100
AcDbEntity
 67
     1
  8
1
  6
CONTINUOUS
 62
    18
100
AcDbLine
 10
5.392554
 20
6.017152
 30
0.0
 11
4.967554
 21
6.017152
 31
0.0
  0
LINE
  5
90
330
53
100
AcDbEntity
 67
     1
  8
1
  6
CONTINUOUS
 62
    18
100
AcDbLine
 10
4.907554
 20
5.817153
 30
0.0
 11
4.907554
 21
5.957152
 31
0.0
  0
LINE
  5
91
330
53
100
AcDbEntity
 67
     1
  8
1
  6
CONTINUOUS
 62
    18
100
AcDbLine
 10
5.452554
 20
5.817153
 30
0.0
 11
4.907554
 21
5.817153
 31
0.0
  0
LINE
  5
92
330
53
100
AcDbEntity
 67
     1
  8
1
  6
CONTINUOUS
 62
    18
100
AcDbLine
 10
5.452554
 20
5.817153
 30
0.0
 11
5.452554
 21
5.957152
 31
0.0
  0
LINE
  5
93
330
53
100
AcDbEntity
 67
     1
  8
1
  6
CONTINUOUS
 62
    18
100
AcDbLine
 10
5.452554
 20
5.686152
 30
0.0
 11
5.452554
 21
5.690616
 31
0.0
  0
LINE
  5
94
330
53
100
AcDbEntity
 67
     1
  8
1
  6
CONTINUOUS
 62
    18
100
AcDbLine
 10
5.452554
 20
5.690616
 30
0.0
 11
5.452554
 21
5.703703
 31
0.0
  0
LINE
  5
95
330
53
100
AcDbEntity
 67
     1
  8
1
  6
CONTINUOUS
 62
    18
100
AcDbLine
 10
5.452554
 20
5.703703
 30
0.0
 11
5.452554
 21
5.724521
 31
0.0
  0
LINE
  5
96
330
53
100
AcDbEntity
 67
     1
  8
1
  6
CONTINUOUS
 62
    18
100
AcDbLine
 10
5.452554
 20
5.724521
 30
0.0
 11
5.452554
 21
5.751652
 31
0.0
  0
LINE
  5
97
330
53
100
AcDbEntity
 67
     1
  8
1
  6
CONTINUOUS
 62
    18
100
AcDbLine
 10
5.452554
 20
5.751652
 30
0.0
 11
5.452554
 21
5.783247
 31
0.0
  0
LINE
  5
98
330
53
100
AcDbEntity
 67
     1
  8
1
  6
CONTINUOUS
 62
    18
100
AcDbLine
 10
5.452554
 20
5.783247
 30
0.0
 11
5.452554
 21
5.817153
 31
0.0
  0
LINE
  5
99
330
53
100
AcDbEntity
 67
     1
  8
1
  6
CONTINUOUS
 62
    18
100
AcDbLine
 10
4.907554
 20
5.686152
 30
0.0
 11
4.907554
 21
5.690616
 31
0.0
  0
LINE
  5
9A
330
53
100
AcDbEntity
 67
     1
  8
1
  6
CONTINUOUS
 62
    18
100
AcDbLine
 10
4.907554
 20
5.690616
 30
0.0
 11
4.907554
 21
5.703703
 31
0.0
  0
LINE
  5
9B
330
53
100
AcDbEntity
 67
     1
  8
1
  6
CONTINUOUS
 62
    18
100
AcDbLine
 10
4.907554
 20
5.703703
 30
0.0
 11
4.907554
 21
5.724521
 31
0.0
  0
LINE
  5
9C
330
53
100
AcDbEntity
 67
     1
  8
1
  6
CONTINUOUS
 62
    18
100
AcDbLine
 10
4.907554
 20
5.724521
 30
0.0
 11
4.907554
 21
5.751652
 31
0.0
  0
LINE
  5
9D
330
53
100
AcDbEntity
 67
     1
  8
1
  6
CONTINUOUS
 62
    18
100
AcDbLine
 10
4.907554
 20
5.751652
 30
0.0
 11
4.907554
 21
5.783247
 31
0.0
  0
LINE
  5
9E
330
53
100
AcDbEntity
 67
     1
  8
1
  6
CONTINUOUS
 62
    18
100
AcDbLine
 10
4.907554
 20
5.783247
 30
0.0
 11
4.907554
 21
5.817153
 31
0.0
  0
LINE
  5
9F
330
53
100
AcDbEntity
 67
     1
  8
1
  6
CONTINUOUS
 62
    18
100
AcDbLine
 10
3.427103
 20
5.467152
 30
0.0
 11
3.392338
 21
5.467152
 31
0.0
  0
LINE
  5
A0
330
53
100
AcDbEntity
 67
     1
  8
1
  6
CONTINUOUS
 62
    18
100
AcDbLine
 10
3.392338
 20
5.467152
 30
0.0
 11
3.360977
 21
5.467152
 31
0.0
  0
LINE
  5
A1
330
53
100
AcDbEntity
 67
     1
  8
1
  6
CONTINUOUS
 62
    18
100
AcDbLine
 10
3.360977
 20
5.467152
 30
0.0
 11
3.336088
 21
5.467152
 31
0.0
  0
LINE
  5
A2
330
53
100
AcDbEntity
 67
     1
  8
1
  6
CONTINUOUS
 62
    18
100
AcDbLine
 10
3.336088
 20
5.467152
 30
0.0
 11
3.320109
 21
5.467152
 31
0.0
  0
LINE
  5
A3
330
53
100
AcDbEntity
 67
     1
  8
1
  6
CONTINUOUS
 62
    18
100
AcDbLine
 10
3.320109
 20
5.467152
 30
0.0
 11
3.314603
 21
5.467152
 31
0.0
  0
LINE
  5
A4
330
53
100
AcDbEntity
 67
     1
  8
1
  6
CONTINUOUS
 62
    18
100
AcDbLine
 10
3.314603
 20
7.187152
 30
0.0
 11
3.320109
 21
7.187152
 31
0.0
  0
LINE
  5
A5
330
53
100
AcDbEntity
 67
     1
  8
1
  6
CONTINUOUS
 62
    18
100
AcDbLine
 10
3.320109
 20
7.187152
 30
0.0
 11
3.336088
 21
7.187152
 31
0.0
  0
LINE
  5
A6
330
53
100
AcDbEntity
 67
     1
  8
1
  6
CONTINUOUS
 62
    18
100
AcDbLine
 10
3.336088
 20
7.187152
 30
0.0
 11
3.360977
 21
7.187152
 31
0.0
  0
LINE
  5
A7
330
53
100
AcDbEntity
 67
     1
  8
1
  6
CONTINUOUS
 62
    18
100
AcDbLine
 10
3.360977
 20
7.187152
 30
0.0
 11
3.392338
 21
7.187152
 31
0.0
  0
LINE
  5
A8
330
53
100
AcDbEntity
 67
     1
  8
1
  6
CONTINUOUS
 62
    18
100
AcDbLine
 10
3.392338
 20
7.187152
 30
0.0
 11
3.427103
 21
7.187152
 31
0.0
  0
LINE
  5
A9
330
53
100
AcDbEntity
 67
     1
  8
1
  6
CONTINUOUS
 62
    18
100
AcDbLine
 10
3.314603
 20
5.467152
 30
0.0
 11
3.314603
 21
7.187152
 31
0.0
  0
LINE
  5
AA
330
53
100
AcDbEntity
 67
     1
  8
1
  6
CONTINUOUS
 62
    18
100
AcDbLine
 10
4.446839
 20
6.532152
 30
0.0
 11
4.432744
 21
6.528133
 31
0.0
  0
LINE
  5
AB
330
53
100
AcDbEntity
 67
     1
  8
1
  6
CONTINUOUS
 62
    18
100
AcDbLine
 10
4.432744
 20
6.528133
 30
0.0
 11
4.422425
 21
6.517152
 31
0.0
  0
LINE
  5
AC
330
53
100
AcDbEntity
 67
     1
  8
1
  6
CONTINUOUS
 62
    18
100
AcDbLine
 10
4.422425
 20
6.517152
 30
0.0
 11
4.418649
 21
6.502152
 31
0.0
  0
LINE
  5
AD
330
53
100
AcDbEntity
 67
     1
  8
1
  6
CONTINUOUS
 62
    18
100
AcDbLine
 10
4.418649
 20
6.502152
 30
0.0
 11
4.418649
 21
6.152153
 31
0.0
  0
LINE
  5
AE
330
53
100
AcDbEntity
 67
     1
  8
1
  6
CONTINUOUS
 62
    18
100
AcDbLine
 10
4.418649
 20
6.152153
 30
0.0
 11
4.422425
 21
6.137152
 31
0.0
  0
LINE
  5
AF
330
53
100
AcDbEntity
 67
     1
  8
1
  6
CONTINUOUS
 62
    18
100
AcDbLine
 10
4.422425
 20
6.137152
 30
0.0
 11
4.432744
 21
6.126172
 31
0.0
  0
LINE
  5
B0
330
53
100
AcDbEntity
 67
     1
  8
1
  6
CONTINUOUS
 62
    18
100
AcDbLine
 10
4.432744
 20
6.126172
 30
0.0
 11
4.446839
 21
6.122152
 31
0.0
  0
LINE
  5
B1
330
53
100
AcDbEntity
 67
     1
  8
1
  6
CONTINUOUS
 62
    18
100
AcDbLine
 10
4.653572
 20
6.122152
 30
0.0
 11
4.446839
 21
6.122152
 31
0.0
  0
LINE
  5
B2
330
53
100
AcDbEntity
 67
     1
  8
1
  6
CONTINUOUS
 62
    18
100
AcDbLine
 10
4.653572
 20
6.532152
 30
0.0
 11
4.653572
 21
6.122152
 31
0.0
  0
LINE
  5
B3
330
53
100
AcDbEntity
 67
     1
  8
1
  6
CONTINUOUS
 62
    18
100
AcDbLine
 10
4.701854
 20
6.122152
 30
0.0
 11
4.677365
 21
6.122152
 31
0.0
  0
LINE
  5
B4
330
53
100
AcDbEntity
 67
     1
  8
1
  6
CONTINUOUS
 62
    18
100
AcDbLine
 10
4.677365
 20
6.122152
 30
0.0
 11
4.653572
 21
6.122152
 31
0.0
  0
LINE
  5
B5
330
53
100
AcDbEntity
 67
     1
  8
1
  6
CONTINUOUS
 62
    18
100
AcDbLine
 10
2.345806
 20
6.122152
 30
0.0
 11
2.345806
 21
6.532152
 31
0.0
  0
LINE
  5
B6
330
53
100
AcDbEntity
 67
     1
  8
1
  6
CONTINUOUS
 62
    18
100
AcDbLine
 10
2.286405
 20
7.187152
 30
0.0
 11
2.286405
 21
5.467152
 31
0.0
  0
LINE
  5
B7
330
53
100
AcDbEntity
 67
     1
  8
1
  6
CONTINUOUS
 62
    18
100
AcDbLine
 10
2.339021
 20
6.532152
 30
0.0
 11
2.286405
 21
6.532152
 31
0.0
  0
LINE
  5
B8
330
53
100
AcDbEntity
 67
     1
  8
1
  6
CONTINUOUS
 62
    18
100
AcDbLine
 10
2.345806
 20
6.532152
 30
0.0
 11
2.344097
 21
6.532152
 31
0.0
  0
LINE
  5
B9
330
53
100
AcDbEntity
 67
     1
  8
1
  6
CONTINUOUS
 62
    18
100
AcDbLine
 10
2.344097
 20
6.532152
 30
0.0
 11
2.339021
 21
6.532152
 31
0.0
  0
LINE
  5
BA
330
53
100
AcDbEntity
 67
     1
  8
1
  6
CONTINUOUS
 62
    18
100
AcDbLine
 10
2.286405
 20
6.562152
 30
0.0
 11
2.286414
 21
6.555052
 31
0.0
  0
LINE
  5
BB
330
53
100
AcDbEntity
 67
     1
  8
1
  6
CONTINUOUS
 62
    18
100
AcDbLine
 10
2.286414
 20
6.555052
 30
0.0
 11
2.286547
 21
6.548535
 31
0.0
  0
LINE
  5
BC
330
53
100
AcDbEntity
 67
     1
  8
1
  6
CONTINUOUS
 62
    18
100
AcDbLine
 10
2.286547
 20
6.105769
 30
0.0
 11
2.286493
 21
6.104309
 31
0.0
  0
LINE
  5
BD
330
53
100
AcDbEntity
 67
     1
  8
1
  6
CONTINUOUS
 62
    18
100
AcDbLine
 10
2.286493
 20
6.104309
 30
0.0
 11
2.286405
 21
6.095058
 31
0.0
  0
LINE
  5
BE
330
53
100
AcDbEntity
 67
     1
  8
1
  6
CONTINUOUS
 62
    18
100
AcDbLine
 10
2.286405
 20
6.095058
 30
0.0
 11
2.286405
 21
6.092152
 31
0.0
  0
LINE
  5
BF
330
53
100
AcDbEntity
 67
     1
  8
1
  6
CONTINUOUS
 62
    18
100
AcDbLine
 10
2.286547
 20
6.548535
 30
0.0
 11
2.287515
 21
6.536574
 31
0.0
  0
LINE
  5
C0
330
53
100
AcDbEntity
 67
     1
  8
1
  6
CONTINUOUS
 62
    18
100
AcDbLine
 10
2.287515
 20
6.536574
 30
0.0
 11
2.288886
 21
6.532152
 31
0.0
  0
LINE
  5
C1
330
53
100
AcDbEntity
 67
     1
  8
1
  6
CONTINUOUS
 62
    18
100
AcDbLine
 10
2.288886
 20
6.122152
 30
0.0
 11
2.287515
 21
6.117731
 31
0.0
  0
LINE
  5
C2
330
53
100
AcDbEntity
 67
     1
  8
1
  6
CONTINUOUS
 62
    18
100
AcDbLine
 10
2.287515
 20
6.117731
 30
0.0
 11
2.286547
 21
6.105769
 31
0.0
  0
LINE
  5
C3
330
53
100
AcDbEntity
 67
     1
  8
1
  6
CONTINUOUS
 62
    18
100
AcDbLine
 10
2.473405
 20
6.637152
 30
0.0
 11
2.398405
 21
6.637152
 31
0.0
  0
LINE
  5
C4
330
53
100
AcDbEntity
 67
     1
  8
1
  6
CONTINUOUS
 62
    18
100
AcDbLine
 10
2.398405
 20
6.637152
 30
0.0
 11
2.398405
 21
6.641719
 31
0.0
  0
LINE
  5
C5
330
53
100
AcDbEntity
 67
     1
  8
1
  6
CONTINUOUS
 62
    18
100
AcDbLine
 10
2.398405
 20
6.641719
 30
0.0
 11
2.398405
 21
6.654726
 31
0.0
  0
LINE
  5
C6
330
53
100
AcDbEntity
 67
     1
  8
1
  6
CONTINUOUS
 62
    18
100
AcDbLine
 10
2.398405
 20
6.654726
 30
0.0
 11
2.398405
 21
6.674191
 31
0.0
  0
LINE
  5
C7
330
53
100
AcDbEntity
 67
     1
  8
1
  6
CONTINUOUS
 62
    18
100
AcDbLine
 10
2.398405
 20
6.674191
 30
0.0
 11
2.398405
 21
6.697152
 31
0.0
  0
LINE
  5
C8
330
53
100
AcDbEntity
 67
     1
  8
1
  6
CONTINUOUS
 62
    18
100
AcDbLine
 10
2.398405
 20
6.837152
 30
0.0
 11
2.398405
 21
6.697152
 31
0.0
  0
LINE
  5
C9
330
53
100
AcDbEntity
 67
     1
  8
1
  6
CONTINUOUS
 62
    18
100
AcDbLine
 10
2.473405
 20
6.837152
 30
0.0
 11
2.473405
 21
6.697152
 31
0.0
  0
LINE
  5
CA
330
53
100
AcDbEntity
 67
     1
  8
1
  6
CONTINUOUS
 62
    18
100
AcDbLine
 10
2.473405
 20
6.697152
 30
0.0
 11
2.473405
 21
6.674191
 31
0.0
  0
LINE
  5
CB
330
53
100
AcDbEntity
 67
     1
  8
1
  6
CONTINUOUS
 62
    18
100
AcDbLine
 10
2.473405
 20
6.674191
 30
0.0
 11
2.473405
 21
6.654726
 31
0.0
  0
LINE
  5
CC
330
53
100
AcDbEntity
 67
     1
  8
1
  6
CONTINUOUS
 62
    18
100
AcDbLine
 10
2.473405
 20
6.654726
 30
0.0
 11
2.473405
 21
6.641719
 31
0.0
  0
LINE
  5
CD
330
53
100
AcDbEntity
 67
     1
  8
1
  6
CONTINUOUS
 62
    18
100
AcDbLine
 10
2.473405
 20
6.641719
 30
0.0
 11
2.473405
 21
6.637152
 31
0.0
  0
LINE
  5
CE
330
53
100
AcDbEntity
 67
     1
  8
1
  6
CONTINUOUS
 62
    18
100
AcDbLine
 10
2.398405
 20
5.817153
 30
0.0
 11
2.398405
 21
5.957152
 31
0.0
  0
LINE
  5
CF
330
53
100
AcDbEntity
 67
     1
  8
1
  6
CONTINUOUS
 62
    18
100
AcDbLine
 10
2.398405
 20
5.957152
 30
0.0
 11
2.398405
 21
5.980114
 31
0.0
  0
LINE
  5
D0
330
53
100
AcDbEntity
 67
     1
  8
1
  6
CONTINUOUS
 62
    18
100
AcDbLine
 10
2.398405
 20
5.980114
 30
0.0
 11
2.398405
 21
5.999579
 31
0.0
  0
LINE
  5
D1
330
53
100
AcDbEntity
 67
     1
  8
1
  6
CONTINUOUS
 62
    18
100
AcDbLine
 10
2.398405
 20
5.999579
 30
0.0
 11
2.398405
 21
6.012585
 31
0.0
  0
LINE
  5
D2
330
53
100
AcDbEntity
 67
     1
  8
1
  6
CONTINUOUS
 62
    18
100
AcDbLine
 10
2.398405
 20
6.012585
 30
0.0
 11
2.398405
 21
6.017152
 31
0.0
  0
LINE
  5
D3
330
53
100
AcDbEntity
 67
     1
  8
1
  6
CONTINUOUS
 62
    18
100
AcDbLine
 10
2.398405
 20
6.017152
 30
0.0
 11
2.473405
 21
6.017152
 31
0.0
  0
LINE
  5
D4
330
53
100
AcDbEntity
 67
     1
  8
1
  6
CONTINUOUS
 62
    18
100
AcDbLine
 10
2.473405
 20
6.017152
 30
0.0
 11
2.473405
 21
6.012585
 31
0.0
  0
LINE
  5
D5
330
53
100
AcDbEntity
 67
     1
  8
1
  6
CONTINUOUS
 62
    18
100
AcDbLine
 10
2.473405
 20
6.012585
 30
0.0
 11
2.473405
 21
5.999579
 31
0.0
  0
LINE
  5
D6
330
53
100
AcDbEntity
 67
     1
  8
1
  6
CONTINUOUS
 62
    18
100
AcDbLine
 10
2.473405
 20
5.999579
 30
0.0
 11
2.473405
 21
5.980114
 31
0.0
  0
LINE
  5
D7
330
53
100
AcDbEntity
 67
     1
  8
1
  6
CONTINUOUS
 62
    18
100
AcDbLine
 10
2.473405
 20
5.980114
 30
0.0
 11
2.473405
 21
5.957152
 31
0.0
  0
LINE
  5
D8
330
53
100
AcDbEntity
 67
     1
  8
1
  6
CONTINUOUS
 62
    18
100
AcDbLine
 10
2.473405
 20
5.817153
 30
0.0
 11
2.473405
 21
5.957152
 31
0.0
  0
LINE
  5
D9
330
53
100
AcDbEntity
 67
     1
  8
1
  6
CONTINUOUS
 62
    18
100
AcDbLine
 10
2.473405
 20
5.957152
 30
0.0
 11
2.398405
 21
5.957152
 31
0.0
  0
LINE
  5
DA
330
53
100
AcDbEntity
 67
     1
  8
1
  6
CONTINUOUS
 62
    18
100
AcDbLine
 10
2.473405
 20
5.817153
 30
0.0
 11
2.398405
 21
5.817153
 31
0.0
  0
LINE
  5
DB
330
53
100
AcDbEntity
 67
     1
  8
1
  6
CONTINUOUS
 62
    18
100
AcDbLine
 10
2.003905
 20
5.842152
 30
0.0
 11
1.823905
 21
5.842152
 31
0.0
  0
LINE
  5
DC
330
53
100
AcDbEntity
 67
     1
  8
1
  6
CONTINUOUS
 62
    18
100
AcDbLine
 10
2.003905
 20
5.562152
 30
0.0
 11
1.823905
 21
5.562152
 31
0.0
  0
LINE
  5
DD
330
53
100
AcDbEntity
 67
     1
  8
1
  6
CONTINUOUS
 62
    18
100
AcDbLine
 10
1.608905
 20
5.467152
 30
0.0
 11
2.173905
 21
5.467152
 31
0.0
  0
LINE
  5
DE
330
53
100
AcDbEntity
 67
     1
  8
1
  6
CONTINUOUS
 62
    18
100
AcDbLine
 10
2.286405
 20
5.467152
 30
0.0
 11
2.280899
 21
5.467152
 31
0.0
  0
LINE
  5
DF
330
53
100
AcDbEntity
 67
     1
  8
1
  6
CONTINUOUS
 62
    18
100
AcDbLine
 10
2.280899
 20
5.467152
 30
0.0
 11
2.264919
 21
5.467152
 31
0.0
  0
LINE
  5
E0
330
53
100
AcDbEntity
 67
     1
  8
1
  6
CONTINUOUS
 62
    18
100
AcDbLine
 10
2.264919
 20
5.467152
 30
0.0
 11
2.240031
 21
5.467152
 31
0.0
  0
LINE
  5
E1
330
53
100
AcDbEntity
 67
     1
  8
1
  6
CONTINUOUS
 62
    18
100
AcDbLine
 10
2.240031
 20
5.467152
 30
0.0
 11
2.208669
 21
5.467152
 31
0.0
  0
LINE
  5
E2
330
53
100
AcDbEntity
 67
     1
  8
1
  6
CONTINUOUS
 62
    18
100
AcDbLine
 10
2.208669
 20
5.467152
 30
0.0
 11
2.173905
 21
5.467152
 31
0.0
  0
LINE
  5
E3
330
53
100
AcDbEntity
 67
     1
  8
1
  6
CONTINUOUS
 62
    18
100
AcDbLine
 10
2.173905
 20
7.187152
 30
0.0
 11
2.208669
 21
7.187152
 31
0.0
  0
LINE
  5
E4
330
53
100
AcDbEntity
 67
     1
  8
1
  6
CONTINUOUS
 62
    18
100
AcDbLine
 10
2.208669
 20
7.187152
 30
0.0
 11
2.240031
 21
7.187152
 31
0.0
  0
LINE
  5
E5
330
53
100
AcDbEntity
 67
     1
  8
1
  6
CONTINUOUS
 62
    18
100
AcDbLine
 10
2.240031
 20
7.187152
 30
0.0
 11
2.264919
 21
7.187152
 31
0.0
  0
LINE
  5
E6
330
53
100
AcDbEntity
 67
     1
  8
1
  6
CONTINUOUS
 62
    18
100
AcDbLine
 10
2.264919
 20
7.187152
 30
0.0
 11
2.280899
 21
7.187152
 31
0.0
  0
LINE
  5
E7
330
53
100
AcDbEntity
 67
     1
  8
1
  6
CONTINUOUS
 62
    18
100
AcDbLine
 10
2.280899
 20
7.187152
 30
0.0
 11
2.286405
 21
7.187152
 31
0.0
  0
LINE
  5
E8
330
53
100
AcDbEntity
 67
     1
  8
1
  6
CONTINUOUS
 62
    18
100
AcDbLine
 10
2.173905
 20
5.467152
 30
0.0
 11
2.173905
 21
7.187152
 31
0.0
  0
LINE
  5
E9
330
53
100
AcDbEntity
 67
     1
  8
1
  6
CONTINUOUS
 62
    18
100
AcDbLine
 10
2.173905
 20
7.187152
 30
0.0
 11
1.608905
 21
7.187152
 31
0.0
  0
LINE
  5
EA
330
53
100
AcDbEntity
 67
     1
  8
1
  6
CONTINUOUS
 62
    18
100
AcDbLine
 10
1.548905
 20
7.127152
 30
0.0
 11
1.548905
 21
5.527153
 31
0.0
  0
LINE
  5
EB
330
53
100
AcDbEntity
 67
     1
  8
1
  6
CONTINUOUS
 62
    18
100
AcDbLine
 10
2.003905
 20
6.812152
 30
0.0
 11
1.823905
 21
6.812152
 31
0.0
  0
LINE
  5
EC
330
53
100
AcDbEntity
 67
     1
  8
1
  6
CONTINUOUS
 62
    18
100
AcDbLine
 10
2.003905
 20
7.092152
 30
0.0
 11
1.823905
 21
7.092152
 31
0.0
  0
LINE
  5
ED
330
53
100
AcDbEntity
 67
     1
  8
1
  6
CONTINUOUS
 62
    18
100
AcDbLine
 10
2.398405
 20
6.697152
 30
0.0
 11
2.473405
 21
6.697152
 31
0.0
  0
LINE
  5
EE
330
53
100
AcDbEntity
 67
     1
  8
1
  6
CONTINUOUS
 62
    18
100
AcDbLine
 10
2.398405
 20
6.837152
 30
0.0
 11
2.473405
 21
6.837152
 31
0.0
  0
LINE
  5
EF
330
53
100
AcDbEntity
 67
     1
  8
1
  6
CONTINUOUS
 62
    18
100
AcDbLine
 10
2.339021
 20
6.122152
 30
0.0
 11
2.286405
 21
6.122152
 31
0.0
  0
LINE
  5
F0
330
53
100
AcDbEntity
 67
     1
  8
1
  6
CONTINUOUS
 62
    18
100
AcDbLine
 10
2.339021
 20
6.532152
 30
0.0
 11
2.339021
 21
6.122152
 31
0.0
  0
LINE
  5
F1
330
53
100
AcDbEntity
 67
     1
  8
1
  6
CONTINUOUS
 62
    18
100
AcDbLine
 10
2.345806
 20
6.122152
 30
0.0
 11
2.344097
 21
6.122152
 31
0.0
  0
LINE
  5
F2
330
53
100
AcDbEntity
 67
     1
  8
1
  6
CONTINUOUS
 62
    18
100
AcDbLine
 10
2.344097
 20
6.122152
 30
0.0
 11
2.339021
 21
6.122152
 31
0.0
  0
LINE
  5
F3
330
53
100
AcDbEntity
 67
     1
  8
1
  6
CONTINUOUS
 62
    18
100
AcDbLine
 10
2.391405
 20
4.775931
 30
0.0
 11
2.391405
 21
4.515931
 31
0.0
  0
LINE
  5
F4
330
53
100
AcDbEntity
 67
     1
  8
1
  6
CONTINUOUS
 62
    18
100
AcDbLine
 10
2.391405
 20
4.775931
 30
0.0
 11
2.316405
 21
4.775931
 31
0.0
  0
LINE
  5
F5
330
53
100
AcDbEntity
 67
     1
  8
1
  6
CONTINUOUS
 62
    18
100
AcDbLine
 10
2.316405
 20
4.515931
 30
0.0
 11
2.316405
 21
4.775931
 31
0.0
  0
LINE
  5
F6
330
53
100
AcDbEntity
 67
     1
  8
1
  6
CONTINUOUS
 62
    18
100
AcDbLine
 10
2.316405
 20
4.515931
 30
0.0
 11
2.391405
 21
4.515931
 31
0.0
  0
LINE
  5
F7
330
53
100
AcDbEntity
 67
     1
  8
1
  6
CONTINUOUS
 62
    18
100
AcDbLine
 10
2.391405
 20
4.515931
 30
0.0
 11
2.391405
 21
4.370931
 31
0.0
  0
LINE
  5
F8
330
53
100
AcDbEntity
 67
     1
  8
1
  6
CONTINUOUS
 62
    18
100
AcDbLine
 10
2.316405
 20
4.370931
 30
0.0
 11
2.316405
 21
4.515931
 31
0.0
  0
LINE
  5
F9
330
53
100
AcDbEntity
 67
     1
  8
1
  6
CONTINUOUS
 62
    18
100
AcDbLine
 10
2.391405
 20
4.370931
 30
0.0
 11
2.316405
 21
4.370931
 31
0.0
  0
LINE
  5
FA
330
53
100
AcDbEntity
 67
     1
  8
1
  6
CONTINUOUS
 62
    18
100
AcDbLine
 10
2.316405
 20
4.370931
 30
0.0
 11
2.316405
 21
3.580931
 31
0.0
  0
LINE
  5
FB
330
53
100
AcDbEntity
 67
     1
  8
1
  6
CONTINUOUS
 62
    18
100
AcDbLine
 10
2.391405
 20
3.580931
 30
0.0
 11
2.316405
 21
3.580931
 31
0.0
  0
LINE
  5
FC
330
53
100
AcDbEntity
 67
     1
  8
1
  6
CONTINUOUS
 62
    18
100
AcDbLine
 10
2.391405
 20
3.580931
 30
0.0
 11
2.391405
 21
4.370931
 31
0.0
  0
LINE
  5
FD
330
53
100
AcDbEntity
 67
     1
  8
1
  6
CONTINUOUS
 62
    18
100
AcDbLine
 10
2.391405
 20
3.435931
 30
0.0
 11
2.391405
 21
3.580931
 31
0.0
  0
LINE
  5
FE
330
53
100
AcDbEntity
 67
     1
  8
1
  6
CONTINUOUS
 62
    18
100
AcDbLine
 10
2.316405
 20
3.580931
 30
0.0
 11
2.316405
 21
3.435931
 31
0.0
  0
LINE
  5
FF
330
53
100
AcDbEntity
 67
     1
  8
1
  6
CONTINUOUS
 62
    18
100
AcDbLine
 10
2.316405
 20
3.435931
 30
0.0
 11
2.391405
 21
3.435931
 31
0.0
  0
LINE
  5
100
330
53
100
AcDbEntity
 67
     1
  8
1
  6
CONTINUOUS
 62
    18
100
AcDbLine
 10
2.316405
 20
3.175931
 30
0.0
 11
2.316405
 21
3.435931
 31
0.0
  0
LINE
  5
101
330
53
100
AcDbEntity
 67
     1
  8
1
  6
CONTINUOUS
 62
    18
100
AcDbLine
 10
2.316405
 20
3.175931
 30
0.0
 11
2.391405
 21
3.175931
 31
0.0
  0
LINE
  5
102
330
53
100
AcDbEntity
 67
     1
  8
1
  6
CONTINUOUS
 62
    18
100
AcDbLine
 10
2.391405
 20
3.435931
 30
0.0
 11
2.391405
 21
3.175931
 31
0.0
  0
LINE
  5
103
330
53
100
AcDbEntity
 67
     1
  8
1
  6
CONTINUOUS
 62
    18
100
AcDbLine
 10
2.391405
 20
3.115931
 30
0.0
 11
2.316405
 21
3.115931
 31
0.0
  0
LINE
  5
104
330
53
100
AcDbEntity
 67
     1
  8
1
  6
CONTINUOUS
 62
    18
100
AcDbLine
 10
2.316405
 20
3.115931
 30
0.0
 11
2.311682
 21
3.115931
 31
0.0
  0
LINE
  5
105
330
53
100
AcDbEntity
 67
     1
  8
1
  6
CONTINUOUS
 62
    18
100
AcDbLine
 10
2.311682
 20
3.115931
 30
0.0
 11
2.29878
 21
3.115931
 31
0.0
  0
LINE
  5
106
330
53
100
AcDbEntity
 67
     1
  8
1
  6
CONTINUOUS
 62
    18
100
AcDbLine
 10
2.29878
 20
3.115931
 30
0.0
 11
2.281155
 21
3.115931
 31
0.0
  0
LINE
  5
107
330
53
100
AcDbEntity
 67
     1
  8
1
  6
CONTINUOUS
 62
    18
100
AcDbLine
 10
2.281155
 20
3.115931
 30
0.0
 11
1.608905
 21
3.115931
 31
0.0
  0
LINE
  5
108
330
53
100
AcDbEntity
 67
     1
  8
1
  6
CONTINUOUS
 62
    18
100
AcDbLine
 10
2.316405
 20
4.775931
 30
0.0
 11
2.316405
 21
4.798892
 31
0.0
  0
LINE
  5
109
330
53
100
AcDbEntity
 67
     1
  8
1
  6
CONTINUOUS
 62
    18
100
AcDbLine
 10
2.316405
 20
4.798892
 30
0.0
 11
2.316405
 21
4.818357
 31
0.0
  0
LINE
  5
10A
330
53
100
AcDbEntity
 67
     1
  8
1
  6
CONTINUOUS
 62
    18
100
AcDbLine
 10
2.316405
 20
4.818357
 30
0.0
 11
2.316405
 21
4.831364
 31
0.0
  0
LINE
  5
10B
330
53
100
AcDbEntity
 67
     1
  8
1
  6
CONTINUOUS
 62
    18
100
AcDbLine
 10
2.316405
 20
4.831364
 30
0.0
 11
2.316405
 21
4.835931
 31
0.0
  0
LINE
  5
10C
330
53
100
AcDbEntity
 67
     1
  8
1
  6
CONTINUOUS
 62
    18
100
AcDbLine
 10
2.316405
 20
3.115931
 30
0.0
 11
2.316405
 21
3.120498
 31
0.0
  0
LINE
  5
10D
330
53
100
AcDbEntity
 67
     1
  8
1
  6
CONTINUOUS
 62
    18
100
AcDbLine
 10
2.316405
 20
3.120498
 30
0.0
 11
2.316405
 21
3.133505
 31
0.0
  0
LINE
  5
10E
330
53
100
AcDbEntity
 67
     1
  8
1
  6
CONTINUOUS
 62
    18
100
AcDbLine
 10
2.316405
 20
3.133505
 30
0.0
 11
2.316405
 21
3.15297
 31
0.0
  0
LINE
  5
10F
330
53
100
AcDbEntity
 67
     1
  8
1
  6
CONTINUOUS
 62
    18
100
AcDbLine
 10
2.316405
 20
3.15297
 30
0.0
 11
2.316405
 21
3.175931
 31
0.0
  0
LINE
  5
110
330
53
100
AcDbEntity
 67
     1
  8
1
  6
CONTINUOUS
 62
    18
100
AcDbLine
 10
2.391405
 20
4.835931
 30
0.0
 11
2.391405
 21
4.831364
 31
0.0
  0
LINE
  5
111
330
53
100
AcDbEntity
 67
     1
  8
1
  6
CONTINUOUS
 62
    18
100
AcDbLine
 10
2.391405
 20
4.831364
 30
0.0
 11
2.391405
 21
4.818357
 31
0.0
  0
LINE
  5
112
330
53
100
AcDbEntity
 67
     1
  8
1
  6
CONTINUOUS
 62
    18
100
AcDbLine
 10
2.391405
 20
4.818357
 30
0.0
 11
2.391405
 21
4.798892
 31
0.0
  0
LINE
  5
113
330
53
100
AcDbEntity
 67
     1
  8
1
  6
CONTINUOUS
 62
    18
100
AcDbLine
 10
2.391405
 20
4.798892
 30
0.0
 11
2.391405
 21
4.775931
 31
0.0
  0
LINE
  5
114
330
53
100
AcDbEntity
 67
     1
  8
1
  6
CONTINUOUS
 62
    18
100
AcDbLine
 10
2.391405
 20
3.175931
 30
0.0
 11
2.391405
 21
3.15297
 31
0.0
  0
LINE
  5
115
330
53
100
AcDbEntity
 67
     1
  8
1
  6
CONTINUOUS
 62
    18
100
AcDbLine
 10
2.391405
 20
3.15297
 30
0.0
 11
2.391405
 21
3.133505
 31
0.0
  0
LINE
  5
116
330
53
100
AcDbEntity
 67
     1
  8
1
  6
CONTINUOUS
 62
    18
100
AcDbLine
 10
2.391405
 20
3.133505
 30
0.0
 11
2.391405
 21
3.120498
 31
0.0
  0
LINE
  5
117
330
53
100
AcDbEntity
 67
     1
  8
1
  6
CONTINUOUS
 62
    18
100
AcDbLine
 10
2.391405
 20
3.120498
 30
0.0
 11
2.391405
 21
3.115931
 31
0.0
  0
LINE
  5
118
330
53
100
AcDbEntity
 67
     1
  8
1
  6
CONTINUOUS
 62
    18
100
AcDbLine
 10
2.316405
 20
4.835931
 30
0.0
 11
2.391405
 21
4.835931
 31
0.0
  0
LINE
  5
119
330
53
100
AcDbEntity
 67
     1
  8
1
  6
CONTINUOUS
 62
    18
100
AcDbLine
 10
2.281155
 20
4.835931
 30
0.0
 11
1.608905
 21
4.835931
 31
0.0
  0
LINE
  5
11A
330
53
100
AcDbEntity
 67
     1
  8
1
  6
CONTINUOUS
 62
    18
100
AcDbLine
 10
2.281155
 20
4.835931
 30
0.0
 11
2.29878
 21
4.835931
 31
0.0
  0
LINE
  5
11B
330
53
100
AcDbEntity
 67
     1
  8
1
  6
CONTINUOUS
 62
    18
100
AcDbLine
 10
2.29878
 20
4.835931
 30
0.0
 11
2.311682
 21
4.835931
 31
0.0
  0
LINE
  5
11C
330
53
100
AcDbEntity
 67
     1
  8
1
  6
CONTINUOUS
 62
    18
100
AcDbLine
 10
2.311682
 20
4.835931
 30
0.0
 11
2.316405
 21
4.835931
 31
0.0
  0
LINE
  5
11D
330
53
100
AcDbEntity
 67
     1
  8
1
  6
CONTINUOUS
 62
    18
100
AcDbLine
 10
1.548905
 20
3.175931
 30
0.0
 11
1.548905
 21
4.775931
 31
0.0
  0
LINE
  5
11E
330
53
100
AcDbEntity
 67
     1
  8
1
  6
CONTINUOUS
 62
    18
100
AcDbLine
 10
2.281155
 20
3.115931
 30
0.0
 11
2.281155
 21
4.835931
 31
0.0
  0
LINE
  5
11F
330
53
100
AcDbEntity
 67
     1
  8
1
  6
CONTINUOUS
 62
    18
100
AcDbLine
 10
4.94839
 20
4.775931
 30
0.0
 11
4.94839
 21
4.515931
 31
0.0
  0
LINE
  5
120
330
53
100
AcDbEntity
 67
     1
  8
1
  6
CONTINUOUS
 62
    18
100
AcDbLine
 10
4.148389
 20
4.515931
 30
0.0
 11
4.94839
 21
4.515931
 31
0.0
  0
LINE
  5
121
330
53
100
AcDbEntity
 67
     1
  8
1
  6
CONTINUOUS
 62
    18
100
AcDbLine
 10
4.148389
 20
4.515931
 30
0.0
 11
3.85839
 21
4.370931
 31
0.0
  0
LINE
  5
122
330
53
100
AcDbEntity
 67
     1
  8
1
  6
CONTINUOUS
 62
    18
100
AcDbLine
 10
3.85839
 20
3.580931
 30
0.0
 11
3.85839
 21
4.370931
 31
0.0
  0
LINE
  5
123
330
53
100
AcDbEntity
 67
     1
  8
1
  6
CONTINUOUS
 62
    18
100
AcDbLine
 10
4.148389
 20
3.435931
 30
0.0
 11
3.85839
 21
3.580931
 31
0.0
  0
LINE
  5
124
330
53
100
AcDbEntity
 67
     1
  8
1
  6
CONTINUOUS
 62
    18
100
AcDbLine
 10
4.148389
 20
3.435931
 30
0.0
 11
4.94839
 21
3.435931
 31
0.0
  0
LINE
  5
125
330
53
100
AcDbEntity
 67
     1
  8
1
  6
CONTINUOUS
 62
    18
100
AcDbLine
 10
4.94839
 20
3.435931
 30
0.0
 11
4.94839
 21
3.175931
 31
0.0
  0
LINE
  5
126
330
53
100
AcDbEntity
 67
     1
  8
1
  6
CONTINUOUS
 62
    18
100
AcDbLine
 10
5.147003
 20
3.115931
 30
0.0
 11
5.008389
 21
3.115931
 31
0.0
  0
LINE
  5
127
330
53
100
AcDbEntity
 67
     1
  8
1
  6
CONTINUOUS
 62
    18
100
AcDbLine
 10
5.252752
 20
3.115931
 30
0.0
 11
5.247577
 21
3.115931
 31
0.0
  0
LINE
  5
128
330
53
100
AcDbEntity
 67
     1
  8
1
  6
CONTINUOUS
 62
    18
100
AcDbLine
 10
5.247577
 20
3.115931
 30
0.0
 11
5.232556
 21
3.115931
 31
0.0
  0
LINE
  5
129
330
53
100
AcDbEntity
 67
     1
  8
1
  6
CONTINUOUS
 62
    18
100
AcDbLine
 10
5.232556
 20
3.115931
 30
0.0
 11
5.209161
 21
3.115931
 31
0.0
  0
LINE
  5
12A
330
53
100
AcDbEntity
 67
     1
  8
1
  6
CONTINUOUS
 62
    18
100
AcDbLine
 10
5.209161
 20
3.115931
 30
0.0
 11
5.179681
 21
3.115931
 31
0.0
  0
LINE
  5
12B
330
53
100
AcDbEntity
 67
     1
  8
1
  6
CONTINUOUS
 62
    18
100
AcDbLine
 10
5.179681
 20
3.115931
 30
0.0
 11
5.147003
 21
3.115931
 31
0.0
  0
LINE
  5
12C
330
53
100
AcDbEntity
 67
     1
  8
1
  6
CONTINUOUS
 62
    18
100
AcDbLine
 10
4.515213
 20
3.750931
 30
0.0
 11
4.108389
 21
3.750931
 31
0.0
  0
LINE
  5
12D
330
53
100
AcDbEntity
 67
     1
  8
1
  6
CONTINUOUS
 62
    18
100
AcDbLine
 10
4.108389
 20
3.750931
 30
0.0
 11
4.108389
 21
4.200931
 31
0.0
  0
LINE
  5
12E
330
53
100
AcDbEntity
 67
     1
  8
1
  6
CONTINUOUS
 62
    18
100
AcDbLine
 10
4.515213
 20
4.200931
 30
0.0
 11
4.108389
 21
4.200931
 31
0.0
  0
LINE
  5
12F
330
53
100
AcDbEntity
 67
     1
  8
1
  6
CONTINUOUS
 62
    18
100
AcDbLine
 10
4.515213
 20
4.200931
 30
0.0
 11
4.515213
 21
3.750931
 31
0.0
  0
LINE
  5
130
330
53
100
AcDbEntity
 67
     1
  8
1
  6
CONTINUOUS
 62
    18
100
AcDbLine
 10
5.008389
 20
4.835931
 30
0.0
 11
5.147003
 21
4.835931
 31
0.0
  0
LINE
  5
131
330
53
100
AcDbEntity
 67
     1
  8
1
  6
CONTINUOUS
 62
    18
100
AcDbLine
 10
5.147003
 20
3.115931
 30
0.0
 11
5.147003
 21
4.835931
 31
0.0
  0
LINE
  5
132
330
53
100
AcDbEntity
 67
     1
  8
1
  6
CONTINUOUS
 62
    18
100
AcDbLine
 10
5.147003
 20
4.835931
 30
0.0
 11
5.179681
 21
4.835931
 31
0.0
  0
LINE
  5
133
330
53
100
AcDbEntity
 67
     1
  8
1
  6
CONTINUOUS
 62
    18
100
AcDbLine
 10
5.179681
 20
4.835931
 30
0.0
 11
5.209161
 21
4.835931
 31
0.0
  0
LINE
  5
134
330
53
100
AcDbEntity
 67
     1
  8
1
  6
CONTINUOUS
 62
    18
100
AcDbLine
 10
5.209161
 20
4.835931
 30
0.0
 11
5.232556
 21
4.835931
 31
0.0
  0
LINE
  5
135
330
53
100
AcDbEntity
 67
     1
  8
1
  6
CONTINUOUS
 62
    18
100
AcDbLine
 10
5.232556
 20
4.835931
 30
0.0
 11
5.247577
 21
4.835931
 31
0.0
  0
LINE
  5
136
330
53
100
AcDbEntity
 67
     1
  8
1
  6
CONTINUOUS
 62
    18
100
AcDbLine
 10
5.247577
 20
4.835931
 30
0.0
 11
5.252752
 21
4.835931
 31
0.0
  0
LINE
  5
137
330
53
100
AcDbEntity
 67
     1
  8
1
  6
CONTINUOUS
 62
    18
100
AcDbLine
 10
5.252752
 20
4.835931
 30
0.0
 11
5.252752
 21
3.115931
 31
0.0
  0
LINE
  5
138
330
53
100
AcDbEntity
 67
     1
  8
1
  6
CONTINUOUS
 62
    18
100
AcDbLine
 10
6.624186
 20
6.154866
 30
0.0
 11
6.699185
 21
6.154866
 31
0.0
  0
LINE
  5
139
330
53
100
AcDbEntity
 67
     1
  8
1
  6
CONTINUOUS
 62
    18
100
AcDbLine
 10
6.624186
 20
5.022552
 30
0.0
 11
6.624186
 21
5.484866
 31
0.0
  0
LINE
  5
13A
330
53
100
AcDbEntity
 67
     1
  8
1
  6
CONTINUOUS
 62
    18
100
AcDbLine
 10
6.624186
 20
5.484866
 30
0.0
 11
6.624186
 21
6.029866
 31
0.0
  0
LINE
  5
13B
330
53
100
AcDbEntity
 67
     1
  8
1
  6
CONTINUOUS
 62
    18
100
AcDbLine
 10
6.624186
 20
6.094866
 30
0.0
 11
6.624186
 21
6.029866
 31
0.0
  0
LINE
  5
13C
330
53
100
AcDbEntity
 67
     1
  8
1
  6
CONTINUOUS
 62
    18
100
AcDbLine
 10
6.624186
 20
6.094866
 30
0.0
 11
6.624186
 21
6.117827
 31
0.0
  0
LINE
  5
13D
330
53
100
AcDbEntity
 67
     1
  8
1
  6
CONTINUOUS
 62
    18
100
AcDbLine
 10
6.624186
 20
6.117827
 30
0.0
 11
6.624186
 21
6.137292
 31
0.0
  0
LINE
  5
13E
330
53
100
AcDbEntity
 67
     1
  8
1
  6
CONTINUOUS
 62
    18
100
AcDbLine
 10
6.624186
 20
6.137292
 30
0.0
 11
6.624186
 21
6.150299
 31
0.0
  0
LINE
  5
13F
330
53
100
AcDbEntity
 67
     1
  8
1
  6
CONTINUOUS
 62
    18
100
AcDbLine
 10
6.624186
 20
6.150299
 30
0.0
 11
6.624186
 21
6.154866
 31
0.0
  0
LINE
  5
140
330
53
100
AcDbEntity
 67
     1
  8
1
  6
CONTINUOUS
 62
    18
100
AcDbLine
 10
6.624186
 20
4.004415
 30
0.0
 11
6.624186
 21
4.672552
 31
0.0
  0
LINE
  5
141
330
53
100
AcDbEntity
 67
     1
  8
1
  6
CONTINUOUS
 62
    18
100
AcDbLine
 10
6.624186
 20
4.672552
 30
0.0
 11
6.624186
 21
5.022552
 31
0.0
  0
LINE
  5
142
330
53
100
AcDbEntity
 67
     1
  8
1
  6
CONTINUOUS
 62
    18
100
AcDbLine
 10
6.699185
 20
5.022552
 30
0.0
 11
6.699185
 21
5.484866
 31
0.0
  0
LINE
  5
143
330
53
100
AcDbEntity
 67
     1
  8
1
  6
CONTINUOUS
 62
    18
100
AcDbLine
 10
6.699185
 20
5.022552
 30
0.0
 11
6.699185
 21
4.672552
 31
0.0
  0
LINE
  5
144
330
53
100
AcDbEntity
 67
     1
  8
1
  6
CONTINUOUS
 62
    18
100
AcDbLine
 10
6.699185
 20
4.004415
 30
0.0
 11
6.699185
 21
4.672552
 31
0.0
  0
LINE
  5
145
330
53
100
AcDbEntity
 67
     1
  8
1
  6
CONTINUOUS
 62
    18
100
AcDbLine
 10
6.699185
 20
6.154866
 30
0.0
 11
6.699185
 21
6.150299
 31
0.0
  0
LINE
  5
146
330
53
100
AcDbEntity
 67
     1
  8
1
  6
CONTINUOUS
 62
    18
100
AcDbLine
 10
6.699185
 20
6.150299
 30
0.0
 11
6.699185
 21
6.137292
 31
0.0
  0
LINE
  5
147
330
53
100
AcDbEntity
 67
     1
  8
1
  6
CONTINUOUS
 62
    18
100
AcDbLine
 10
6.699185
 20
6.137292
 30
0.0
 11
6.699185
 21
6.117827
 31
0.0
  0
LINE
  5
148
330
53
100
AcDbEntity
 67
     1
  8
1
  6
CONTINUOUS
 62
    18
100
AcDbLine
 10
6.699185
 20
6.117827
 30
0.0
 11
6.699185
 21
6.094866
 31
0.0
  0
LINE
  5
149
330
53
100
AcDbEntity
 67
     1
  8
1
  6
CONTINUOUS
 62
    18
100
AcDbLine
 10
6.699185
 20
6.094866
 30
0.0
 11
6.699185
 21
6.029866
 31
0.0
  0
LINE
  5
14A
330
53
100
AcDbEntity
 67
     1
  8
1
  6
CONTINUOUS
 62
    18
100
AcDbLine
 10
6.624186
 20
5.099548
 30
0.0
 11
6.606081
 21
5.049803
 31
0.0
  0
LINE
  5
14B
330
53
100
AcDbEntity
 67
     1
  8
1
  6
CONTINUOUS
 62
    18
100
AcDbLine
 10
6.606081
 20
5.049803
 30
0.0
 11
6.624187
 21
5.043213
 31
0.0
  0
LINE
  5
14C
330
53
100
AcDbEntity
 67
     1
  8
1
  6
CONTINUOUS
 62
    18
100
AcDbLine
 10
6.729185
 20
5.168745
 30
0.0
 11
6.699186
 21
5.086323
 31
0.0
  0
LINE
  5
14D
330
53
100
AcDbEntity
 67
     1
  8
1
  6
CONTINUOUS
 62
    18
100
AcDbLine
 10
6.699185
 20
6.094866
 30
0.0
 11
6.624186
 21
6.094866
 31
0.0
  0
LINE
  5
14E
330
53
100
AcDbEntity
 67
     1
  8
1
  6
CONTINUOUS
 62
    18
100
AcDbLine
 10
6.624186
 20
6.029866
 30
0.0
 11
6.629079
 21
6.029866
 31
0.0
  0
LINE
  5
14F
330
53
100
AcDbEntity
 67
     1
  8
1
  6
CONTINUOUS
 62
    18
100
AcDbLine
 10
6.629079
 20
6.029866
 30
0.0
 11
6.643395
 21
6.029866
 31
0.0
  0
LINE
  5
150
330
53
100
AcDbEntity
 67
     1
  8
1
  6
CONTINUOUS
 62
    18
100
AcDbLine
 10
6.643395
 20
6.029866
 30
0.0
 11
6.666064
 21
6.029866
 31
0.0
  0
LINE
  5
151
330
53
100
AcDbEntity
 67
     1
  8
1
  6
CONTINUOUS
 62
    18
100
AcDbLine
 10
6.666064
 20
6.029866
 30
0.0
 11
6.695392
 21
6.029866
 31
0.0
  0
LINE
  5
152
330
53
100
AcDbEntity
 67
     1
  8
1
  6
CONTINUOUS
 62
    18
100
AcDbLine
 10
6.695392
 20
6.029866
 30
0.0
 11
6.729187
 21
6.029866
 31
0.0
  0
LINE
  5
153
330
53
100
AcDbEntity
 67
     1
  8
1
  6
CONTINUOUS
 62
    18
100
AcDbLine
 10
6.80418
 20
6.029866
 30
0.0
 11
6.837577
 21
6.029866
 31
0.0
  0
LINE
  5
154
330
53
100
AcDbEntity
 67
     1
  8
1
  6
CONTINUOUS
 62
    18
100
AcDbLine
 10
6.837577
 20
6.029866
 30
0.0
 11
6.863766
 21
6.029866
 31
0.0
  0
LINE
  5
155
330
53
100
AcDbEntity
 67
     1
  8
1
  6
CONTINUOUS
 62
    18
100
AcDbLine
 10
6.863766
 20
6.029866
 30
0.0
 11
6.880455
 21
6.029866
 31
0.0
  0
LINE
  5
156
330
53
100
AcDbEntity
 67
     1
  8
1
  6
CONTINUOUS
 62
    18
100
AcDbLine
 10
6.880455
 20
6.029866
 30
0.0
 11
6.886186
 21
6.029866
 31
0.0
  0
LINE
  5
157
330
53
100
AcDbEntity
 67
     1
  8
1
  6
CONTINUOUS
 62
    18
100
AcDbLine
 10
6.624186
 20
5.484866
 30
0.0
 11
6.628649
 21
5.484866
 31
0.0
  0
LINE
  5
158
330
53
100
AcDbEntity
 67
     1
  8
1
  6
CONTINUOUS
 62
    18
100
AcDbLine
 10
6.628649
 20
5.484866
 30
0.0
 11
6.641736
 21
5.484866
 31
0.0
  0
LINE
  5
159
330
53
100
AcDbEntity
 67
     1
  8
1
  6
CONTINUOUS
 62
    18
100
AcDbLine
 10
6.641736
 20
5.484866
 30
0.0
 11
6.662554
 21
5.484866
 31
0.0
  0
LINE
  5
15A
330
53
100
AcDbEntity
 67
     1
  8
1
  6
CONTINUOUS
 62
    18
100
AcDbLine
 10
6.662554
 20
5.484866
 30
0.0
 11
6.689685
 21
5.484866
 31
0.0
  0
LINE
  5
15B
330
53
100
AcDbEntity
 67
     1
  8
1
  6
CONTINUOUS
 62
    18
100
AcDbLine
 10
6.689685
 20
5.484866
 30
0.0
 11
6.72128
 21
5.484866
 31
0.0
  0
LINE
  5
15C
330
53
100
AcDbEntity
 67
     1
  8
1
  6
CONTINUOUS
 62
    18
100
AcDbLine
 10
6.72128
 20
5.484866
 30
0.0
 11
6.755186
 21
5.484866
 31
0.0
  0
LINE
  5
15D
330
53
100
AcDbEntity
 67
     1
  8
1
  6
CONTINUOUS
 62
    18
100
AcDbLine
 10
6.755186
 20
5.484866
 30
0.0
 11
6.789091
 21
5.484866
 31
0.0
  0
LINE
  5
15E
330
53
100
AcDbEntity
 67
     1
  8
1
  6
CONTINUOUS
 62
    18
100
AcDbLine
 10
6.789091
 20
5.484866
 30
0.0
 11
6.820685
 21
5.484866
 31
0.0
  0
LINE
  5
15F
330
53
100
AcDbEntity
 67
     1
  8
1
  6
CONTINUOUS
 62
    18
100
AcDbLine
 10
6.820685
 20
5.484866
 30
0.0
 11
6.847816
 21
5.484866
 31
0.0
  0
LINE
  5
160
330
53
100
AcDbEntity
 67
     1
  8
1
  6
CONTINUOUS
 62
    18
100
AcDbLine
 10
6.847816
 20
5.484866
 30
0.0
 11
6.868635
 21
5.484866
 31
0.0
  0
LINE
  5
161
330
53
100
AcDbEntity
 67
     1
  8
1
  6
CONTINUOUS
 62
    18
100
AcDbLine
 10
6.868635
 20
5.484866
 30
0.0
 11
6.881721
 21
5.484866
 31
0.0
  0
LINE
  5
162
330
53
100
AcDbEntity
 67
     1
  8
1
  6
CONTINUOUS
 62
    18
100
AcDbLine
 10
6.881721
 20
5.484866
 30
0.0
 11
6.886186
 21
5.484866
 31
0.0
  0
LINE
  5
163
330
53
100
AcDbEntity
 67
     1
  8
1
  6
CONTINUOUS
 62
    18
100
AcDbLine
 10
6.886186
 20
5.484866
 30
0.0
 11
6.886186
 21
6.029866
 31
0.0
  0
LINE
  5
164
330
53
100
AcDbEntity
 67
     1
  8
1
  6
CONTINUOUS
 62
    18
100
AcDbLine
 10
6.586685
 20
3.891915
 30
0.0
 11
6.021686
 21
3.891915
 31
0.0
  0
LINE
  5
165
330
53
100
AcDbEntity
 67
     1
  8
1
  6
CONTINUOUS
 62
    18
100
AcDbLine
 10
6.021686
 20
3.891915
 30
0.0
 11
5.998724
 21
3.891915
 31
0.0
  0
LINE
  5
166
330
53
100
AcDbEntity
 67
     1
  8
1
  6
CONTINUOUS
 62
    18
100
AcDbLine
 10
5.998724
 20
3.891915
 30
0.0
 11
5.979259
 21
3.891915
 31
0.0
  0
LINE
  5
167
330
53
100
AcDbEntity
 67
     1
  8
1
  6
CONTINUOUS
 62
    18
100
AcDbLine
 10
5.979259
 20
3.891915
 30
0.0
 11
5.966253
 21
3.891915
 31
0.0
  0
LINE
  5
168
330
53
100
AcDbEntity
 67
     1
  8
1
  6
CONTINUOUS
 62
    18
100
AcDbLine
 10
5.966253
 20
3.891915
 30
0.0
 11
5.961685
 21
3.891915
 31
0.0
  0
LINE
  5
169
330
53
100
AcDbEntity
 67
     1
  8
1
  6
CONTINUOUS
 62
    18
100
AcDbLine
 10
5.961685
 20
3.891915
 30
0.0
 11
5.961685
 21
3.966915
 31
0.0
  0
LINE
  5
16A
330
53
100
AcDbEntity
 67
     1
  8
1
  6
CONTINUOUS
 62
    18
100
AcDbLine
 10
5.961685
 20
3.966915
 30
0.0
 11
5.966253
 21
3.966915
 31
0.0
  0
LINE
  5
16B
330
53
100
AcDbEntity
 67
     1
  8
1
  6
CONTINUOUS
 62
    18
100
AcDbLine
 10
5.966253
 20
3.966915
 30
0.0
 11
5.979259
 21
3.966915
 31
0.0
  0
LINE
  5
16C
330
53
100
AcDbEntity
 67
     1
  8
1
  6
CONTINUOUS
 62
    18
100
AcDbLine
 10
5.979259
 20
3.966915
 30
0.0
 11
5.998724
 21
3.966915
 31
0.0
  0
LINE
  5
16D
330
53
100
AcDbEntity
 67
     1
  8
1
  6
CONTINUOUS
 62
    18
100
AcDbLine
 10
5.998724
 20
3.966915
 30
0.0
 11
6.021686
 21
3.966915
 31
0.0
  0
LINE
  5
16E
330
53
100
AcDbEntity
 67
     1
  8
1
  6
CONTINUOUS
 62
    18
100
AcDbLine
 10
6.021686
 20
3.966915
 30
0.0
 11
6.586685
 21
3.966915
 31
0.0
  0
LINE
  5
16F
330
53
100
AcDbEntity
 67
     1
  8
1
  6
CONTINUOUS
 62
    18
100
AcDbLine
 10
6.624186
 20
5.022552
 30
0.0
 11
6.699185
 21
5.022552
 31
0.0
  0
LINE
  5
170
330
53
100
AcDbEntity
 67
     1
  8
1
  6
CONTINUOUS
 62
    18
100
AcDbLine
 10
6.699185
 20
4.672552
 30
0.0
 11
6.624186
 21
4.672552
 31
0.0
  0
LINE
  5
171
330
53
100
AcDbEntity
 67
     1
  8
1
  6
CONTINUOUS
 62
    18
100
AcDbLine
 10
6.021686
 20
3.966915
 30
0.0
 11
6.021686
 21
3.891915
 31
0.0
  0
LINE
  5
172
330
53
100
AcDbEntity
 67
     1
  8
1
  6
CONTINUOUS
 62
    18
100
AcDbLine
 10
6.59582
 20
5.021612
 30
0.0
 11
6.597195
 21
5.025389
 31
0.0
  0
LINE
  5
173
330
53
100
AcDbEntity
 67
     1
  8
1
  6
CONTINUOUS
 62
    18
100
AcDbLine
 10
6.597195
 20
5.025389
 30
0.0
 11
6.60095
 21
5.035707
 31
0.0
  0
LINE
  5
174
330
53
100
AcDbEntity
 67
     1
  8
1
  6
CONTINUOUS
 62
    18
100
AcDbLine
 10
6.60095
 20
5.035707
 30
0.0
 11
6.606081
 21
5.049803
 31
0.0
  0
LINE
  5
175
330
53
100
AcDbEntity
 67
     1
  8
1
  6
CONTINUOUS
 62
    18
100
AcDbLine
 10
6.624186
 20
5.011288
 30
0.0
 11
6.59582
 21
5.021612
 31
0.0
  0
LINE
  5
176
330
53
100
AcDbEntity
 67
     1
  8
1
  6
CONTINUOUS
 62
    18
100
AcDbLine
 10
6.804185
 20
6.029866
 30
0.0
 11
6.729186
 21
6.029866
 31
0.0
  0
LINE
  5
177
330
53
100
AcDbEntity
 67
     1
  8
1
  6
CONTINUOUS
 62
    18
100
AcDbLine
 10
6.729186
 20
5.484879
 30
0.0
 11
6.729186
 21
5.229866
 31
0.0
  0
LINE
  5
178
330
53
100
AcDbEntity
 67
     1
  8
1
  6
CONTINUOUS
 62
    18
100
AcDbLine
 10
6.729186
 20
5.229866
 30
0.0
 11
6.804185
 21
5.229866
 31
0.0
  0
LINE
  5
179
330
53
100
AcDbEntity
 67
     1
  8
1
  6
CONTINUOUS
 62
    18
100
AcDbLine
 10
6.804185
 20
5.229866
 30
0.0
 11
6.804185
 21
5.484879
 31
0.0
  0
LINE
  5
17A
330
53
100
AcDbEntity
 67
     1
  8
1
  6
CONTINUOUS
 62
    18
100
AcDbLine
 10
6.804185
 20
5.229866
 30
0.0
 11
6.804185
 21
4.939866
 31
0.0
  0
LINE
  5
17B
330
53
100
AcDbEntity
 67
     1
  8
1
  6
CONTINUOUS
 62
    18
100
AcDbLine
 10
6.729186
 20
4.939866
 30
0.0
 11
6.729186
 21
5.229866
 31
0.0
  0
LINE
  5
17C
330
53
100
AcDbEntity
 67
     1
  8
1
  6
CONTINUOUS
 62
    18
100
AcDbLine
 10
6.804185
 20
4.939866
 30
0.0
 11
6.729186
 21
4.939866
 31
0.0
  0
LINE
  5
17D
330
53
100
AcDbEntity
 67
     1
  8
1
  6
CONTINUOUS
 62
    18
100
AcDbLine
 10
6.729186
 20
6.029866
 30
0.0
 11
6.729186
 21
6.034433
 31
0.0
  0
LINE
  5
17E
330
53
100
AcDbEntity
 67
     1
  8
1
  6
CONTINUOUS
 62
    18
100
AcDbLine
 10
6.729186
 20
6.034433
 30
0.0
 11
6.729186
 21
6.04744
 31
0.0
  0
LINE
  5
17F
330
53
100
AcDbEntity
 67
     1
  8
1
  6
CONTINUOUS
 62
    18
100
AcDbLine
 10
6.729186
 20
6.04744
 30
0.0
 11
6.729186
 21
6.066905
 31
0.0
  0
LINE
  5
180
330
53
100
AcDbEntity
 67
     1
  8
1
  6
CONTINUOUS
 62
    18
100
AcDbLine
 10
6.729186
 20
6.066905
 30
0.0
 11
6.729186
 21
6.089866
 31
0.0
  0
LINE
  5
181
330
53
100
AcDbEntity
 67
     1
  8
1
  6
CONTINUOUS
 62
    18
100
AcDbLine
 10
6.729186
 20
6.223979
 30
0.0
 11
6.729186
 21
6.089866
 31
0.0
  0
LINE
  5
182
330
53
100
AcDbEntity
 67
     1
  8
1
  6
CONTINUOUS
 62
    18
100
AcDbLine
 10
6.804185
 20
6.089866
 30
0.0
 11
6.804185
 21
6.228479
 31
0.0
  0
LINE
  5
183
330
53
100
AcDbEntity
 67
     1
  8
1
  6
CONTINUOUS
 62
    18
100
AcDbLine
 10
6.804185
 20
6.089866
 30
0.0
 11
6.804185
 21
6.066905
 31
0.0
  0
LINE
  5
184
330
53
100
AcDbEntity
 67
     1
  8
1
  6
CONTINUOUS
 62
    18
100
AcDbLine
 10
6.804185
 20
6.066905
 30
0.0
 11
6.804185
 21
6.04744
 31
0.0
  0
LINE
  5
185
330
53
100
AcDbEntity
 67
     1
  8
1
  6
CONTINUOUS
 62
    18
100
AcDbLine
 10
6.804185
 20
6.04744
 30
0.0
 11
6.804185
 21
6.034433
 31
0.0
  0
LINE
  5
186
330
53
100
AcDbEntity
 67
     1
  8
1
  6
CONTINUOUS
 62
    18
100
AcDbLine
 10
6.804185
 20
6.034433
 30
0.0
 11
6.804185
 21
6.029866
 31
0.0
  0
LINE
  5
187
330
53
100
AcDbEntity
 67
     1
  8
1
  6
CONTINUOUS
 62
    18
100
AcDbLine
 10
6.729186
 20
6.089866
 30
0.0
 11
6.804185
 21
6.089866
 31
0.0
  0
LINE
  5
188
330
53
100
AcDbEntity
 67
     1
  8
1
  6
CONTINUOUS
 62
    18
100
AcDbLine
 10
6.698435
 20
6.334229
 30
0.0
 11
6.021686
 21
6.334229
 31
0.0
  0
LINE
  5
189
330
53
100
AcDbEntity
 67
     1
  8
1
  6
CONTINUOUS
 62
    18
100
AcDbLine
 10
6.021686
 20
6.334229
 30
0.0
 11
6.021686
 21
6.259229
 31
0.0
  0
LINE
  5
18A
330
53
100
AcDbEntity
 67
     1
  8
1
  6
CONTINUOUS
 62
    18
100
AcDbLine
 10
6.693935
 20
6.259229
 30
0.0
 11
6.021686
 21
6.259229
 31
0.0
  0
LINE
  5
18B
330
53
100
AcDbEntity
 67
     1
  8
1
  6
CONTINUOUS
 62
    18
100
AcDbLine
 10
5.961685
 20
6.259229
 30
0.0
 11
5.961685
 21
6.334229
 31
0.0
  0
LINE
  5
18C
330
53
100
AcDbEntity
 67
     1
  8
1
  6
CONTINUOUS
 62
    18
100
AcDbLine
 10
6.021686
 20
6.259229
 30
0.0
 11
5.998724
 21
6.259229
 31
0.0
  0
LINE
  5
18D
330
53
100
AcDbEntity
 67
     1
  8
1
  6
CONTINUOUS
 62
    18
100
AcDbLine
 10
5.998724
 20
6.259229
 30
0.0
 11
5.979259
 21
6.259229
 31
0.0
  0
LINE
  5
18E
330
53
100
AcDbEntity
 67
     1
  8
1
  6
CONTINUOUS
 62
    18
100
AcDbLine
 10
5.979259
 20
6.259229
 30
0.0
 11
5.966253
 21
6.259229
 31
0.0
  0
LINE
  5
18F
330
53
100
AcDbEntity
 67
     1
  8
1
  6
CONTINUOUS
 62
    18
100
AcDbLine
 10
5.966253
 20
6.259229
 30
0.0
 11
5.961685
 21
6.259229
 31
0.0
  0
LINE
  5
190
330
53
100
AcDbEntity
 67
     1
  8
1
  6
CONTINUOUS
 62
    18
100
AcDbLine
 10
5.961685
 20
6.334229
 30
0.0
 11
5.966253
 21
6.334229
 31
0.0
  0
LINE
  5
191
330
53
100
AcDbEntity
 67
     1
  8
1
  6
CONTINUOUS
 62
    18
100
AcDbLine
 10
5.966253
 20
6.334229
 30
0.0
 11
5.979259
 21
6.334229
 31
0.0
  0
LINE
  5
192
330
53
100
AcDbEntity
 67
     1
  8
1
  6
CONTINUOUS
 62
    18
100
AcDbLine
 10
5.979259
 20
6.334229
 30
0.0
 11
5.998724
 21
6.334229
 31
0.0
  0
LINE
  5
193
330
53
100
AcDbEntity
 67
     1
  8
1
  6
CONTINUOUS
 62
    18
100
AcDbLine
 10
5.998724
 20
6.334229
 30
0.0
 11
6.021686
 21
6.334229
 31
0.0
  0
ARC
  5
194
330
53
100
AcDbEntity
 67
     1
  8
1
  6
CONTINUOUS
 62
    18
100
AcDbCircle
 10
5.347554
 20
6.609653
 30
0.0
 40
0.0299999993294477
100
AcDbArc
 50
0.0
 51
66.4425
  0
ARC
  5
195
330
53
100
AcDbEntity
 67
     1
  8
1
  6
CONTINUOUS
 62
    18
100
AcDbCircle
 10
5.347554
 20
6.044652
 30
0.0
 40
0.0299999993294477
100
AcDbArc
 50
293.5575
 51
0.0
  0
ARC
  5
196
330
53
100
AcDbEntity
 67
     1
  8
1
  6
CONTINUOUS
 62
    18
100
AcDbCircle
 10
4.219554
 20
6.044652
 30
0.0
 40
0.0299999993294477
100
AcDbArc
 50
180.0
 51
270.0
  0
ARC
  5
197
330
53
100
AcDbEntity
 67
     1
  8
1
  6
CONTINUOUS
 62
    18
100
AcDbCircle
 10
4.219554
 20
6.609653
 30
0.0
 40
0.0299999993294477
100
AcDbArc
 50
90.0
 51
180.0
  0
ARC
  5
198
330
53
100
AcDbEntity
 67
     1
  8
1
  6
CONTINUOUS
 62
    18
100
AcDbCircle
 10
5.517554
 20
5.877152
 30
0.0
 40
0.0599999986588955
100
AcDbArc
 50
270.0
 51
0.0
  0
ARC
  5
199
330
53
100
AcDbEntity
 67
     1
  8
1
  6
CONTINUOUS
 62
    18
100
AcDbCircle
 10
5.517554
 20
6.777153
 30
0.0
 40
0.0599999986588955
100
AcDbArc
 50
0.0
 51
90.0
  0
ARC
  5
19A
330
53
100
AcDbEntity
 67
     1
  8
1
  6
CONTINUOUS
 62
    18
100
AcDbCircle
 10
5.392554
 20
6.697152
 30
0.0
 40
0.0599999986588955
100
AcDbArc
 50
270.0
 51
0.0
  0
ARC
  5
19B
330
53
100
AcDbEntity
 67
     1
  8
1
  6
CONTINUOUS
 62
    18
100
AcDbCircle
 10
4.967554
 20
6.697152
 30
0.0
 40
0.0599999986588955
100
AcDbArc
 50
180.0
 51
270.0
  0
ARC
  5
19C
330
53
100
AcDbEntity
 67
     1
  8
1
  6
CONTINUOUS
 62
    18
100
AcDbCircle
 10
5.392554
 20
5.957152
 30
0.0
 40
0.0599999986588955
100
AcDbArc
 50
0.0
 51
90.0
  0
ARC
  5
19D
330
53
100
AcDbEntity
 67
     1
  8
1
  6
CONTINUOUS
 62
    18
100
AcDbCircle
 10
4.967554
 20
5.957152
 30
0.0
 40
0.0599999986588955
100
AcDbArc
 50
90.0
 51
180.0
  0
ARC
  5
19E
330
53
100
AcDbEntity
 67
     1
  8
1
  6
CONTINUOUS
 62
    18
100
AcDbCircle
 10
2.342405
 20
6.837152
 30
0.0
 40
0.0560000017285347
100
AcDbArc
 50
0.0
 51
180.0
  0
ARC
  5
19F
330
53
100
AcDbEntity
 67
     1
  8
1
  6
CONTINUOUS
 62
    18
100
AcDbCircle
 10
2.342405
 20
6.837152
 30
0.0
 40
0.1309999972581863
100
AcDbArc
 50
0.0
 51
115.306875
  0
ARC
  5
1A0
330
53
100
AcDbEntity
 67
     1
  8
1
  6
CONTINUOUS
 62
    18
100
AcDbCircle
 10
2.342405
 20
5.817153
 30
0.0
 40
0.0560000017285347
100
AcDbArc
 50
180.0
 51
0.0
  0
ARC
  5
1A1
330
53
100
AcDbEntity
 67
     1
  8
1
  6
CONTINUOUS
 62
    18
100
AcDbCircle
 10
2.342405
 20
5.817153
 30
0.0
 40
0.1309999972581863
100
AcDbArc
 50
244.693125
 51
0.0
  0
ARC
  5
1A2
330
53
100
AcDbEntity
 67
     1
  8
1
  6
CONTINUOUS
 62
    18
100
AcDbCircle
 10
1.608905
 20
5.527153
 30
0.0
 40
0.0599999986588955
100
AcDbArc
 50
180.0
 51
270.0
  0
CIRCLE
  5
1A3
330
53
100
AcDbEntity
 67
     1
  8
1
  6
CONTINUOUS
 62
    18
100
AcDbCircle
 10
1.913905
 20
6.327152
 30
0.0
 40
0.0780000016093254
  0
ARC
  5
1A4
330
53
100
AcDbEntity
 67
     1
  8
1
  6
CONTINUOUS
 62
    18
100
AcDbCircle
 10
2.003905
 20
5.702152
 30
0.0
 40
0.1400000005960464
100
AcDbArc
 50
270.0
 51
90.0
  0
ARC
  5
1A5
330
53
100
AcDbEntity
 67
     1
  8
1
  6
CONTINUOUS
 62
    18
100
AcDbCircle
 10
1.823905
 20
5.702152
 30
0.0
 40
0.1400000005960464
100
AcDbArc
 50
90.0
 51
270.0
  0
ARC
  5
1A6
330
53
100
AcDbEntity
 67
     1
  8
1
  6
CONTINUOUS
 62
    18
100
AcDbCircle
 10
1.608905
 20
7.127152
 30
0.0
 40
0.0599999986588955
100
AcDbArc
 50
90.0
 51
180.0
  0
ARC
  5
1A7
330
53
100
AcDbEntity
 67
     1
  8
1
  6
CONTINUOUS
 62
    18
100
AcDbCircle
 10
1.823905
 20
6.952152
 30
0.0
 40
0.1400000005960464
100
AcDbArc
 50
90.0
 51
270.0
  0
ARC
  5
1A8
330
53
100
AcDbEntity
 67
     1
  8
1
  6
CONTINUOUS
 62
    18
100
AcDbCircle
 10
2.003905
 20
6.952152
 30
0.0
 40
0.1400000005960464
100
AcDbArc
 50
270.0
 51
90.0
  0
ARC
  5
1A9
330
53
100
AcDbEntity
 67
     1
  8
1
  6
CONTINUOUS
 62
    18
100
AcDbCircle
 10
1.608905
 20
3.175931
 30
0.0
 40
0.0599999986588955
100
AcDbArc
 50
180.0
 51
270.0
  0
CIRCLE
  5
1AA
330
53
100
AcDbEntity
 67
     1
  8
1
  6
CONTINUOUS
 62
    18
100
AcDbCircle
 10
1.913905
 20
3.350931
 30
0.0
 40
0.0885000005364418
  0
CIRCLE
  5
1AB
330
53
100
AcDbEntity
 67
     1
  8
1
  6
CONTINUOUS
 62
    18
100
AcDbCircle
 10
1.913905
 20
3.975931
 30
0.0
 40
0.0885000005364418
  0
CIRCLE
  5
1AC
330
53
100
AcDbEntity
 67
     1
  8
1
  6
CONTINUOUS
 62
    18
100
AcDbCircle
 10
1.913905
 20
4.600931
 30
0.0
 40
0.0885000005364418
  0
ARC
  5
1AD
330
53
100
AcDbEntity
 67
     1
  8
1
  6
CONTINUOUS
 62
    18
100
AcDbCircle
 10
1.608905
 20
4.775931
 30
0.0
 40
0.0599999986588955
100
AcDbArc
 50
90.0
 51
180.0
  0
ARC
  5
1AE
330
53
100
AcDbEntity
 67
     1
  8
1
  6
CONTINUOUS
 62
    18
100
AcDbCircle
 10
5.008389
 20
4.775931
 30
0.0
 40
0.0599999986588955
100
AcDbArc
 50
90.0
 51
180.0
  0
ARC
  5
1AF
330
53
100
AcDbEntity
 67
     1
  8
1
  6
CONTINUOUS
 62
    18
100
AcDbCircle
 10
5.008389
 20
3.175931
 30
0.0
 40
0.0599999986588955
100
AcDbArc
 50
180.0
 51
270.0
  0
ARC
  5
1B0
330
53
100
AcDbEntity
 67
     1
  8
1
  6
CONTINUOUS
 62
    18
100
AcDbCircle
 10
6.586685
 20
4.004415
 30
0.0
 40
0.0375000014901161
100
AcDbArc
 50
270.0
 51
0.0
  0
ARC
  5
1B1
330
53
100
AcDbEntity
 67
     1
  8
1
  6
CONTINUOUS
 62
    18
100
AcDbCircle
 10
6.586685
 20
4.004415
 30
0.0
 40
0.1124999970197678
100
AcDbArc
 50
270.0
 51
0.0
  0
ARC
  5
1B2
330
53
100
AcDbEntity
 67
     1
  8
1
  6
CONTINUOUS
 62
    18
100
AcDbCircle
 10
6.698435
 20
6.228479
 30
0.0
 40
0.1057500019669533
100
AcDbArc
 50
0.0
 51
90.0
  0
ARC
  5
1B3
330
53
100
AcDbEntity
 67
     1
  8
1
  6
CONTINUOUS
 62
    18
100
AcDbCircle
 10
6.693935
 20
6.223979
 30
0.0
 40
0.0352500006556511
100
AcDbArc
 50
0.0
 51
90.0
  0
ENDSEC
  0
SECTION
  2
OBJECTS
  0
DICTIONARY
  5
C
330
0
100
AcDbDictionary
281
     1
  3
ACAD_GROUP
350
D
  3
ACAD_LAYOUT
350
1A
  3
ACAD_MATERIAL
350
3B
  3
ACAD_MLEADERSTYLE
350
1C7
  3
ACAD_MLINESTYLE
350
17
  3
ACAD_PLOTSETTINGS
350
19
  3
ACAD_PLOTSTYLENAME
350
E
  3
ACAD_VISUALSTYLE
350
2A
  3
AcDbVariableDictionary
350
1C5
  0
DICTIONARY
  5
D
102
{ACAD_REACTORS
330
C
102
}
330
C
100
AcDbDictionary
281
     1
  0
DICTIONARY
  5
1A
102
{ACAD_REACTORS
330
C
102
}
330
C
100
AcDbDictionary
281
     1
  3
Model
350
22
  3
SH1
350
1B4
  3
Sheet 1
350
52
  0
DICTIONARY
  5
3B
102
{ACAD_REACTORS
330
C
102
}
330
C
100
AcDbDictionary
281
     1
  3
BYBLOCK
350
3D
  3
BYLAYER
350
3C
  3
Global
350
3E
  0
DICTIONARY
  5
1C7
102
{ACAD_REACTORS
330
C
102
}
330
C
100
AcDbDictionary
281
     1
  0
DICTIONARY
  5
17
102
{ACAD_REACTORS
330
C
102
}
330
C
100
AcDbDictionary
281
     1
  3
Standard
350
18
  0
DICTIONARY
  5
19
102
{ACAD_REACTORS
330
C
102
}
330
C
100
AcDbDictionary
281
     1
  0
ACDBDICTIONARYWDFLT
  5
E
102
{ACAD_REACTORS
330
C
102
}
330
C
100
AcDbDictionary
281
     1
  3
Normal
350
F
100
AcDbDictionaryWithDefault
340
F
  0
DICTIONARY
  5
2A
102
{ACAD_REACTORS
330
C
102
}
330
C
100
AcDbDictionary
281
     1
  3
2dWireframe
350
2F
  3
3D Hidden
350
31
  3
3dWireframe
350
30
  3
Basic
350
32
  3
Brighten
350
36
  3
ColorChange
350
3A
  3
Conceptual
350
34
  3
Dim
350
35
  3
Facepattern
350
39
  3
Flat
350
2B
  3
FlatWithEdges
350
2C
  3
Gouraud
350
2D
  3
GouraudWithEdges
350
2E
  3
Linepattern
350
38
  3
Realistic
350
33
  3
Thicken
350
37
  0
DICTIONARY
  5
1C5
102
{ACAD_REACTORS
330
C
102
}
330
C
100
AcDbDictionary
281
     1
  3
DIMASSOC
350
1C8
  3
HIDETEXT
350
1C9
  0
LAYOUT
  5
22
102
{ACAD_REACTORS
330
1A
102
}
330
1A
100
AcDbPlotSettings
  1

  2
none_device
  4

  6

 40
0.0
 41
0.0
 42
0.0
 43
0.0
 44
0.0
 45
0.0
 46
0.0
 47
0.0
 48
0.0
 49
0.0
140
0.0
141
0.0
142
1.0
143
1.0
 70
  1712
 72
     0
 73
     0
 74
     0
  7

 75
     0
147
1.0
148
0.0
149
0.0
100
AcDbLayout
  1
Model
 70
     1
 71
     0
 10
-0.5
 20
-0.5
 11
5.0
 21
5.0
 12
0.0
 22
0.0
 32
0.0
 14
-0.5
 24
-0.5
 34
-0.5
 15
5.0
 25
5.0
 35
5.0
146
0.0
 13
0.0
 23
0.0
 33
0.0
 16
1.0
 26
0.0
 36
0.0
 17
0.0
 27
1.0
 37
0.0
 76
     0
330
1F
331
29
  0
LAYOUT
  5
1B4
102
{ACAD_REACTORS
330
1A
102
}
330
1A
100
AcDbPlotSettings
  1

  2
none_device
  4
ISO_B4_(354.00_x_250.00_MM)
  6

 40
7.5
 41
20.0
 42
7.5
 43
20.0
 44
354.0
 45
250.0
 46
35.333333
 47
0.0
 48
0.0
 49
0.0
140
13.0
141
10.5
142
1.0
143
1.088571
 70
   692
 72
     0
 73
     0
 74
     1
  7

 75
     0
147
0.918635
148
12.7
149
12.7
100
AcDbLayout
  1
SH1
 70
     1
 71
     2
 10
0.0
 20
0.0
 11
11.0
 21
8.5
 12
0.0
 22
0.0
 32
0.0
 14
0.0
 24
0.0
 34
0.0
 15
11.0
 25
8.5
 35
0.0
146
0.0
 13
0.0
 23
0.0
 33
0.0
 16
1.0
 26
0.0
 36
0.0
 17
0.0
 27
1.0
 37
0.0
 76
     0
330
53
331
56
  0
LAYOUT
  5
52
102
{ACAD_REACTORS
330
1A
102
}
330
1A
100
AcDbPlotSettings
  1

  2
none_device
  4
ISO_B4_(354.00_x_250.00_MM)
  6

 40
7.5
 41
20.0
 42
7.5
 43
20.0
 44
354.0
 45
250.0
 46
35.333333
 47
0.0
 48
0.0
 49
0.0
140
13.0
141
10.5
142
1.0
143
1.088571
 70
   692
 72
     0
 73
     0
 74
     1
  7

 75
     0
147
0.918635
148
12.7
149
12.7
100
AcDbLayout
  1
Sheet 1
 70
     1
 71
     1
 10
0.0
 20
0.0
 11
11.0
 21
8.5
 12
0.0
 22
0.0
 32
0.0
 14
0.0
 24
0.0
 34
0.0
 15
11.0
 25
8.5
 35
0.0
146
0.0
 13
0.0
 23
0.0
 33
0.0
 16
1.0
 26
0.0
 36
0.0
 17
0.0
 27
1.0
 37
0.0
 76
     0
330
4E
331
51
  0
MATERIAL
  5
3D
102
{ACAD_REACTORS
330
3B
102
}
102
{ACAD_XDICTIONARY
360
1EC
102
}
330
3B
100
AcDbMaterial
  1
BYBLOCK
  0
MATERIAL
  5
3C
102
{ACAD_REACTORS
330
3B
102
}
102
{ACAD_XDICTIONARY
360
1EA
102
}
330
3B
100
AcDbMaterial
  1
BYLAYER
  0
MATERIAL
  5
3E
102
{ACAD_REACTORS
330
3B
102
}
102
{ACAD_XDICTIONARY
360
1EE
102
}
330
3B
100
AcDbMaterial
  1
Global
  0
MLINESTYLE
  5
18
102
{ACAD_REACTORS
330
17
102
}
330
17
100
AcDbMlineStyle
  2
Standard
 70
     0
  3

 62
   256
 51
90.0
 52
90.0
 71
     2
 49
0.5
 62
   256
  6
BYLAYER
 49
-0.5
 62
   256
  6
BYLAYER
  0
ACDBPLACEHOLDER
  5
F
102
{ACAD_REACTORS
330
E
102
}
330
E
  0
VISUALSTYLE
  5
2F
102
{ACAD_REACTORS
330
2A
102
}
102
{ACAD_XDICTIONARY
360
1D2
102
}
330
2A
100
AcDbVisualStyle
  2
2dWireframe
 70
     4
 71
     0
 72
     2
 73
     0
 90
        0
 40
-0.6
 41
-30.0
 62
     5
 63
     7
 74
     1
 91
        4
 64
     7
 65
   257
 75
     1
175
     1
 42
1.0
 92
        0
 66
   257
 43
1.0
 76
     1
 77
     6
 78
     2
 67
     7
 79
     5
170
     0
171
     0
290
     0
174
     0
 93
        1
 44
0.0
173
     0
291
     0
 45
0.0
1001
ACAD
1000
AcDbSavedByObjectVersion
1070
     0
  0
VISUALSTYLE
  5
31
102
{ACAD_REACTORS
330
2A
102
}
102
{ACAD_XDICTIONARY
360
1D6
102
}
330
2A
100
AcDbVisualStyle
  2
3D Hidden
 70
     6
 71
     1
 72
     2
 73
     2
 90
        0
 40
-0.6
 41
-30.0
 62
     5
 63
     7
 74
     2
 91
        2
 64
     7
 65
   257
 75
     2
175
     1
 42
40.0
 92
        0
 66
   257
 43
1.0
 76
     1
 77
     6
 78
     2
 67
     7
 79
     3
170
     0
171
     0
290
     0
174
     0
 93
        1
 44
0.0
173
     0
291
     0
 45
0.0
1001
ACAD
1000
AcDbSavedByObjectVersion
1070
     0
  0
VISUALSTYLE
  5
30
102
{ACAD_REACTORS
330
2A
102
}
102
{ACAD_XDICTIONARY
360
1D4
102
}
330
2A
100
AcDbVisualStyle
  2
3dWireframe
 70
     5
 71
     0
 72
     2
 73
     0
 90
        0
 40
-0.6
 41
-30.0
 62
     5
 63
     7
 74
     1
 91
        4
 64
     7
 65
   257
 75
     1
175
     1
 42
1.0
 92
        0
 66
   257
 43
1.0
 76
     1
 77
     6
 78
     2
 67
     7
 79
     5
170
     0
171
     0
290
     0
174
     0
 93
        1
 44
0.0
173
     0
291
     0
 45
0.0
1001
ACAD
1000
AcDbSavedByObjectVersion
1070
     0
  0
VISUALSTYLE
  5
32
102
{ACAD_REACTORS
330
2A
102
}
102
{ACAD_XDICTIONARY
360
1D8
102
}
330
2A
100
AcDbVisualStyle
  2
Basic
 70
     7
 71
     1
 72
     0
 73
     1
 90
        0
 40
-0.6
 41
-30.0
 62
     5
 63
     7
 74
     0
 91
        4
 64
     7
 65
   257
 75
     1
175
     1
 42
1.0
 92
        8
 66
     7
 43
1.0
 76
     1
 77
     6
 78
     2
 67
     7
 79
     5
170
     0
171
     0
290
     0
174
     0
 93
        1
 44
0.0
173
     0
291
     1
 45
0.0
1001
ACAD
1000
AcDbSavedByObjectVersion
1070
     0
  0
VISUALSTYLE
  5
36
102
{ACAD_REACTORS
330
2A
102
}
102
{ACAD_XDICTIONARY
360
1E0
102
}
330
2A
100
AcDbVisualStyle
  2
Brighten
 70
    12
 71
     2
 72
     2
 73
     0
 90
        0
 40
-0.6
 41
-30.0
 62
     5
 63
     7
 74
     1
 91
        4
 64
     7
 65
   257
 75
     1
175
     1
 42
1.0
 92
        8
 66
     7
 43
1.0
 76
     1
 77
     6
 78
     2
 67
     7
 79
     5
170
     0
171
     0
290
     0
174
     0
 93
        1
 44
50.0
173
     0
291
     1
 45
0.0
1001
ACAD
1000
AcDbSavedByObjectVersion
1070
     0
  0
VISUALSTYLE
  5
3A
102
{ACAD_REACTORS
330
2A
102
}
102
{ACAD_XDICTIONARY
360
1E8
102
}
330
2A
100
AcDbVisualStyle
  2
ColorChange
 70
    16
 71
     2
 72
     2
 73
     3
 90
        0
 40
-0.6
 41
-30.0
 62
     5
 63
     8
 74
     1
 91
        4
 64
     7
 65
   257
 75
     1
175
     1
 42
1.0
 92
        8
 66
     8
 43
1.0
 76
     1
 77
     6
 78
     2
 67
     7
 79
     5
170
     0
171
     0
290
     0
174
     0
 93
        1
 44
0.0
173
     0
291
     1
 45
0.0
1001
ACAD
1000
AcDbSavedByObjectVersion
1070
     0
  0
VISUALSTYLE
  5
34
102
{ACAD_REACTORS
330
2A
102
}
102
{ACAD_XDICTIONARY
360
1DC
102
}
330
2A
100
AcDbVisualStyle
  2
Conceptual
 70
     9
 71
     3
 72
     2
 73
     0
 90
        0
 40
-0.6
 41
-30.0
 62
     5
 63
     7
 74
     2
 91
        2
 64
     7
 65
   257
 75
     1
175
     1
 42
40.0
 92
        8
 66
     7
 43
1.0
 76
     1
 77
     6
 78
     2
 67
     7
 79
     3
170
     0
171
     0
290
     0
174
     0
 93
        1
 44
0.0
173
     0
291
     0
 45
0.0
1001
ACAD
1000
AcDbSavedByObjectVersion
1070
     0
  0
VISUALSTYLE
  5
35
102
{ACAD_REACTORS
330
2A
102
}
102
{ACAD_XDICTIONARY
360
1DE
102
}
330
2A
100
AcDbVisualStyle
  2
Dim
 70
    11
 71
     2
 72
     2
 73
     0
 90
        0
 40
-0.6
 41
-30.0
 62
     5
 63
     7
 74
     1
 91
        4
 64
     7
 65
   257
 75
     1
175
     1
 42
1.0
 92
        8
 66
     7
 43
1.0
 76
     1
 77
     6
 78
     2
 67
     7
 79
     5
170
     0
171
     0
290
     0
174
     0
 93
        1
 44
-50.0
173
     0
291
     1
 45
0.0
1001
ACAD
1000
AcDbSavedByObjectVersion
1070
     0
  0
VISUALSTYLE
  5
39
102
{ACAD_REACTORS
330
2A
102
}
102
{ACAD_XDICTIONARY
360
1E6
102
}
330
2A
100
AcDbVisualStyle
  2
Facepattern
 70
    15
 71
     2
 72
     2
 73
     0
 90
        0
 40
-0.6
 41
-30.0
 62
     5
 63
     7
 74
     1
 91
        4
 64
     7
 65
   257
 75
     1
175
     1
 42
1.0
 92
        8
 66
     7
 43
1.0
 76
     1
 77
     6
 78
     2
 67
     7
 79
     5
170
     0
171
     0
290
     0
174
     0
 93
        1
 44
0.0
173
     0
291
     1
 45
0.0
1001
ACAD
1000
AcDbSavedByObjectVersion
1070
     0
  0
VISUALSTYLE
  5
2B
102
{ACAD_REACTORS
330
2A
102
}
102
{ACAD_XDICTIONARY
360
1CA
102
}
330
2A
100
AcDbVisualStyle
  2
Flat
 70
     0
 71
     2
 72
     1
 73
     1
 90
        2
 40
-0.6
 41
30.0
 62
     5
 63
     7
 74
     0
 91
        4
 64
     7
 65
   257
 75
     1
175
     1
 42
1.0
 92
        8
 66
     7
 43
1.0
 76
     1
 77
     6
 78
     2
 67
     7
 79
     5
170
     0
171
     0
290
     0
174
     0
 93
       13
 44
0.0
173
     0
291
     1
 45
0.0
1001
ACAD
1000
AcDbSavedByObjectVersion
1070
     0
  0
VISUALSTYLE
  5
2C
102
{ACAD_REACTORS
330
2A
102
}
102
{ACAD_XDICTIONARY
360
1CC
102
}
330
2A
100
AcDbVisualStyle
  2
FlatWithEdges
 70
     1
 71
     2
 72
     1
 73
     1
 90
        2
 40
-0.6
 41
30.0
 62
     5
 63
     7
 74
     1
 91
        4
 64
     7
 65
   257
 75
     1
175
     1
 42
1.0
 92
        0
 66
   257
 43
1.0
 76
     1
 77
     6
 78
     2
 67
     7
 79
     5
170
     0
171
     0
290
     0
174
     0
 93
       13
 44
0.0
173
     0
291
     1
 45
0.0
1001
ACAD
1000
AcDbSavedByObjectVersion
1070
     0
  0
VISUALSTYLE
  5
2D
102
{ACAD_REACTORS
330
2A
102
}
102
{ACAD_XDICTIONARY
360
1CE
102
}
330
2A
100
AcDbVisualStyle
  2
Gouraud
 70
     2
 71
     2
 72
     2
 73
     1
 90
        2
 40
-0.6
 41
30.0
 62
     5
 63
     7
 74
     0
 91
        4
 64
     7
 65
   257
 75
     1
175
     1
 42
1.0
 92
        0
 66
     7
 43
1.0
 76
     1
 77
     6
 78
     2
 67
     7
 79
     5
170
     0
171
     0
290
     0
174
     0
 93
       13
 44
0.0
173
     0
291
     1
 45
0.0
1001
ACAD
1000
AcDbSavedByObjectVersion
1070
     0
  0
VISUALSTYLE
  5
2E
102
{ACAD_REACTORS
330
2A
102
}
102
{ACAD_XDICTIONARY
360
1D0
102
}
330
2A
100
AcDbVisualStyle
  2
GouraudWithEdges
 70
     3
 71
     2
 72
     2
 73
     1
 90
        2
 40
-0.6
 41
30.0
 62
     5
 63
     7
 74
     1
 91
        4
 64
     7
 65
   257
 75
     1
175
     1
 42
1.0
 92
        0
 66
   257
 43
1.0
 76
     1
 77
     6
 78
     2
 67
     7
 79
     5
170
     0
171
     0
290
     0
174
     0
 93
       13
 44
0.0
173
     0
291
     1
 45
0.0
1001
ACAD
1000
AcDbSavedByObjectVersion
1070
     0
  0
VISUALSTYLE
  5
38
102
{ACAD_REACTORS
330
2A
102
}
102
{ACAD_XDICTIONARY
360
1E4
102
}
330
2A
100
AcDbVisualStyle
  2
Linepattern
 70
    14
 71
     2
 72
     2
 73
     0
 90
        0
 40
-0.6
 41
-30.0
 62
     5
 63
     7
 74
     1
 91
        4
 64
     7
 65
   257
 75
     7
175
     7
 42
1.0
 92
        8
 66
     7
 43
1.0
 76
     1
 77
     6
 78
     2
 67
     7
 79
     5
170
     0
171
     0
290
     0
174
     0
 93
        1
 44
0.0
173
     0
291
     1
 45
0.0
1001
ACAD
1000
AcDbSavedByObjectVersion
1070
     0
  0
VISUALSTYLE
  5
33
102
{ACAD_REACTORS
330
2A
102
}
102
{ACAD_XDICTIONARY
360
1DA
102
}
330
2A
100
AcDbVisualStyle
  2
Realistic
 70
     8
 71
     2
 72
     2
 73
     0
 90
        0
 40
-0.6
 41
-30.0
 62
     5
 63
     7
 74
     1
 91
        0
 64
     7
 65
   257
 75
     1
175
     1
 42
1.0
 92
        8
 66
     8
 43
1.0
 76
     1
 77
     6
 78
     2
 67
     7
 79
     5
170
     0
171
     0
290
     0
174
     0
 93
       13
 44
0.0
173
     0
291
     0
 45
0.0
1001
ACAD
1000
AcDbSavedByObjectVersion
1070
     0
  0
VISUALSTYLE
  5
37
102
{ACAD_REACTORS
330
2A
102
}
102
{ACAD_XDICTIONARY
360
1E2
102
}
330
2A
100
AcDbVisualStyle
  2
Thicken
 70
    13
 71
     2
 72
     2
 73
     0
 90
        0
 40
-0.6
 41
-30.0
 62
     5
 63
     7
 74
     1
 91
        4
 64
     7
 65
   257
 75
     1
175
     1
 42
1.0
 92
       12
 66
     7
 43
1.0
 76
     1
 77
     6
 78
     2
 67
     7
 79
     5
170
     0
171
     0
290
     0
174
     0
 93
        1
 44
0.0
173
     0
291
     1
 45
0.0
1001
ACAD
1000
AcDbSavedByObjectVersion
1070
     0
  0
DICTIONARYVAR
  5
1C8
102
{ACAD_REACTORS
330
1C5
102
}
330
1C5
100
DictionaryVariables
280
     0
  1
2
  0
DICTIONARYVAR
  5
1C9
102
{ACAD_REACTORS
330
1C5
102
}
330
1C5
100
DictionaryVariables
280
     0
  1
1
  0
DICTIONARY
  5
1EC
330
3D
100
AcDbDictionary
280
     1
281
     1
  3
ACAD_XREC_ROUNDTRIP
360
1ED
  0
DICTIONARY
  5
1EA
330
3C
100
AcDbDictionary
280
     1
281
     1
  3
ACAD_XREC_ROUNDTRIP
360
1EB
  0
DICTIONARY
  5
1EE
330
3E
100
AcDbDictionary
280
     1
281
     1
  3
ACAD_XREC_ROUNDTRIP
360
1EF
  0
DICTIONARY
  5
1D2
330
2F
100
AcDbDictionary
280
     1
281
     1
  3
ACAD_XREC_ROUNDTRIP
360
1D3
  0
DICTIONARY
  5
1D6
330
31
100
AcDbDictionary
280
     1
281
     1
  3
ACAD_XREC_ROUNDTRIP
360
1D7
  0
DICTIONARY
  5
1D4
330
30
100
AcDbDictionary
280
     1
281
     1
  3
ACAD_XREC_ROUNDTRIP
360
1D5
  0
DICTIONARY
  5
1D8
330
32
100
AcDbDictionary
280
     1
281
     1
  3
ACAD_XREC_ROUNDTRIP
360
1D9
  0
DICTIONARY
  5
1E0
330
36
100
AcDbDictionary
280
     1
281
     1
  3
ACAD_XREC_ROUNDTRIP
360
1E1
  0
DICTIONARY
  5
1E8
330
3A
100
AcDbDictionary
280
     1
281
     1
  3
ACAD_XREC_ROUNDTRIP
360
1E9
  0
DICTIONARY
  5
1DC
330
34
100
AcDbDictionary
280
     1
281
     1
  3
ACAD_XREC_ROUNDTRIP
360
1DD
  0
DICTIONARY
  5
1DE
330
35
100
AcDbDictionary
280
     1
281
     1
  3
ACAD_XREC_ROUNDTRIP
360
1DF
  0
DICTIONARY
  5
1E6
330
39
100
AcDbDictionary
280
     1
281
     1
  3
ACAD_XREC_ROUNDTRIP
360
1E7
  0
DICTIONARY
  5
1CA
330
2B
100
AcDbDictionary
280
     1
281
     1
  3
ACAD_XREC_ROUNDTRIP
360
1CB
  0
DICTIONARY
  5
1CC
330
2C
100
AcDbDictionary
280
     1
281
     1
  3
ACAD_XREC_ROUNDTRIP
360
1CD
  0
DICTIONARY
  5
1CE
330
2D
100
AcDbDictionary
280
     1
281
     1
  3
ACAD_XREC_ROUNDTRIP
360
1CF
  0
DICTIONARY
  5
1D0
330
2E
100
AcDbDictionary
280
     1
281
     1
  3
ACAD_XREC_ROUNDTRIP
360
1D1
  0
DICTIONARY
  5
1E4
330
38
100
AcDbDictionary
280
     1
281
     1
  3
ACAD_XREC_ROUNDTRIP
360
1E5
  0
DICTIONARY
  5
1DA
330
33
100
AcDbDictionary
280
     1
281
     1
  3
ACAD_XREC_ROUNDTRIP
360
1DB
  0
DICTIONARY
  5
1E2
330
37
100
AcDbDictionary
280
     1
281
     1
  3
ACAD_XREC_ROUNDTRIP
360
1E3
  0
XRECORD
  5
1ED
102
{ACAD_REACTORS
330
1EC
102
}
330
1EC
100
AcDbXrecord
280
     1
102
MATERIAL
148
0.0
149
0.0
149
0.0
 93
        0
 94
      127
282
     0
 72
     1
 77
     1
171
     1
175
     1
179
     1
273
     0
  0
XRECORD
  5
1EB
102
{ACAD_REACTORS
330
1EA
102
}
330
1EA
100
AcDbXrecord
280
     1
102
MATERIAL
148
0.0
149
0.0
149
0.0
 93
        0
 94
      127
282
     0
 72
     1
 77
     1
171
     1
175
     1
179
     1
273
     0
  0
XRECORD
  5
1EF
102
{ACAD_REACTORS
330
1EE
102
}
330
1EE
100
AcDbXrecord
280
     1
102
MATERIAL
148
0.0
149
0.0
149
0.0
 93
        0
 94
      127
282
     0
 72
     1
 77
     1
171
     1
175
     1
179
     1
273
     0
  0
XRECORD
  5
1D3
102
{ACAD_REACTORS
330
1D2
102
}
330
1D2
100
AcDbXrecord
280
     1
102
RTVSPropertyOp0
 70
     1
102
RTVSPropertyOp1
 70
     1
102
RTVSPropertyOp2
 70
     1
102
RTVSPropertyOp3
 70
     1
102
RTVSPropertyOp4
 70
     1
102
RTVSPropertyOp5
 70
     1
102
RTVSPropertyOp6
 70
     1
102
RTVSPropertyOp7
 70
     1
102
RTVSPropertyOp8
 70
     1
102
RTVSPropertyOp9
 70
     1
102
RTVSPropertyOp10
 70
     1
102
RTVSPropertyOp11
 70
     1
102
RTVSPropertyOp12
 70
     1
102
RTVSPropertyOp13
 70
     1
102
RTVSPropertyOp14
 70
     1
102
RTVSPropertyOp15
 70
     1
102
RTVSPropertyOp16
 70
     1
102
RTVSPropertyOp17
 70
     1
102
RTVSPropertyOp18
 70
     1
102
RTVSPropertyOp19
 70
     1
102
RTVSPropertyOp20
 70
     1
102
RTVSPropertyOp21
 70
     1
102
RTVSPropertyOp22
 70
     1
102
RTVSPropertyOp23
 70
     1
102
RTVSPropertyOp24
 70
     1
102
RTVSPropertyOp25
 70
     1
102
RTVSPropertyOp26
 70
     1
102
RTVSPropertyOp27
 70
     1
  0
XRECORD
  5
1D7
102
{ACAD_REACTORS
330
1D6
102
}
330
1D6
100
AcDbXrecord
280
     1
102
RTVSPropertyOp0
 70
     1
102
RTVSPropertyOp1
 70
     1
102
RTVSPropertyOp2
 70
     1
102
RTVSPropertyOp3
 70
     1
102
RTVSPropertyOp4
 70
     1
102
RTVSPropertyOp5
 70
     1
102
RTVSPropertyOp6
 70
     1
102
RTVSPropertyOp7
 70
     1
102
RTVSPropertyOp8
 70
     1
102
RTVSPropertyOp9
 70
     1
102
RTVSPropertyOp10
 70
     1
102
RTVSPropertyOp11
 70
     1
102
RTVSPropertyOp12
 70
     1
102
RTVSPropertyOp13
 70
     1
102
RTVSPropertyOp14
 70
     1
102
RTVSPropertyOp15
 70
     1
102
RTVSPropertyOp16
 70
     1
102
RTVSPropertyOp17
 70
     1
102
RTVSPropertyOp18
 70
     1
102
RTVSPropertyOp19
 70
     1
102
RTVSPropertyOp20
 70
     1
102
RTVSPropertyOp21
 70
     1
102
RTVSPropertyOp22
 70
     1
102
RTVSPropertyOp23
 70
     1
102
RTVSPropertyOp24
 70
     1
102
RTVSPropertyOp25
 70
     1
102
RTVSPropertyOp26
 70
     1
102
RTVSPropertyOp27
 70
     1
  0
XRECORD
  5
1D5
102
{ACAD_REACTORS
330
1D4
102
}
330
1D4
100
AcDbXrecord
280
     1
102
RTVSPropertyOp0
 70
     1
102
RTVSPropertyOp1
 70
     1
102
RTVSPropertyOp2
 70
     1
102
RTVSPropertyOp3
 70
     1
102
RTVSPropertyOp4
 70
     1
102
RTVSPropertyOp5
 70
     1
102
RTVSPropertyOp6
 70
     1
102
RTVSPropertyOp7
 70
     1
102
RTVSPropertyOp8
 70
     1
102
RTVSPropertyOp9
 70
     1
102
RTVSPropertyOp10
 70
     1
102
RTVSPropertyOp11
 70
     1
102
RTVSPropertyOp12
 70
     1
102
RTVSPropertyOp13
 70
     1
102
RTVSPropertyOp14
 70
     1
102
RTVSPropertyOp15
 70
     1
102
RTVSPropertyOp16
 70
     1
102
RTVSPropertyOp17
 70
     1
102
RTVSPropertyOp18
 70
     1
102
RTVSPropertyOp19
 70
     1
102
RTVSPropertyOp20
 70
     1
102
RTVSPropertyOp21
 70
     1
102
RTVSPropertyOp22
 70
     1
102
RTVSPropertyOp23
 70
     1
102
RTVSPropertyOp24
 70
     1
102
RTVSPropertyOp25
 70
     1
102
RTVSPropertyOp26
 70
     1
102
RTVSPropertyOp27
 70
     1
  0
XRECORD
  5
1D9
102
{ACAD_REACTORS
330
1D8
102
}
330
1D8
100
AcDbXrecord
280
     1
102
RTVSPropertyOp0
 70
     1
102
RTVSPropertyOp1
 70
     1
102
RTVSPropertyOp2
 70
     1
102
RTVSPropertyOp3
 70
     1
102
RTVSPropertyOp4
 70
     1
102
RTVSPropertyOp5
 70
     1
102
RTVSPropertyOp6
 70
     1
102
RTVSPropertyOp7
 70
     1
102
RTVSPropertyOp8
 70
     1
102
RTVSPropertyOp9
 70
     1
102
RTVSPropertyOp10
 70
     1
102
RTVSPropertyOp11
 70
     1
102
RTVSPropertyOp12
 70
     1
102
RTVSPropertyOp13
 70
     1
102
RTVSPropertyOp14
 70
     1
102
RTVSPropertyOp15
 70
     1
102
RTVSPropertyOp16
 70
     1
102
RTVSPropertyOp17
 70
     1
102
RTVSPropertyOp18
 70
     1
102
RTVSPropertyOp19
 70
     1
102
RTVSPropertyOp20
 70
     1
102
RTVSPropertyOp21
 70
     1
102
RTVSPropertyOp22
 70
     1
102
RTVSPropertyOp23
 70
     1
102
RTVSPropertyOp24
 70
     1
102
RTVSPropertyOp25
 70
     1
102
RTVSPropertyOp26
 70
     1
102
RTVSPropertyOp27
 70
     1
  0
XRECORD
  5
1E1
102
{ACAD_REACTORS
330
1E0
102
}
330
1E0
100
AcDbXrecord
280
     1
102
RTVSPropertyOp0
 70
     1
102
RTVSPropertyOp1
 70
     1
102
RTVSPropertyOp2
 70
     1
102
RTVSPropertyOp3
 70
     1
102
RTVSPropertyOp4
 70
     1
102
RTVSPropertyOp5
 70
     1
102
RTVSPropertyOp6
 70
     1
102
RTVSPropertyOp7
 70
     1
102
RTVSPropertyOp8
 70
     1
102
RTVSPropertyOp9
 70
     1
102
RTVSPropertyOp10
 70
     1
102
RTVSPropertyOp11
 70
     1
102
RTVSPropertyOp12
 70
     1
102
RTVSPropertyOp13
 70
     1
102
RTVSPropertyOp14
 70
     1
102
RTVSPropertyOp15
 70
     1
102
RTVSPropertyOp16
 70
     1
102
RTVSPropertyOp17
 70
     1
102
RTVSPropertyOp18
 70
     1
102
RTVSPropertyOp19
 70
     1
102
RTVSPropertyOp20
 70
     1
102
RTVSPropertyOp21
 70
     1
102
RTVSPropertyOp22
 70
     1
102
RTVSPropertyOp23
 70
     1
102
RTVSPropertyOp24
 70
     1
102
RTVSPropertyOp25
 70
     1
102
RTVSPropertyOp26
 70
     1
102
RTVSPropertyOp27
 70
     1
  0
XRECORD
  5
1E9
102
{ACAD_REACTORS
330
1E8
102
}
330
1E8
100
AcDbXrecord
280
     1
102
RTVSPropertyOp0
 70
     1
102
RTVSPropertyOp1
 70
     1
102
RTVSPropertyOp2
 70
     1
102
RTVSPropertyOp3
 70
     1
102
RTVSPropertyOp4
 70
     1
102
RTVSPropertyOp5
 70
     1
102
RTVSPropertyOp6
 70
     1
102
RTVSPropertyOp7
 70
     1
102
RTVSPropertyOp8
 70
     1
102
RTVSPropertyOp9
 70
     1
102
RTVSPropertyOp10
 70
     1
102
RTVSPropertyOp11
 70
     1
102
RTVSPropertyOp12
 70
     1
102
RTVSPropertyOp13
 70
     1
102
RTVSPropertyOp14
 70
     1
102
RTVSPropertyOp15
 70
     1
102
RTVSPropertyOp16
 70
     1
102
RTVSPropertyOp17
 70
     1
102
RTVSPropertyOp18
 70
     1
102
RTVSPropertyOp19
 70
     1
102
RTVSPropertyOp20
 70
     1
102
RTVSPropertyOp21
 70
     1
102
RTVSPropertyOp22
 70
     1
102
RTVSPropertyOp23
 70
     1
102
RTVSPropertyOp24
 70
     1
102
RTVSPropertyOp25
 70
     1
102
RTVSPropertyOp26
 70
     1
102
RTVSPropertyOp27
 70
     1
  0
XRECORD
  5
1DD
102
{ACAD_REACTORS
330
1DC
102
}
330
1DC
100
AcDbXrecord
280
     1
102
RTVSPropertyOp0
 70
     1
102
RTVSPropertyOp1
 70
     1
102
RTVSPropertyOp2
 70
     1
102
RTVSPropertyOp3
 70
     1
102
RTVSPropertyOp4
 70
     1
102
RTVSPropertyOp5
 70
     1
102
RTVSPropertyOp6
 70
     1
102
RTVSPropertyOp7
 70
     1
102
RTVSPropertyOp8
 70
     1
102
RTVSPropertyOp9
 70
     1
102
RTVSPropertyOp10
 70
     1
102
RTVSPropertyOp11
 70
     1
102
RTVSPropertyOp12
 70
     1
102
RTVSPropertyOp13
 70
     1
102
RTVSPropertyOp14
 70
     1
102
RTVSPropertyOp15
 70
     1
102
RTVSPropertyOp16
 70
     1
102
RTVSPropertyOp17
 70
     1
102
RTVSPropertyOp18
 70
     1
102
RTVSPropertyOp19
 70
     1
102
RTVSPropertyOp20
 70
     1
102
RTVSPropertyOp21
 70
     1
102
RTVSPropertyOp22
 70
     1
102
RTVSPropertyOp23
 70
     1
102
RTVSPropertyOp24
 70
     1
102
RTVSPropertyOp25
 70
     1
102
RTVSPropertyOp26
 70
     1
102
RTVSPropertyOp27
 70
     1
  0
XRECORD
  5
1DF
102
{ACAD_REACTORS
330
1DE
102
}
330
1DE
100
AcDbXrecord
280
     1
102
RTVSPropertyOp0
 70
     1
102
RTVSPropertyOp1
 70
     1
102
RTVSPropertyOp2
 70
     1
102
RTVSPropertyOp3
 70
     1
102
RTVSPropertyOp4
 70
     1
102
RTVSPropertyOp5
 70
     1
102
RTVSPropertyOp6
 70
     1
102
RTVSPropertyOp7
 70
     1
102
RTVSPropertyOp8
 70
     1
102
RTVSPropertyOp9
 70
     1
102
RTVSPropertyOp10
 70
     1
102
RTVSPropertyOp11
 70
     1
102
RTVSPropertyOp12
 70
     1
102
RTVSPropertyOp13
 70
     1
102
RTVSPropertyOp14
 70
     1
102
RTVSPropertyOp15
 70
     1
102
RTVSPropertyOp16
 70
     1
102
RTVSPropertyOp17
 70
     1
102
RTVSPropertyOp18
 70
     1
102
RTVSPropertyOp19
 70
     1
102
RTVSPropertyOp20
 70
     1
102
RTVSPropertyOp21
 70
     1
102
RTVSPropertyOp22
 70
     1
102
RTVSPropertyOp23
 70
     1
102
RTVSPropertyOp24
 70
     1
102
RTVSPropertyOp25
 70
     1
102
RTVSPropertyOp26
 70
     1
102
RTVSPropertyOp27
 70
     1
  0
XRECORD
  5
1E7
102
{ACAD_REACTORS
330
1E6
102
}
330
1E6
100
AcDbXrecord
280
     1
102
RTVSPropertyOp0
 70
     1
102
RTVSPropertyOp1
 70
     1
102
RTVSPropertyOp2
 70
     1
102
RTVSPropertyOp3
 70
     1
102
RTVSPropertyOp4
 70
     1
102
RTVSPropertyOp5
 70
     1
102
RTVSPropertyOp6
 70
     1
102
RTVSPropertyOp7
 70
     1
102
RTVSPropertyOp8
 70
     1
102
RTVSPropertyOp9
 70
     1
102
RTVSPropertyOp10
 70
     1
102
RTVSPropertyOp11
 70
     1
102
RTVSPropertyOp12
 70
     1
102
RTVSPropertyOp13
 70
     1
102
RTVSPropertyOp14
 70
     1
102
RTVSPropertyOp15
 70
     1
102
RTVSPropertyOp16
 70
     1
102
RTVSPropertyOp17
 70
     1
102
RTVSPropertyOp18
 70
     1
102
RTVSPropertyOp19
 70
     1
102
RTVSPropertyOp20
 70
     1
102
RTVSPropertyOp21
 70
     1
102
RTVSPropertyOp22
 70
     1
102
RTVSPropertyOp23
 70
     1
102
RTVSPropertyOp24
 70
     1
102
RTVSPropertyOp25
 70
     1
102
RTVSPropertyOp26
 70
     1
102
RTVSPropertyOp27
 70
     1
  0
XRECORD
  5
1CB
102
{ACAD_REACTORS
330
1CA
102
}
330
1CA
100
AcDbXrecord
280
     1
102
RTVSPropertyOp0
 70
     1
102
RTVSPropertyOp1
 70
     1
102
RTVSPropertyOp2
 70
     1
102
RTVSPropertyOp3
 70
     1
102
RTVSPropertyOp4
 70
     1
102
RTVSPropertyOp5
 70
     1
102
RTVSPropertyOp6
 70
     1
102
RTVSPropertyOp7
 70
     1
102
RTVSPropertyOp8
 70
     1
102
RTVSPropertyOp9
 70
     1
102
RTVSPropertyOp10
 70
     1
102
RTVSPropertyOp11
 70
     1
102
RTVSPropertyOp12
 70
     1
102
RTVSPropertyOp13
 70
     1
102
RTVSPropertyOp14
 70
     1
102
RTVSPropertyOp15
 70
     1
102
RTVSPropertyOp16
 70
     1
102
RTVSPropertyOp17
 70
     1
102
RTVSPropertyOp18
 70
     1
102
RTVSPropertyOp19
 70
     1
102
RTVSPropertyOp20
 70
     1
102
RTVSPropertyOp21
 70
     1
102
RTVSPropertyOp22
 70
     1
102
RTVSPropertyOp23
 70
     1
102
RTVSPropertyOp24
 70
     1
102
RTVSPropertyOp25
 70
     1
102
RTVSPropertyOp26
 70
     1
102
RTVSPropertyOp27
 70
     1
  0
XRECORD
  5
1CD
102
{ACAD_REACTORS
330
1CC
102
}
330
1CC
100
AcDbXrecord
280
     1
102
RTVSPropertyOp0
 70
     1
102
RTVSPropertyOp1
 70
     1
102
RTVSPropertyOp2
 70
     1
102
RTVSPropertyOp3
 70
     1
102
RTVSPropertyOp4
 70
     1
102
RTVSPropertyOp5
 70
     1
102
RTVSPropertyOp6
 70
     1
102
RTVSPropertyOp7
 70
     1
102
RTVSPropertyOp8
 70
     1
102
RTVSPropertyOp9
 70
     1
102
RTVSPropertyOp10
 70
     1
102
RTVSPropertyOp11
 70
     1
102
RTVSPropertyOp12
 70
     1
102
RTVSPropertyOp13
 70
     1
102
RTVSPropertyOp14
 70
     1
102
RTVSPropertyOp15
 70
     1
102
RTVSPropertyOp16
 70
     1
102
RTVSPropertyOp17
 70
     1
102
RTVSPropertyOp18
 70
     1
102
RTVSPropertyOp19
 70
     1
102
RTVSPropertyOp20
 70
     1
102
RTVSPropertyOp21
 70
     1
102
RTVSPropertyOp22
 70
     1
102
RTVSPropertyOp23
 70
     1
102
RTVSPropertyOp24
 70
     1
102
RTVSPropertyOp25
 70
     1
102
RTVSPropertyOp26
 70
     1
102
RTVSPropertyOp27
 70
     1
  0
XRECORD
  5
1CF
102
{ACAD_REACTORS
330
1CE
102
}
330
1CE
100
AcDbXrecord
280
     1
102
RTVSPropertyOp0
 70
     1
102
RTVSPropertyOp1
 70
     1
102
RTVSPropertyOp2
 70
     1
102
RTVSPropertyOp3
 70
     1
102
RTVSPropertyOp4
 70
     1
102
RTVSPropertyOp5
 70
     1
102
RTVSPropertyOp6
 70
     1
102
RTVSPropertyOp7
 70
     1
102
RTVSPropertyOp8
 70
     1
102
RTVSPropertyOp9
 70
     1
102
RTVSPropertyOp10
 70
     1
102
RTVSPropertyOp11
 70
     1
102
RTVSPropertyOp12
 70
     1
102
RTVSPropertyOp13
 70
     1
102
RTVSPropertyOp14
 70
     1
102
RTVSPropertyOp15
 70
     1
102
RTVSPropertyOp16
 70
     1
102
RTVSPropertyOp17
 70
     1
102
RTVSPropertyOp18
 70
     1
102
RTVSPropertyOp19
 70
     1
102
RTVSPropertyOp20
 70
     1
102
RTVSPropertyOp21
 70
     1
102
RTVSPropertyOp22
 70
     1
102
RTVSPropertyOp23
 70
     1
102
RTVSPropertyOp24
 70
     1
102
RTVSPropertyOp25
 70
     1
102
RTVSPropertyOp26
 70
     1
102
RTVSPropertyOp27
 70
     1
  0
XRECORD
  5
1D1
102
{ACAD_REACTORS
330
1D0
102
}
330
1D0
100
AcDbXrecord
280
     1
102
RTVSPropertyOp0
 70
     1
102
RTVSPropertyOp1
 70
     1
102
RTVSPropertyOp2
 70
     1
102
RTVSPropertyOp3
 70
     1
102
RTVSPropertyOp4
 70
     1
102
RTVSPropertyOp5
 70
     1
102
RTVSPropertyOp6
 70
     1
102
RTVSPropertyOp7
 70
     1
102
RTVSPropertyOp8
 70
     1
102
RTVSPropertyOp9
 70
     1
102
RTVSPropertyOp10
 70
     1
102
RTVSPropertyOp11
 70
     1
102
RTVSPropertyOp12
 70
     1
102
RTVSPropertyOp13
 70
     1
102
RTVSPropertyOp14
 70
     1
102
RTVSPropertyOp15
 70
     1
102
RTVSPropertyOp16
 70
     1
102
RTVSPropertyOp17
 70
     1
102
RTVSPropertyOp18
 70
     1
102
RTVSPropertyOp19
 70
     1
102
RTVSPropertyOp20
 70
     1
102
RTVSPropertyOp21
 70
     1
102
RTVSPropertyOp22
 70
     1
102
RTVSPropertyOp23
 70
     1
102
RTVSPropertyOp24
 70
     1
102
RTVSPropertyOp25
 70
     1
102
RTVSPropertyOp26
 70
     1
102
RTVSPropertyOp27
 70
     1
  0
XRECORD
  5
1E5
102
{ACAD_REACTORS
330
1E4
102
}
330
1E4
100
AcDbXrecord
280
     1
102
RTVSPropertyOp0
 70
     1
102
RTVSPropertyOp1
 70
     1
102
RTVSPropertyOp2
 70
     1
102
RTVSPropertyOp3
 70
     1
102
RTVSPropertyOp4
 70
     1
102
RTVSPropertyOp5
 70
     1
102
RTVSPropertyOp6
 70
     1
102
RTVSPropertyOp7
 70
     1
102
RTVSPropertyOp8
 70
     1
102
RTVSPropertyOp9
 70
     1
102
RTVSPropertyOp10
 70
     1
102
RTVSPropertyOp11
 70
     1
102
RTVSPropertyOp12
 70
     1
102
RTVSPropertyOp13
 70
     1
102
RTVSPropertyOp14
 70
     1
102
RTVSPropertyOp15
 70
     1
102
RTVSPropertyOp16
 70
     1
102
RTVSPropertyOp17
 70
     1
102
RTVSPropertyOp18
 70
     1
102
RTVSPropertyOp19
 70
     1
102
RTVSPropertyOp20
 70
     1
102
RTVSPropertyOp21
 70
     1
102
RTVSPropertyOp22
 70
     1
102
RTVSPropertyOp23
 70
     1
102
RTVSPropertyOp24
 70
     1
102
RTVSPropertyOp25
 70
     1
102
RTVSPropertyOp26
 70
     1
102
RTVSPropertyOp27
 70
     1
  0
XRECORD
  5
1DB
102
{ACAD_REACTORS
330
1DA
102
}
330
1DA
100
AcDbXrecord
280
     1
102
RTVSPropertyOp0
 70
     1
102
RTVSPropertyOp1
 70
     1
102
RTVSPropertyOp2
 70
     1
102
RTVSPropertyOp3
 70
     1
102
RTVSPropertyOp4
 70
     1
102
RTVSPropertyOp5
 70
     1
102
RTVSPropertyOp6
 70
     1
102
RTVSPropertyOp7
 70
     1
102
RTVSPropertyOp8
 70
     1
102
RTVSPropertyOp9
 70
     1
102
RTVSPropertyOp10
 70
     1
102
RTVSPropertyOp11
 70
     1
102
RTVSPropertyOp12
 70
     1
102
RTVSPropertyOp13
 70
     1
102
RTVSPropertyOp14
 70
     1
102
RTVSPropertyOp15
 70
     1
102
RTVSPropertyOp16
 70
     1
102
RTVSPropertyOp17
 70
     1
102
RTVSPropertyOp18
 70
     1
102
RTVSPropertyOp19
 70
     1
102
RTVSPropertyOp20
 70
     1
102
RTVSPropertyOp21
 70
     1
102
RTVSPropertyOp22
 70
     1
102
RTVSPropertyOp23
 70
     1
102
RTVSPropertyOp24
 70
     1
102
RTVSPropertyOp25
 70
     1
102
RTVSPropertyOp26
 70
     1
102
RTVSPropertyOp27
 70
     1
  0
XRECORD
  5
1E3
102
{ACAD_REACTORS
330
1E2
102
}
330
1E2
100
AcDbXrecord
280
     1
102
RTVSPropertyOp0
 70
     1
102
RTVSPropertyOp1
 70
     1
102
RTVSPropertyOp2
 70
     1
102
RTVSPropertyOp3
 70
     1
102
RTVSPropertyOp4
 70
     1
102
RTVSPropertyOp5
 70
     1
102
RTVSPropertyOp6
 70
     1
102
RTVSPropertyOp7
 70
     1
102
RTVSPropertyOp8
 70
     1
102
RTVSPropertyOp9
 70
     1
102
RTVSPropertyOp10
 70
     1
102
RTVSPropertyOp11
 70
     1
102
RTVSPropertyOp12
 70
     1
102
RTVSPropertyOp13
 70
     1
102
RTVSPropertyOp14
 70
     1
102
RTVSPropertyOp15
 70
     1
102
RTVSPropertyOp16
 70
     1
102
RTVSPropertyOp17
 70
     1
102
RTVSPropertyOp18
 70
     1
102
RTVSPropertyOp19
 70
     1
102
RTVSPropertyOp20
 70
     1
102
RTVSPropertyOp21
 70
     1
102
RTVSPropertyOp22
 70
     1
102
RTVSPropertyOp23
 70
     1
102
RTVSPropertyOp24
 70
     1
102
RTVSPropertyOp25
 70
     1
102
RTVSPropertyOp26
 70
     1
102
RTVSPropertyOp27
 70
     1
  0
ENDSEC
  0
EOF
