999
DXF file: C:\Users\sesa63760\Dev\_Creo\CAD\MCADID0000202_3D-CAD\drw0001_1.dxf
999
Pro/ENGINEER 2019471 by Parametric Technology Corporation
  0
SECTION
  2
HEADER
  9
$ACADVER
  1
AC1024
  9
$DWGCODEPAGE
  3
ANSI_1252
  9
$EXTMAX
 10
212.806306553
 20
300.9689192678
 30
0.0
  9
$EXTMIN
 10
0.0
 20
0.0
 30
0.0
  9
$LIMMIN
 10
0.0
 20
0.0
  9
$LIMMAX
 10
212.806306553
 20
300.9689192678
  9
$VIEWCTR
 10
106.4031532765
 20
150.4844596339
  9
$VIEWSIZE
 40
300.9689192678
  9
$CLAYER
  8
0
  9
$LTSCALE
 40
19.6187147375
  9
$CELTYPE
  6
BYLAYER
  9
$DIMSCALE
 40
1.0
  9
$DIMASZ
 40
2.5334084113
  9
$DIMEXO
 40
1.0
  9
$DIMDLI
 40
13.5547483641
  9
$DIMEXE
 40
1.0
  9
$DIMCEN
 40
3.2103351389
  9
$DIMLFAC
 40
1.0
  9
$DIMBLK
  1
_FILLED
  9
$DIMALT
 70
0
  9
$DIMALTF
 40
0.0393700787
  9
$DIMTXT
 40
3.5467717759
  9
$DIMTOL
 70
1
  9
$DIMLIM
 70
0
  9
$DIMTFAC
 40
1.0
  9
$DIMTP
 40
0.01
  9
$DIMTM
 40
0.01
  9
$DIMGAP
 40
0.625
  9
$DIMDSEP
 70
46
  9
$AUNITS
 70
0
  9
$PDMODE
 70
3
  9
$PDSIZE
 40
0.3125
  9
$HANDSEED
  5
383
  9
$TILEMODE
 70
1
  9
$MEASUREMENT
 70
1
  9
$INSUNITS
 70
4
  0
ENDSEC
  0
SECTION
  2
CLASSES
  0
CLASS
  1
ACDBDICTIONARYWDFLT
  2
AcDbDictionaryWithDefault
  3
AutoCAD 2000
 90
0
 91
1
280
0
281
0
  0
CLASS
  1
ACDBPLACEHOLDER
  2
AcDbPlaceHolder
  3
AutoCAD 2000
 90
0
 91
1
280
0
281
0
  0
CLASS
  1
LAYOUT
  2
AcDbLayout
  3
AutoCAD 2000
 90
0
 91
0
280
0
281
0
  0
ENDSEC
  0
SECTION
  2
TABLES
  0
TABLE
  2
VPORT
  5
8
100
AcDbSymbolTable
 70
2
  0
VPORT
  5
1F4
100
AcDbSymbolTableRecord
100
AcDbViewportTableRecord
  2
*ACTIVE
 70
0
 10
0.0
 20
0.0
 11
1.0
 21
1.0
 12
106.4031532765
 22
150.4844596339
 13
0.0
 23
0.0
 14
1.0
 24
1.0
 15
0.0
 25
0.0
 16
0.0
 26
0.0
 36
1.0
 17
0.0
 27
0.0
 37
0.0
 40
300.9689192678
 41
0.7070707071
 42
50.0
 43
0.0
 44
0.0
 50
0.0
 51
0.0
 71
0
 72
100
 73
1
 74
1
 75
0
 76
0
 77
0
 78
0
  0
ENDTAB
  0
TABLE
  2
LTYPE
  5
5
100
AcDbSymbolTable
 70
6
  0
LTYPE
  5
14
100
AcDbSymbolTableRecord
100
AcDbLinetypeTableRecord
  2
BYBLOCK
 70
0
  3

 72
65
 73
0
 40
0.0
  0
LTYPE
  5
15
100
AcDbSymbolTableRecord
100
AcDbLinetypeTableRecord
  2
BYLAYER
 70
0
  3

 72
65
 73
0
 40
0.0
  0
LTYPE
  5
16
100
AcDbSymbolTableRecord
100
AcDbLinetypeTableRecord
  2
CONTINUOUS
 70
64
  3
Solid line
 72
65
 73
0
 40
0.0
  0
LTYPE
  5
1F5
100
AcDbSymbolTableRecord
100
AcDbLinetypeTableRecord
  2
CENTER
 70
64
  3
____ _ ____ _ ____ _ ____ _ ____ _ ____ _ ____
 72
65
 73
4
 40
0.6
 49
0.375
 74
0
 49
-0.075
 74
0
 49
0.075
 74
0
 49
-0.075
 74
0
  0
LTYPE
  5
1F6
100
AcDbSymbolTableRecord
100
AcDbLinetypeTableRecord
  2
HIDDEN
 70
64
  3
- - - - - - - - - - - - - - - - - - - -
 72
65
 73
2
 40
0.2
 49
0.1
 74
0
 49
-0.1
 74
0
  0
LTYPE
  5
1F7
100
AcDbSymbolTableRecord
100
AcDbLinetypeTableRecord
  2
PHANTOM
 70
64
  3
_____ _ _ _____ _ _ _____ _ _ _____
 72
65
 73
6
 40
0.8
 49
0.45
 74
0
 49
-0.05
 74
0
 49
0.1
 74
0
 49
-0.05
 74
0
 49
0.1
 74
0
 49
-0.05
 74
0
  0
LTYPE
  5
1F8
100
AcDbSymbolTableRecord
100
AcDbLinetypeTableRecord
  2
DOT
 70
64
  3
. . . . . . . . . . . . . . . . . . . .
 72
65
 73
2
 40
0.2
 49
0.1
 74
0
 49
-0.1
 74
0
  0
LTYPE
  5
1F9
100
AcDbSymbolTableRecord
100
AcDbLinetypeTableRecord
  2
DASHED
 70
64
  3
- - - - - - - - - - - - - - - - - - - -
 72
65
 73
2
 40
0.2
 49
0.1
 74
0
 49
-0.1
 74
0
  0
ENDTAB
  0
TABLE
  2
LAYER
  5
2
100
AcDbSymbolTable
 70
36
  0
LAYER
  5
10
100
AcDbSymbolTableRecord
100
AcDbLayerTableRecord
  2
0
 70
0
 62
7
  6
CONTINUOUS
370
-3
390
F
  0
LAYER
  5
1FA
100
AcDbSymbolTableRecord
100
AcDbLayerTableRecord
  2
DEFAULT_1
 70
0
 62
7
  6
CENTER
370
-3
390
F
  0
LAYER
  5
1FB
100
AcDbSymbolTableRecord
100
AcDbLayerTableRecord
  2
DEFAULT_2
 70
0
 62
8
  6
HIDDEN
370
-3
390
F
  0
LAYER
  5
1FC
100
AcDbSymbolTableRecord
100
AcDbLayerTableRecord
  2
DEFAULT_3
 70
0
 62
7
  6
PHANTOM
370
-3
390
F
  0
LAYER
  5
1FD
100
AcDbSymbolTableRecord
100
AcDbLayerTableRecord
  2
00_COMPONENTS
 70
0
 62
7
  6
CONTINUOUS
370
-3
390
F
  0
LAYER
  5
1FE
100
AcDbSymbolTableRecord
100
AcDbLayerTableRecord
  2
01_1_DEFAULT_DATUMS
 70
0
 62
7
  6
CONTINUOUS
370
-3
390
F
  0
LAYER
  5
1FF
100
AcDbSymbolTableRecord
100
AcDbLayerTableRecord
  2
01_PLANES
 70
0
 62
7
  6
CONTINUOUS
370
-3
390
F
  0
LAYER
  5
200
100
AcDbSymbolTableRecord
100
AcDbLayerTableRecord
  2
02_COORD_SYS
 70
0
 62
7
  6
CONTINUOUS
370
-3
390
F
  0
LAYER
  5
201
100
AcDbSymbolTableRecord
100
AcDbLayerTableRecord
  2
03_AXES
 70
0
 62
7
  6
CONTINUOUS
370
-3
390
F
  0
LAYER
  5
202
100
AcDbSymbolTableRecord
100
AcDbLayerTableRecord
  2
04_POINTS
 70
0
 62
7
  6
CONTINUOUS
370
-3
390
F
  0
LAYER
  5
203
100
AcDbSymbolTableRecord
100
AcDbLayerTableRecord
  2
05_CURVES
 70
0
 62
7
  6
CONTINUOUS
370
-3
390
F
  0
LAYER
  5
204
100
AcDbSymbolTableRecord
100
AcDbLayerTableRecord
  2
06_SURFS
 70
0
 62
7
  6
CONTINUOUS
370
-3
390
F
  0
LAYER
  5
205
100
AcDbSymbolTableRecord
100
AcDbLayerTableRecord
  2
07_COSMETICS
 70
0
 62
7
  6
CONTINUOUS
370
-3
390
F
  0
LAYER
  5
206
100
AcDbSymbolTableRecord
100
AcDbLayerTableRecord
  2
10_NOTES
 70
0
 62
7
  6
CONTINUOUS
370
-3
390
F
  0
LAYER
  5
207
100
AcDbSymbolTableRecord
100
AcDbLayerTableRecord
  2
11_NOTES_PUB
 70
0
 62
7
  6
CONTINUOUS
370
-3
390
F
  0
LAYER
  5
208
100
AcDbSymbolTableRecord
100
AcDbLayerTableRecord
  2
13_REF_GTOL
 70
0
 62
7
  6
CONTINUOUS
370
-3
390
F
  0
LAYER
  5
209
100
AcDbSymbolTableRecord
100
AcDbLayerTableRecord
  2
16_MISC
 70
0
 62
7
  6
CONTINUOUS
370
-3
390
F
  0
LAYER
  5
20A
100
AcDbSymbolTableRecord
100
AcDbLayerTableRecord
  2
17_NO_PRINT
 70
0
 62
7
  6
CONTINUOUS
370
-3
390
F
  0
LAYER
  5
20B
100
AcDbSymbolTableRecord
100
AcDbLayerTableRecord
  2
18_DATUM_CAMS_JOINTS
 70
0
 62
7
  6
CONTINUOUS
370
-3
390
F
  0
LAYER
  5
20C
100
AcDbSymbolTableRecord
100
AcDbLayerTableRecord
  2
19_DATUM_FUNCTIONAL
 70
0
 62
7
  6
CONTINUOUS
370
-3
390
F
  0
LAYER
  5
20D
100
AcDbSymbolTableRecord
100
AcDbLayerTableRecord
  2
20_DATUM_KINEMATIC_SCHEME
 70
0
 62
7
  6
CONTINUOUS
370
-3
390
F
  0
ENDTAB
  0
TABLE
  2
STYLE
  5
3
100
AcDbSymbolTable
 70
1
  0
STYLE
  5
11
100
AcDbSymbolTableRecord
100
AcDbTextStyleTableRecord
  2
STANDARD
 70
0
 40
0.0
 41
0.8
 50
0.0
 71
0
 42
0.2
  3
txt
  4

  0
STYLE
  5
20E
100
AcDbSymbolTableRecord
100
AcDbTextStyleTableRecord
  2
TEXTSTYLE_1
 70
0
 40
0.0
 41
0.8
 50
0.0
 71
0
 42
0.2
  3
gdt
  4

  0
ENDTAB
  0
TABLE
  2
VIEW
  5
6
100
AcDbSymbolTable
 70
0
  0
ENDTAB
  0
TABLE
  2
UCS
  5
7
100
AcDbSymbolTable
 70
0
  0
ENDTAB
  0
TABLE
  2
APPID
  5
9
100
AcDbSymbolTable
 70
1
  0
APPID
  5
20F
100
AcDbSymbolTableRecord
100
AcDbRegAppTableRecord
  2
ACAD
 70
0
  0
ENDTAB
  0
TABLE
  2
BLOCK_RECORD
  5
1
100
AcDbSymbolTable
 70
0
  0
BLOCK_RECORD
  5
210
100
AcDbSymbolTableRecord
100
AcDbBlockTableRecord
  2
*Model_Space
  0
BLOCK_RECORD
  5
211
100
AcDbSymbolTableRecord
100
AcDbBlockTableRecord
  2
*Paper_Space
  0
BLOCK_RECORD
  5
212
100
AcDbSymbolTableRecord
100
AcDbBlockTableRecord
  2
_FILLED
  0
ENDTAB
  0
TABLE
  2
DIMSTYLE
  5
A
100
AcDbSymbolTable
 70
1
100
AcDbDimStyleTable
 71
0
  0
DIMSTYLE
105
213
100
AcDbSymbolTableRecord
100
AcDbDimStyleTableRecord
  2
STANDARD
 70
0
  3

  4

 40
1.0
 41
2.5334084113
 42
1.0
 43
0.38
 44
1.0
 45
0.0
 46
0.0
 47
0.01
 48
0.01
140
3.5467717759
141
0.09
142
0.0
143
25.4
144
1.0
145
0.0
146
1.0
147
0.625
 71
1
 72
0
 73
0
 74
0
 75
0
 76
0
 77
1
 78
8
 79
2
170
0
171
1
172
0
173
0
174
0
175
0
176
0
177
0
178
0
270
2
179
2
271
2
272
2
273
2
274
2
275
0
280
0
281
0
282
0
283
1
284
8
285
0
286
0
287
3
288
0
340
11
278
46
341
212
342
212
343
212
344
212
  0
ENDTAB
  0
ENDSEC
  0
SECTION
  2
BLOCKS
  0
BLOCK
  5
20
100
AcDbEntity
  8
0
100
AcDbBlockBegin
  2
*Model_Space
 70
0
 10
0.0
 20
0.0
 30
0.0
  3
*Model_Space
  1

  0
ENDBLK
  5
21
100
AcDbEntity
  8
0
100
AcDbBlockEnd
  0
BLOCK
  5
1C
100
AcDbEntity
  8
0
100
AcDbBlockBegin
  2
*Paper_Space
 70
0
 10
0.0
 20
0.0
 30
0.0
  3
*Paper_Space
  1

  0
ENDBLK
  5
1D
100
AcDbEntity
  8
0
100
AcDbBlockEnd
  0
BLOCK
  5
214
100
AcDbEntity
  8
0
100
AcDbBlockBegin
  2
_FILLED
 70
64
 10
0.0
 20
0.0
  3
_FILLED
  1

  0
SOLID
  5
215
100
AcDbEntity
  8
0
  6
BYBLOCK
 62
0
100
AcDbTrace
 10
0.0
 20
0.0
 11
-1.0
 21
0.25
 12
-1.0
 22
-0.25
 13
-1.0
 23
-0.25
  0
ENDBLK
  5
216
100
AcDbEntity
  8
0
  6
BYBLOCK
 62
0
100
AcDbBlockEnd
  0
ENDSEC
  0
SECTION
  2
ENTITIES
  0
LINE
  5
217
100
AcDbEntity
  8
0
100
AcDbLine
 62
7
  6
CONTINUOUS
 10
24.6879799549
 20
140.0357023711
 11
24.6879799549
 21
119.4368976735
  0
LINE
  5
218
100
AcDbEntity
  8
0
100
AcDbLine
 62
7
  6
CONTINUOUS
 10
24.7107467607
 20
140.2116647265
 11
24.6879799549
 21
140.0357023711
  0
LINE
  5
219
100
AcDbEntity
  8
0
100
AcDbLine
 62
7
  6
CONTINUOUS
 10
35.2946258327
 20
164.2619246663
 11
35.2946258334
 21
136.2817320045
  0
LWPOLYLINE
  5
21A
100
AcDbEntity
  8
0
100
AcDbPolyline
 62
7
  6
CONTINUOUS
 90
3
 70
0
 10
28.3379287159
 20
151.256102589
 10
27.0823633462
 20
147.2033610206
 10
24.7114967515
 20
140.2109760393
  0
LINE
  5
21B
100
AcDbEntity
  8
0
100
AcDbLine
 62
7
  6
CONTINUOUS
 10
81.8921543023
 20
84.8841714815
 11
48.72971061
 21
104.0300841358
  0
LINE
  5
21C
100
AcDbEntity
  8
0
100
AcDbLine
 62
7
  6
CONTINUOUS
 10
25.553357406
 20
118.1114383003
 11
48.7297106106
 21
104.0300841355
  0
LINE
  5
21D
100
AcDbEntity
  8
0
100
AcDbLine
 62
7
  6
CONTINUOUS
 10
119.279610737
 20
91.6901048236
 11
81.8921543023
 21
84.8841714815
  0
LINE
  5
21E
100
AcDbEntity
  8
0
100
AcDbLine
 62
7
  6
CONTINUOUS
 10
126.3710327961
 20
216.1241249818
 11
126.2465253495
 21
216.0690479967
  0
LINE
  5
21F
100
AcDbEntity
  8
0
100
AcDbLine
 62
7
  6
CONTINUOUS
 10
35.2946258327
 20
164.2619246663
 11
116.60920578
 21
211.2086390538
  0
LINE
  5
220
100
AcDbEntity
  8
0
100
AcDbLine
 62
7
  6
CONTINUOUS
 10
32.4390178763
 20
155.8616943617
 11
35.2946258329
 21
157.5103705429
  0
LINE
  5
221
100
AcDbEntity
  8
0
100
AcDbLine
 62
7
  6
CONTINUOUS
 10
116.8202412226
 20
211.329031502
 11
116.6092057815
 21
211.2086390547
  0
LINE
  5
222
100
AcDbEntity
  8
0
100
AcDbLine
 62
7
  6
CONTINUOUS
 10
35.2946258326
 20
136.2817309848
 11
25.478412859
 21
140.437686609
  0
LINE
  5
223
100
AcDbEntity
  8
0
100
AcDbLine
 62
7
  6
CONTINUOUS
 10
121.8451789161
 20
89.0882861988
 11
123.7538557909
 21
87.9863360208
  0
LINE
  5
224
100
AcDbEntity
  8
0
100
AcDbLine
 62
7
  6
CONTINUOUS
 10
121.1375368552
 20
91.2930936106
 11
121.8451789161
 21
90.8845455188
  0
LINE
  5
225
100
AcDbEntity
  8
0
100
AcDbLine
 62
7
  6
CONTINUOUS
 10
121.1375368552
 20
91.4995534859
 11
120.0435414025
 21
92.1311577662
  0
LINE
  5
226
100
AcDbEntity
  8
0
100
AcDbLine
 62
7
  6
CONTINUOUS
 10
123.7538557909
 20
91.492370831
 11
121.8451789161
 21
92.6712848761
  0
LINE
  5
227
100
AcDbEntity
  8
0
100
AcDbLine
 62
7
  6
CONTINUOUS
 10
141.3603132849
 20
210.2561244388
 11
48.7297106106
 21
156.7761402821
  0
LINE
  5
228
100
AcDbEntity
  8
0
100
AcDbLine
 62
7
  6
CONTINUOUS
 10
151.9371007885
 20
115.1253521958
 11
151.4384156597
 21
115.0759718804
  0
LINE
  5
229
100
AcDbEntity
  8
0
100
AcDbLine
 62
7
  6
CONTINUOUS
 10
135.0848228603
 20
109.0187207166
 11
135.5808875948
 21
109.0136432772
  0
LINE
  5
22A
100
AcDbEntity
  8
0
100
AcDbLine
 62
7
  6
CONTINUOUS
 10
133.6425951691
 20
112.6995620526
 11
134.183969403
 21
112.6829487691
  0
LINE
  5
22B
100
AcDbEntity
  8
0
100
AcDbLine
 62
7
  6
CONTINUOUS
 10
136.413076884
 20
111.319419395
 11
135.8976122749
 21
111.3356014343
  0
LINE
  5
22C
100
AcDbEntity
  8
0
100
AcDbLine
 62
7
  6
CONTINUOUS
 10
122.6860631269
 20
94.0108911936
 11
121.1375368552
 21
94.9673544876
  0
LINE
  5
22D
100
AcDbEntity
  8
0
100
AcDbLine
 62
7
  6
CONTINUOUS
 10
128.6328375297
 20
99.2947425187
 11
129.1278143366
 21
98.9890149661
  0
LINE
  5
22E
100
AcDbEntity
  8
0
100
AcDbLine
 62
7
  6
CONTINUOUS
 10
81.892154303
 20
137.6302276276
 11
81.8921543022
 21
84.8841714815
  0
LINE
  5
22F
100
AcDbEntity
  8
0
100
AcDbLine
 62
7
  6
CONTINUOUS
 10
178.6556067661
 20
137.0668797225
 11
179.1539298249
 21
137.1161588893
  0
LINE
  5
230
100
AcDbEntity
  8
0
100
AcDbLine
 62
7
  6
CONTINUOUS
 10
135.084556449
 20
109.0182491967
 11
132.7893175816
 21
110.2672382946
  0
LINE
  5
231
100
AcDbEntity
  8
0
100
AcDbLine
 62
7
  6
CONTINUOUS
 10
48.7297106256
 20
156.7761402734
 11
35.2946258327
 21
164.2619246663
  0
LINE
  5
232
100
AcDbEntity
  8
0
100
AcDbLine
 62
7
  6
CONTINUOUS
 10
81.8921543029
 20
137.6302276277
 11
48.7297106256
 21
156.7761402734
  0
LINE
  5
233
100
AcDbEntity
  8
0
100
AcDbLine
 62
7
  6
CONTINUOUS
 10
135.0848228603
 20
135.636699515
 11
135.5808875948
 21
135.6316220756
  0
LINE
  5
234
100
AcDbEntity
  8
0
100
AcDbLine
 62
7
  6
CONTINUOUS
 10
136.4133089553
 20
111.3198150701
 11
134.184006526
 21
112.6830120124
  0
LINE
  5
235
100
AcDbEntity
  8
0
100
AcDbLine
 62
7
  6
CONTINUOUS
 10
81.8921543032
 20
137.6302276276
 11
119.2796107353
 21
144.4361609692
  0
LINE
  5
236
100
AcDbEntity
  8
0
100
AcDbLine
 62
7
  6
CONTINUOUS
 10
133.6425951699
 20
139.3175408505
 11
134.1839694039
 21
139.300927567
  0
LINE
  5
237
100
AcDbEntity
  8
0
100
AcDbLine
 62
7
  6
CONTINUOUS
 10
136.413076884
 20
137.9373981934
 11
135.8976122749
 21
137.9535802327
  0
LINE
  5
238
100
AcDbEntity
  8
0
100
AcDbLine
 62
7
  6
CONTINUOUS
 10
151.9378640293
 20
115.1257928504
 11
151.2322014203
 21
115.533198131
  0
LINE
  5
239
100
AcDbEntity
  8
0
100
AcDbLine
 62
7
  6
CONTINUOUS
 10
151.936901898
 20
149.2550823122
 11
151.4384171142
 21
149.2057721211
  0
LINE
  5
23A
100
AcDbEntity
  8
0
100
AcDbLine
 62
7
  6
CONTINUOUS
 10
121.8451789161
 20
138.2513436682
 11
123.753855791
 21
137.2263573572
  0
LINE
  5
23B
100
AcDbEntity
  8
0
100
AcDbLine
 62
7
  6
CONTINUOUS
 10
121.1375368552
 20
140.3648888801
 11
121.8451789161
 21
139.9848751465
  0
LINE
  5
23C
100
AcDbEntity
  8
0
100
AcDbLine
 62
7
  6
CONTINUOUS
 10
135.084556449
 20
135.6362279951
 11
132.7893175825
 21
136.8852170926
  0
LINE
  5
23D
100
AcDbEntity
  8
0
100
AcDbLine
 62
7
  6
CONTINUOUS
 10
151.9314782291
 20
122.6257593101
 11
151.225039851
 21
123.033612471
  0
LINE
  5
23E
100
AcDbEntity
  8
0
100
AcDbLine
 62
7
  6
CONTINUOUS
 10
123.753855791
 20
140.7323921674
 11
121.8451789161
 21
141.8343423454
  0
LINE
  5
23F
100
AcDbEntity
  8
0
100
AcDbLine
 62
7
  6
CONTINUOUS
 10
155.0341401967
 20
124.0474304981
 11
152.9128110207
 21
125.2721527621
  0
LINE
  5
240
100
AcDbEntity
  8
0
100
AcDbLine
 62
7
  6
CONTINUOUS
 10
122.6860631269
 20
143.1451279228
 11
121.1375368552
 21
144.0391497571
  0
LINE
  5
241
100
AcDbEntity
  8
0
100
AcDbLine
 62
7
  6
CONTINUOUS
 10
121.3163389083
 20
144.1423805544
 11
120.0435414025
 21
144.8772139128
  0
LINE
  5
242
100
AcDbEntity
  8
0
100
AcDbLine
 62
7
  6
CONTINUOUS
 10
154.7047071819
 20
125.2768720895
 11
152.583378006
 21
126.5015943535
  0
LINE
  5
243
100
AcDbEntity
  8
0
100
AcDbLine
 62
7
  6
CONTINUOUS
 10
156.2876768458
 20
124.5329795059
 11
155.2104980153
 21
125.1548749246
  0
LINE
  5
244
100
AcDbEntity
  8
0
100
AcDbLine
 62
7
  6
CONTINUOUS
 10
156.2876768458
 20
125.022482287
 11
155.2147677304
 21
125.6419126402
  0
LINE
  5
245
100
AcDbEntity
  8
0
100
AcDbLine
 62
7
  6
CONTINUOUS
 10
156.3230261496
 20
127.3780738982
 11
155.6496033592
 21
127.7668659318
  0
LINE
  5
246
100
AcDbEntity
  8
0
100
AcDbLine
 62
7
  6
CONTINUOUS
 10
153.2275688736
 20
129.6496241226
 11
155.3488980494
 21
128.4249018587
  0
LINE
  5
247
100
AcDbEntity
  8
0
100
AcDbLine
 62
7
  6
CONTINUOUS
 10
156.3230261496
 20
128.6926427894
 11
155.9475485352
 21
128.9094199869
  0
LINE
  5
248
100
AcDbEntity
  8
0
100
AcDbLine
 62
7
  6
CONTINUOUS
 10
156.91860496
 20
129.7387045111
 11
156.6021180722
 21
129.9214241672
  0
LINE
  5
249
100
AcDbEntity
  8
0
100
AcDbLine
 62
7
  6
CONTINUOUS
 10
156.578315794
 20
130.2240191612
 11
155.2842997429
 21
130.9711027754
  0
LINE
  5
24A
100
AcDbEntity
  8
0
100
AcDbLine
 62
7
  6
CONTINUOUS
 10
136.4133089553
 20
137.9377938685
 11
134.1840065268
 21
139.3009908104
  0
LINE
  5
24B
100
AcDbEntity
  8
0
100
AcDbLine
 62
7
  6
CONTINUOUS
 10
119.2796107356
 20
144.4361609694
 11
119.2796107371
 21
91.6901048237
  0
LINE
  5
24C
100
AcDbEntity
  8
0
100
AcDbLine
 62
7
  6
CONTINUOUS
 10
120.0435414025
 20
144.8772139128
 11
120.0435414025
 21
92.1311577662
  0
LINE
  5
24D
100
AcDbEntity
  8
0
100
AcDbLine
 62
7
  6
CONTINUOUS
 10
121.1375368552
 20
94.9673544876
 11
121.1375368552
 21
91.2930936106
  0
LINE
  5
24E
100
AcDbEntity
  8
0
100
AcDbLine
 62
7
  6
CONTINUOUS
 10
121.1375368551
 20
140.3648888801
 11
121.1375368552
 21
144.0391497571
  0
LINE
  5
24F
100
AcDbEntity
  8
0
100
AcDbLine
 62
7
  6
CONTINUOUS
 10
121.3163389067
 20
95.0705852858
 11
121.3163389081
 21
140.2688696643
  0
LINE
  5
250
100
AcDbEntity
  8
0
100
AcDbLine
 62
7
  6
CONTINUOUS
 10
121.8451789161
 20
92.6712848761
 11
121.8451789161
 21
89.0882861988
  0
LINE
  5
251
100
AcDbEntity
  8
0
100
AcDbLine
 62
7
  6
CONTINUOUS
 10
121.8451789161
 20
138.2513436682
 11
121.8451789161
 21
141.8343423455
  0
LINE
  5
252
100
AcDbEntity
  8
0
100
AcDbLine
 62
7
  6
CONTINUOUS
 10
122.6860631269
 20
143.1451279228
 11
122.6860631269
 21
142.875464132
  0
LINE
  5
253
100
AcDbEntity
  8
0
100
AcDbLine
 62
7
  6
CONTINUOUS
 10
122.6860631269
 20
94.0108911936
 11
122.6860631269
 21
93.731810373
  0
LINE
  5
254
100
AcDbEntity
  8
0
100
AcDbLine
 62
7
  6
CONTINUOUS
 10
120.0435414025
 20
144.8772139128
 11
119.2796107356
 21
144.4361609694
  0
LINE
  5
255
100
AcDbEntity
  8
0
100
AcDbLine
 62
7
  6
CONTINUOUS
 10
121.1375368552
 20
144.0391497571
 11
121.3163389083
 21
144.1423805544
  0
LINE
  5
256
100
AcDbEntity
  8
0
100
AcDbLine
 62
7
  6
CONTINUOUS
 10
128.632837529
 20
148.3665377886
 11
188.5952429247
 21
182.9856420369
  0
LINE
  5
257
100
AcDbEntity
  8
0
100
AcDbLine
 62
7
  6
CONTINUOUS
 10
178.6552421885
 20
171.1965859916
 11
179.153927317
 21
171.2459663068
  0
LINE
  5
258
100
AcDbEntity
  8
0
100
AcDbLine
 62
7
  6
CONTINUOUS
 10
188.7403681029
 20
145.3246771473
 11
189.3586348079
 21
145.1975719667
  0
LINE
  5
259
100
AcDbEntity
  8
0
100
AcDbLine
 62
7
  6
CONTINUOUS
 10
128.6328375297
 20
148.3665377882
 11
129.1278143366
 21
148.0807692604
  0
LINE
  5
25A
100
AcDbEntity
  8
0
100
AcDbLine
 62
7
  6
CONTINUOUS
 10
151.9309399042
 20
141.8133139543
 11
151.2247960884
 21
142.2209970533
  0
LINE
  5
25B
100
AcDbEntity
  8
0
100
AcDbLine
 62
7
  6
CONTINUOUS
 10
123.753855791
 20
140.7323921674
 11
123.753855791
 21
137.2263573572
  0
LINE
  5
25C
100
AcDbEntity
  8
0
100
AcDbLine
 62
7
  6
CONTINUOUS
 10
123.7538557909
 20
91.492370831
 11
123.7538557909
 21
87.9863360208
  0
LINE
  5
25D
100
AcDbEntity
  8
0
100
AcDbLine
 62
7
  6
CONTINUOUS
 10
124.1781198598
 20
87.9863370406
 11
124.1781198598
 21
91.483817983
  0
LINE
  5
25E
100
AcDbEntity
  8
0
100
AcDbLine
 62
7
  6
CONTINUOUS
 10
124.1781198597
 20
137.2349122448
 11
124.1781198597
 21
140.7323931872
  0
LINE
  5
25F
100
AcDbEntity
  8
0
100
AcDbLine
 62
7
  6
CONTINUOUS
 10
126.2287209873
 20
92.6677260289
 11
126.2287209873
 21
89.1702450866
  0
LINE
  5
260
100
AcDbEntity
  8
0
100
AcDbLine
 62
7
  6
CONTINUOUS
 10
126.2287209876
 20
138.418820291
 11
126.2287209876
 21
141.9163012334
  0
LINE
  5
261
100
AcDbEntity
  8
0
100
AcDbLine
 62
7
  6
CONTINUOUS
 10
122.7739262348
 20
143.0226546723
 11
122.7458248397
 21
142.9494567465
  0
LINE
  5
262
100
AcDbEntity
  8
0
100
AcDbLine
 62
7
  6
CONTINUOUS
 10
122.7458248397
 20
142.9494567465
 11
121.8451789161
 21
141.8343423454
  0
LINE
  5
263
100
AcDbEntity
  8
0
100
AcDbLine
 62
7
  6
CONTINUOUS
 10
126.2287209877
 20
141.9163012334
 11
131.3034847373
 21
145.4080190168
  0
LINE
  5
264
100
AcDbEntity
  8
0
100
AcDbLine
 62
7
  6
CONTINUOUS
 10
131.3034931414
 20
141.8909243317
 11
126.2287209877
 21
138.4188202911
  0
LINE
  5
265
100
AcDbEntity
  8
0
100
AcDbLine
 62
7
  6
CONTINUOUS
 10
126.2287209876
 20
141.9163012334
 11
124.1781198597
 21
140.7323931872
  0
LINE
  5
266
100
AcDbEntity
  8
0
100
AcDbLine
 62
7
  6
CONTINUOUS
 10
188.9509329064
 20
178.0556314516
 11
188.5989461585
 21
177.852413021
  0
LINE
  5
267
100
AcDbEntity
  8
0
100
AcDbLine
 62
7
  6
CONTINUOUS
 10
188.740368103
 20
177.7707648704
 11
189.0923548508
 21
177.973983301
  0
LINE
  5
268
100
AcDbEntity
  8
0
100
AcDbLine
 62
7
  6
CONTINUOUS
 10
151.9371004211
 20
155.7709517286
 11
178.6552421885
 21
171.1965859916
  0
LINE
  5
269
100
AcDbEntity
  8
0
100
AcDbLine
 62
7
  6
CONTINUOUS
 10
174.7713317008
 20
166.7577016192
 11
151.2318287863
 21
153.167244399
  0
LINE
  5
26A
100
AcDbEntity
  8
0
100
AcDbLine
 62
7
  6
CONTINUOUS
 10
126.2287209877
 20
138.4188202911
 11
124.1780989938
 21
137.234900198
  0
LINE
  5
26B
100
AcDbEntity
  8
0
100
AcDbLine
 62
7
  6
CONTINUOUS
 10
152.073329732
 20
149.3256942649
 11
151.936901898
 21
149.2550823122
  0
LINE
  5
26C
100
AcDbEntity
  8
0
100
AcDbLine
 62
7
  6
CONTINUOUS
 10
155.6783310644
 20
143.6561489963
 11
153.5570018891
 21
144.8808712599
  0
LINE
  5
26D
100
AcDbEntity
  8
0
100
AcDbLine
 62
7
  6
CONTINUOUS
 10
174.9067752457
 20
132.7142087968
 11
178.6544567882
 21
130.5505327983
  0
LINE
  5
26E
100
AcDbEntity
  8
0
100
AcDbLine
 62
7
  6
CONTINUOUS
 10
155.3488980495
 20
144.1248156336
 11
153.2275688741
 21
145.3495378972
  0
LINE
  5
26F
100
AcDbEntity
  8
0
100
AcDbLine
 62
7
  6
CONTINUOUS
 10
156.91860496
 20
144.1340407957
 11
155.7330933713
 21
144.8184807465
  0
LINE
  5
270
100
AcDbEntity
  8
0
100
AcDbLine
 62
7
  6
CONTINUOUS
 10
156.91860496
 20
144.6235435768
 11
155.5779304167
 21
145.3975648746
  0
LINE
  5
271
100
AcDbEntity
  8
0
100
AcDbLine
 62
7
  6
CONTINUOUS
 10
179.3605141904
 20
131.7734412959
 11
175.6128326479
 21
133.9371172945
  0
LINE
  5
272
100
AcDbEntity
  8
0
100
AcDbLine
 62
7
  6
CONTINUOUS
 10
152.5833780068
 20
147.753724565
 11
154.704707182
 21
146.5290023014
  0
LINE
  5
273
100
AcDbEntity
  8
0
100
AcDbLine
 62
7
  6
CONTINUOUS
 10
156.3230261496
 20
146.614870846
 11
155.2113002131
 21
147.2567115943
  0
LINE
  5
274
100
AcDbEntity
  8
0
100
AcDbLine
 62
7
  6
CONTINUOUS
 10
151.2321143806
 20
149.6628508169
 11
151.9376950622
 21
149.255492836
  0
LINE
  5
275
100
AcDbEntity
  8
0
100
AcDbLine
 62
7
  6
CONTINUOUS
 10
151.2318287862
 20
149.8115240721
 11
152.0733297324
 21
149.3256942652
  0
LINE
  5
276
100
AcDbEntity
  8
0
100
AcDbLine
 62
7
  6
CONTINUOUS
 10
175.9946607883
 20
136.400246855
 11
173.9723042472
 21
137.5678285343
  0
LINE
  5
277
100
AcDbEntity
  8
0
100
AcDbLine
 62
7
  6
CONTINUOUS
 10
156.3230261496
 20
147.929439737
 11
155.5764478949
 21
148.3604671422
  0
LINE
  5
278
100
AcDbEntity
  8
0
100
AcDbLine
 62
7
  6
CONTINUOUS
 10
156.2876768458
 20
148.6112371164
 11
155.9655057367
 21
148.7972384851
  0
LINE
  5
279
100
AcDbEntity
  8
0
100
AcDbLine
 62
7
  6
CONTINUOUS
 10
131.3698791843
 20
96.321352461
 11
131.3734277839
 21
96.2937454442
  0
LINE
  5
27A
100
AcDbEntity
  8
0
100
AcDbLine
 62
7
  6
CONTINUOUS
 10
131.3034847372
 20
145.4080190167
 11
131.3034847372
 21
141.8909185816
  0
LINE
  5
27B
100
AcDbEntity
  8
0
100
AcDbLine
 62
7
  6
CONTINUOUS
 10
131.3034847371
 20
96.1790633052
 11
131.3034847371
 21
92.6619628701
  0
LINE
  5
27C
100
AcDbEntity
  8
0
100
AcDbLine
 62
7
  6
CONTINUOUS
 10
131.3735252622
 20
92.7741380509
 11
131.3735252622
 21
96.2937436582
  0
LINE
  5
27D
100
AcDbEntity
  8
0
100
AcDbLine
 62
7
  6
CONTINUOUS
 10
131.3736706014
 20
145.5193509525
 11
131.3736706014
 21
141.9997777227
  0
LINE
  5
27E
100
AcDbEntity
  8
0
100
AcDbLine
 62
7
  6
CONTINUOUS
 10
174.7713317011
 20
166.7577016195
 11
174.9077824799
 21
166.8446409507
  0
LINE
  5
27F
100
AcDbEntity
  8
0
100
AcDbLine
 62
7
  6
CONTINUOUS
 10
178.6554640235
 20
164.6809649514
 11
178.5190132447
 21
164.5940256202
  0
LINE
  5
280
100
AcDbEntity
  8
0
100
AcDbLine
 62
7
  6
CONTINUOUS
 10
187.6760079358
 20
170.8634407333
 11
187.8174287053
 21
170.9450895653
  0
LINE
  5
281
100
AcDbEntity
  8
0
100
AcDbLine
 62
7
  6
CONTINUOUS
 10
178.5190132447
 20
164.5940256202
 11
152.073329732
 21
149.3256942649
  0
LINE
  5
282
100
AcDbEntity
  8
0
100
AcDbLine
 62
7
  6
CONTINUOUS
 10
151.9311554517
 20
148.2638073783
 11
178.660475508
 21
163.6959539897
  0
LINE
  5
283
100
AcDbEntity
  8
0
100
AcDbLine
 62
7
  6
CONTINUOUS
 10
187.8174287007
 20
167.9999800197
 11
187.6760079396
 21
167.9183311926
  0
LINE
  5
284
100
AcDbEntity
  8
0
100
AcDbLine
 62
7
  6
CONTINUOUS
 10
176.348212708
 20
160.874903281
 11
155.9341249269
 21
149.0888945583
  0
LINE
  5
285
100
AcDbEntity
  8
0
100
AcDbLine
 62
7
  6
CONTINUOUS
 10
156.2876768458
 20
148.6112371163
 11
175.9946607884
 21
159.9890016844
  0
LINE
  5
286
100
AcDbEntity
  8
0
100
AcDbLine
 62
7
  6
CONTINUOUS
 10
174.5450920344
 20
158.4498915824
 11
156.3230261496
 21
147.929439737
  0
LINE
  5
287
100
AcDbEntity
  8
0
100
AcDbLine
 62
7
  6
CONTINUOUS
 10
156.2240535155
 20
146.6720114302
 11
155.3687599948
 21
146.1782104334
  0
LINE
  5
288
100
AcDbEntity
  8
0
100
AcDbLine
 62
7
  6
CONTINUOUS
 10
156.3230261496
 20
146.6148708459
 11
174.5450920344
 21
157.1353226911
  0
LINE
  5
289
100
AcDbEntity
  8
0
100
AcDbLine
 62
7
  6
CONTINUOUS
 10
177.5300275125
 20
157.8992471464
 11
177.1581148749
 21
157.6845245667
  0
LINE
  5
28A
100
AcDbEntity
  8
0
100
AcDbLine
 62
7
  6
CONTINUOUS
 10
154.2692090992
 20
144.4696875376
 11
151.2248051283
 21
142.7120105774
  0
LINE
  5
28B
100
AcDbEntity
  8
0
100
AcDbLine
 62
7
  6
CONTINUOUS
 10
188.5952429242
 20
144.4705604482
 11
188.718875446
 21
144.4159420384
  0
LINE
  5
28C
100
AcDbEntity
  8
0
100
AcDbLine
 62
7
  6
CONTINUOUS
 10
155.9341249265
 20
149.0888945581
 11
154.647180095
 21
149.8318956941
  0
LINE
  5
28D
100
AcDbEntity
  8
0
100
AcDbLine
 62
7
  6
CONTINUOUS
 10
174.5450920343
 20
139.2130946345
 11
173.9369549433
 21
139.5641948048
  0
LINE
  5
28E
100
AcDbEntity
  8
0
100
AcDbLine
 62
7
  6
CONTINUOUS
 10
178.6550834233
 20
137.0659732457
 11
179.3605141905
 21
136.6587018161
  0
LINE
  5
28F
100
AcDbEntity
  8
0
100
AcDbLine
 62
7
  6
CONTINUOUS
 10
177.0871430723
 20
138.1855094654
 11
174.9658138963
 21
139.4102317293
  0
LINE
  5
290
100
AcDbEntity
  8
0
100
AcDbLine
 62
7
  6
CONTINUOUS
 10
177.5298114417
 20
138.7113157139
 11
178.6611870019
 21
138.0581305066
  0
LINE
  5
291
100
AcDbEntity
  8
0
100
AcDbLine
 62
7
  6
CONTINUOUS
 10
175.7485351568
 20
140.9487680531
 11
176.456214958
 21
140.5401981724
  0
LINE
  5
292
100
AcDbEntity
  8
0
100
AcDbLine
 62
7
  6
CONTINUOUS
 10
174.4100057884
 20
142.0132683963
 11
175.7040218395
 21
141.2661847821
  0
LINE
  5
293
100
AcDbEntity
  8
0
100
AcDbLine
 62
7
  6
CONTINUOUS
 10
179.367537848
 20
139.2813232352
 11
178.2361622878
 21
139.9345084425
  0
LINE
  5
294
100
AcDbEntity
  8
0
100
AcDbLine
 62
7
  6
CONTINUOUS
 10
176.6040065697
 20
141.3553349751
 11
174.9372018421
 21
142.317643363
  0
LINE
  5
295
100
AcDbEntity
  8
0
100
AcDbLine
 62
7
  6
CONTINUOUS
 10
188.5989461569
 20
135.3770910058
 11
188.7403681027
 21
135.2954428544
  0
LINE
  5
296
100
AcDbEntity
  8
0
100
AcDbLine
 62
7
  6
CONTINUOUS
 10
151.4384156597
 20
115.0759718804
 11
151.2318287851
 21
115.5325526932
  0
LINE
  5
297
100
AcDbEntity
  8
0
100
AcDbLine
 62
7
  6
CONTINUOUS
 10
131.3736312286
 20
145.5193509178
 11
131.3698791843
 21
145.546800365
  0
LINE
  5
298
100
AcDbEntity
  8
0
100
AcDbLine
 62
7
  6
CONTINUOUS
 10
122.7739118251
 20
93.8804609365
 11
122.7458248397
 21
93.8071820108
  0
LINE
  5
299
100
AcDbEntity
  8
0
100
AcDbLine
 62
7
  6
CONTINUOUS
 10
178.6614030706
 20
157.2460619379
 11
176.7377589486
 21
156.1354521157
  0
LINE
  5
29A
100
AcDbEntity
  8
0
100
AcDbLine
 62
7
  6
CONTINUOUS
 10
155.4005846594
 20
143.8165023303
 11
151.9309399063
 21
141.8133139555
  0
LINE
  5
29B
100
AcDbEntity
  8
0
100
AcDbLine
 62
7
  6
CONTINUOUS
 10
175.3637326741
 20
155.2727794604
 11
156.91860496
 21
144.6235435767
  0
LINE
  5
29C
100
AcDbEntity
  8
0
100
AcDbLine
 62
7
  6
CONTINUOUS
 10
156.5783157945
 20
143.7452991891
 11
175.7040218403
 21
154.7874648103
  0
LINE
  5
29D
100
AcDbEntity
  8
0
100
AcDbLine
 62
7
  6
CONTINUOUS
 10
189.0923548508
 20
162.1166400833
 11
188.7403681032
 21
161.9134216529
  0
LINE
  5
29E
100
AcDbEntity
  8
0
100
AcDbLine
 62
7
  6
CONTINUOUS
 10
178.6613940332
 20
144.4677834502
 11
179.3675378482
 21
144.0601003516
  0
LINE
  5
29F
100
AcDbEntity
  8
0
100
AcDbLine
 62
7
  6
CONTINUOUS
 10
187.6760079357
 20
141.3003523932
 11
186.4622130301
 21
142.0011213553
  0
LINE
  5
2A0
100
AcDbEntity
  8
0
100
AcDbLine
 62
7
  6
CONTINUOUS
 10
186.4622130301
 20
142.1644176574
 11
187.8174287034
 21
141.3820012242
  0
LINE
  5
2A1
100
AcDbEntity
  8
0
100
AcDbLine
 62
7
  6
CONTINUOUS
 10
188.5989461572
 20
141.2051999307
 11
188.7403681028
 21
141.1235517795
  0
LINE
  5
2A2
100
AcDbEntity
  8
0
100
AcDbLine
 62
7
  6
CONTINUOUS
 10
188.7403681029
 20
145.3246771473
 11
188.5989461574
 21
145.4063252985
  0
LINE
  5
2A3
100
AcDbEntity
  8
0
100
AcDbLine
 62
7
  6
CONTINUOUS
 10
153.5571461609
 20
144.8811210107
 11
153.2275688741
 21
145.3495378974
  0
LINE
  5
2A4
100
AcDbEntity
  8
0
100
AcDbLine
 62
7
  6
CONTINUOUS
 10
155.3488980494
 20
144.1248156337
 11
155.6784753363
 21
143.656398747
  0
LINE
  5
2A5
100
AcDbEntity
  8
0
100
AcDbLine
 62
7
  6
CONTINUOUS
 10
156.1189908644
 20
144.0550422959
 11
155.8261226752
 21
144.4712858025
  0
LINE
  5
2A6
100
AcDbEntity
  8
0
100
AcDbLine
 62
7
  6
CONTINUOUS
 10
151.2248051277
 20
123.033205909
 11
151.2248051278
 21
127.8119830304
  0
LINE
  5
2A7
100
AcDbEntity
  8
0
100
AcDbLine
 62
7
  6
CONTINUOUS
 10
151.2248051283
 20
142.2210127112
 11
151.2248051285
 21
147.0406149541
  0
LINE
  5
2A8
100
AcDbEntity
  8
0
100
AcDbLine
 62
7
  6
CONTINUOUS
 10
151.2318287851
 20
115.5325526932
 11
151.2318287852
 21
120.419575589
  0
LINE
  5
2A9
100
AcDbEntity
  8
0
100
AcDbLine
 62
7
  6
CONTINUOUS
 10
151.2318287862
 20
149.6623561416
 11
151.2318287863
 21
154.5493787622
  0
LINE
  5
2AA
100
AcDbEntity
  8
0
100
AcDbLine
 62
7
  6
CONTINUOUS
 10
188.9509329055
 20
151.437652654
 11
188.5989461576
 21
151.2344342234
  0
LINE
  5
2AB
100
AcDbEntity
  8
0
100
AcDbLine
 62
7
  6
CONTINUOUS
 10
188.740368103
 20
151.1527860723
 11
189.0923548508
 21
151.3560045029
  0
LINE
  5
2AC
100
AcDbEntity
  8
0
100
AcDbLine
 62
7
  6
CONTINUOUS
 10
151.9309399
 20
129.035051124
 11
178.6614030761
 21
144.4677991132
  0
LINE
  5
2AD
100
AcDbEntity
  8
0
100
AcDbLine
 62
7
  6
CONTINUOUS
 10
175.7040218411
 20
141.2661847831
 11
156.578315793
 21
130.2240191606
  0
LINE
  5
2AE
100
AcDbEntity
  8
0
100
AcDbLine
 62
7
  6
CONTINUOUS
 10
156.91860496
 20
129.738704511
 11
175.3637326741
 21
140.3879403946
  0
LINE
  5
2AF
100
AcDbEntity
  8
0
100
AcDbLine
 62
7
  6
CONTINUOUS
 10
174.5450920343
 20
139.2130946345
 11
156.3230261496
 21
128.6926427894
  0
LINE
  5
2B0
100
AcDbEntity
  8
0
100
AcDbLine
 62
7
  6
CONTINUOUS
 10
188.7403681029
 20
171.9426559456
 11
189.3586348081
 21
171.815550765
  0
LINE
  5
2B1
100
AcDbEntity
  8
0
100
AcDbLine
 62
7
  6
CONTINUOUS
 10
175.3637326741
 20
155.2727794603
 11
173.3413761329
 21
156.4403611397
  0
LINE
  5
2B2
100
AcDbEntity
  8
0
100
AcDbLine
 62
7
  6
CONTINUOUS
 10
176.4562149581
 20
156.3820040342
 11
174.5450920344
 21
157.4853664073
  0
LINE
  5
2B3
100
AcDbEntity
  8
0
100
AcDbLine
 62
7
  6
CONTINUOUS
 10
174.5450920344
 20
158.4498915824
 11
173.9369549437
 21
158.8009917525
  0
LINE
  5
2B4
100
AcDbEntity
  8
0
100
AcDbLine
 62
7
  6
CONTINUOUS
 10
188.5989461576
 20
151.2344342234
 11
188.740368103
 21
151.1527860723
  0
LINE
  5
2B5
100
AcDbEntity
  8
0
100
AcDbLine
 62
7
  6
CONTINUOUS
 10
177.5300275125
 20
157.8992471464
 11
178.6614030727
 21
157.2460619391
  0
LINE
  5
2B6
100
AcDbEntity
  8
0
100
AcDbLine
 62
7
  6
CONTINUOUS
 10
188.9509329056
 20
151.4376526539
 11
189.0923548508
 21
151.3560045029
  0
LINE
  5
2B7
100
AcDbEntity
  8
0
100
AcDbLine
 62
7
  6
CONTINUOUS
 10
175.9946607884
 20
160.0959520969
 11
177.0871430722
 21
159.4652214252
  0
LINE
  5
2B8
100
AcDbEntity
  8
0
100
AcDbLine
 62
7
  6
CONTINUOUS
 10
179.3675378486
 20
158.4691300374
 11
178.2361622884
 21
159.1223152447
  0
LINE
  5
2B9
100
AcDbEntity
  8
0
100
AcDbLine
 62
7
  6
CONTINUOUS
 10
175.0612678754
 20
161.6179044164
 11
176.348212707
 21
160.8749032804
  0
LINE
  5
2BA
100
AcDbEntity
  8
0
100
AcDbLine
 62
7
  6
CONTINUOUS
 10
177.2481974375
 20
160.9640534733
 11
175.5884639293
 21
161.9222793831
  0
LINE
  5
2BB
100
AcDbEntity
  8
0
100
AcDbLine
 62
7
  6
CONTINUOUS
 10
151.4384171142
 20
149.2057721211
 11
151.2318287862
 21
149.6623561416
  0
LINE
  5
2BC
100
AcDbEntity
  8
0
100
AcDbLine
 62
7
  6
CONTINUOUS
 10
153.2275688741
 20
145.3495378974
 11
152.5833780077
 21
147.7537245614
  0
LINE
  5
2BD
100
AcDbEntity
  8
0
100
AcDbLine
 62
7
  6
CONTINUOUS
 10
156.2876768458
 20
149.1007398974
 11
156.2876768458
 21
148.6112371163
  0
LINE
  5
2BE
100
AcDbEntity
  8
0
100
AcDbLine
 62
7
  6
CONTINUOUS
 10
156.2876768458
 20
125.0224822869
 11
156.2876768458
 21
124.5329795059
  0
LINE
  5
2BF
100
AcDbEntity
  8
0
100
AcDbLine
 62
7
  6
CONTINUOUS
 10
156.3230261496
 20
147.929439737
 11
156.3230261496
 21
146.6148708459
  0
LINE
  5
2C0
100
AcDbEntity
  8
0
100
AcDbLine
 62
7
  6
CONTINUOUS
 10
156.3230261496
 20
128.6926427894
 11
156.3230261496
 21
127.378073898
  0
LINE
  5
2C1
100
AcDbEntity
  8
0
100
AcDbLine
 62
7
  6
CONTINUOUS
 10
156.91860496
 20
144.6235435767
 11
156.91860496
 21
144.1340407957
  0
LINE
  5
2C2
100
AcDbEntity
  8
0
100
AcDbLine
 62
7
  6
CONTINUOUS
 10
156.91860496
 20
130.228207292
 11
156.91860496
 21
129.738704511
  0
LINE
  5
2C3
100
AcDbEntity
  8
0
100
AcDbLine
 62
7
  6
CONTINUOUS
 10
152.5833780061
 20
126.5015943538
 11
153.2275688737
 21
129.6496241229
  0
LINE
  5
2C4
100
AcDbEntity
  8
0
100
AcDbLine
 62
7
  6
CONTINUOUS
 10
122.7458248397
 20
93.8071820108
 11
121.8451789161
 21
92.6712848762
  0
LINE
  5
2C5
100
AcDbEntity
  8
0
100
AcDbLine
 62
7
  6
CONTINUOUS
 10
151.9368788166
 20
121.6409730913
 11
152.0733297321
 21
121.7279125671
  0
LINE
  5
2C6
100
AcDbEntity
  8
0
100
AcDbLine
 62
7
  6
CONTINUOUS
 10
156.2240535147
 20
127.4352144829
 11
155.4956838454
 21
127.0146925684
  0
LINE
  5
2C7
100
AcDbEntity
  8
0
100
AcDbLine
 62
7
  6
CONTINUOUS
 10
156.3230261496
 20
127.378073898
 11
174.5450920343
 21
137.8985257434
  0
LINE
  5
2C8
100
AcDbEntity
  8
0
100
AcDbLine
 62
7
  6
CONTINUOUS
 10
153.5825909141
 20
124.8854639084
 11
151.2248051277
 21
123.5242037755
  0
LINE
  5
2C9
100
AcDbEntity
  8
0
100
AcDbLine
 62
7
  6
CONTINUOUS
 10
187.6760079363
 20
144.2454619364
 11
187.8174287025
 21
144.3271107665
  0
LINE
  5
2CA
100
AcDbEntity
  8
0
100
AcDbLine
 62
7
  6
CONTINUOUS
 10
154.7139664743
 20
124.2322787011
 11
151.93186747
 21
122.6259841981
  0
LINE
  5
2CB
100
AcDbEntity
  8
0
100
AcDbLine
 62
7
  6
CONTINUOUS
 10
178.6611875226
 20
138.0581308072
 11
177.4324378744
 21
137.3487159848
  0
LINE
  5
2CC
100
AcDbEntity
  8
0
100
AcDbLine
 62
7
  6
CONTINUOUS
 10
175.9946607884
 20
136.400246855
 11
156.2876768458
 21
125.0224822869
  0
LINE
  5
2CD
100
AcDbEntity
  8
0
100
AcDbLine
 62
7
  6
CONTINUOUS
 10
155.9341249273
 20
124.1365806911
 11
176.3482127076
 21
135.9225894133
  0
LINE
  5
2CE
100
AcDbEntity
  8
0
100
AcDbLine
 62
7
  6
CONTINUOUS
 10
152.0733297321
 20
121.7279125671
 11
178.5190132436
 21
136.9962439217
  0
LINE
  5
2CF
100
AcDbEntity
  8
0
100
AcDbLine
 62
7
  6
CONTINUOUS
 10
187.8174287024
 20
141.3820012236
 11
187.6760079357
 21
141.3003523932
  0
LINE
  5
2D0
100
AcDbEntity
  8
0
100
AcDbLine
 62
7
  6
CONTINUOUS
 10
174.9067752457
 20
132.7142087968
 11
151.2318287852
 21
119.0455536756
  0
LINE
  5
2D1
100
AcDbEntity
  8
0
100
AcDbLine
 62
7
  6
CONTINUOUS
 10
178.5190132436
 20
136.9962439217
 11
178.6556067661
 21
137.0668797225
  0
LINE
  5
2D2
100
AcDbEntity
  8
0
100
AcDbLine
 62
7
  6
CONTINUOUS
 10
178.6609049146
 20
163.6966977606
 11
179.3675378488
 21
163.2887322752
  0
LINE
  5
2D3
100
AcDbEntity
  8
0
100
AcDbLine
 62
7
  6
CONTINUOUS
 10
174.7713317009
 20
166.7577016194
 11
178.5190132444
 21
164.5940256201
  0
LINE
  5
2D4
100
AcDbEntity
  8
0
100
AcDbLine
 62
7
  6
CONTINUOUS
 10
174.9069066453
 20
166.8440829144
 11
178.6545881889
 21
164.6804069152
  0
LINE
  5
2D5
100
AcDbEntity
  8
0
100
AcDbLine
 62
7
  6
CONTINUOUS
 10
179.3605141915
 20
165.903242325
 11
175.6128326479
 21
168.0669183243
  0
LINE
  5
2D6
100
AcDbEntity
  8
0
100
AcDbLine
 62
7
  6
CONTINUOUS
 10
188.5989461582
 20
161.9950698038
 11
188.7403681032
 21
161.9134216529
  0
LINE
  5
2D7
100
AcDbEntity
  8
0
100
AcDbLine
 62
7
  6
CONTINUOUS
 10
176.1633467698
 20
140.9564416754
 11
176.4562149589
 21
140.5401981689
  0
LINE
  5
2D8
100
AcDbEntity
  8
0
100
AcDbLine
 62
7
  6
CONTINUOUS
 10
154.7047071829
 20
146.5290022981
 11
155.3488980494
 21
144.1248156337
  0
LINE
  5
2D9
100
AcDbEntity
  8
0
100
AcDbLine
 62
7
  6
CONTINUOUS
 10
155.8261226752
 20
144.4712858025
 11
155.195194563
 21
146.8259745018
  0
LINE
  5
2DA
100
AcDbEntity
  8
0
100
AcDbLine
 62
7
  6
CONTINUOUS
 10
155.3488980495
 20
128.4249018591
 11
154.704707182
 21
125.2768720899
  0
LINE
  5
2DB
100
AcDbEntity
  8
0
100
AcDbLine
 62
7
  6
CONTINUOUS
 10
155.1951945631
 20
125.5462625522
 11
155.826122675
 21
128.629479932
  0
LINE
  5
2DC
100
AcDbEntity
  8
0
100
AcDbLine
 62
7
  6
CONTINUOUS
 10
178.6552422959
 20
130.5509863087
 11
151.9371007885
 21
115.1253521958
  0
LINE
  5
2DD
100
AcDbEntity
  8
0
100
AcDbLine
 62
7
  6
CONTINUOUS
 10
189.0923548508
 20
135.4986612852
 11
188.7403681027
 21
135.2954428544
  0
LINE
  5
2DE
100
AcDbEntity
  8
0
100
AcDbLine
 62
7
  6
CONTINUOUS
 10
121.1375368536
 20
94.9673544886
 11
128.6328375281
 21
99.2947425196
  0
LINE
  5
2DF
100
AcDbEntity
  8
0
100
AcDbLine
 62
7
  6
CONTINUOUS
 10
120.0435414025
 20
92.1311577662
 11
119.279610737
 21
91.6901048236
  0
LINE
  5
2E0
100
AcDbEntity
  8
0
100
AcDbLine
 62
7
  6
CONTINUOUS
 10
188.595242925
 20
171.0903364626
 11
188.718943448
 21
171.0340406075
  0
LINE
  5
2E1
100
AcDbEntity
  8
0
100
AcDbLine
 62
7
  6
CONTINUOUS
 10
178.6548404588
 20
171.1958901596
 11
179.3605141916
 21
170.7884784568
  0
LINE
  5
2E2
100
AcDbEntity
  8
0
100
AcDbLine
 62
7
  6
CONTINUOUS
 10
187.6760079373
 20
167.9183311913
 11
186.4631624316
 21
168.6185520295
  0
LINE
  5
2E3
100
AcDbEntity
  8
0
100
AcDbLine
 62
7
  6
CONTINUOUS
 10
186.4625890672
 20
168.7821793553
 11
187.8174287043
 21
167.9999800218
  0
LINE
  5
2E4
100
AcDbEntity
  8
0
100
AcDbLine
 62
7
  6
CONTINUOUS
 10
188.5989461585
 20
167.8231787293
 11
188.7403681033
 21
167.7415305786
  0
LINE
  5
2E5
100
AcDbEntity
  8
0
100
AcDbLine
 62
7
  6
CONTINUOUS
 10
176.9334395846
 20
140.8866683378
 11
176.6038622979
 21
141.3550852243
  0
LINE
  5
2E6
100
AcDbEntity
  8
0
100
AcDbLine
 62
7
  6
CONTINUOUS
 10
174.5089391398
 20
158.4572896588
 11
174.6653246136
 21
159.2215136674
  0
LINE
  5
2E7
100
AcDbEntity
  8
0
100
AcDbLine
 62
7
  6
CONTINUOUS
 10
126.2287209875
 20
92.6677260291
 11
131.3034847372
 21
96.1790633053
  0
LINE
  5
2E8
100
AcDbEntity
  8
0
100
AcDbLine
 62
7
  6
CONTINUOUS
 10
131.3034847372
 20
92.6619628702
 11
126.2287209874
 21
89.1702450867
  0
LINE
  5
2E9
100
AcDbEntity
  8
0
100
AcDbLine
 62
7
  6
CONTINUOUS
 10
131.055721245
 20
97.0193258589
 11
188.5952429237
 21
130.2395858909
  0
LINE
  5
2EA
100
AcDbEntity
  8
0
100
AcDbLine
 62
7
  6
CONTINUOUS
 10
126.2287209873
 20
92.667726029
 11
124.1781198598
 21
91.483817983
  0
LINE
  5
2EB
100
AcDbEntity
  8
0
100
AcDbLine
 62
7
  6
CONTINUOUS
 10
124.1781198598
 20
87.9863370406
 11
126.2287209873
 21
89.1702450866
  0
LINE
  5
2EC
100
AcDbEntity
  8
0
100
AcDbLine
 62
7
  6
CONTINUOUS
 10
129.5811380614
 20
216.8192661982
 11
126.3710327961
 21
216.1241249818
  0
LINE
  5
2ED
100
AcDbEntity
  8
0
100
AcDbLine
 62
7
  6
CONTINUOUS
 10
188.7403681034
 20
171.9426559458
 11
188.5989461587
 21
172.0243040965
  0
LINE
  5
2EE
100
AcDbEntity
  8
0
100
AcDbLine
 62
7
  6
CONTINUOUS
 10
188.5989461585
 20
177.852413021
 11
188.740368103
 21
177.7707648704
  0
LINE
  5
2EF
100
AcDbEntity
  8
0
100
AcDbLine
 62
7
  6
CONTINUOUS
 10
188.9509329068
 20
178.0556314519
 11
189.0923548511
 21
177.9739833013
  0
LINE
  5
2F0
100
AcDbEntity
  8
0
100
AcDbLine
 62
7
  6
CONTINUOUS
 10
179.1539298249
 20
137.1161588893
 11
179.3605141905
 21
136.6594713426
  0
LINE
  5
2F1
100
AcDbEntity
  8
0
100
AcDbLine
 62
7
  6
CONTINUOUS
 10
174.9658138952
 20
139.4102317335
 11
174.7922484636
 21
140.0579958013
  0
LINE
  5
2F2
100
AcDbEntity
  8
0
100
AcDbLine
 62
7
  6
CONTINUOUS
 10
176.4562149589
 20
140.5401981689
 11
177.0871430711
 21
138.1855094695
  0
LINE
  5
2F3
100
AcDbEntity
  8
0
100
AcDbLine
 62
7
  6
CONTINUOUS
 10
177.5776304514
 20
138.4824816726
 11
176.9334395846
 21
140.8866683378
  0
LINE
  5
2F4
100
AcDbEntity
  8
0
100
AcDbLine
 62
7
  6
CONTINUOUS
 10
174.5450920343
 20
137.8985257434
 11
174.5450920343
 21
139.2130946345
  0
LINE
  5
2F5
100
AcDbEntity
  8
0
100
AcDbLine
 62
7
  6
CONTINUOUS
 10
174.5450920344
 20
157.1353226911
 11
174.5450920344
 21
158.4498915824
  0
LINE
  5
2F6
100
AcDbEntity
  8
0
100
AcDbLine
 62
7
  6
CONTINUOUS
 10
175.3637326741
 20
140.3879403946
 11
175.3637326741
 21
140.8774431757
  0
LINE
  5
2F7
100
AcDbEntity
  8
0
100
AcDbLine
 62
7
  6
CONTINUOUS
 10
175.3637326741
 20
154.7832766793
 11
175.3637326741
 21
155.2727794604
  0
LINE
  5
2F8
100
AcDbEntity
  8
0
100
AcDbLine
 62
7
  6
CONTINUOUS
 10
175.6128326479
 20
169.4400605094
 11
175.6128326479
 21
168.0669183243
  0
LINE
  5
2F9
100
AcDbEntity
  8
0
100
AcDbLine
 62
7
  6
CONTINUOUS
 10
175.6128326479
 20
135.318369788
 11
175.6128326479
 21
133.9371172945
  0
LINE
  5
2FA
100
AcDbEntity
  8
0
100
AcDbLine
 62
7
  6
CONTINUOUS
 10
175.9946607884
 20
135.910744074
 11
175.9946607884
 21
136.400246855
  0
LINE
  5
2FB
100
AcDbEntity
  8
0
100
AcDbLine
 62
7
  6
CONTINUOUS
 10
175.9946607884
 20
159.9890016844
 11
175.9946607884
 21
160.4785044654
  0
LINE
  5
2FC
100
AcDbEntity
  8
0
100
AcDbLine
 62
7
  6
CONTINUOUS
 10
178.2361622885
 20
163.4509196188
 11
178.2361622884
 21
159.1223152447
  0
LINE
  5
2FD
100
AcDbEntity
  8
0
100
AcDbLine
 62
7
  6
CONTINUOUS
 10
178.2361622879
 20
144.2222876952
 11
178.2361622878
 21
139.9345084425
  0
LINE
  5
2FE
100
AcDbEntity
  8
0
100
AcDbLine
 62
7
  6
CONTINUOUS
 10
179.3605141916
 20
170.789385494
 11
179.3605141915
 21
165.9023626445
  0
LINE
  5
2FF
100
AcDbEntity
  8
0
100
AcDbLine
 62
7
  6
CONTINUOUS
 10
179.3605141905
 20
136.6594713426
 11
179.3605141904
 21
131.7725599699
  0
LINE
  5
300
100
AcDbEntity
  8
0
100
AcDbLine
 62
7
  6
CONTINUOUS
 10
179.3675378488
 20
163.2887322799
 11
179.3675378486
 21
158.4691300327
  0
LINE
  5
301
100
AcDbEntity
  8
0
100
AcDbLine
 62
7
  6
CONTINUOUS
 10
179.3675378481
 20
144.0601003562
 11
179.367537848
 21
139.2813232305
  0
LINE
  5
302
100
AcDbEntity
  8
0
100
AcDbLine
 62
7
  6
CONTINUOUS
 10
177.087143071
 20
159.4652214194
 11
176.4562149591
 21
156.3820040391
  0
LINE
  5
303
100
AcDbEntity
  8
0
100
AcDbLine
 62
7
  6
CONTINUOUS
 10
176.9334395847
 20
156.5865821125
 11
177.5776304523
 21
159.7346118822
  0
LINE
  5
304
100
AcDbEntity
  8
0
100
AcDbLine
 62
7
  6
CONTINUOUS
 10
188.5952429247
 20
161.2815437447
 11
188.8692849987
 21
161.9878514129
  0
LINE
  5
305
100
AcDbEntity
  8
0
100
AcDbLine
 62
7
  6
CONTINUOUS
 10
189.0923548508
 20
162.1166400833
 11
191.1868245728
 21
167.5148623497
  0
LINE
  5
306
100
AcDbEntity
  8
0
100
AcDbLine
 62
7
  6
CONTINUOUS
 10
129.5811380614
 20
216.8192661982
 11
141.3603133001
 21
210.2561244301
  0
LINE
  5
307
100
AcDbEntity
  8
0
100
AcDbLine
 62
7
  6
CONTINUOUS
 10
141.3603132849
 20
210.2561244388
 11
188.5952429254
 21
182.9856420365
  0
LINE
  5
308
100
AcDbEntity
  8
0
100
AcDbLine
 62
7
  6
CONTINUOUS
 10
188.9509329055
 20
151.437652654
 11
188.5952429244
 21
151.9436841823
  0
LINE
  5
309
100
AcDbEntity
  8
0
100
AcDbLine
 62
7
  6
CONTINUOUS
 10
191.1868245728
 20
148.3762531158
 11
189.0923548508
 21
151.3560045029
  0
LINE
  5
30A
100
AcDbEntity
  8
0
100
AcDbLine
 62
7
  6
CONTINUOUS
 10
179.153927317
 20
171.2459663068
 11
179.3605141916
 21
170.789385494
  0
LINE
  5
30B
100
AcDbEntity
  8
0
100
AcDbLine
 62
7
  6
CONTINUOUS
 10
188.5952429254
 20
182.9856420365
 11
188.5952429253
 21
178.5616629807
  0
LINE
  5
30C
100
AcDbEntity
  8
0
100
AcDbLine
 62
7
  6
CONTINUOUS
 10
188.5952429247
 20
161.2815437447
 11
188.5952429244
 21
151.9436841824
  0
LINE
  5
30D
100
AcDbEntity
  8
0
100
AcDbLine
 62
7
  6
CONTINUOUS
 10
188.5952429237
 20
130.2395858909
 11
188.5952429238
 21
134.6635649466
  0
LINE
  5
30E
100
AcDbEntity
  8
0
100
AcDbLine
 62
7
  6
CONTINUOUS
 10
188.598946159
 20
177.8524130213
 11
188.5989461587
 21
172.0243040965
  0
LINE
  5
30F
100
AcDbEntity
  8
0
100
AcDbLine
 62
7
  6
CONTINUOUS
 10
188.5989461585
 20
167.8231787293
 11
188.5989461582
 21
161.9950698038
  0
LINE
  5
310
100
AcDbEntity
  8
0
100
AcDbLine
 62
7
  6
CONTINUOUS
 10
188.5989461577
 20
151.2344342234
 11
188.5989461574
 21
145.4063252985
  0
LINE
  5
311
100
AcDbEntity
  8
0
100
AcDbLine
 62
7
  6
CONTINUOUS
 10
188.5989461572
 20
141.2051999307
 11
188.5989461569
 21
135.3770910058
  0
LINE
  5
312
100
AcDbEntity
  8
0
100
AcDbLine
 62
7
  6
CONTINUOUS
 10
188.7403681027
 20
135.2954428544
 11
188.7403681028
 21
141.1235517795
  0
LINE
  5
313
100
AcDbEntity
  8
0
100
AcDbLine
 62
7
  6
CONTINUOUS
 10
188.7403681029
 20
145.3246771473
 11
188.740368103
 21
151.1527860723
  0
LINE
  5
314
100
AcDbEntity
  8
0
100
AcDbLine
 62
7
  6
CONTINUOUS
 10
188.7403681032
 20
161.9134216529
 11
188.7403681033
 21
167.7415305786
  0
LINE
  5
315
100
AcDbEntity
  8
0
100
AcDbLine
 62
7
  6
CONTINUOUS
 10
188.7403681034
 20
171.9426559458
 11
188.7403681035
 21
177.7707648707
  0
LINE
  5
316
100
AcDbEntity
  8
0
100
AcDbLine
 62
7
  6
CONTINUOUS
 10
191.4236594516
 20
174.1103397573
 11
191.4236594516
 21
168.672226236
  0
LINE
  5
317
100
AcDbEntity
  8
0
100
AcDbLine
 62
7
  6
CONTINUOUS
 10
191.4236594516
 20
147.4923609592
 11
191.4236594516
 21
142.0542474381
  0
LINE
  5
318
100
AcDbEntity
  8
0
100
AcDbLine
 62
7
  6
CONTINUOUS
 10
188.5952429238
 20
134.6635649467
 11
188.8692849975
 21
135.369872614
  0
LINE
  5
319
100
AcDbEntity
  8
0
100
AcDbLine
 62
7
  6
CONTINUOUS
 10
189.0923548511
 20
135.4986612853
 11
191.1868245735
 21
140.8968835523
  0
LINE
  5
31A
100
AcDbEntity
  8
0
100
AcDbLine
 62
7
  6
CONTINUOUS
 10
188.9509329068
 20
178.0556314518
 11
188.5952429253
 21
178.5616629807
  0
LINE
  5
31B
100
AcDbEntity
  8
0
100
AcDbLine
 62
7
  6
CONTINUOUS
 10
191.1868245735
 20
174.9942319141
 11
189.0923548512
 21
177.9739833012
  0
ARC
  5
31C
100
AcDbEntity
  8
0
100
AcDbCircle
 62
7
  6
CONTINUOUS
 10
172.3150065275
 20
139.337905496
 40
2.7211366246
100
AcDbArc
 50
324.2314771155
 51
327.2363824489
  0
ARC
  5
31D
100
AcDbEntity
  8
0
100
AcDbCircle
 62
7
  6
CONTINUOUS
 10
155.6640388859
 20
129.1491249435
 40
2.4873450804
100
AcDbArc
 50
164.2602681251
 51
168.3917930367
  0
SPLINE
  5
31E
100
AcDbEntity
  8
0
100
AcDbSpline
 62
7
  6
CONTINUOUS
 70
0
 71
3
 72
10
 73
6
 74
0
 42
0.0000001
 43
0.0000001
 44
0.0000000001
 40
0.0
 40
0.0
 40
0.0
 40
0.0
 40
0.2429436763
 40
0.5089774873
 40
1.0
 40
1.0
 40
1.0
 40
1.0
 10
24.6879799549
 20
119.4368976735
 30
0.0
 10
24.6879793186
 20
119.3046918121
 30
0.0
 10
24.7570373101
 20
119.0284439699
 30
0.0
 10
25.0214039312
 20
118.5515029961
 30
0.0
 10
25.3249965983
 20
118.2501844344
 30
0.0
 10
25.553357406
 20
118.1114383003
 30
0.0
  0
SPLINE
  5
31F
100
AcDbEntity
  8
0
100
AcDbSpline
 62
7
  6
CONTINUOUS
 70
0
 71
3
 72
12
 73
8
 74
0
 42
0.0000001
 43
0.0000001
 44
0.0000000001
 40
0.0
 40
0.0
 40
0.0
 40
0.0
 40
0.228031292
 40
0.4733470466
 40
0.7348381947
 40
0.8690828615
 40
1.0
 40
1.0
 40
1.0
 40
1.0
 10
32.4390178763
 20
155.8616943617
 30
0.0
 10
32.0246271422
 20
155.6224471879
 30
0.0
 10
31.1978330295
 20
155.0657104019
 30
0.0
 10
30.0409318668
 20
154.0401631574
 30
0.0
 10
29.1766636851
 20
152.9977793435
 30
0.0
 10
28.6185840138
 20
152.0412310905
 30
0.0
 10
28.4113736258
 20
151.5208182356
 30
0.0
 10
28.3379321163
 20
151.2561030426
 30
0.0
  0
SPLINE
  5
320
100
AcDbEntity
  8
0
100
AcDbSpline
 62
7
  6
CONTINUOUS
 70
0
 71
3
 72
11
 73
7
 74
0
 42
0.0000001
 43
0.0000001
 44
0.0000000001
 40
0.0
 40
0.0
 40
0.0
 40
0.0
 40
0.2176746341
 40
0.4508340054
 40
0.7104853484
 40
1.0
 40
1.0
 40
1.0
 40
1.0
 10
155.6783518077
 20
143.6561847845
 30
0.0
 10
155.737694657
 20
143.6219239108
 30
0.0
 10
155.8740656771
 20
143.5723850662
 30
0.0
 10
156.1007296242
 20
143.566597518
 30
0.0
 10
156.3422106227
 20
143.625083833
 30
0.0
 10
156.499388097
 20
143.6997305336
 30
0.0
 10
156.5783157945
 20
143.7452991891
 30
0.0
  0
SPLINE
  5
321
100
AcDbEntity
  8
0
100
AcDbSpline
 62
7
  6
CONTINUOUS
 70
0
 71
3
 72
11
 73
7
 74
0
 42
0.0000001
 43
0.0000001
 44
0.0000000001
 40
0.0
 40
0.0
 40
0.0
 40
0.0
 40
0.2043512852
 40
0.4327886719
 40
0.69804198
 40
1.0
 40
1.0
 40
1.0
 40
1.0
 10
155.4879633486
 20
124.4538091207
 30
0.0
 10
155.4171840122
 20
124.4946524455
 30
0.0
 10
155.2872390217
 20
124.6188411076
 30
0.0
 10
155.1771057571
 20
124.8812952411
 30
0.0
 10
155.1441574278
 20
125.2010359054
 30
0.0
 10
155.1709866768
 20
125.4279635346
 30
0.0
 10
155.1951945631
 20
125.5462625522
 30
0.0
  0
SPLINE
  5
322
100
AcDbEntity
  8
0
100
AcDbSpline
 62
7
  6
CONTINUOUS
 70
0
 71
3
 72
11
 73
7
 74
0
 42
0.0000001
 43
0.0000001
 44
0.0000000001
 40
0.0
 40
0.0
 40
0.0
 40
0.0
 40
0.2177456295
 40
0.4508837761
 40
0.7104602913
 40
1.0
 40
1.0
 40
1.0
 40
1.0
 10
155.034190553
 20
124.047517721
 30
0.0
 10
155.0935529483
 20
124.0132456117
 30
0.0
 10
155.2299024906
 20
123.9635899156
 30
0.0
 10
155.4565762808
 20
123.9578978115
 30
0.0
 10
155.6980325997
 20
124.0163433643
 30
0.0
 10
155.8551901729
 20
124.0910079613
 30
0.0
 10
155.9341249273
 20
124.1365806911
 30
0.0
  0
SPLINE
  5
323
100
AcDbEntity
  8
0
100
AcDbSpline
 62
7
  6
CONTINUOUS
 70
0
 71
3
 72
15
 73
11
 74
0
 42
0.0000001
 43
0.0000001
 44
0.0000000001
 40
0.0
 40
0.0
 40
0.0
 40
0.0
 40
0.0869339635
 40
0.1864004213
 40
0.3037841746
 40
0.4375904218
 40
0.5820908717
 40
0.7294002363
 40
0.8711748087
 40
1.0
 40
1.0
 40
1.0
 40
1.0
 10
186.7743175006
 20
141.2110979429
 30
0.0
 10
186.6842313281
 20
141.2631094035
 30
0.0
 10
186.5206720848
 20
141.4300045225
 30
0.0
 10
186.4017326543
 20
141.7819818966
 30
0.0
 10
186.3916869583
 20
142.205913958
 30
0.0
 10
186.4868989051
 20
142.6729763281
 30
0.0
 10
186.6786620267
 20
143.1474677963
 30
0.0
 10
186.9516404699
 20
143.5915976018
 30
0.0
 10
187.2833646351
 20
143.9689306618
 30
0.0
 10
187.5425112502
 20
144.1683880489
 30
0.0
 10
187.6760079363
 20
144.2454619364
 30
0.0
  0
SPLINE
  5
324
100
AcDbEntity
  8
0
100
AcDbSpline
 62
7
  6
CONTINUOUS
 70
0
 71
3
 72
15
 73
11
 74
0
 42
0.0000001
 43
0.0000001
 44
0.0000000001
 40
0.0
 40
0.0
 40
0.0
 40
0.0
 40
0.0869269787
 40
0.1863918984
 40
0.3037797627
 40
0.4375877569
 40
0.5820839034
 40
0.7293916415
 40
0.8711748495
 40
1.0
 40
1.0
 40
1.0
 40
1.0
 10
186.774314849
 20
167.8290723013
 30
0.0
 10
186.6842343678
 20
167.8810769345
 30
0.0
 10
186.5206850109
 20
168.047967155
 30
0.0
 10
186.4017380528
 20
168.3999345535
 30
0.0
 10
186.3916858337
 20
168.8238729453
 30
0.0
 10
186.4868938939
 20
169.2909380222
 30
0.0
 10
186.678653397
 20
169.7654257049
 30
0.0
 10
186.9516301637
 20
170.2095600764
 30
0.0
 10
187.2833562541
 20
170.5869031938
 30
0.0
 10
187.5425112725
 20
170.7863668589
 30
0.0
 10
187.6760079358
 20
170.8634407333
 30
0.0
  0
SPLINE
  5
325
100
AcDbEntity
  8
0
100
AcDbSpline
 62
7
  6
CONTINUOUS
 70
0
 71
3
 72
9
 73
5
 74
0
 42
0.0000001
 43
0.0000001
 44
0.0000000001
 40
0.0
 40
0.0
 40
0.0
 40
0.0
 40
0.5455358335
 40
1.0
 40
1.0
 40
1.0
 40
1.0
 10
187.8174287025
 20
144.3271107665
 30
0.0
 10
187.9446412357
 20
144.4005565183
 30
0.0
 10
188.1966351893
 20
144.5091386122
 30
0.0
 10
188.4785711631
 20
144.5064688745
 30
0.0
 10
188.5952409337
 20
144.4695556901
 30
0.0
  0
SPLINE
  5
326
100
AcDbEntity
  8
0
100
AcDbSpline
 62
7
  6
CONTINUOUS
 70
0
 71
3
 72
9
 73
5
 74
0
 42
0.0000001
 43
0.0000001
 44
0.0000000001
 40
0.0
 40
0.0
 40
0.0
 40
0.0
 40
0.5455057218
 40
1.0
 40
1.0
 40
1.0
 40
1.0
 10
187.8174287053
 20
170.9450895653
 30
0.0
 10
187.9446318704
 20
171.0185299086
 30
0.0
 10
188.196534486
 20
171.1267254829
 30
0.0
 10
188.47873475
 20
171.1249799074
 30
0.0
 10
188.5952409346
 20
171.087534488
 30
0.0
  0
SPLINE
  5
327
100
AcDbEntity
  8
0
100
AcDbSpline
 62
7
  6
CONTINUOUS
 70
0
 71
3
 72
9
 73
5
 74
0
 42
0.0000001
 43
0.0000001
 44
0.0000000001
 40
0.0
 40
0.0
 40
0.0
 40
0.0
 40
0.4574587242
 40
1.0
 40
1.0
 40
1.0
 40
1.0
 10
131.3735252622
 20
92.7741378849
 30
0.0
 10
131.3735252274
 20
92.753367804
 30
0.0
 10
131.3580794929
 20
92.7077293249
 30
0.0
 10
131.323778182
 20
92.6759258812
 30
0.0
 10
131.3034847372
 20
92.6619628701
 30
0.0
  0
SPLINE
  5
328
100
AcDbEntity
  8
0
100
AcDbSpline
 62
7
  6
CONTINUOUS
 70
0
 71
3
 72
11
 73
7
 74
0
 42
0.0000001
 43
0.0000001
 44
0.0000000001
 40
0.0
 40
0.0
 40
0.0
 40
0.0
 40
0.2372386352
 40
0.4999898797
 40
0.7627509048
 40
1.0
 40
1.0
 40
1.0
 40
1.0
 10
151.2318287852
 20
120.419575589
 30
0.0
 10
151.2317208763
 20
120.535171134
 30
0.0
 10
151.2752444523
 20
120.7789467078
 30
0.0
 10
151.4262573459
 20
121.1215241546
 30
0.0
 10
151.6473699068
 20
121.4236506735
 30
0.0
 10
151.8367195226
 20
121.5832527672
 30
0.0
 10
151.9368788166
 20
121.6409730913
 30
0.0
  0
SPLINE
  5
329
100
AcDbEntity
  8
0
100
AcDbSpline
 62
7
  6
CONTINUOUS
 70
0
 71
3
 72
11
 73
7
 74
0
 42
0.0000001
 43
0.0000001
 44
0.0000000001
 40
0.0
 40
0.0
 40
0.0
 40
0.0
 40
0.2372442964
 40
0.5000016259
 40
0.7627580583
 40
1.0
 40
1.0
 40
1.0
 40
1.0
 10
151.2318287863
 20
154.5493787622
 30
0.0
 10
151.2317174486
 20
154.6649993691
 30
0.0
 10
151.2752653016
 20
154.9088268648
 30
0.0
 10
151.4263282212
 20
155.2514669596
 30
0.0
 10
151.647529135
 20
155.5536132379
 30
0.0
 10
151.8369167144
 20
155.713236075
 30
0.0
 10
151.9371004211
 20
155.7709517286
 30
0.0
  0
SPLINE
  5
32A
100
AcDbEntity
  8
0
100
AcDbSpline
 62
7
  6
CONTINUOUS
 70
0
 71
3
 72
9
 73
5
 74
0
 42
0.0000001
 43
0.0000001
 44
0.0000000001
 40
0.0
 40
0.0
 40
0.0
 40
0.0
 40
0.4519879567
 40
1.0
 40
1.0
 40
1.0
 40
1.0
 10
131.3736569766
 20
141.9997774114
 30
0.0
 10
131.3736571728
 20
141.9796749315
 30
0.0
 10
131.3578012456
 20
141.9350398369
 30
0.0
 10
131.3236087358
 20
141.904687203
 30
0.0
 10
131.3034931414
 20
141.8909243317
 30
0.0
  0
SPLINE
  5
32B
100
AcDbEntity
  8
0
100
AcDbSpline
 62
7
  6
CONTINUOUS
 70
0
 71
3
 72
9
 73
5
 74
0
 42
0.0000001
 43
0.0000001
 44
0.0000000001
 40
0.0
 40
0.0
 40
0.0
 40
0.0
 40
0.2797149643
 40
1.0
 40
1.0
 40
1.0
 40
1.0
 10
191.4236594516
 20
147.4923609592
 30
0.0
 10
191.4236594516
 20
147.5783608691
 30
0.0
 10
191.4069190075
 20
147.8843373366
 30
0.0
 10
191.3141735129
 20
148.1950768621
 30
0.0
 10
191.1868245728
 20
148.3762531158
 30
0.0
  0
SPLINE
  5
32C
100
AcDbEntity
  8
0
100
AcDbSpline
 62
7
  6
CONTINUOUS
 70
0
 71
3
 72
9
 73
5
 74
0
 42
0.0000001
 43
0.0000001
 44
0.0000000001
 40
0.0
 40
0.0
 40
0.0
 40
0.0
 40
0.5224865547
 40
1.0
 40
1.0
 40
1.0
 40
1.0
 10
191.1868245735
 20
140.8968835523
 30
0.0
 10
191.2615531308
 20
141.0894866528
 30
0.0
 10
191.3763551639
 20
141.4697570838
 30
0.0
 10
191.4236594516
 20
141.8654377548
 30
0.0
 10
191.4236594512
 20
142.0542474434
 30
0.0
  0
SPLINE
  5
32D
100
AcDbEntity
  8
0
100
AcDbSpline
 62
7
  6
CONTINUOUS
 70
0
 71
3
 72
9
 73
5
 74
0
 42
0.0000001
 43
0.0000001
 44
0.0000000001
 40
0.0
 40
0.0
 40
0.0
 40
0.0
 40
0.2797149641
 40
1.0
 40
1.0
 40
1.0
 40
1.0
 10
191.4236594511
 20
174.110339757
 30
0.0
 10
191.4236594511
 20
174.1963396669
 30
0.0
 10
191.406919007
 20
174.5023161344
 30
0.0
 10
191.3141735129
 20
174.8130556599
 30
0.0
 10
191.1868245735
 20
174.9942319141
 30
0.0
  0
SPLINE
  5
32E
100
AcDbEntity
  8
0
100
AcDbSpline
 62
7
  6
CONTINUOUS
 70
0
 71
3
 72
9
 73
5
 74
0
 42
0.0000001
 43
0.0000001
 44
0.0000000001
 40
0.0
 40
0.0
 40
0.0
 40
0.0
 40
0.5224865544
 40
1.0
 40
1.0
 40
1.0
 40
1.0
 10
191.1868245728
 20
167.5148623497
 30
0.0
 10
191.26155313
 20
167.7074654493
 30
0.0
 10
191.3763551631
 20
168.0877358786
 30
0.0
 10
191.4236594514
 20
168.4834165479
 30
0.0
 10
191.4236594516
 20
168.6722262359
 30
0.0
  0
SPLINE
  5
32F
100
AcDbEntity
  8
0
100
AcDbSpline
 62
7
  6
CONTINUOUS
 70
0
 71
3
 72
11
 73
7
 74
0
 42
0.0000001
 43
0.0000001
 44
0.0000000001
 40
0.0
 40
0.0
 40
0.0
 40
0.0
 40
0.2198123065
 40
0.4572107492
 40
0.7167715891
 40
1.0
 40
1.0
 40
1.0
 40
1.0
 10
131.3698791843
 20
145.546800365
 30
0.0
 10
131.3019171538
 20
145.7912544264
 30
0.0
 10
131.0915222133
 20
146.282107865
 30
0.0
 10
130.5986175269
 20
146.9536187521
 30
0.0
 10
129.9343128971
 20
147.5682898445
 30
0.0
 10
129.4109418045
 20
147.9173092385
 30
0.0
 10
129.1278143366
 20
148.0807692604
 30
0.0
  0
SPLINE
  5
330
100
AcDbEntity
  8
0
100
AcDbSpline
 62
7
  6
CONTINUOUS
 70
0
 71
3
 72
9
 73
5
 74
0
 42
0.0000001
 43
0.0000001
 44
0.0000000001
 40
0.0
 40
0.0
 40
0.0
 40
0.0
 40
0.2556232607
 40
1.0
 40
1.0
 40
1.0
 40
1.0
 10
126.2465253495
 20
216.0690479967
 30
0.0
 10
125.4241559117
 20
215.7052655038
 30
0.0
 10
122.2242405913
 20
214.2437747819
 30
0.0
 10
119.0947364933
 20
212.6265957809
 30
0.0
 10
116.8202412226
 20
211.329031502
 30
0.0
  0
SPLINE
  5
331
100
AcDbEntity
  8
0
100
AcDbSpline
 62
7
  6
CONTINUOUS
 70
0
 71
3
 72
9
 73
5
 74
0
 42
0.0000001
 43
0.0000001
 44
0.0000000001
 40
0.0
 40
0.0
 40
0.0
 40
0.0
 40
0.497674701
 40
1.0
 40
1.0
 40
1.0
 40
1.0
 10
123.7538347874
 20
137.2263686364
 30
0.0
 10
123.8174843776
 20
137.1921879118
 30
0.0
 10
123.9669925255
 20
137.168021819
 30
0.0
 10
124.1149467106
 20
137.1984394279
 30
0.0
 10
124.1780989938
 20
137.234900198
 30
0.0
  0
SPLINE
  5
332
100
AcDbEntity
  8
0
100
AcDbSpline
 62
7
  6
CONTINUOUS
 70
0
 71
3
 72
9
 73
5
 74
0
 42
0.0000001
 43
0.0000001
 44
0.0000000001
 40
0.0
 40
0.0
 40
0.0
 40
0.0
 40
0.4999975888
 40
1.0
 40
1.0
 40
1.0
 40
1.0
 10
124.1781198598
 20
87.9863370406
 30
0.0
 10
124.1151531774
 20
87.9499885018
 30
0.0
 10
123.9659883589
 20
87.9212033333
 30
0.0
 10
123.8168233427
 20
87.9499875855
 30
0.0
 10
123.7538557909
 20
87.9863360208
 30
0.0
  0
SPLINE
  5
333
100
AcDbEntity
  8
0
100
AcDbSpline
 62
7
  6
CONTINUOUS
 70
0
 71
3
 72
10
 73
6
 74
0
 42
0.0000001
 43
0.0000001
 44
0.0000000001
 40
0.0
 40
0.0
 40
0.0
 40
0.0
 40
0.2815974399
 40
0.5412529836
 40
1.0
 40
1.0
 40
1.0
 40
1.0
 10
129.1278143366
 20
98.989014966
 30
0.0
 10
129.4114503106
 20
98.8138242683
 30
0.0
 10
129.9355240818
 20
98.4390354092
 30
0.0
 10
130.7818930841
 20
97.610287104
 30
0.0
 10
131.2296868524
 20
96.8460492175
 30
0.0
 10
131.3698791843
 20
96.321352461
 30
0.0
  0
SPLINE
  5
334
100
AcDbEntity
  8
0
100
AcDbSpline
 62
7
  6
CONTINUOUS
 70
0
 71
3
 72
15
 73
11
 74
0
 42
0.0000001
 43
0.0000001
 44
0.0000000001
 40
0.0
 40
0.0
 40
0.0
 40
0.0
 40
0.1284771752
 40
0.2699578216
 40
0.4169145714
 40
0.5612846349
 40
0.6952193098
 40
0.8129790257
 40
0.9129097185
 40
1.0
 40
1.0
 40
1.0
 40
1.0
 10
135.7393564908
 20
135.7075939394
 30
0.0
 10
135.8370465726
 20
135.7639971412
 30
0.0
 10
136.0267862386
 20
135.9099084513
 30
0.0
 10
136.2701570124
 20
136.1856270061
 30
0.0
 10
136.4708172468
 20
136.5104677056
 30
0.0
 10
136.6127302686
 20
136.8577749656
 30
0.0
 10
136.684473742
 20
137.2003784422
 30
0.0
 10
136.6796975937
 20
137.5122939684
 30
0.0
 10
136.5957365906
 20
137.7722570658
 30
0.0
 10
136.4785417354
 20
137.8978959226
 30
0.0
 10
136.4133012346
 20
137.9377793803
 30
0.0
  0
SPLINE
  5
335
100
AcDbEntity
  8
0
100
AcDbSpline
 62
7
  6
CONTINUOUS
 70
0
 71
3
 72
9
 73
5
 74
0
 42
0.0000001
 43
0.0000001
 44
0.0000000001
 40
0.0
 40
0.0
 40
0.0
 40
0.0
 40
0.2415472182
 40
1.0
 40
1.0
 40
1.0
 40
1.0
 10
135.5808875948
 20
135.6316220756
 30
0.0
 10
135.5941237573
 20
135.6366485504
 30
0.0
 10
135.6484474186
 20
135.6586973151
 30
0.0
 10
135.7008543698
 20
135.6853672035
 30
0.0
 10
135.7393564908
 20
135.7075939394
 30
0.0
  0
SPLINE
  5
336
100
AcDbEntity
  8
0
100
AcDbSpline
 62
7
  6
CONTINUOUS
 70
0
 71
3
 72
15
 73
11
 74
0
 42
0.0000001
 43
0.0000001
 44
0.0000000001
 40
0.0
 40
0.0
 40
0.0
 40
0.0
 40
0.1284771752
 40
0.2699578216
 40
0.4169145714
 40
0.5612846349
 40
0.6952193098
 40
0.8129790257
 40
0.9129097185
 40
1.0
 40
1.0
 40
1.0
 40
1.0
 10
135.7393564908
 20
109.089615141
 30
0.0
 10
135.8370465727
 20
109.1460183428
 30
0.0
 10
136.0267862386
 20
109.2919296529
 30
0.0
 10
136.2701570124
 20
109.5676482077
 30
0.0
 10
136.4708172468
 20
109.8924889072
 30
0.0
 10
136.6127302686
 20
110.2397961672
 30
0.0
 10
136.684473742
 20
110.5823996438
 30
0.0
 10
136.6796975937
 20
110.89431517
 30
0.0
 10
136.5957365906
 20
111.1542782674
 30
0.0
 10
136.4785417354
 20
111.2799171242
 30
0.0
 10
136.4133012346
 20
111.3198005819
 30
0.0
  0
SPLINE
  5
337
100
AcDbEntity
  8
0
100
AcDbSpline
 62
7
  6
CONTINUOUS
 70
0
 71
3
 72
9
 73
5
 74
0
 42
0.0000001
 43
0.0000001
 44
0.0000000001
 40
0.0
 40
0.0
 40
0.0
 40
0.0
 40
0.2415472182
 40
1.0
 40
1.0
 40
1.0
 40
1.0
 10
135.5808875948
 20
109.0136432772
 30
0.0
 10
135.5941237573
 20
109.018669752
 30
0.0
 10
135.6484474186
 20
109.0407185167
 30
0.0
 10
135.7008543698
 20
109.0673884051
 30
0.0
 10
135.7393564908
 20
109.089615141
 30
0.0
  0
SPLINE
  5
338
100
AcDbEntity
  8
0
100
AcDbSpline
 62
7
  6
CONTINUOUS
 70
0
 71
3
 72
9
 73
5
 74
0
 42
0.0000001
 43
0.0000001
 44
0.0000000001
 40
0.0
 40
0.0
 40
0.0
 40
0.0
 40
0.2638119115
 40
1.0
 40
1.0
 40
1.0
 40
1.0
 10
177.6209996142
 20
138.1271332409
 30
0.0
 10
177.6209996142
 20
138.1586619042
 30
0.0
 10
177.6176738532
 20
138.2781066373
 30
0.0
 10
177.6004018921
 20
138.3974963105
 30
0.0
 10
177.5776304514
 20
138.4824816726
 30
0.0
  0
SPLINE
  5
339
100
AcDbEntity
  8
0
100
AcDbSpline
 62
7
  6
CONTINUOUS
 70
0
 71
3
 72
11
 73
7
 74
0
 42
0.0000001
 43
0.0000001
 44
0.0000000001
 40
0.0
 40
0.0
 40
0.0
 40
0.0
 40
0.2372518718
 40
0.4999985497
 40
0.7627460178
 40
1.0
 40
1.0
 40
1.0
 40
1.0
 10
176.3482127076
 20
135.9225894133
 30
0.0
 10
176.5289218474
 20
136.026921261
 30
0.0
 10
176.8708976077
 20
136.3146996986
 30
0.0
 10
177.269877048
 20
136.8601571509
 30
0.0
 10
177.5427647081
 20
137.4784154087
 30
0.0
 10
177.6209996142
 20
137.9184667552
 30
0.0
 10
177.6209996142
 20
138.1271332409
 30
0.0
  0
SPLINE
  5
33A
100
AcDbEntity
  8
0
100
AcDbSpline
 62
7
  6
CONTINUOUS
 70
0
 71
3
 72
9
 73
5
 74
0
 42
0.0000001
 43
0.0000001
 44
0.0000000001
 40
0.0
 40
0.0
 40
0.0
 40
0.0
 40
0.501470308
 40
1.0
 40
1.0
 40
1.0
 40
1.0
 10
155.826122675
 20
128.629479932
 30
0.0
 10
155.8819180707
 20
128.9021406845
 30
0.0
 10
156.0961272475
 20
129.4254584307
 30
0.0
 10
156.4503447261
 20
129.8667888875
 30
0.0
 10
156.6615375938
 20
130.0455312557
 30
0.0
  0
SPLINE
  5
33B
100
AcDbEntity
  8
0
100
AcDbSpline
 62
7
  6
CONTINUOUS
 70
0
 71
3
 72
9
 73
5
 74
0
 42
0.0000001
 43
0.0000001
 44
0.0000000001
 40
0.0
 40
0.0
 40
0.0
 40
0.0
 40
0.2597958147
 40
1.0
 40
1.0
 40
1.0
 40
1.0
 10
156.6615375938
 20
130.0455312557
 30
0.0
 10
156.6823987688
 20
130.0631870405
 30
0.0
 10
156.7640421627
 20
130.1295199371
 30
0.0
 10
156.8511698049
 20
130.1892738195
 30
0.0
 10
156.91860496
 20
130.228207292
 30
0.0
  0
SPLINE
  5
33C
100
AcDbEntity
  8
0
100
AcDbSpline
 62
7
  6
CONTINUOUS
 70
0
 71
3
 72
11
 73
7
 74
0
 42
0.0000001
 43
0.0000001
 44
0.0000000001
 40
0.0
 40
0.0
 40
0.0
 40
0.0
 40
0.2895146516
 40
0.5491659945
 40
0.7823253658
 40
1.0
 40
1.0
 40
1.0
 40
1.0
 10
175.3637326741
 20
140.8774431757
 30
0.0
 10
175.4338692177
 20
140.9179362862
 30
0.0
 10
175.5735398924
 20
140.9842686603
 30
0.0
 10
175.788124165
 20
141.0362406308
 30
0.0
 10
175.9895417446
 20
141.0310977133
 30
0.0
 10
176.1107234372
 20
140.9870766226
 30
0.0
 10
176.1634565393
 20
140.9566318062
 30
0.0
  0
SPLINE
  5
33D
100
AcDbEntity
  8
0
100
AcDbSpline
 62
7
  6
CONTINUOUS
 70
0
 71
3
 72
11
 73
7
 74
0
 42
0.0000001
 43
0.0000001
 44
0.0000000001
 40
0.0
 40
0.0
 40
0.0
 40
0.0
 40
0.2895411595
 40
0.5491183967
 40
0.7822559144
 40
1.0
 40
1.0
 40
1.0
 40
1.0
 10
177.6209996146
 20
160.1400384069
 30
0.0
 10
177.6209996146
 20
160.2311883404
 30
0.0
 10
177.6070819401
 20
160.4046306746
 30
0.0
 10
177.5369663455
 20
160.6429707685
 30
0.0
 10
177.4186945293
 20
160.836436815
 30
0.0
 10
177.3075114063
 20
160.9296930271
 30
0.0
 10
177.2481470812
 20
160.9639662504
 30
0.0
  0
SPLINE
  5
33E
100
AcDbEntity
  8
0
100
AcDbSpline
 62
7
  6
CONTINUOUS
 70
0
 71
3
 72
9
 73
5
 74
0
 42
0.0000001
 43
0.0000001
 44
0.0000000001
 40
0.0
 40
0.0
 40
0.0
 40
0.0
 40
0.2604032675
 40
1.0
 40
1.0
 40
1.0
 40
1.0
 10
177.5776304523
 20
159.7346118822
 30
0.0
 10
177.5847323761
 20
159.7693175399
 30
0.0
 10
177.6090084209
 20
159.9031660478
 30
0.0
 10
177.6209996145
 20
160.0394248332
 30
0.0
 10
177.6209996146
 20
160.1400384069
 30
0.0
  0
SPLINE
  5
33F
100
AcDbEntity
  8
0
100
AcDbSpline
 62
7
  6
CONTINUOUS
 70
0
 71
3
 72
11
 73
7
 74
0
 42
0.0000001
 43
0.0000001
 44
0.0000000001
 40
0.0
 40
0.0
 40
0.0
 40
0.0
 40
0.2309818291
 40
0.4860546452
 40
0.7485149632
 40
1.0
 40
1.0
 40
1.0
 40
1.0
 10
175.7040218403
 20
154.7874648103
 30
0.0
 10
175.8529439112
 20
154.8734444946
 30
0.0
 10
176.1398275698
 20
155.1010109695
 30
0.0
 10
176.4967328937
 20
155.533019539
 30
0.0
 10
176.7754926782
 20
156.036613247
 30
0.0
 10
176.8959051299
 20
156.4031588645
 30
0.0
 10
176.9334395847
 20
156.5865821125
 30
0.0
  0
SPLINE
  5
340
100
AcDbEntity
  8
0
100
AcDbSpline
 62
7
  6
CONTINUOUS
 70
0
 71
3
 72
11
 73
7
 74
0
 42
0.0000001
 43
0.0000001
 44
0.0000000001
 40
0.0
 40
0.0
 40
0.0
 40
0.0
 40
0.2895748917
 40
0.5491178102
 40
0.7822520885
 40
1.0
 40
1.0
 40
1.0
 40
1.0
 10
175.9946607884
 20
160.4785044654
 30
0.0
 10
176.0648126333
 20
160.5190064102
 30
0.0
 10
176.2044598276
 20
160.585373866
 30
0.0
 10
176.4190327842
 20
160.6372782466
 30
0.0
 10
176.6204454445
 20
160.6322162804
 30
0.0
 10
176.7416163594
 20
160.5881188929
 30
0.0
 10
176.7943742855
 20
160.5576748506
 30
0.0
  0
SPLINE
  5
341
100
AcDbEntity
  8
0
100
AcDbSpline
 62
7
  6
CONTINUOUS
 70
0
 71
3
 72
11
 73
7
 74
0
 42
0.0000001
 43
0.0000001
 44
0.0000000001
 40
0.0
 40
0.0
 40
0.0
 40
0.0
 40
0.2147238704
 40
0.4687014601
 40
0.7398759068
 40
1.0
 40
1.0
 40
1.0
 40
1.0
 10
155.195194563
 20
146.8259745018
 30
0.0
 10
155.1516813606
 20
146.9883702549
 30
0.0
 10
155.1448416778
 20
147.3655061699
 30
0.0
 10
155.3011682448
 20
147.9282935603
 30
0.0
 10
155.5975734624
 20
148.4726301823
 30
0.0
 10
155.8766703927
 20
148.7880905709
 30
0.0
 10
156.0322775533
 20
148.9195005473
 30
0.0
  0
SPLINE
  5
342
100
AcDbEntity
  8
0
100
AcDbSpline
 62
7
  6
CONTINUOUS
 70
0
 71
3
 72
9
 73
5
 74
0
 42
0.0000001
 43
0.0000001
 44
0.0000000001
 40
0.0
 40
0.0
 40
0.0
 40
0.0
 40
0.2596767375
 40
1.0
 40
1.0
 40
1.0
 40
1.0
 10
156.0322775533
 20
148.9195005473
 30
0.0
 10
156.0530029541
 20
148.9370031122
 30
0.0
 10
156.1341442981
 20
149.0027936378
 30
0.0
 10
156.2207001491
 20
149.0620711143
 30
0.0
 10
156.2876768458
 20
149.1007398974
 30
0.0
  0
SPLINE
  5
343
100
AcDbEntity
  8
0
100
AcDbSpline
 62
7
  6
CONTINUOUS
 70
0
 71
3
 72
11
 73
7
 74
0
 42
0.0000001
 43
0.0000001
 44
0.0000000001
 40
0.0
 40
0.0
 40
0.0
 40
0.0
 40
0.2372386365
 40
0.4999898822
 40
0.7627509063
 40
1.0
 40
1.0
 40
1.0
 40
1.0
 10
179.3605141915
 20
165.9023626445
 30
0.0
 10
179.3606220949
 20
165.7867670796
 30
0.0
 10
179.317098518
 20
165.5429914633
 30
0.0
 10
179.1660855885
 20
165.2004139635
 30
0.0
 10
178.9449729891
 20
164.8982873898
 30
0.0
 10
178.7556233241
 20
164.7386853012
 30
0.0
 10
178.6554640235
 20
164.6809649514
 30
0.0
  0
SPLINE
  5
344
100
AcDbEntity
  8
0
100
AcDbSpline
 62
7
  6
CONTINUOUS
 70
0
 71
3
 72
9
 73
5
 74
0
 42
0.0000001
 43
0.0000001
 44
0.0000000001
 40
0.0
 40
0.0
 40
0.0
 40
0.0
 40
0.5481302826
 40
1.0
 40
1.0
 40
1.0
 40
1.0
 10
122.6860631269
 20
94.0108911936
 30
0.0
 10
122.7113515994
 20
93.9952715065
 30
0.0
 10
122.754575805
 20
93.9597376315
 30
0.0
 10
122.7743873143
 20
93.9049598082
 30
0.0
 10
122.7739141276
 20
93.8804608751
 30
0.0
  0
SPLINE
  5
345
100
AcDbEntity
  8
0
100
AcDbSpline
 62
7
  6
CONTINUOUS
 70
0
 71
3
 72
11
 73
7
 74
0
 42
0.0000001
 43
0.0000001
 44
0.0000000001
 40
0.0
 40
0.0
 40
0.0
 40
0.0
 40
0.2176746342
 40
0.4508340055
 40
0.7104853484
 40
1.0
 40
1.0
 40
1.0
 40
1.0
 10
176.6039858264
 20
141.3552991868
 30
0.0
 10
176.5446429772
 20
141.3895600605
 30
0.0
 10
176.4082719574
 20
141.439098905
 30
0.0
 10
176.1816080107
 20
141.4448864533
 30
0.0
 10
175.9401270126
 20
141.3864001388
 30
0.0
 10
175.7829495384
 20
141.3117534385
 30
0.0
 10
175.7040218411
 20
141.2661847831
 30
0.0
  0
SPLINE
  5
346
100
AcDbEntity
  8
0
100
AcDbSpline
 62
7
  6
CONTINUOUS
 70
0
 71
3
 72
15
 73
11
 74
0
 42
0.0000001
 43
0.0000001
 44
0.0000000001
 40
0.0
 40
0.0
 40
0.0
 40
0.0
 40
0.1290921813
 40
0.2713107152
 40
0.4189008846
 40
0.563544944
 40
0.6972314965
 40
0.8142321653
 40
0.9132269805
 40
1.0
 40
1.0
 40
1.0
 40
1.0
 10
135.7391596757
 20
137.8776172465
 30
0.0
 10
135.6401839912
 20
137.8204717779
 30
0.0
 10
135.4480996771
 20
137.6722681758
 30
0.0
 10
135.2024810002
 20
137.3920505868
 30
0.0
 10
135.0010471527
 20
137.0621841001
 30
0.0
 10
134.8602841315
 20
136.7103453497
 30
0.0
 10
134.7917860498
 20
136.364658413
 30
0.0
 10
134.8018363769
 20
136.0518177201
 30
0.0
 10
134.893544146
 20
135.7933798631
 30
0.0
 10
135.017085252
 20
135.6729609616
 30
0.0
 10
135.0845627111
 20
135.6362400361
 30
0.0
  0
SPLINE
  5
347
100
AcDbEntity
  8
0
100
AcDbSpline
 62
7
  6
CONTINUOUS
 70
0
 71
3
 72
9
 73
5
 74
0
 42
0.0000001
 43
0.0000001
 44
0.0000000001
 40
0.0
 40
0.0
 40
0.0
 40
0.0
 40
0.2415527686
 40
1.0
 40
1.0
 40
1.0
 40
1.0
 10
135.8976122749
 20
137.9535802327
 30
0.0
 10
135.8843788338
 20
137.9485499129
 30
0.0
 10
135.8300583063
 20
137.9265107565
 30
0.0
 10
135.7776574257
 20
137.899841459
 30
0.0
 10
135.7391596757
 20
137.8776172465
 30
0.0
  0
SPLINE
  5
348
100
AcDbEntity
  8
0
100
AcDbSpline
 62
7
  6
CONTINUOUS
 70
0
 71
3
 72
15
 73
11
 74
0
 42
0.0000001
 43
0.0000001
 44
0.0000000001
 40
0.0
 40
0.0
 40
0.0
 40
0.0
 40
0.1290921813
 40
0.2713107152
 40
0.4189008846
 40
0.563544944
 40
0.6972314965
 40
0.8142321653
 40
0.9132269805
 40
1.0
 40
1.0
 40
1.0
 40
1.0
 10
135.7391596757
 20
111.2596384481
 30
0.0
 10
135.6401839912
 20
111.2024929794
 30
0.0
 10
135.4480996771
 20
111.0542893774
 30
0.0
 10
135.2024810002
 20
110.7740717884
 30
0.0
 10
135.0010471527
 20
110.4442053017
 30
0.0
 10
134.8602841315
 20
110.0923665513
 30
0.0
 10
134.7917860498
 20
109.7466796146
 30
0.0
 10
134.8018363769
 20
109.4338389217
 30
0.0
 10
134.893544146
 20
109.1754010647
 30
0.0
 10
135.017085252
 20
109.0549821631
 30
0.0
 10
135.0845627111
 20
109.0182612377
 30
0.0
  0
SPLINE
  5
349
100
AcDbEntity
  8
0
100
AcDbSpline
 62
7
  6
CONTINUOUS
 70
0
 71
3
 72
9
 73
5
 74
0
 42
0.0000001
 43
0.0000001
 44
0.0000000001
 40
0.0
 40
0.0
 40
0.0
 40
0.0
 40
0.2415527686
 40
1.0
 40
1.0
 40
1.0
 40
1.0
 10
135.8976122749
 20
111.3356014343
 30
0.0
 10
135.8843788338
 20
111.3305711145
 30
0.0
 10
135.8300583063
 20
111.3085319581
 30
0.0
 10
135.7776574257
 20
111.2818626606
 30
0.0
 10
135.7391596757
 20
111.2596384481
 30
0.0
  0
SPLINE
  5
34A
100
AcDbEntity
  8
0
100
AcDbSpline
 62
7
  6
CONTINUOUS
 70
0
 71
3
 72
11
 73
7
 74
0
 42
0.0000001
 43
0.0000001
 44
0.0000000001
 40
0.0
 40
0.0
 40
0.0
 40
0.0
 40
0.2372419414
 40
0.4999983905
 40
0.7627557025
 40
1.0
 40
1.0
 40
1.0
 40
1.0
 10
174.9075607534
 20
132.7146623073
 30
0.0
 10
175.007745983
 20
132.7723754374
 30
0.0
 10
175.1971315586
 20
132.9320022349
 30
0.0
 10
175.4183329247
 20
133.2341470215
 30
0.0
 10
175.5693977094
 20
133.5767877868
 30
0.0
 10
175.6129407803
 20
133.8206152982
 30
0.0
 10
175.6128326479
 20
133.9362359686
 30
0.0
  0
SPLINE
  5
34B
100
AcDbEntity
  8
0
100
AcDbSpline
 62
7
  6
CONTINUOUS
 70
0
 71
3
 72
11
 73
7
 74
0
 42
0.0000001
 43
0.0000001
 44
0.0000000001
 40
0.0
 40
0.0
 40
0.0
 40
0.0
 40
0.2372490937
 40
0.5000101178
 40
0.7627613635
 40
1.0
 40
1.0
 40
1.0
 40
1.0
 10
174.9077824799
 20
166.8446409507
 30
0.0
 10
175.0079417806
 20
166.9023613005
 30
0.0
 10
175.1972914455
 20
167.0619633891
 30
0.0
 10
175.4184040449
 20
167.3640899628
 30
0.0
 10
175.5694169744
 20
167.7066674626
 30
0.0
 10
175.6129405513
 20
167.9504430789
 30
0.0
 10
175.6128326479
 20
168.0660386438
 30
0.0
  0
SPLINE
  5
34C
100
AcDbEntity
  8
0
100
AcDbSpline
 62
7
  6
CONTINUOUS
 70
0
 71
3
 72
9
 73
5
 74
0
 42
0.0000001
 43
0.0000001
 44
0.0000000001
 40
0.0
 40
0.0
 40
0.0
 40
0.0
 40
0.5256803274
 40
1.0
 40
1.0
 40
1.0
 40
1.0
 10
178.0294573794
 20
139.2384695612
 30
0.0
 10
178.0936843296
 20
139.3497145196
 30
0.0
 10
178.1932108539
 20
139.5752291318
 30
0.0
 10
178.2361622877
 20
139.8197300501
 30
0.0
 10
178.2361622878
 20
139.9356340748
 30
0.0
  0
SPLINE
  5
34D
100
AcDbEntity
  8
0
100
AcDbSpline
 62
7
  6
CONTINUOUS
 70
0
 71
3
 72
9
 73
5
 74
0
 42
0.0000001
 43
0.0000001
 44
0.0000000001
 40
0.0
 40
0.0
 40
0.0
 40
0.0
 40
0.4743206832
 40
1.0
 40
1.0
 40
1.0
 40
1.0
 10
177.529053465
 20
138.7108780979
 30
0.0
 10
177.6294441261
 20
138.7688029528
 30
0.0
 10
177.8196841222
 20
138.9282939134
 30
0.0
 10
177.9652310942
 20
139.1272257546
 30
0.0
 10
178.0294573794
 20
139.2384695612
 30
0.0
  0
SPLINE
  5
34E
100
AcDbEntity
  8
0
100
AcDbSpline
 62
7
  6
CONTINUOUS
 70
0
 71
3
 72
9
 73
5
 74
0
 42
0.0000001
 43
0.0000001
 44
0.0000000001
 40
0.0
 40
0.0
 40
0.0
 40
0.0
 40
0.2394580615
 40
1.0
 40
1.0
 40
1.0
 40
1.0
 10
152.5400088436
 20
126.0961678284
 30
0.0
 10
152.5400088437
 20
126.1287450555
 30
0.0
 10
152.543929338
 20
126.264782355
 30
0.0
 10
152.5626348033
 20
126.4002265404
 30
0.0
 10
152.5833780061
 20
126.5015943538
 30
0.0
  0
SPLINE
  5
34F
100
AcDbEntity
  8
0
100
AcDbSpline
 62
7
  6
CONTINUOUS
 70
0
 71
3
 72
11
 73
7
 74
0
 42
0.0000001
 43
0.0000001
 44
0.0000000001
 40
0.0
 40
0.0
 40
0.0
 40
0.0
 40
0.2895411595
 40
0.5491183967
 40
0.7822559144
 40
1.0
 40
1.0
 40
1.0
 40
1.0
 10
154.6613380196
 20
124.8714455645
 30
0.0
 10
154.6613380195
 20
124.780295631
 30
0.0
 10
154.6752556941
 20
124.6068532968
 30
0.0
 10
154.7453712887
 20
124.3685132029
 30
0.0
 10
154.8636431049
 20
124.1750471563
 30
0.0
 10
154.9748262278
 20
124.0817909443
 30
0.0
 10
155.034190553
 20
124.047517721
 30
0.0
  0
SPLINE
  5
350
100
AcDbEntity
  8
0
100
AcDbSpline
 62
7
  6
CONTINUOUS
 70
0
 71
3
 72
9
 73
5
 74
0
 42
0.0000001
 43
0.0000001
 44
0.0000000001
 40
0.0
 40
0.0
 40
0.0
 40
0.0
 40
0.2604032675
 40
1.0
 40
1.0
 40
1.0
 40
1.0
 10
154.704707182
 20
125.2768720899
 30
0.0
 10
154.6976052581
 20
125.2421664321
 30
0.0
 10
154.6733292133
 20
125.108317924
 30
0.0
 10
154.6613380196
 20
124.9720591384
 30
0.0
 10
154.6613380196
 20
124.8714455645
 30
0.0
  0
SPLINE
  5
351
100
AcDbEntity
  8
0
100
AcDbSpline
 62
7
  6
CONTINUOUS
 70
0
 71
3
 72
11
 73
7
 74
0
 42
0.0000001
 43
0.0000001
 44
0.0000000001
 40
0.0
 40
0.0
 40
0.0
 40
0.0
 40
0.2309818291
 40
0.4860546453
 40
0.7485149632
 40
1.0
 40
1.0
 40
1.0
 40
1.0
 10
156.578315793
 20
130.2240191606
 30
0.0
 10
156.4293937221
 20
130.1380394763
 30
0.0
 10
156.1425100638
 20
129.9104730012
 30
0.0
 10
155.7856047401
 20
129.478464432
 30
0.0
 10
155.5068449559
 20
128.9748707242
 30
0.0
 10
155.3864325043
 20
128.608325107
 30
0.0
 10
155.3488980495
 20
128.4249018591
 30
0.0
  0
SPLINE
  5
352
100
AcDbEntity
  8
0
100
AcDbSpline
 62
7
  6
CONTINUOUS
 70
0
 71
3
 72
11
 73
7
 74
0
 42
0.0000001
 43
0.0000001
 44
0.0000000001
 40
0.0
 40
0.0
 40
0.0
 40
0.0
 40
0.2895748917
 40
0.5491178102
 40
0.7822520885
 40
1.0
 40
1.0
 40
1.0
 40
1.0
 10
156.2876768458
 20
124.5329795059
 30
0.0
 10
156.2175250008
 20
124.4924775611
 30
0.0
 10
156.0778778065
 20
124.4261101054
 30
0.0
 10
155.86330485
 20
124.3742057247
 30
0.0
 10
155.6618921897
 20
124.379267691
 30
0.0
 10
155.5407212748
 20
124.4233650784
 30
0.0
 10
155.4879633486
 20
124.4538091207
 30
0.0
  0
SPLINE
  5
353
100
AcDbEntity
  8
0
100
AcDbSpline
 62
7
  6
CONTINUOUS
 70
0
 71
3
 72
11
 73
7
 74
0
 42
0.0000001
 43
0.0000001
 44
0.0000000001
 40
0.0
 40
0.0
 40
0.0
 40
0.0
 40
0.219448541
 40
0.481110196
 40
0.7534366642
 40
1.0
 40
1.0
 40
1.0
 40
1.0
 10
177.0871430711
 20
138.1855094695
 30
0.0
 10
177.1374761515
 20
137.9976612292
 30
0.0
 10
177.1305928261
 20
137.5567041901
 30
0.0
 10
176.9145733977
 20
136.9183334384
 30
0.0
 10
176.5344521577
 20
136.3324147954
 30
0.0
 10
176.183890804
 20
136.0199954223
 30
0.0
 10
175.9946607884
 20
135.910744074
 30
0.0
  0
SPLINE
  5
354
100
AcDbEntity
  8
0
100
AcDbSpline
 62
7
  6
CONTINUOUS
 70
0
 71
3
 72
13
 73
9
 74
0
 42
0.0000001
 43
0.0000001
 44
0.0000000001
 40
0.0
 40
0.0
 40
0.0
 40
0.0
 40
0.2840447614
 40
0.5634410365
 40
0.6912340814
 40
0.8068265864
 40
0.9092282126
 40
1.0
 40
1.0
 40
1.0
 40
1.0
 10
188.5952429241
 20
141.2004447934
 30
0.0
 10
188.8687356919
 20
141.4940360034
 30
0.0
 10
189.3318567279
 20
142.152938779
 30
0.0
 10
189.6921873475
 20
143.0732542611
 30
0.0
 10
189.8055440048
 20
143.8058635546
 30
0.0
 10
189.7956967648
 20
144.2973212531
 30
0.0
 10
189.693088078
 20
144.7253492696
 30
0.0
 10
189.5550864876
 20
144.9671551883
 30
0.0
 10
189.4722302851
 20
145.0650133773
 30
0.0
  0
SPLINE
  5
355
100
AcDbEntity
  8
0
100
AcDbSpline
 62
7
  6
CONTINUOUS
 70
0
 71
3
 72
9
 73
5
 74
0
 42
0.0000001
 43
0.0000001
 44
0.0000000001
 40
0.0
 40
0.0
 40
0.0
 40
0.0
 40
0.2537956351
 40
1.0
 40
1.0
 40
1.0
 40
1.0
 10
189.4722302851
 20
145.0650133773
 30
0.0
 10
189.459812967
 20
145.0796789814
 30
0.0
 10
189.4093091901
 20
145.1361051264
 30
0.0
 10
189.3523917137
 20
145.1868283165
 30
0.0
 10
189.3070084014
 20
145.2204818678
 30
0.0
  0
SPLINE
  5
356
100
AcDbEntity
  8
0
100
AcDbSpline
 62
7
  6
CONTINUOUS
 70
0
 71
3
 72
9
 73
5
 74
0
 42
0.0000001
 43
0.0000001
 44
0.0000000001
 40
0.0
 40
0.0
 40
0.0
 40
0.0
 40
0.2435221025
 40
1.0
 40
1.0
 40
1.0
 40
1.0
 10
174.2111745729
 20
137.3901499939
 30
0.0
 10
174.2392634314
 20
137.4165073815
 30
0.0
 10
174.351718318
 20
137.5277975928
 30
0.0
 10
174.452942241
 20
137.6502925429
 30
0.0
 10
174.5228961314
 20
137.7473684715
 30
0.0
  0
SPLINE
  5
357
100
AcDbEntity
  8
0
100
AcDbSpline
 62
7
  6
CONTINUOUS
 70
0
 71
3
 72
10
 73
6
 74
0
 42
0.0000001
 43
0.0000001
 44
0.0000000001
 40
0.0
 40
0.0
 40
0.0
 40
0.0
 40
0.542850519
 40
0.787133696
 40
1.0
 40
1.0
 40
1.0
 40
1.0
 10
174.6032386563
 20
137.8652961608
 30
0.0
 10
174.7621719592
 20
138.112182189
 30
0.0
 10
174.9407722892
 20
138.5109818419
 30
0.0
 10
175.018223453
 20
139.0488168441
 30
0.0
 10
174.9956129412
 20
139.2990186246
 30
0.0
 10
174.9658138952
 20
139.4102317335
 30
0.0
  0
SPLINE
  5
358
100
AcDbEntity
  8
0
100
AcDbSpline
 62
7
  6
CONTINUOUS
 70
0
 71
3
 72
11
 73
7
 74
0
 42
0.0000001
 43
0.0000001
 44
0.0000000001
 40
0.0
 40
0.0
 40
0.0
 40
0.0
 40
0.2371903923
 40
0.4999993321
 40
0.7628084317
 40
1.0
 40
1.0
 40
1.0
 40
1.0
 10
177.529054456
 20
157.8986853554
 30
0.0
 10
177.629441766
 20
157.9566436498
 30
0.0
 10
177.8197247147
 20
158.1162059499
 30
0.0
 10
178.0415497317
 20
158.4192966159
 30
0.0
 10
178.1931196173
 20
158.7629495228
 30
0.0
 10
178.2361622883
 20
159.0075211614
 30
0.0
 10
178.2361622884
 20
159.123438844
 30
0.0
  0
SPLINE
  5
359
100
AcDbEntity
  8
0
100
AcDbSpline
 62
7
  6
CONTINUOUS
 70
0
 71
3
 72
9
 73
5
 74
0
 42
0.0000001
 43
0.0000001
 44
0.0000000001
 40
0.0
 40
0.0
 40
0.0
 40
0.0
 40
0.2366981072
 40
1.0
 40
1.0
 40
1.0
 40
1.0
 10
152.5833780077
 20
147.7537245614
 30
0.0
 10
152.576055721
 20
147.7810520894
 30
0.0
 10
152.5495708254
 20
147.8976914463
 30
0.0
 10
152.5400088447
 20
148.0178387837
 30
0.0
 10
152.5400088447
 20
148.109072994
 30
0.0
  0
SPLINE
  5
35A
100
AcDbEntity
  8
0
100
AcDbSpline
 62
7
  6
CONTINUOUS
 70
0
 71
3
 72
9
 73
5
 74
0
 42
0.0000001
 43
0.0000001
 44
0.0000000001
 40
0.0
 40
0.0
 40
0.0
 40
0.0
 40
0.2356273834
 40
1.0
 40
1.0
 40
1.0
 40
1.0
 10
152.5400088447
 20
148.109072994
 30
0.0
 10
152.5400088447
 20
148.15530896
 30
0.0
 10
152.5481653107
 20
148.3515113394
 30
0.0
 10
152.585533594
 20
148.5459648145
 30
0.0
 10
152.6261598308
 20
148.6903469365
 30
0.0
  0
SPLINE
  5
35B
100
AcDbEntity
  8
0
100
AcDbSpline
 62
7
  6
CONTINUOUS
 70
0
 71
3
 72
9
 73
5
 74
0
 42
0.0000001
 43
0.0000001
 44
0.0000000001
 40
0.0
 40
0.0
 40
0.0
 40
0.0
 40
0.2638119115
 40
1.0
 40
1.0
 40
1.0
 40
1.0
 10
154.6613380199
 20
146.8843507305
 30
0.0
 10
154.6613380199
 20
146.8528220671
 30
0.0
 10
154.664663781
 20
146.7333773338
 30
0.0
 10
154.6819357421
 20
146.6139876603
 30
0.0
 10
154.7047071829
 20
146.5290022981
 30
0.0
  0
SPLINE
  5
35C
100
AcDbEntity
  8
0
100
AcDbSpline
 62
7
  6
CONTINUOUS
 70
0
 71
3
 72
11
 73
7
 74
0
 42
0.0000001
 43
0.0000001
 44
0.0000000001
 40
0.0
 40
0.0
 40
0.0
 40
0.0
 40
0.2372518718
 40
0.4999985497
 40
0.7627460178
 40
1.0
 40
1.0
 40
1.0
 40
1.0
 10
155.9341249269
 20
149.0888945583
 30
0.0
 10
155.7534157871
 20
148.9845627105
 30
0.0
 10
155.4114400266
 20
148.696784273
 30
0.0
 10
155.0124605863
 20
148.1513268207
 30
0.0
 10
154.7395729261
 20
147.5330685628
 30
0.0
 10
154.6613380199
 20
147.0930172162
 30
0.0
 10
154.6613380199
 20
146.8843507305
 30
0.0
  0
SPLINE
  5
35D
100
AcDbEntity
  8
0
100
AcDbSpline
 62
7
  6
CONTINUOUS
 70
0
 71
3
 72
15
 73
11
 74
0
 42
0.0000001
 43
0.0000001
 44
0.0000000001
 40
0.0
 40
0.0
 40
0.0
 40
0.0
 40
0.0867855981
 40
0.185790512
 40
0.302794544
 40
0.4364735338
 40
0.581111257
 40
0.7287272193
 40
0.8708826865
 40
1.0
 40
1.0
 40
1.0
 40
1.0
 10
132.7893213918
 20
110.2672454765
 30
0.0
 10
132.7184744981
 20
110.3057856578
 30
0.0
 10
132.5887220608
 20
110.4321638629
 30
0.0
 10
132.4925755483
 20
110.7035308875
 30
0.0
 10
132.4820561023
 20
111.031906951
 30
0.0
 10
132.5539586065
 20
111.3947619014
 30
0.0
 10
132.7016808239
 20
111.7641155402
 30
0.0
 10
132.9131930844
 20
112.1102816818
 30
0.0
 10
133.1709550571
 20
112.4044646832
 30
0.0
 10
133.3726089376
 20
112.5599470099
 30
0.0
 10
133.4765232106
 20
112.6199438653
 30
0.0
  0
SPLINE
  5
35E
100
AcDbEntity
  8
0
100
AcDbSpline
 62
7
  6
CONTINUOUS
 70
0
 71
3
 72
11
 73
7
 74
0
 42
0.0000001
 43
0.0000001
 44
0.0000000001
 40
0.0
 40
0.0
 40
0.0
 40
0.0
 40
0.2514850368
 40
0.5139453547
 40
0.7690181709
 40
1.0
 40
1.0
 40
1.0
 40
1.0
 10
176.4562149591
 20
156.3820040391
 30
0.0
 10
176.4228611807
 20
156.2190109066
 30
0.0
 10
176.3158605533
 20
155.8932920075
 30
0.0
 10
176.0681496939
 20
155.4457897583
 30
0.0
 10
175.75099733
 20
155.0618993255
 30
0.0
 10
175.4960674523
 20
154.859679743
 30
0.0
 10
175.3637326741
 20
154.7832766793
 30
0.0
  0
SPLINE
  5
35F
100
AcDbEntity
  8
0
100
AcDbSpline
 62
7
  6
CONTINUOUS
 70
0
 71
3
 72
14
 73
10
 74
0
 42
0.0000001
 43
0.0000001
 44
0.0000000001
 40
0.0
 40
0.0
 40
0.0
 40
0.0
 40
0.0873847624
 40
0.1839078416
 40
0.2947321635
 40
0.4205983809
 40
0.5590583356
 40
0.7056188165
 40
1.0
 40
1.0
 40
1.0
 40
1.0
 10
189.3587799888
 20
171.8158022127
 30
0.0
 10
189.4739163888
 20
171.7493151445
 30
0.0
 10
189.6866124528
 20
171.5532604791
 30
0.0
 10
189.8801314478
 20
171.1397555381
 30
0.0
 10
189.9565677375
 20
170.6332957314
 30
0.0
 10
189.9175813961
 20
170.0603787145
 30
0.0
 10
189.7670395572
 20
169.4506407728
 30
0.0
 10
189.4295874312
 20
168.6342727898
 30
0.0
 10
189.0456622806
 20
168.0692602209
 30
0.0
 10
188.7403681029
 20
167.7415305783
 30
0.0
  0
SPLINE
  5
360
100
AcDbEntity
  8
0
100
AcDbSpline
 62
7
  6
CONTINUOUS
 70
0
 71
3
 72
11
 73
7
 74
0
 42
0.0000001
 43
0.0000001
 44
0.0000000001
 40
0.0
 40
0.0
 40
0.0
 40
0.0
 40
0.2895146516
 40
0.5491659945
 40
0.7823253658
 40
1.0
 40
1.0
 40
1.0
 40
1.0
 10
156.91860496
 20
144.1340407957
 30
0.0
 10
156.8484684165
 20
144.0935476851
 30
0.0
 10
156.7087977417
 20
144.0272153111
 30
0.0
 10
156.4942134691
 20
143.9752433406
 30
0.0
 10
156.2927958896
 20
143.980386258
 30
0.0
 10
156.171614197
 20
144.0244073487
 30
0.0
 10
156.1188810948
 20
144.0548521651
 30
0.0
  0
SPLINE
  5
361
100
AcDbEntity
  8
0
100
AcDbSpline
 62
7
  6
CONTINUOUS
 70
0
 71
3
 72
14
 73
10
 74
0
 42
0.0000001
 43
0.0000001
 44
0.0000000001
 40
0.0
 40
0.0
 40
0.0
 40
0.0
 40
0.0873847624
 40
0.1839078416
 40
0.2947321635
 40
0.4205983809
 40
0.5590583356
 40
0.7056188165
 40
1.0
 40
1.0
 40
1.0
 40
1.0
 10
189.3587799886
 20
145.1978234144
 30
0.0
 10
189.4739163887
 20
145.1313363462
 30
0.0
 10
189.6866124528
 20
144.9352816808
 30
0.0
 10
189.8801314478
 20
144.5217767397
 30
0.0
 10
189.9565677375
 20
144.015316933
 30
0.0
 10
189.9175813961
 20
143.442399916
 30
0.0
 10
189.7670395572
 20
142.8326619741
 30
0.0
 10
189.4295874311
 20
142.0162939911
 30
0.0
 10
189.0456622806
 20
141.451281422
 30
0.0
 10
188.7403681028
 20
141.1235517794
 30
0.0
  0
SPLINE
  5
362
100
AcDbEntity
  8
0
100
AcDbSpline
 62
7
  6
CONTINUOUS
 70
0
 71
3
 72
15
 73
11
 74
0
 42
0.0000001
 43
0.0000001
 44
0.0000000001
 40
0.0
 40
0.0
 40
0.0
 40
0.0
 40
0.0867855981
 40
0.185790512
 40
0.302794544
 40
0.4364735338
 40
0.581111257
 40
0.7287272193
 40
0.8708826865
 40
1.0
 40
1.0
 40
1.0
 40
1.0
 10
132.7893213927
 20
136.8852242745
 30
0.0
 10
132.7184744989
 20
136.9237644557
 30
0.0
 10
132.5887220617
 20
137.0501426608
 30
0.0
 10
132.4925755491
 20
137.3215096855
 30
0.0
 10
132.4820561032
 20
137.6498857489
 30
0.0
 10
132.5539586074
 20
138.0127406993
 30
0.0
 10
132.7016808248
 20
138.3820943381
 30
0.0
 10
132.9131930852
 20
138.7282604798
 30
0.0
 10
133.170955058
 20
139.0224434812
 30
0.0
 10
133.3726089385
 20
139.1779258078
 30
0.0
 10
133.4765232115
 20
139.2379226632
 30
0.0
  0
SPLINE
  5
363
100
AcDbEntity
  8
0
100
AcDbSpline
 62
7
  6
CONTINUOUS
 70
0
 71
3
 72
11
 73
7
 74
0
 42
0.0000001
 43
0.0000001
 44
0.0000000001
 40
0.0
 40
0.0
 40
0.0
 40
0.0
 40
0.2801351008
 40
0.5260057578
 40
0.7528775366
 40
1.0
 40
1.0
 40
1.0
 40
1.0
 10
25.478412859
 20
140.437686609
 30
0.0
 10
25.4001613579
 20
140.4708164695
 30
0.0
 10
25.2458614719
 20
140.518117955
 30
0.0
 10
25.0123448247
 20
140.5179143162
 30
0.0
 10
24.8073025191
 20
140.4164110829
 30
0.0
 10
24.7325457064
 20
140.2828669454
 30
0.0
 10
24.7115962695
 20
140.2108920185
 30
0.0
  0
SPLINE
  5
364
100
AcDbEntity
  8
0
100
AcDbSpline
 62
7
  6
CONTINUOUS
 70
0
 71
3
 72
9
 73
5
 74
0
 42
0.0000001
 43
0.0000001
 44
0.0000000001
 40
0.0
 40
0.0
 40
0.0
 40
0.0
 40
0.2422003564
 40
1.0
 40
1.0
 40
1.0
 40
1.0
 10
173.5764650571
 20
156.2591618092
 30
0.0
 10
173.617636256
 20
156.2976015839
 30
0.0
 10
173.7813901464
 20
156.4629180118
 30
0.0
 10
173.9212330329
 20
156.6514511878
 30
0.0
 10
174.0125279609
 20
156.8021964498
 30
0.0
  0
SPLINE
  5
365
100
AcDbEntity
  8
0
100
AcDbSpline
 62
7
  6
CONTINUOUS
 70
0
 71
3
 72
13
 73
9
 74
0
 42
0.0000001
 43
0.0000001
 44
0.0000000001
 40
0.0
 40
0.0
 40
0.0
 40
0.0
 40
0.284044226
 40
0.5634411974
 40
0.6912345255
 40
0.8068271194
 40
0.9092285267
 40
1.0
 40
1.0
 40
1.0
 40
1.0
 10
188.5952429249
 20
167.8184069406
 30
0.0
 10
188.8687396852
 20
168.1120024364
 30
0.0
 10
189.3318820686
 20
168.7709058474
 30
0.0
 10
189.6922224229
 20
169.6912372441
 30
0.0
 10
189.8055841597
 20
170.4238595274
 30
0.0
 10
189.7957370658
 20
170.9153256919
 30
0.0
 10
189.6931251706
 20
171.3433599953
 30
0.0
 10
189.5551185943
 20
171.5851677443
 30
0.0
 10
189.4722598653
 20
171.6830259821
 30
0.0
  0
SPLINE
  5
366
100
AcDbEntity
  8
0
100
AcDbSpline
 62
7
  6
CONTINUOUS
 70
0
 71
3
 72
9
 73
5
 74
0
 42
0.0000001
 43
0.0000001
 44
0.0000000001
 40
0.0
 40
0.0
 40
0.0
 40
0.0
 40
0.253794581
 40
1.0
 40
1.0
 40
1.0
 40
1.0
 10
189.4722598653
 20
171.6830259821
 30
0.0
 10
189.4598463447
 20
171.6976866613
 30
0.0
 10
189.4093583567
 20
171.754094493
 30
0.0
 10
189.3524608781
 20
171.8048030473
 30
0.0
 10
189.307093989
 20
171.8384486078
 30
0.0
  0
SPLINE
  5
367
100
AcDbEntity
  8
0
100
AcDbSpline
 62
7
  6
CONTINUOUS
 70
0
 71
3
 72
11
 73
7
 74
0
 42
0.0000001
 43
0.0000001
 44
0.0000000001
 40
0.0
 40
0.0
 40
0.0
 40
0.0
 40
0.2043512852
 40
0.4327886719
 40
0.69804198
 40
1.0
 40
1.0
 40
1.0
 40
1.0
 10
176.7943742855
 20
160.5576748506
 30
0.0
 10
176.8651536219
 20
160.5168315258
 30
0.0
 10
176.9950986124
 20
160.3926428637
 30
0.0
 10
177.105231877
 20
160.1301887304
 30
0.0
 10
177.1381802064
 20
159.8104480661
 30
0.0
 10
177.1113509574
 20
159.583520437
 30
0.0
 10
177.087143071
 20
159.4652214194
 30
0.0
  0
SPLINE
  5
368
100
AcDbEntity
  8
0
100
AcDbSpline
 62
7
  6
CONTINUOUS
 70
0
 71
3
 72
13
 73
9
 74
0
 42
0.0000001
 43
0.0000001
 44
0.0000000001
 40
0.0
 40
0.0
 40
0.0
 40
0.0
 40
0.0893907283
 40
0.1860362027
 40
0.2947390366
 40
0.417073803
 40
0.6963233107
 40
1.0
 40
1.0
 40
1.0
 40
1.0
 10
188.7189918564
 20
144.4161436612
 30
0.0
 10
188.7835360544
 20
144.3788740987
 30
0.0
 10
188.9041406596
 20
144.2750032261
 30
0.0
 10
189.0256725023
 20
144.057014823
 30
0.0
 10
189.0905255273
 20
143.7889438916
 30
0.0
 10
189.1014129225
 20
143.3611840387
 30
0.0
 10
188.962993077
 20
142.7803250586
 30
0.0
 10
188.7375857918
 20
142.3442895694
 30
0.0
 10
188.5952429241
 20
142.1348912611
 30
0.0
  0
SPLINE
  5
369
100
AcDbEntity
  8
0
100
AcDbSpline
 62
7
  6
CONTINUOUS
 70
0
 71
3
 72
11
 73
7
 74
0
 42
0.0000001
 43
0.0000001
 44
0.0000000001
 40
0.0
 40
0.0
 40
0.0
 40
0.0
 40
0.2177456295
 40
0.4508837762
 40
0.7104602913
 40
1.0
 40
1.0
 40
1.0
 40
1.0
 10
177.2481470812
 20
160.9639662504
 30
0.0
 10
177.1887846859
 20
160.9982383596
 30
0.0
 10
177.0524351439
 20
161.0478940557
 30
0.0
 10
176.8257613539
 20
161.0535861599
 30
0.0
 10
176.5843050354
 20
160.9951406074
 30
0.0
 10
176.4271474624
 20
160.9204760107
 30
0.0
 10
176.348212708
 20
160.874903281
 30
0.0
  0
SPLINE
  5
36A
100
AcDbEntity
  8
0
100
AcDbSpline
 62
7
  6
CONTINUOUS
 70
0
 71
3
 72
19
 73
15
 74
0
 42
0.0000001
 43
0.0000001
 44
0.0000000001
 40
0.0
 40
0.0
 40
0.0
 40
0.0
 40
0.0590516741
 40
0.1181266206
 40
0.1764638301
 40
0.2357280461
 40
0.2966840692
 40
0.3596240776
 40
0.4912602873
 40
0.6266498061
 40
0.7587322759
 40
0.8218959848
 40
0.8830485811
 40
1.0
 40
1.0
 40
1.0
 40
1.0
 10
32.4387783999
 20
155.861692002
 30
0.0
 10
32.348511065
 20
155.5385694873
 30
0.0
 10
32.1681846021
 20
154.8921314015
 30
0.0
 10
31.8973310088
 20
153.9268448247
 30
0.0
 10
31.6312417401
 20
152.9590232551
 30
0.0
 10
31.334655469
 20
151.9884439135
 30
0.0
 10
30.9604825861
 20
151.0162494613
 30
0.0
 10
30.3316649696
 20
149.7061171601
 30
0.0
 10
29.3490519679
 20
148.1053387966
 30
0.0
 10
28.0627621032
 20
146.2395038485
 30
0.0
 10
27.068214883
 20
144.6418377787
 30
0.0
 10
26.4284558516
 20
143.3316327716
 30
0.0
 10
25.9235625524
 20
142.0555366403
 30
0.0
 10
25.657126802
 20
141.0776278524
 30
0.0
 10
25.4783529902
 20
140.437686019
 30
0.0
  0
SPLINE
  5
36B
100
AcDbEntity
  8
0
100
AcDbSpline
 62
7
  6
CONTINUOUS
 70
0
 71
3
 72
11
 73
7
 74
0
 42
0.0000001
 43
0.0000001
 44
0.0000000001
 40
0.0
 40
0.0
 40
0.0
 40
0.0
 40
0.2895390896
 40
0.5491309657
 40
0.7822708686
 40
1.0
 40
1.0
 40
1.0
 40
1.0
 10
187.6760079357
 20
141.3003523932
 30
0.0
 10
187.596919885
 20
141.2546911584
 30
0.0
 10
187.4394521912
 20
141.1798826697
 30
0.0
 10
187.1975203446
 20
141.1213145954
 30
0.0
 10
186.9704098868
 20
141.127037051
 30
0.0
 10
186.8337904085
 20
141.1767611217
 30
0.0
 10
186.7743175006
 20
141.2110979429
 30
0.0
  0
SPLINE
  5
36C
100
AcDbEntity
  8
0
100
AcDbSpline
 62
7
  6
CONTINUOUS
 70
0
 71
3
 72
9
 73
5
 74
0
 42
0.0000001
 43
0.0000001
 44
0.0000000001
 40
0.0
 40
0.0
 40
0.0
 40
0.0
 40
0.5248261044
 40
1.0
 40
1.0
 40
1.0
 40
1.0
 10
188.5952429241
 20
142.1366886813
 30
0.0
 10
188.4880137242
 20
141.9789455261
 30
0.0
 10
188.2548718473
 20
141.6970178648
 30
0.0
 10
187.9669853657
 20
141.468347288
 30
0.0
 10
187.8174287024
 20
141.3820012236
 30
0.0
  0
SPLINE
  5
36D
100
AcDbEntity
  8
0
100
AcDbSpline
 62
7
  6
CONTINUOUS
 70
0
 71
3
 72
13
 73
9
 74
0
 42
0.0000001
 43
0.0000001
 44
0.0000000001
 40
0.0
 40
0.0
 40
0.0
 40
0.0
 40
0.089464495
 40
0.1861076413
 40
0.2947794893
 40
0.4171123854
 40
0.6963429238
 40
1.0
 40
1.0
 40
1.0
 40
1.0
 10
188.7194367875
 20
171.0348909912
 30
0.0
 10
188.783763416
 20
170.9972111095
 30
0.0
 10
188.9037808196
 20
170.8928953825
 30
0.0
 10
189.0255735288
 20
170.6752644938
 30
0.0
 10
189.0905076416
 20
170.4073535424
 30
0.0
 10
189.101399232
 20
169.9799180207
 30
0.0
 10
188.9637338477
 20
169.3992430345
 30
0.0
 10
188.7378247046
 20
168.9637055409
 30
0.0
 10
188.5952429249
 20
168.7546674792
 30
0.0
  0
SPLINE
  5
36E
100
AcDbEntity
  8
0
100
AcDbSpline
 62
7
  6
CONTINUOUS
 70
0
 71
3
 72
11
 73
7
 74
0
 42
0.0000001
 43
0.0000001
 44
0.0000000001
 40
0.0
 40
0.0
 40
0.0
 40
0.0
 40
0.2895448512
 40
0.5491358494
 40
0.7822770652
 40
1.0
 40
1.0
 40
1.0
 40
1.0
 10
187.6760079396
 20
167.9183311926
 30
0.0
 10
187.5969182272
 20
167.8726689984
 30
0.0
 10
187.4394499859
 20
167.7978570558
 30
0.0
 10
187.1975142673
 20
167.7392939196
 30
0.0
 10
186.970406103
 20
167.7450182531
 30
0.0
 10
186.8337871427
 20
167.7947381727
 30
0.0
 10
186.774314849
 20
167.8290723013
 30
0.0
  0
SPLINE
  5
36F
100
AcDbEntity
  8
0
100
AcDbSpline
 62
7
  6
CONTINUOUS
 70
0
 71
3
 72
9
 73
5
 74
0
 42
0.0000001
 43
0.0000001
 44
0.0000000001
 40
0.0
 40
0.0
 40
0.0
 40
0.0
 40
0.5248244814
 40
1.0
 40
1.0
 40
1.0
 40
1.0
 10
188.5952429249
 20
168.7546674792
 30
0.0
 10
188.4877642008
 20
168.59709374
 30
0.0
 10
188.2550208738
 20
168.3148825445
 30
0.0
 10
187.9669866562
 20
168.0863268302
 30
0.0
 10
187.8174287007
 20
167.9999800197
 30
0.0
  0
SPLINE
  5
370
100
AcDbEntity
  8
0
100
AcDbSpline
 62
7
  6
CONTINUOUS
 70
0
 71
3
 72
9
 73
5
 74
0
 42
0.0000001
 43
0.0000001
 44
0.0000000001
 40
0.0
 40
0.0
 40
0.0
 40
0.0
 40
0.2585945834
 40
1.0
 40
1.0
 40
1.0
 40
1.0
 10
133.4765232115
 20
139.2379226632
 30
0.0
 10
133.490279997
 20
139.2458642631
 30
0.0
 10
133.544024487
 20
139.2756081831
 30
0.0
 10
133.6000251271
 20
139.301359048
 30
0.0
 10
133.6425951699
 20
139.3175408505
 30
0.0
  0
SPLINE
  5
371
100
AcDbEntity
  8
0
100
AcDbSpline
 62
7
  6
CONTINUOUS
 70
0
 71
3
 72
9
 73
5
 74
0
 42
0.0000001
 43
0.0000001
 44
0.0000000001
 40
0.0
 40
0.0
 40
0.0
 40
0.0
 40
0.4619710457
 40
1.0
 40
1.0
 40
1.0
 40
1.0
 10
131.3735124836
 20
96.2937437638
 30
0.0
 10
131.3735099555
 20
96.2724286201
 30
0.0
 10
131.358501605
 20
96.2259229604
 30
0.0
 10
131.3238988744
 20
96.1931882822
 30
0.0
 10
131.3034847372
 20
96.1790633053
 30
0.0
  0
SPLINE
  5
372
100
AcDbEntity
  8
0
100
AcDbSpline
 62
7
  6
CONTINUOUS
 70
0
 71
3
 72
9
 73
5
 74
0
 42
0.0000001
 43
0.0000001
 44
0.0000000001
 40
0.0
 40
0.0
 40
0.0
 40
0.0
 40
0.2585945834
 40
1.0
 40
1.0
 40
1.0
 40
1.0
 10
133.4765232106
 20
112.6199438653
 30
0.0
 10
133.4902799961
 20
112.6278854651
 30
0.0
 10
133.5440244861
 20
112.6576293852
 30
0.0
 10
133.6000251263
 20
112.6833802501
 30
0.0
 10
133.6425951691
 20
112.6995620526
 30
0.0
  0
SPLINE
  5
373
100
AcDbEntity
  8
0
100
AcDbSpline
 62
7
  6
CONTINUOUS
 70
0
 71
3
 72
9
 73
5
 74
0
 42
0.0000001
 43
0.0000001
 44
0.0000000001
 40
0.0
 40
0.0
 40
0.0
 40
0.0
 40
0.543210358
 40
1.0
 40
1.0
 40
1.0
 40
1.0
 10
131.3034847373
 20
145.4080190168
 30
0.0
 10
131.3237134799
 20
145.4219375091
 30
0.0
 10
131.3582216543
 20
145.4532006368
 30
0.0
 10
131.3736569336
 20
145.4987028047
 30
0.0
 10
131.3736565064
 20
145.519350918
 30
0.0
  0
SPLINE
  5
374
100
AcDbEntity
  8
0
100
AcDbSpline
 62
7
  6
CONTINUOUS
 70
0
 71
3
 72
9
 73
5
 74
0
 42
0.0000001
 43
0.0000001
 44
0.0000000001
 40
0.0
 40
0.0
 40
0.0
 40
0.0
 40
0.499998676
 40
1.0
 40
1.0
 40
1.0
 40
1.0
 10
123.753855791
 20
140.7323921674
 30
0.0
 10
123.8168210114
 20
140.6960400028
 30
0.0
 10
123.9659877072
 20
140.6672534579
 30
0.0
 10
124.1151545679
 20
140.696040376
 30
0.0
 10
124.1781198597
 20
140.7323931872
 30
0.0
  0
SPLINE
  5
375
100
AcDbEntity
  8
0
100
AcDbSpline
 62
7
  6
CONTINUOUS
 70
0
 71
3
 72
11
 73
7
 74
0
 42
0.0000001
 43
0.0000001
 44
0.0000000001
 40
0.0
 40
0.0
 40
0.0
 40
0.0
 40
0.2372442975
 40
0.5000016095
 40
0.7627580586
 40
1.0
 40
1.0
 40
1.0
 40
1.0
 10
179.3605141904
 20
131.7725599699
 30
0.0
 10
179.3606223228
 20
131.6569392995
 30
0.0
 10
179.3170792519
 20
131.4131117882
 30
0.0
 10
179.1660144672
 20
131.0704710228
 30
0.0
 10
178.9448131011
 20
130.7683262362
 30
0.0
 10
178.7554275254
 20
130.6086994387
 30
0.0
 10
178.6552422959
 20
130.5509863087
 30
0.0
  0
SPLINE
  5
376
100
AcDbEntity
  8
0
100
AcDbSpline
 62
7
  6
CONTINUOUS
 70
0
 71
3
 72
9
 73
5
 74
0
 42
0.0000001
 43
0.0000001
 44
0.0000000001
 40
0.0
 40
0.0
 40
0.0
 40
0.0
 40
0.5507420454
 40
1.0
 40
1.0
 40
1.0
 40
1.0
 10
122.6860631269
 20
143.1451279228
 30
0.0
 10
122.7108725328
 20
143.1308045296
 30
0.0
 10
122.753468333
 20
143.098156241
 30
0.0
 10
122.7739616668
 20
143.0460231519
 30
0.0
 10
122.7739339171
 20
143.0226546692
 30
0.0
  0
SPLINE
  5
377
100
AcDbEntity
  8
0
100
AcDbSpline
 62
7
  6
CONTINUOUS
 70
0
 71
3
 72
11
 73
7
 74
0
 42
0.0000001
 43
0.0000001
 44
0.0000000001
 40
0.0
 40
0.0
 40
0.0
 40
0.0
 40
0.2177442246
 40
0.4508817658
 40
0.7104588047
 40
1.0
 40
1.0
 40
1.0
 40
1.0
 10
152.9128613782
 20
125.2722399842
 30
0.0
 10
152.8534970325
 20
125.3065132616
 30
0.0
 10
152.742313833
 20
125.3997694655
 30
0.0
 10
152.6240421153
 20
125.593235567
 30
0.0
 10
152.5539264095
 20
125.8315755784
 30
0.0
 10
152.5400088436
 20
126.0050178822
 30
0.0
 10
152.5400088436
 20
126.0961678284
 30
0.0
  0
ELLIPSE
  5
378
100
AcDbEntity
  8
0
100
AcDbEllipse
 62
7
  6
CONTINUOUS
 10
151.9328793559
 20
128.2185479224
 30
0.0
 11
0.4999914636
 21
0.8660303322
 31
0.0
 40
0.5789355612
 41
0.7867548223
 42
2.3548120859
  0
ELLIPSE
  5
379
100
AcDbEntity
  8
0
100
AcDbEllipse
 62
7
  6
CONTINUOUS
 10
151.9328793565
 20
147.4471798454
 30
0.0
 11
0.4999914636
 21
0.8660303322
 31
0.0
 40
0.5789355612
 41
0.7864504025
 42
2.3548120851
  0
ELLIPSE
  5
37A
100
AcDbEntity
  8
0
100
AcDbEllipse
 62
7
  6
CONTINUOUS
 10
123.965986942
 20
91.6148617748
 30
0.0
 11
0.2999684055
 21
-0.0094025897
 31
0.0
 40
0.5971262223
 41
-2.3374056231
 42
-0.7667489129
  0
ELLIPSE
  5
37B
100
AcDbEntity
  8
0
100
AcDbEllipse
 62
7
  6
CONTINUOUS
 10
151.9328793557
 20
123.4442498299
 30
0.0
 11
0.5013629526
 21
0.8684056313
 31
0.0
 40
0.5757727548
 41
2.3575512879
 42
3.9269184485
  0
ELLIPSE
  5
37C
100
AcDbEntity
  8
0
100
AcDbEllipse
 62
7
  6
CONTINUOUS
 10
178.6594636202
 20
138.8747583418
 30
0.0
 11
0.4999914636
 21
0.8660303322
 31
0.0
 40
0.5789355612
 41
3.9280430526
 42
5.4964047356
  0
ELLIPSE
  5
37D
100
AcDbEntity
  8
0
100
AcDbEllipse
 62
7
  6
CONTINUOUS
 10
151.9328793564
 20
142.6320566321
 30
0.0
 11
0.5013629526
 21
0.8684056313
 31
0.0
 40
0.5757727548
 41
2.3575512879
 42
3.9256085586
  0
ELLIPSE
  5
37E
100
AcDbEntity
  8
0
100
AcDbEllipse
 62
7
  6
CONTINUOUS
 10
178.6594636208
 20
158.062565144
 30
0.0
 11
0.4999914636
 21
0.8660303322
 31
0.0
 40
0.5789355612
 41
3.9283474672
 42
5.4964047356
  0
ELLIPSE
  5
37F
100
AcDbEntity
  8
0
100
AcDbEllipse
 62
7
  6
CONTINUOUS
 10
178.6594636203
 20
143.6490564343
 30
0.0
 11
0.5013629526
 21
0.8684056313
 31
0.0
 40
0.5757727548
 41
-0.7840413642
 42
0.784015897
  0
ELLIPSE
  5
380
100
AcDbEntity
  8
0
100
AcDbEllipse
 62
7
  6
CONTINUOUS
 10
178.659463621
 20
162.8776883573
 30
0.0
 11
0.5013629526
 21
0.8684056313
 31
0.0
 40
0.5757727548
 41
-0.7840413635
 42
0.785325793
  0
ENDSEC
  0
SECTION
  2
OBJECTS
  0
DICTIONARY
  5
C
100
AcDbDictionary
280
0
281
1
  3
ACAD_GROUP
350
D
  3
ACAD_MLINESTYLE
350
17
  3
ACAD_LAYOUT
350
1A
  3
ACAD_PLOTSETTINGS
350
19
  3
ACAD_PLOTSTYLENAME
350
E
  0
DICTIONARY
  5
D
102
{ACAD_REACTORS
330
C
102
}
100
AcDbDictionary
280
0
281
1
  0
ACDBDICTIONARYWDFLT
  5
E
102
{ACAD_REACTORS
330
C
102
}
100
AcDbDictionary
281
1
  3
Normal
350
F
100
AcDbDictionaryWithDefault
340
F
  0
DICTIONARY
  5
17
102
{ACAD_REACTORS
330
C
102
}
100
AcDbDictionary
280
0
281
1
  3
Standard
350
18
  0
DICTIONARY
  5
19
102
{ACAD_REACTORS
330
C
102
}
100
AcDbDictionary
281
1
  0
DICTIONARY
  5
1A
102
{ACAD_REACTORS
330
C
102
}
100
AcDbDictionary
281
1
  3
Model
350
381
  3
Layout1
350
382
  0
ACDBPLACEHOLDER
  5
F
102
{ACAD_REACTORS
330
E
102
}
  0
MLINESTYLE
  5
18
102
{ACAD_REACTORS
330
17
102
}
100
AcDbMlineStyle
  2
STANDARD
 70
0
  3

 62
256
 51
90.0
 52
90.0
 71
2
 49
0.5
 62
256
  6
BYLAYER
 49
-0.5
 62
256
  6
BYLAYER
  0
LAYOUT
  5
381
102
{ACAD_REACTORS
330
1A
102
}
100
AcDbPlotSettings
  1

  2
none_device
  4

  6

 40
0.0
 41
0.0
 42
0.0
 43
0.0
 44
210.0
 45
297.0
 46
0.0
 47
0.0
 48
0.0
 49
0.0
140
0.0
141
0.0
142
1.0
143
1.0
 70
1024
 72
1
 73
0
 74
0
  7

 75
0
147
1.0
148
0.0
149
0.0
100
AcDbLayout
  1
Model
 70
0
 71
0
 10
0.0
 20
0.0
 11
210.0
 21
297.0
 12
0.0
 22
0.0
 32
0.0
 14
0.0
 24
0.0
 34
0.0
 15
0.0
 25
0.0
 35
0.0
146
0.0
 13
0.0
 23
0.0
 33
0.0
 16
1.0
 26
0.0
 36
0.0
 17
0.0
 27
1.0
 37
0.0
 76
0
330
210
345
0
346
0
  0
LAYOUT
  5
382
102
{ACAD_REACTORS
330
1A
102
}
100
AcDbPlotSettings
  1

  2
none_device
  4

  6

 40
0.0
 41
0.0
 42
0.0
 43
0.0
 44
210.0
 45
297.0
 46
0.0
 47
0.0
 48
0.0
 49
0.0
140
0.0
141
0.0
142
1.0
143
1.0
 70
0
 72
1
 73
0
 74
0
  7

 75
0
147
1.0
148
0.0
149
0.0
100
AcDbLayout
  1
Layout1
 70
0
 71
1
 10
0.0
 20
0.0
 11
210.0
 21
297.0
 12
0.0
 22
0.0
 32
0.0
 14
0.0
 24
0.0
 34
0.0
 15
0.0
 25
0.0
 35
0.0
146
0.0
 13
0.0
 23
0.0
 33
0.0
 16
1.0
 26
0.0
 36
0.0
 17
0.0
 27
1.0
 37
0.0
 76
0
330
211
345
0
346
0
  0
ENDSEC
  0
EOF
