999
DXF file: C:\Users\sesa63760\Dev\_Creo\CAD\MCADID0004735_3D-CAD\drw0001_4.dxf
999
Pro/ENGINEER 2019471 by Parametric Technology Corporation
  0
SECTION
  2
HEADER
  9
$ACADVER
  1
AC1024
  9
$DWGCODEPAGE
  3
ANSI_1252
  9
$EXTMAX
 10
32.6188174852
 20
46.1323275862
 30
0.0
  9
$EXTMIN
 10
0.0
 20
0.0
 30
0.0
  9
$LIMMIN
 10
0.0
 20
0.0
  9
$LIMMAX
 10
32.6188174852
 20
46.1323275862
  9
$VIEWCTR
 10
16.3094087426
 20
23.0661637931
  9
$VIEWSIZE
 40
46.1323275862
  9
$CLAYER
  8
0
  9
$LTSCALE
 40
3.0071443167
  9
$CELTYPE
  6
BYLAYER
  9
$DIMSCALE
 40
1.0
  9
$DIMASZ
 40
0.3883192558
  9
$DIMEXO
 40
1.0
  9
$DIMDLI
 40
2.0776633461
  9
$DIMEXE
 40
1.0
  9
$DIMCEN
 40
0.4920781609
  9
$DIMLFAC
 40
1.0
  9
$DIMBLK
  1
_FILLED
  9
$DIMALT
 70
0
  9
$DIMALTF
 40
0.0393700787
  9
$DIMTXT
 40
0.5436469581
  9
$DIMTOL
 70
1
  9
$DIMLIM
 70
0
  9
$DIMTFAC
 40
1.0
  9
$DIMTP
 40
0.01
  9
$DIMTM
 40
0.01
  9
$DIMGAP
 40
0.625
  9
$DIMDSEP
 70
46
  9
$AUNITS
 70
0
  9
$PDMODE
 70
3
  9
$PDSIZE
 40
0.3125
  9
$HANDSEED
  5
2A7
  9
$TILEMODE
 70
1
  9
$MEASUREMENT
 70
1
  9
$INSUNITS
 70
4
  0
ENDSEC
  0
SECTION
  2
CLASSES
  0
CLASS
  1
ACDBDICTIONARYWDFLT
  2
AcDbDictionaryWithDefault
  3
AutoCAD 2000
 90
0
 91
1
280
0
281
0
  0
CLASS
  1
ACDBPLACEHOLDER
  2
AcDbPlaceHolder
  3
AutoCAD 2000
 90
0
 91
1
280
0
281
0
  0
CLASS
  1
LAYOUT
  2
AcDbLayout
  3
AutoCAD 2000
 90
0
 91
0
280
0
281
0
  0
ENDSEC
  0
SECTION
  2
TABLES
  0
TABLE
  2
VPORT
  5
8
100
AcDbSymbolTable
 70
2
  0
VPORT
  5
1F4
100
AcDbSymbolTableRecord
100
AcDbViewportTableRecord
  2
*ACTIVE
 70
0
 10
0.0
 20
0.0
 11
1.0
 21
1.0
 12
16.3094087426
 22
23.0661637931
 13
0.0
 23
0.0
 14
1.0
 24
1.0
 15
0.0
 25
0.0
 16
0.0
 26
0.0
 36
1.0
 17
0.0
 27
0.0
 37
0.0
 40
46.1323275862
 41
0.7070707071
 42
50.0
 43
0.0
 44
0.0
 50
0.0
 51
0.0
 71
0
 72
100
 73
1
 74
1
 75
0
 76
0
 77
0
 78
0
  0
ENDTAB
  0
TABLE
  2
LTYPE
  5
5
100
AcDbSymbolTable
 70
6
  0
LTYPE
  5
14
100
AcDbSymbolTableRecord
100
AcDbLinetypeTableRecord
  2
BYBLOCK
 70
0
  3

 72
65
 73
0
 40
0.0
  0
LTYPE
  5
15
100
AcDbSymbolTableRecord
100
AcDbLinetypeTableRecord
  2
BYLAYER
 70
0
  3

 72
65
 73
0
 40
0.0
  0
LTYPE
  5
16
100
AcDbSymbolTableRecord
100
AcDbLinetypeTableRecord
  2
CONTINUOUS
 70
64
  3
Solid line
 72
65
 73
0
 40
0.0
  0
LTYPE
  5
1F5
100
AcDbSymbolTableRecord
100
AcDbLinetypeTableRecord
  2
CENTER
 70
64
  3
____ _ ____ _ ____ _ ____ _ ____ _ ____ _ ____
 72
65
 73
4
 40
0.6
 49
0.375
 74
0
 49
-0.075
 74
0
 49
0.075
 74
0
 49
-0.075
 74
0
  0
LTYPE
  5
1F6
100
AcDbSymbolTableRecord
100
AcDbLinetypeTableRecord
  2
HIDDEN
 70
64
  3
- - - - - - - - - - - - - - - - - - - -
 72
65
 73
2
 40
0.2
 49
0.1
 74
0
 49
-0.1
 74
0
  0
LTYPE
  5
1F7
100
AcDbSymbolTableRecord
100
AcDbLinetypeTableRecord
  2
PHANTOM
 70
64
  3
_____ _ _ _____ _ _ _____ _ _ _____
 72
65
 73
6
 40
0.8
 49
0.45
 74
0
 49
-0.05
 74
0
 49
0.1
 74
0
 49
-0.05
 74
0
 49
0.1
 74
0
 49
-0.05
 74
0
  0
LTYPE
  5
1F8
100
AcDbSymbolTableRecord
100
AcDbLinetypeTableRecord
  2
DOT
 70
64
  3
. . . . . . . . . . . . . . . . . . . .
 72
65
 73
2
 40
0.2
 49
0.1
 74
0
 49
-0.1
 74
0
  0
LTYPE
  5
1F9
100
AcDbSymbolTableRecord
100
AcDbLinetypeTableRecord
  2
DASHED
 70
64
  3
- - - - - - - - - - - - - - - - - - - -
 72
65
 73
2
 40
0.2
 49
0.1
 74
0
 49
-0.1
 74
0
  0
ENDTAB
  0
TABLE
  2
LAYER
  5
2
100
AcDbSymbolTable
 70
36
  0
LAYER
  5
10
100
AcDbSymbolTableRecord
100
AcDbLayerTableRecord
  2
0
 70
0
 62
7
  6
CONTINUOUS
370
-3
390
F
  0
LAYER
  5
1FA
100
AcDbSymbolTableRecord
100
AcDbLayerTableRecord
  2
DEFAULT_1
 70
0
 62
7
  6
CENTER
370
-3
390
F
  0
LAYER
  5
1FB
100
AcDbSymbolTableRecord
100
AcDbLayerTableRecord
  2
DEFAULT_2
 70
0
 62
7
  6
HIDDEN
370
-3
390
F
  0
LAYER
  5
1FC
100
AcDbSymbolTableRecord
100
AcDbLayerTableRecord
  2
DEFAULT_3
 70
0
 62
7
  6
PHANTOM
370
-3
390
F
  0
LAYER
  5
1FD
100
AcDbSymbolTableRecord
100
AcDbLayerTableRecord
  2
00_COMPONENTS
 70
0
 62
7
  6
CONTINUOUS
370
-3
390
F
  0
LAYER
  5
1FE
100
AcDbSymbolTableRecord
100
AcDbLayerTableRecord
  2
01_1_DEFAULT_DATUMS
 70
0
 62
7
  6
CONTINUOUS
370
-3
390
F
  0
LAYER
  5
1FF
100
AcDbSymbolTableRecord
100
AcDbLayerTableRecord
  2
01_PLANES
 70
0
 62
7
  6
CONTINUOUS
370
-3
390
F
  0
LAYER
  5
200
100
AcDbSymbolTableRecord
100
AcDbLayerTableRecord
  2
02_COORD_SYS
 70
0
 62
7
  6
CONTINUOUS
370
-3
390
F
  0
LAYER
  5
201
100
AcDbSymbolTableRecord
100
AcDbLayerTableRecord
  2
03_AXES
 70
0
 62
7
  6
CONTINUOUS
370
-3
390
F
  0
LAYER
  5
202
100
AcDbSymbolTableRecord
100
AcDbLayerTableRecord
  2
04_POINTS
 70
0
 62
7
  6
CONTINUOUS
370
-3
390
F
  0
LAYER
  5
203
100
AcDbSymbolTableRecord
100
AcDbLayerTableRecord
  2
05_CURVES
 70
0
 62
7
  6
CONTINUOUS
370
-3
390
F
  0
LAYER
  5
204
100
AcDbSymbolTableRecord
100
AcDbLayerTableRecord
  2
06_SURFS
 70
0
 62
7
  6
CONTINUOUS
370
-3
390
F
  0
LAYER
  5
205
100
AcDbSymbolTableRecord
100
AcDbLayerTableRecord
  2
07_COSMETICS
 70
0
 62
7
  6
CONTINUOUS
370
-3
390
F
  0
LAYER
  5
206
100
AcDbSymbolTableRecord
100
AcDbLayerTableRecord
  2
10_NOTES
 70
0
 62
7
  6
CONTINUOUS
370
-3
390
F
  0
LAYER
  5
207
100
AcDbSymbolTableRecord
100
AcDbLayerTableRecord
  2
11_NOTES_PUB
 70
0
 62
7
  6
CONTINUOUS
370
-3
390
F
  0
LAYER
  5
208
100
AcDbSymbolTableRecord
100
AcDbLayerTableRecord
  2
13_REF_GTOL
 70
0
 62
7
  6
CONTINUOUS
370
-3
390
F
  0
LAYER
  5
209
100
AcDbSymbolTableRecord
100
AcDbLayerTableRecord
  2
16_MISC
 70
0
 62
7
  6
CONTINUOUS
370
-3
390
F
  0
LAYER
  5
20A
100
AcDbSymbolTableRecord
100
AcDbLayerTableRecord
  2
17_NO_PRINT
 70
0
 62
7
  6
CONTINUOUS
370
-3
390
F
  0
LAYER
  5
20B
100
AcDbSymbolTableRecord
100
AcDbLayerTableRecord
  2
18_DATUM_CAMS_JOINTS
 70
0
 62
7
  6
CONTINUOUS
370
-3
390
F
  0
LAYER
  5
20C
100
AcDbSymbolTableRecord
100
AcDbLayerTableRecord
  2
19_DATUM_FUNCTIONAL
 70
0
 62
7
  6
CONTINUOUS
370
-3
390
F
  0
LAYER
  5
20D
100
AcDbSymbolTableRecord
100
AcDbLayerTableRecord
  2
20_DATUM_KINEMATIC_SCHEME
 70
0
 62
7
  6
CONTINUOUS
370
-3
390
F
  0
ENDTAB
  0
TABLE
  2
STYLE
  5
3
100
AcDbSymbolTable
 70
1
  0
STYLE
  5
11
100
AcDbSymbolTableRecord
100
AcDbTextStyleTableRecord
  2
STANDARD
 70
0
 40
0.0
 41
1.0
 50
0.0
 71
0
 42
0.2
  3
ARIAL.TTF
  4

  0
STYLE
  5
20E
100
AcDbSymbolTableRecord
100
AcDbTextStyleTableRecord
  2
TEXTSTYLE_1
 70
0
 40
0.0
 41
0.8
 50
0.0
 71
0
 42
0.2
  3
gdt
  4

  0
ENDTAB
  0
TABLE
  2
VIEW
  5
6
100
AcDbSymbolTable
 70
0
  0
ENDTAB
  0
TABLE
  2
UCS
  5
7
100
AcDbSymbolTable
 70
0
  0
ENDTAB
  0
TABLE
  2
APPID
  5
9
100
AcDbSymbolTable
 70
1
  0
APPID
  5
20F
100
AcDbSymbolTableRecord
100
AcDbRegAppTableRecord
  2
ACAD
 70
0
  0
ENDTAB
  0
TABLE
  2
BLOCK_RECORD
  5
1
100
AcDbSymbolTable
 70
0
  0
BLOCK_RECORD
  5
210
100
AcDbSymbolTableRecord
100
AcDbBlockTableRecord
  2
*Model_Space
  0
BLOCK_RECORD
  5
211
100
AcDbSymbolTableRecord
100
AcDbBlockTableRecord
  2
*Paper_Space
  0
BLOCK_RECORD
  5
212
100
AcDbSymbolTableRecord
100
AcDbBlockTableRecord
  2
_FILLED
  0
ENDTAB
  0
TABLE
  2
DIMSTYLE
  5
A
100
AcDbSymbolTable
 70
1
100
AcDbDimStyleTable
 71
0
  0
DIMSTYLE
105
213
100
AcDbSymbolTableRecord
100
AcDbDimStyleTableRecord
  2
STANDARD
 70
0
  3

  4

 40
1.0
 41
0.3883192558
 42
1.0
 43
0.38
 44
1.0
 45
0.0
 46
0.0
 47
0.01
 48
0.01
140
0.5436469581
141
0.09
142
0.0
143
25.4
144
1.0
145
0.0
146
1.0
147
0.625
 71
1
 72
0
 73
0
 74
0
 75
0
 76
0
 77
1
 78
8
 79
2
170
0
171
1
172
0
173
0
174
0
175
0
176
0
177
0
178
0
270
2
179
2
271
2
272
2
273
2
274
2
275
0
280
0
281
0
282
0
283
1
284
8
285
0
286
0
287
3
288
0
340
11
278
46
341
212
342
212
343
212
344
212
  0
ENDTAB
  0
ENDSEC
  0
SECTION
  2
BLOCKS
  0
BLOCK
  5
20
100
AcDbEntity
  8
0
100
AcDbBlockBegin
  2
*Model_Space
 70
0
 10
0.0
 20
0.0
 30
0.0
  3
*Model_Space
  1

  0
ENDBLK
  5
21
100
AcDbEntity
  8
0
100
AcDbBlockEnd
  0
BLOCK
  5
1C
100
AcDbEntity
  8
0
100
AcDbBlockBegin
  2
*Paper_Space
 70
0
 10
0.0
 20
0.0
 30
0.0
  3
*Paper_Space
  1

  0
ENDBLK
  5
1D
100
AcDbEntity
  8
0
100
AcDbBlockEnd
  0
BLOCK
  5
214
100
AcDbEntity
  8
0
100
AcDbBlockBegin
  2
_FILLED
 70
64
 10
0.0
 20
0.0
  3
_FILLED
  1

  0
SOLID
  5
215
100
AcDbEntity
  8
0
  6
BYBLOCK
 62
0
100
AcDbTrace
 10
0.0
 20
0.0
 11
-1.0
 21
0.25
 12
-1.0
 22
-0.25
 13
-1.0
 23
-0.25
  0
ENDBLK
  5
216
100
AcDbEntity
  8
0
  6
BYBLOCK
 62
0
100
AcDbBlockEnd
  0
ENDSEC
  0
SECTION
  2
ENTITIES
  0
LINE
  5
217
100
AcDbEntity
  8
0
100
AcDbLine
 62
7
  6
BYLAYER
 10
3.8829001219
 20
30.625
 11
3.6329001219
 21
30.375
  0
LINE
  5
218
100
AcDbEntity
  8
0
100
AcDbLine
 62
7
  6
BYLAYER
 10
3.8829001219
 20
15.225
 11
3.6329001219
 21
15.475
  0
LINE
  5
219
100
AcDbEntity
  8
0
100
AcDbLine
 62
7
  6
BYLAYER
 10
3.6329001219
 20
10.3125234668
 11
3.6329001219
 21
35.5374765332
  0
LINE
  5
21A
100
AcDbEntity
  8
0
100
AcDbLine
 62
7
  6
BYLAYER
 10
3.8829001219
 20
10.8894791249
 11
3.8829001219
 21
15.225
  0
LINE
  5
21B
100
AcDbEntity
  8
0
100
AcDbLine
 62
7
  6
BYLAYER
 10
3.8829001219
 20
30.625
 11
3.8829001219
 21
34.9605208751
  0
LINE
  5
21C
100
AcDbEntity
  8
0
100
AcDbLine
 62
7
  6
BYLAYER
 10
4.0829001219
 20
10.7263909188
 11
4.0829001219
 21
11.1763815532
  0
LINE
  5
21D
100
AcDbEntity
  8
0
100
AcDbLine
 62
7
  6
BYLAYER
 10
4.0829001219
 20
34.6736184468
 11
4.0829001219
 21
35.1236090812
  0
LINE
  5
21E
100
AcDbEntity
  8
0
100
AcDbLine
 62
7
  6
BYLAYER
 10
4.5829001219
 20
35.1236090812
 11
4.5829001219
 21
34.863858293
  0
LINE
  5
21F
100
AcDbEntity
  8
0
100
AcDbLine
 62
7
  6
BYLAYER
 10
4.5829001219
 20
10.9861410552
 11
4.5829001219
 21
10.7263909188
  0
LINE
  5
220
100
AcDbEntity
  8
0
100
AcDbLine
 62
7
  6
BYLAYER
 10
27.8329001219
 20
10.025
 11
29.8329001219
 21
10.025
  0
LINE
  5
221
100
AcDbEntity
  8
0
100
AcDbLine
 62
7
  6
BYLAYER
 10
7.4829001219
 20
10.275
 11
5.4829001219
 21
10.275
  0
LINE
  5
222
100
AcDbEntity
  8
0
100
AcDbLine
 62
7
  6
BYLAYER
 10
3.6329001219
 20
10.3125234668
 11
5.4829001219
 21
10.3125234668
  0
LINE
  5
223
100
AcDbEntity
  8
0
100
AcDbLine
 62
7
  6
BYLAYER
 10
6.6829001219
 20
10.3938534032
 11
3.6329001219
 21
10.3938534032
  0
LINE
  5
224
100
AcDbEntity
  8
0
100
AcDbLine
 62
7
  6
BYLAYER
 10
6.4837530079
 20
10.5930610472
 11
3.6329001219
 21
10.5930610472
  0
LINE
  5
225
100
AcDbEntity
  8
0
100
AcDbLine
 62
7
  6
BYLAYER
 10
4.0484500466
 20
10.723381646
 11
4.6173501973
 21
10.723381646
  0
LINE
  5
226
100
AcDbEntity
  8
0
100
AcDbLine
 62
7
  6
BYLAYER
 10
4.0829001219
 20
10.7263909188
 11
4.5829001219
 21
10.7263909188
  0
LINE
  5
227
100
AcDbEntity
  8
0
100
AcDbLine
 62
7
  6
BYLAYER
 10
4.5829001219
 20
10.7263909188
 11
4.6175369769
 21
10.7233817293
  0
LINE
  5
228
100
AcDbEntity
  8
0
100
AcDbLine
 62
7
  6
BYLAYER
 10
4.5829043669
 20
10.9861410552
 11
4.626202676
 21
10.9814011035
  0
LINE
  5
229
100
AcDbEntity
  8
0
100
AcDbLine
 62
7
  6
BYLAYER
 10
4.7829001219
 20
34.9605208751
 11
4.7829001219
 21
34.8685989524
  0
LINE
  5
22A
100
AcDbEntity
  8
0
100
AcDbLine
 62
7
  6
BYLAYER
 10
4.7829001219
 20
10.9814010477
 11
4.7829001219
 21
10.8894791249
  0
LINE
  5
22B
100
AcDbEntity
  8
0
100
AcDbLine
 62
7
  6
BYLAYER
 10
5.4829001219
 20
10.275
 11
5.4829001219
 21
10.3125234668
  0
LINE
  5
22C
100
AcDbEntity
  8
0
100
AcDbLine
 62
7
  6
BYLAYER
 10
5.4829001219
 20
35.5374765332
 11
5.4829001219
 21
35.575
  0
LINE
  5
22D
100
AcDbEntity
  8
0
100
AcDbLine
 62
7
  6
BYLAYER
 10
4.0829001219
 20
10.7263909188
 11
4.0482633771
 21
10.7233817292
  0
LINE
  5
22E
100
AcDbEntity
  8
0
100
AcDbLine
 62
7
  6
BYLAYER
 10
6.682897964
 20
10.9861410552
 11
6.618117647
 21
10.9814010477
  0
LINE
  5
22F
100
AcDbEntity
  8
0
100
AcDbLine
 62
7
  6
BYLAYER
 10
4.6260475741
 20
10.9814010477
 11
6.618117647
 21
10.9814010477
  0
LINE
  5
230
100
AcDbEntity
  8
0
100
AcDbLine
 62
7
  6
BYLAYER
 10
4.5829001219
 20
10.9861410552
 11
6.6829001219
 21
10.9861410552
  0
LINE
  5
231
100
AcDbEntity
  8
0
100
AcDbLine
 62
7
  6
BYLAYER
 10
20.6829001219
 20
11.025
 11
24.4829001219
 21
11.025
  0
LINE
  5
232
100
AcDbEntity
  8
0
100
AcDbLine
 62
7
  6
BYLAYER
 10
26.4829001219
 20
11.025
 11
27.8329001219
 21
11.025
  0
LINE
  5
233
100
AcDbEntity
  8
0
100
AcDbLine
 62
7
  6
BYLAYER
 10
24.4829001219
 20
11.125
 11
26.4829001219
 21
11.125
  0
LINE
  5
234
100
AcDbEntity
  8
0
100
AcDbLine
 62
7
  6
BYLAYER
 10
7.4829001219
 20
11.1763815532
 11
4.0829001219
 21
11.1763815532
  0
LINE
  5
235
100
AcDbEntity
  8
0
100
AcDbLine
 62
7
  6
BYLAYER
 10
7.4829001219
 20
11.3703723428
 11
3.889068159
 21
11.3703723428
  0
LINE
  5
236
100
AcDbEntity
  8
0
100
AcDbLine
 62
7
  6
BYLAYER
 10
7.6829001219
 20
11.375
 11
7.4829001219
 21
11.375
  0
LINE
  5
237
100
AcDbEntity
  8
0
100
AcDbLine
 62
7
  6
BYLAYER
 10
10.7829001219
 20
11.375
 11
12.0997591945
 21
11.375
  0
LINE
  5
238
100
AcDbEntity
  8
0
100
AcDbLine
 62
7
  6
BYLAYER
 10
19.1829001219
 20
11.375
 11
20.3329001219
 21
11.375
  0
LINE
  5
239
100
AcDbEntity
  8
0
100
AcDbLine
 62
7
  6
BYLAYER
 10
7.4829001219
 20
11.5980001815
 11
7.6829001219
 21
11.5980001815
  0
LINE
  5
23A
100
AcDbEntity
  8
0
100
AcDbLine
 62
7
  6
BYLAYER
 10
7.9829001219
 20
11.892207969
 11
7.4829001219
 21
11.892207969
  0
LINE
  5
23B
100
AcDbEntity
  8
0
100
AcDbLine
 62
7
  6
BYLAYER
 10
6.4829001219
 20
10.6115966214
 11
6.4829001219
 21
10.9814010477
  0
LINE
  5
23C
100
AcDbEntity
  8
0
100
AcDbLine
 62
7
  6
BYLAYER
 10
6.4829001219
 20
34.8685989524
 11
6.4829001219
 21
35.2384033786
  0
LINE
  5
23D
100
AcDbEntity
  8
0
100
AcDbLine
 62
7
  6
BYLAYER
 10
6.6829001219
 20
10.3938534032
 11
6.6829001219
 21
10.9861410552
  0
LINE
  5
23E
100
AcDbEntity
  8
0
100
AcDbLine
 62
7
  6
BYLAYER
 10
6.6829001219
 20
34.863858293
 11
6.6829001219
 21
35.4561465968
  0
LINE
  5
23F
100
AcDbEntity
  8
0
100
AcDbLine
 62
7
  6
BYLAYER
 10
15.1483617344
 20
12.225
 11
14.9811042565
 21
12.225
  0
LINE
  5
240
100
AcDbEntity
  8
0
100
AcDbLine
 62
7
  6
BYLAYER
 10
10.3829001219
 20
13.125
 11
8.0829001219
 21
13.125
  0
LINE
  5
241
100
AcDbEntity
  8
0
100
AcDbLine
 62
7
  6
BYLAYER
 10
7.4829001219
 20
10.275
 11
7.4829001219
 21
35.575
  0
LINE
  5
242
100
AcDbEntity
  8
0
100
AcDbLine
 62
7
  6
BYLAYER
 10
7.6829001219
 20
34.475
 11
7.6829001219
 21
32.5586886608
  0
LINE
  5
243
100
AcDbEntity
  8
0
100
AcDbLine
 62
7
  6
BYLAYER
 10
7.6829001219
 20
13.2913113392
 11
7.6829001219
 21
11.375
  0
LINE
  5
244
100
AcDbEntity
  8
0
100
AcDbLine
 62
7
  6
BYLAYER
 10
7.9829001219
 20
11.6750822131
 11
7.9829001219
 21
13.3665192603
  0
LINE
  5
245
100
AcDbEntity
  8
0
100
AcDbLine
 62
7
  6
BYLAYER
 10
7.9829001219
 20
32.4834807397
 11
7.9829001219
 21
34.1749177869
  0
LINE
  5
246
100
AcDbEntity
  8
0
100
AcDbLine
 62
7
  6
BYLAYER
 10
8.0829001219
 20
13.125
 11
8.0829001219
 21
32.725
  0
LINE
  5
247
100
AcDbEntity
  8
0
100
AcDbLine
 62
7
  6
BYLAYER
 10
3.6329001219
 20
15.225
 11
7.4829001219
 21
15.225
  0
LINE
  5
248
100
AcDbEntity
  8
0
100
AcDbLine
 62
7
  6
BYLAYER
 10
3.6329001219
 20
15.425
 11
7.4829001219
 21
15.425
  0
LINE
  5
249
100
AcDbEntity
  8
0
100
AcDbLine
 62
7
  6
BYLAYER
 10
10.3829001219
 20
32.725
 11
10.3829001219
 21
13.125
  0
LINE
  5
24A
100
AcDbEntity
  8
0
100
AcDbLine
 62
7
  6
BYLAYER
 10
10.7829001219
 20
11.3750354042
 11
10.7829001219
 21
34.2749969534
  0
LINE
  5
24B
100
AcDbEntity
  8
0
100
AcDbLine
 62
7
  6
BYLAYER
 10
20.6829001219
 20
34.825
 11
20.3329001219
 21
34.475
  0
LINE
  5
24C
100
AcDbEntity
  8
0
100
AcDbLine
 62
7
  6
BYLAYER
 10
27.8329001219
 20
17.9450401608
 11
21.6829001219
 21
17.9450401608
  0
LINE
  5
24D
100
AcDbEntity
  8
0
100
AcDbLine
 62
7
  6
BYLAYER
 10
20.6829001219
 20
11.025
 11
20.3329001219
 21
11.375
  0
LINE
  5
24E
100
AcDbEntity
  8
0
100
AcDbLine
 62
7
  6
BYLAYER
 10
12.0997591945
 20
34.0814432936
 11
12.0997591945
 21
11.3752057933
  0
LINE
  5
24F
100
AcDbEntity
  8
0
100
AcDbLine
 62
7
  6
BYLAYER
 10
13.1767921559
 20
34.275
 11
13.1767921559
 21
33.8882581284
  0
LINE
  5
250
100
AcDbEntity
  8
0
100
AcDbLine
 62
7
  6
BYLAYER
 10
13.2235789747
 20
11.5934484363
 11
13.2235789747
 21
34.2565515637
  0
LINE
  5
251
100
AcDbEntity
  8
0
100
AcDbLine
 62
7
  6
BYLAYER
 10
14.6064976585
 20
33.6976043962
 11
14.6064976585
 21
12.1521838527
  0
LINE
  5
252
100
AcDbEntity
  8
0
100
AcDbLine
 62
7
  6
BYLAYER
 10
14.9811042565
 20
12.225
 11
14.9811042565
 21
33.6247896802
  0
LINE
  5
253
100
AcDbEntity
  8
0
100
AcDbLine
 62
7
  6
BYLAYER
 10
15.1483617344
 20
33.625
 11
15.1483617344
 21
12.225
  0
LINE
  5
254
100
AcDbEntity
  8
0
100
AcDbLine
 62
7
  6
BYLAYER
 10
19.1829001219
 20
11.375
 11
19.1829001219
 21
34.475
  0
LINE
  5
255
100
AcDbEntity
  8
0
100
AcDbLine
 62
7
  6
BYLAYER
 10
20.3329001219
 20
34.475
 11
20.3329001219
 21
11.375
  0
LINE
  5
256
100
AcDbEntity
  8
0
100
AcDbLine
 62
7
  6
BYLAYER
 10
21.6829001219
 20
11.025
 11
21.6829001219
 21
17.9450401608
  0
LINE
  5
257
100
AcDbEntity
  8
0
100
AcDbLine
 62
7
  6
BYLAYER
 10
21.6829001219
 20
27.9049598392
 11
21.6829001219
 21
34.825
  0
LINE
  5
258
100
AcDbEntity
  8
0
100
AcDbLine
 62
7
  6
BYLAYER
 10
21.6829001219
 20
27.9049598392
 11
27.8329001219
 21
27.9049598392
  0
LINE
  5
259
100
AcDbEntity
  8
0
100
AcDbLine
 62
7
  6
BYLAYER
 10
7.4829001219
 20
30.425
 11
3.6329001219
 21
30.425
  0
LINE
  5
25A
100
AcDbEntity
  8
0
100
AcDbLine
 62
7
  6
BYLAYER
 10
24.4829001219
 20
34.825
 11
24.4829001219
 21
34.725
  0
LINE
  5
25B
100
AcDbEntity
  8
0
100
AcDbLine
 62
7
  6
BYLAYER
 10
24.4829001219
 20
11.125
 11
24.4829001219
 21
11.025
  0
LINE
  5
25C
100
AcDbEntity
  8
0
100
AcDbLine
 62
7
  6
BYLAYER
 10
7.4829001219
 20
30.625
 11
3.6329001219
 21
30.625
  0
LINE
  5
25D
100
AcDbEntity
  8
0
100
AcDbLine
 62
7
  6
BYLAYER
 10
26.4829001219
 20
11.025
 11
26.4829001219
 21
11.125
  0
LINE
  5
25E
100
AcDbEntity
  8
0
100
AcDbLine
 62
7
  6
BYLAYER
 10
26.4829001219
 20
34.725
 11
26.4829001219
 21
34.825
  0
LINE
  5
25F
100
AcDbEntity
  8
0
100
AcDbLine
 62
7
  6
BYLAYER
 10
14.6064976585
 20
12.1521838527
 11
13.2235789401
 21
11.5934484223
  0
LINE
  5
260
100
AcDbEntity
  8
0
100
AcDbLine
 62
7
  6
BYLAYER
 10
10.3829001219
 20
32.725
 11
8.0829001219
 21
32.725
  0
LINE
  5
261
100
AcDbEntity
  8
0
100
AcDbLine
 62
7
  6
BYLAYER
 10
13.2235789747
 20
34.2565515637
 11
13.1767921559
 21
34.275
  0
LINE
  5
262
100
AcDbEntity
  8
0
100
AcDbLine
 62
7
  6
BYLAYER
 10
14.6064976585
 20
33.6978161473
 11
13.2235789747
 21
34.2565515637
  0
LINE
  5
263
100
AcDbEntity
  8
0
100
AcDbLine
 62
7
  6
BYLAYER
 10
27.8329001219
 20
10.0250041781
 11
27.8329001219
 21
11.025
  0
LINE
  5
264
100
AcDbEntity
  8
0
100
AcDbLine
 62
7
  6
BYLAYER
 10
27.8329001219
 20
17.9450401608
 11
27.8329001219
 21
27.9049598392
  0
LINE
  5
265
100
AcDbEntity
  8
0
100
AcDbLine
 62
7
  6
BYLAYER
 10
27.8329001219
 20
34.825
 11
27.8329001219
 21
35.8249958219
  0
LINE
  5
266
100
AcDbEntity
  8
0
100
AcDbLine
 62
7
  6
BYLAYER
 10
15.1483617344
 20
33.625
 11
14.9811042565
 21
33.625
  0
LINE
  5
267
100
AcDbEntity
  8
0
100
AcDbLine
 62
7
  6
BYLAYER
 10
7.4829001219
 20
33.957792031
 11
7.9829001219
 21
33.957792031
  0
LINE
  5
268
100
AcDbEntity
  8
0
100
AcDbLine
 62
7
  6
BYLAYER
 10
12.0997591945
 20
34.0814432936
 11
10.7829001219
 21
34.0814432936
  0
LINE
  5
269
100
AcDbEntity
  8
0
100
AcDbLine
 62
7
  6
BYLAYER
 10
6.682899491
 20
34.863858293
 11
6.6182905225
 21
34.8685989522
  0
LINE
  5
26A
100
AcDbEntity
  8
0
100
AcDbLine
 62
7
  6
BYLAYER
 10
4.0829001219
 20
35.1236090812
 11
4.0482632669
 21
35.1266182707
  0
LINE
  5
26B
100
AcDbEntity
  8
0
100
AcDbLine
 62
7
  6
BYLAYER
 10
7.4829001219
 20
34.2519998185
 11
7.6829001219
 21
34.2519998185
  0
LINE
  5
26C
100
AcDbEntity
  8
0
100
AcDbLine
 62
7
  6
BYLAYER
 10
10.7829001219
 20
34.275
 11
13.1767921559
 21
34.275
  0
LINE
  5
26D
100
AcDbEntity
  8
0
100
AcDbLine
 62
7
  6
BYLAYER
 10
7.6829001219
 20
34.475
 11
7.4829001219
 21
34.475
  0
LINE
  5
26E
100
AcDbEntity
  8
0
100
AcDbLine
 62
7
  6
BYLAYER
 10
19.1829001219
 20
34.475
 11
20.3329001219
 21
34.475
  0
LINE
  5
26F
100
AcDbEntity
  8
0
100
AcDbLine
 62
7
  6
BYLAYER
 10
3.8890681586
 20
34.4796276572
 11
7.4829001219
 21
34.4796276572
  0
LINE
  5
270
100
AcDbEntity
  8
0
100
AcDbLine
 62
7
  6
BYLAYER
 10
4.0829001219
 20
34.6736184468
 11
7.4829001219
 21
34.6736184468
  0
LINE
  5
271
100
AcDbEntity
  8
0
100
AcDbLine
 62
7
  6
BYLAYER
 10
26.4829001219
 20
34.725
 11
24.4829001219
 21
34.725
  0
LINE
  5
272
100
AcDbEntity
  8
0
100
AcDbLine
 62
7
  6
BYLAYER
 10
27.8329001219
 20
34.825
 11
26.4829001219
 21
34.825
  0
LINE
  5
273
100
AcDbEntity
  8
0
100
AcDbLine
 62
7
  6
BYLAYER
 10
24.4829001219
 20
34.825
 11
20.6829001219
 21
34.825
  0
LINE
  5
274
100
AcDbEntity
  8
0
100
AcDbLine
 62
7
  6
BYLAYER
 10
6.6829001219
 20
34.863858293
 11
4.5829001219
 21
34.863858293
  0
LINE
  5
275
100
AcDbEntity
  8
0
100
AcDbLine
 62
7
  6
BYLAYER
 10
6.6182851956
 20
34.8685989524
 11
4.6260475741
 21
34.8685989524
  0
LINE
  5
276
100
AcDbEntity
  8
0
100
AcDbLine
 62
7
  6
BYLAYER
 10
4.5829001219
 20
35.1236090812
 11
4.0829001219
 21
35.1236090812
  0
LINE
  5
277
100
AcDbEntity
  8
0
100
AcDbLine
 62
7
  6
BYLAYER
 10
4.6173501973
 20
35.126618354
 11
4.0484500466
 21
35.126618354
  0
LINE
  5
278
100
AcDbEntity
  8
0
100
AcDbLine
 62
7
  6
BYLAYER
 10
3.6329001219
 20
35.2569389528
 11
6.4837530079
 21
35.2569389528
  0
LINE
  5
279
100
AcDbEntity
  8
0
100
AcDbLine
 62
7
  6
BYLAYER
 10
29.8329001219
 20
35.8249454426
 11
29.8329001219
 21
10.0250385327
  0
LINE
  5
27A
100
AcDbEntity
  8
0
100
AcDbLine
 62
7
  6
BYLAYER
 10
4.5829014207
 20
34.863858293
 11
4.6262028023
 21
34.8685988964
  0
LINE
  5
27B
100
AcDbEntity
  8
0
100
AcDbLine
 62
7
  6
BYLAYER
 10
4.5829001219
 20
35.1236090812
 11
4.6175368667
 21
35.1266182708
  0
LINE
  5
27C
100
AcDbEntity
  8
0
100
AcDbLine
 62
7
  6
BYLAYER
 10
3.6329001219
 20
35.4561465968
 11
6.6829001219
 21
35.4561465968
  0
LINE
  5
27D
100
AcDbEntity
  8
0
100
AcDbLine
 62
7
  6
BYLAYER
 10
5.4829001219
 20
35.5374765332
 11
3.6329001219
 21
35.5374765332
  0
LINE
  5
27E
100
AcDbEntity
  8
0
100
AcDbLine
 62
7
  6
BYLAYER
 10
7.4829001219
 20
35.575
 11
5.4829001219
 21
35.575
  0
LINE
  5
27F
100
AcDbEntity
  8
0
100
AcDbLine
 62
7
  6
BYLAYER
 10
27.8329001219
 20
35.825
 11
29.8329001219
 21
35.825
  0
ARC
  5
280
100
AcDbEntity
  8
0
100
AcDbCircle
 62
7
  6
BYLAYER
 10
15.1483617344
 20
2.225
 40
10.0
100
AcDbArc
 50
66.2057270495
 51
90.0
  0
ARC
  5
281
100
AcDbEntity
  8
0
100
AcDbCircle
 62
7
  6
BYLAYER
 10
15.1483617344
 20
43.625
 40
10.0
100
AcDbArc
 50
270.0
 51
293.7942729505
  0
ARC
  5
282
100
AcDbEntity
  8
0
100
AcDbCircle
 62
7
  6
BYLAYER
 10
12.1006867996
 20
30.9877213094
 40
3.0937221233
100
AcDbArc
 50
69.6450386068
 51
90.0171792609
  0
ARC
  5
283
100
AcDbEntity
  8
0
100
AcDbCircle
 62
7
  6
BYLAYER
 10
12.0997591945
 20
14.375
 40
3.0
100
AcDbArc
 50
270.0
 51
292.0
  0
ARC
  5
284
100
AcDbEntity
  8
0
100
AcDbCircle
 62
7
  6
BYLAYER
 10
14.9811042565
 20
34.625
 40
1.0
100
AcDbArc
 50
247.9999997178
 51
270.0
  0
ARC
  5
285
100
AcDbEntity
  8
0
100
AcDbCircle
 62
7
  6
BYLAYER
 10
14.9811042565
 20
11.225
 40
1.0
100
AcDbArc
 50
90.0
 51
112.0000002822
  0
ARC
  5
286
100
AcDbEntity
  8
0
100
AcDbCircle
 62
7
  6
BYLAYER
 10
8.0829001219
 20
12.525
 40
0.6
100
AcDbArc
 50
90.0
 51
99.5940682269
  0
ARC
  5
287
100
AcDbEntity
  8
0
100
AcDbCircle
 62
7
  6
BYLAYER
 10
8.0829001219
 20
33.325
 40
0.6
100
AcDbArc
 50
260.4059317731
 51
270.0
  0
ARC
  5
288
100
AcDbEntity
  8
0
100
AcDbCircle
 62
7
  6
BYLAYER
 10
10.3829001219
 20
33.125
 40
0.4
100
AcDbArc
 50
270.0
 51
360.0
  0
ARC
  5
289
100
AcDbEntity
  8
0
100
AcDbCircle
 62
7
  6
BYLAYER
 10
10.3829001219
 20
12.725
 40
0.4
100
AcDbArc
 50
0.0
 51
90.0
  0
ARC
  5
28A
100
AcDbEntity
  8
0
100
AcDbCircle
 62
7
  6
BYLAYER
 10
7.6829001219
 20
34.175
 40
0.3
100
AcDbArc
 50
0.0
 51
90.0
  0
ARC
  5
28B
100
AcDbEntity
  8
0
100
AcDbCircle
 62
7
  6
BYLAYER
 10
7.6829001219
 20
11.675
 40
0.3
100
AcDbArc
 50
270.0
 51
360.0
  0
ARC
  5
28C
100
AcDbEntity
  8
0
100
AcDbCircle
 62
7
  6
BYLAYER
 10
7.6901985025
 20
11.8937458906
 40
0.2930114791
100
AcDbArc
 50
323.4564415308
 51
328.7610692543
  0
ARC
  5
28D
100
AcDbEntity
  8
0
100
AcDbCircle
 62
7
  6
BYLAYER
 10
7.6925034177
 20
33.9575359973
 40
0.2903968171
100
AcDbArc
 50
0.0505158966
 51
36.6149264305
  0
ARC
  5
28E
100
AcDbEntity
  8
0
100
AcDbCircle
 62
7
  6
BYLAYER
 10
7.6927966556
 20
11.8924220363
 40
0.2901035453
100
AcDbArc
 50
328.7185054382
 51
359.9577214651
  0
ARC
  5
28F
100
AcDbEntity
  8
0
100
AcDbCircle
 62
7
  6
BYLAYER
 10
4.0965527863
 20
34.4286610525
 40
0.213652675
100
AcDbArc
 50
166.1990905449
 51
179.9819914523
  0
ARC
  5
290
100
AcDbEntity
  8
0
100
AcDbCircle
 62
7
  6
BYLAYER
 10
4.096552736
 20
11.4213389429
 40
0.2136526246
100
AcDbArc
 50
180.0180107091
 51
193.8009115109
  0
ARC
  5
291
100
AcDbEntity
  8
0
100
AcDbCircle
 62
7
  6
BYLAYER
 10
6.6848433457
 20
10.6116013201
 40
0.2019432239
100
AcDbArc
 50
180.0013331136
 51
185.2677053249
  0
ARC
  5
292
100
AcDbEntity
  8
0
100
AcDbCircle
 62
7
  6
BYLAYER
 10
6.6848433458
 20
35.2383986799
 40
0.2019432239
100
AcDbArc
 50
174.7322946757
 51
179.9986668875
  0
SPLINE
  5
293
100
AcDbEntity
  8
0
100
AcDbSpline
 62
7
  6
BYLAYER
 70
0
 71
3
 72
11
 73
7
 74
0
 42
0.0000001
 43
0.0000001
 44
0.0000000001
 40
0.0
 40
0.0
 40
0.0
 40
0.0
 40
0.2218631047
 40
0.4502772706
 40
0.704100896
 40
1.0
 40
1.0
 40
1.0
 40
1.0
 10
4.0484493785
 20
35.1266204335
 30
0.0
 10
4.0291784495
 20
35.1266189233
 30
0.0
 10
3.9897090727
 20
35.1206931932
 30
0.0
 10
3.9349226896
 20
35.0903435572
 30
0.0
 10
3.8926813431
 20
35.0349058694
 30
0.0
 10
3.8829001219
 20
34.9862225376
 30
0.0
 10
3.8829001219
 20
34.9605208751
 30
0.0
  0
SPLINE
  5
294
100
AcDbEntity
  8
0
100
AcDbSpline
 62
7
  6
BYLAYER
 70
0
 71
3
 72
11
 73
7
 74
0
 42
0.0000001
 43
0.0000001
 44
0.0000000001
 40
0.0
 40
0.0
 40
0.0
 40
0.0
 40
0.2218639553
 40
0.4502741205
 40
0.7041032549
 40
1.0
 40
1.0
 40
1.0
 40
1.0
 10
4.6173507181
 20
35.1266203934
 30
0.0
 10
4.6366217653
 20
35.1266188545
 30
0.0
 10
4.6760915812
 20
35.1206940864
 30
0.0
 10
4.7308754756
 20
35.090340927
 30
0.0
 10
4.773123531
 20
35.0349079869
 30
0.0
 10
4.7829001219
 20
34.9862223919
 30
0.0
 10
4.7829001219
 20
34.9605208751
 30
0.0
  0
SPLINE
  5
295
100
AcDbEntity
  8
0
100
AcDbSpline
 62
7
  6
BYLAYER
 70
0
 71
3
 72
11
 73
7
 74
0
 42
0.0000001
 43
0.0000001
 44
0.0000000001
 40
0.0
 40
0.0
 40
0.0
 40
0.0
 40
0.2218631047
 40
0.4502772706
 40
0.704100896
 40
1.0
 40
1.0
 40
1.0
 40
1.0
 10
4.6173508654
 20
10.7233795665
 30
0.0
 10
4.6366217943
 20
10.7233810767
 30
0.0
 10
4.6760911712
 20
10.7293068068
 30
0.0
 10
4.7308775542
 20
10.7596564428
 30
0.0
 10
4.7731189007
 20
10.8150941306
 30
0.0
 10
4.7829001219
 20
10.8637774624
 30
0.0
 10
4.7829001219
 20
10.8894791249
 30
0.0
  0
SPLINE
  5
296
100
AcDbEntity
  8
0
100
AcDbSpline
 62
7
  6
BYLAYER
 70
0
 71
3
 72
11
 73
7
 74
0
 42
0.0000001
 43
0.0000001
 44
0.0000000001
 40
0.0
 40
0.0
 40
0.0
 40
0.0
 40
0.2218639553
 40
0.4502741205
 40
0.7041032549
 40
1.0
 40
1.0
 40
1.0
 40
1.0
 10
4.0484495257
 20
10.7233796066
 30
0.0
 10
4.0291784785
 20
10.7233811455
 30
0.0
 10
3.9897086626
 20
10.7293059136
 30
0.0
 10
3.9349247682
 20
10.759659073
 30
0.0
 10
3.8926767128
 20
10.8150920131
 30
0.0
 10
3.8829001219
 20
10.8637776081
 30
0.0
 10
3.8829001219
 20
10.8894791249
 30
0.0
  0
SPLINE
  5
297
100
AcDbEntity
  8
0
100
AcDbSpline
 62
7
  6
BYLAYER
 70
0
 71
3
 72
11
 73
7
 74
0
 42
0.0000001
 43
0.0000001
 44
0.0000000001
 40
0.0
 40
0.0
 40
0.0
 40
0.0
 40
0.2163205346
 40
0.4492479657
 40
0.7094537105
 40
1.0
 40
1.0
 40
1.0
 40
1.0
 10
6.6829001219
 20
10.3938534032
 30
0.0
 10
6.661119734
 20
10.3957967384
 30
0.0
 10
6.6162846268
 20
10.4073036838
 30
0.0
 10
6.5547366555
 20
10.446290906
 30
0.0
 10
6.503864051
 20
10.5089271849
 30
0.0
 10
6.4864501954
 20
10.5638150825
 30
0.0
 10
6.4837530079
 20
10.5930610472
 30
0.0
  0
SPLINE
  5
298
100
AcDbEntity
  8
0
100
AcDbSpline
 62
7
  6
BYLAYER
 70
0
 71
3
 72
9
 73
5
 74
0
 42
0.0000001
 43
0.0000001
 44
0.0000000001
 40
0.0
 40
0.0
 40
0.0
 40
0.0
 40
0.5113245257
 40
1.0
 40
1.0
 40
1.0
 40
1.0
 10
6.6828943185
 20
10.986140955
 30
0.0
 10
6.6653698882
 20
10.9804540046
 30
0.0
 10
6.6296197688
 20
10.9731947092
 30
0.0
 10
6.5929733365
 20
10.9769794245
 30
0.0
 10
6.5761073792
 20
10.9820371939
 30
0.0
  0
SPLINE
  5
299
100
AcDbEntity
  8
0
100
AcDbSpline
 62
7
  6
BYLAYER
 70
0
 71
3
 72
11
 73
7
 74
0
 42
0.0000001
 43
0.0000001
 44
0.0000000001
 40
0.0
 40
0.0
 40
0.0
 40
0.0
 40
0.2510075843
 40
0.5017717933
 40
0.7514105381
 40
1.0
 40
1.0
 40
1.0
 40
1.0
 10
7.6829001219
 20
11.5980001815
 30
0.0
 10
7.7063907799
 20
11.5980001815
 30
0.0
 10
7.7535241814
 20
11.6034756941
 30
0.0
 10
7.8202419495
 20
11.6275660339
 30
0.0
 10
7.8794023742
 20
11.6663036408
 30
0.0
 10
7.9117519646
 20
11.7005869299
 30
0.0
 10
7.9256052202
 20
11.7192769704
 30
0.0
  0
SPLINE
  5
29A
100
AcDbEntity
  8
0
100
AcDbSpline
 62
7
  6
BYLAYER
 70
0
 71
3
 72
11
 73
7
 74
0
 42
0.0000001
 43
0.0000001
 44
0.0000000001
 40
0.0
 40
0.0
 40
0.0
 40
0.0
 40
0.2499247122
 40
0.4999866923
 40
0.7500647195
 40
1.0
 40
1.0
 40
1.0
 40
1.0
 10
7.4829001219
 20
12.8299517089
 30
0.0
 10
7.4829001219
 20
12.8729734221
 30
0.0
 10
7.4917139994
 20
12.9592848441
 30
0.0
 10
7.5306559253
 20
13.0833008622
 30
0.0
 10
7.5941753505
 20
13.1967334923
 30
0.0
 10
7.6513016648
 20
13.2621126774
 30
0.0
 10
7.6829001219
 20
13.2913113392
 30
0.0
  0
SPLINE
  5
29B
100
AcDbEntity
  8
0
100
AcDbSpline
 62
7
  6
BYLAYER
 70
0
 71
3
 72
11
 73
7
 74
0
 42
0.0000001
 43
0.0000001
 44
0.0000000001
 40
0.0
 40
0.0
 40
0.0
 40
0.0
 40
0.249934552
 40
0.5000132721
 40
0.7500760313
 40
1.0
 40
1.0
 40
1.0
 40
1.0
 10
7.6829001219
 20
32.5586886608
 30
0.0
 10
7.6513017558
 20
32.5878872385
 30
0.0
 10
7.5941752083
 20
32.6532662473
 30
0.0
 10
7.5306561825
 20
32.7666992444
 30
0.0
 10
7.4917137255
 20
32.8907152215
 30
0.0
 10
7.4829001219
 20
32.9770267044
 30
0.0
 10
7.4829001219
 20
33.0200482911
 30
0.0
  0
SPLINE
  5
29C
100
AcDbEntity
  8
0
100
AcDbSpline
 62
7
  6
BYLAYER
 70
0
 71
3
 72
21
 73
17
 74
0
 42
0.0000001
 43
0.0000001
 44
0.0000000001
 40
0.0
 40
0.0
 40
0.0
 40
0.0
 40
0.0205027905
 40
0.0435566047
 40
0.0717485184
 40
0.1065820085
 40
0.1486933993
 40
0.198287123
 40
0.2555150382
 40
0.3201370436
 40
0.4684810994
 40
0.5508335765
 40
0.6371157194
 40
0.7260901678
 40
0.8167395421
 40
1.0
 40
1.0
 40
1.0
 40
1.0
 10
7.9829001219
 20
13.3665192603
 30
0.0
 10
7.9829001219
 20
13.3688439941
 30
0.0
 10
7.9816968202
 20
13.3738409953
 30
0.0
 10
7.9765220983
 20
13.3803467901
 30
0.0
 10
7.9683908584
 20
13.3859113193
 30
0.0
 10
7.957343726
 20
13.3905429559
 30
0.0
 10
7.9433882573
 20
13.3940556669
 30
0.0
 10
7.926591294
 20
13.3961249429
 30
0.0
 10
7.9071198873
 20
13.3964153182
 30
0.0
 10
7.8765478015
 20
13.3939338554
 30
0.0
 10
7.8436729643
 20
13.3865240615
 30
0.0
 10
7.8098540374
 20
13.374283442
 30
0.0
 10
7.7832203593
 20
13.3622130592
 30
0.0
 10
7.7567792916
 20
13.3476594338
 30
0.0
 10
7.7223356627
 20
13.3250998571
 30
0.0
 10
7.6981613271
 20
13.3054135078
 30
0.0
 10
7.6829001219
 20
13.2913113392
 30
0.0
  0
SPLINE
  5
29D
100
AcDbEntity
  8
0
100
AcDbSpline
 62
7
  6
BYLAYER
 70
0
 71
3
 72
11
 73
7
 74
0
 42
0.0000001
 43
0.0000001
 44
0.0000000001
 40
0.0
 40
0.0
 40
0.0
 40
0.0
 40
0.2485894067
 40
0.4982284147
 40
0.748992569
 40
1.0
 40
1.0
 40
1.0
 40
1.0
 10
7.9255939432
 20
34.1307385328
 30
0.0
 10
7.9117403715
 20
34.1494263657
 30
0.0
 10
7.8793909724
 20
34.1837053633
 30
0.0
 10
7.8202330122
 20
34.2224378057
 30
0.0
 10
7.7535193282
 20
34.2465249961
 30
0.0
 10
7.7063891702
 20
34.2519998185
 30
0.0
 10
7.6829001219
 20
34.2519998185
 30
0.0
  0
SPLINE
  5
29E
100
AcDbEntity
  8
0
100
AcDbSpline
 62
7
  6
BYLAYER
 70
0
 71
3
 72
9
 73
5
 74
0
 42
0.0000001
 43
0.0000001
 44
0.0000000001
 40
0.0
 40
0.0
 40
0.0
 40
0.0
 40
0.7487355093
 40
1.0
 40
1.0
 40
1.0
 40
1.0
 10
6.5891303841
 20
34.8712139225
 30
0.0
 10
6.5963872849
 20
34.872673231
 30
0.0
 10
6.6062443246
 20
34.8738929214
 30
0.0
 10
6.6161256074
 20
34.8742203643
 30
0.0
 10
6.618609499
 20
34.8742492564
 30
0.0
  0
SPLINE
  5
29F
100
AcDbEntity
  8
0
100
AcDbSpline
 62
7
  6
BYLAYER
 70
0
 71
3
 72
9
 73
5
 74
0
 42
0.0000001
 43
0.0000001
 44
0.0000000001
 40
0.0
 40
0.0
 40
0.0
 40
0.0
 40
0.2437195901
 40
1.0
 40
1.0
 40
1.0
 40
1.0
 10
6.618609499
 20
34.8742492564
 30
0.0
 10
6.6239134808
 20
34.8743109513
 30
0.0
 10
6.6456862345
 20
34.873565011
 30
0.0
 10
6.6672443152
 20
34.8689439073
 30
0.0
 10
6.6828987568
 20
34.8638583833
 30
0.0
  0
SPLINE
  5
2A0
100
AcDbEntity
  8
0
100
AcDbSpline
 62
7
  6
BYLAYER
 70
0
 71
3
 72
21
 73
17
 74
0
 42
0.0000001
 43
0.0000001
 44
0.0000000001
 40
0.0
 40
0.0
 40
0.0
 40
0.0
 40
0.1832726472
 40
0.2739272684
 40
0.3629007267
 40
0.449183345
 40
0.5315389423
 40
0.6798778592
 40
0.7444944096
 40
0.8017228471
 40
0.8513145296
 40
0.8934231359
 40
0.9282558938
 40
0.9564464104
 40
0.9794981992
 40
1.0
 40
1.0
 40
1.0
 40
1.0
 10
7.6829001219
 20
32.5586886608
 30
0.0
 10
7.6981623681
 20
32.5445855303
 30
0.0
 10
7.7223389124
 20
32.5248987033
 30
0.0
 10
7.7567834379
 20
32.5023370848
 30
0.0
 10
7.7832244908
 20
32.4877820608
 30
0.0
 10
7.8098599027
 20
32.4757144677
 30
0.0
 10
7.8436793229
 20
32.4634761331
 30
0.0
 10
7.8765526226
 20
32.4560627413
 30
0.0
 10
7.9071238923
 20
32.4535836688
 30
0.0
 10
7.9265944933
 20
32.4538745412
 30
0.0
 10
7.9433909674
 20
32.4559440509
 30
0.0
 10
7.9573457432
 20
32.4594571935
 30
0.0
 10
7.9683919465
 20
32.4640896123
 30
0.0
 10
7.9765226925
 20
32.4696539581
 30
0.0
 10
7.9816970994
 20
32.4761594093
 30
0.0
 10
7.9829001219
 20
32.4811561142
 30
0.0
 10
7.9829001219
 20
32.4834807397
 30
0.0
  0
SPLINE
  5
2A1
100
AcDbEntity
  8
0
100
AcDbSpline
 62
7
  6
BYLAYER
 70
0
 71
3
 72
11
 73
7
 74
0
 42
0.0000001
 43
0.0000001
 44
0.0000000001
 40
0.0
 40
0.0
 40
0.0
 40
0.0
 40
0.2163217903
 40
0.4492427501
 40
0.7094597096
 40
1.0
 40
1.0
 40
1.0
 40
1.0
 10
6.6829001219
 20
35.4561465968
 30
0.0
 10
6.6611199425
 20
35.4542032802
 30
0.0
 10
6.6162854419
 20
35.4426978881
 30
0.0
 10
6.5547408046
 20
35.4037048498
 30
0.0
 10
6.5038741969
 20
35.3410682048
 30
0.0
 10
6.4864500982
 20
35.286183864
 30
0.0
 10
6.4837530079
 20
35.2569389528
 30
0.0
  0
SPLINE
  5
2A2
100
AcDbEntity
  8
0
100
AcDbSpline
 62
7
  6
BYLAYER
 70
0
 71
3
 72
13
 73
9
 74
0
 42
0.0000001
 43
0.0000001
 44
0.0000000001
 40
0.0
 40
0.0
 40
0.0
 40
0.0
 40
0.2174239418
 40
0.3334455117
 40
0.4548716851
 40
0.71570468
 40
0.8561309233
 40
1.0
 40
1.0
 40
1.0
 40
1.0
 10
4.0829001219
 20
11.1763815532
 30
0.0
 10
4.0627064473
 20
11.1813109025
 30
0.0
 10
4.0326585334
 20
11.1932407787
 30
0.0
 10
3.9957186964
 20
11.2163228104
 30
0.0
 10
3.9586302676
 20
11.246366694
 30
0.0
 10
3.9259261093
 20
11.2850751087
 30
0.0
 10
3.9013318722
 20
11.3311880253
 30
0.0
 10
3.8923571562
 20
11.3570168098
 30
0.0
 10
3.889068537
 20
11.3703723428
 30
0.0
  0
SPLINE
  5
2A3
100
AcDbEntity
  8
0
100
AcDbSpline
 62
7
  6
BYLAYER
 70
0
 71
3
 72
13
 73
9
 74
0
 42
0.0000001
 43
0.0000001
 44
0.0000000001
 40
0.0
 40
0.0
 40
0.0
 40
0.0
 40
0.2174211567
 40
0.3334538766
 40
0.4548868333
 40
0.7157032747
 40
0.8561332217
 40
1.0
 40
1.0
 40
1.0
 40
1.0
 10
4.0829001219
 20
34.6736184468
 30
0.0
 10
4.0627067403
 20
34.6686891691
 30
0.0
 10
4.0326602572
 20
34.6567546719
 30
0.0
 10
3.9957145507
 20
34.6336809123
 30
0.0
 10
3.9586152893
 20
34.603648211
 30
0.0
 10
3.9259388704
 20
34.5649159132
 30
0.0
 10
3.9013416947
 20
34.518809056
 30
0.0
 10
3.8923570981
 20
34.4929829542
 30
0.0
 10
3.889068537
 20
34.4796276572
 30
0.0
  0
SPLINE
  5
2A4
100
AcDbEntity
  8
0
100
AcDbSpline
 62
7
  6
BYLAYER
 70
0
 71
3
 72
19
 73
15
 74
0
 42
0.0000001
 43
0.0000001
 44
0.0000000001
 40
0.0
 40
0.0
 40
0.0
 40
0.0
 40
0.1249796256
 40
0.2499645939
 40
0.3124692789
 40
0.3749797604
 40
0.4374889439
 40
0.4999999977
 40
0.5625110452
 40
0.6250202262
 40
0.68753072
 40
0.7500354135
 40
0.8750203622
 40
1.0
 40
1.0
 40
1.0
 40
1.0
 10
21.6829001219
 20
17.9450401608
 30
0.0
 10
21.5296301561
 20
18.3420679729
 30
0.0
 10
21.2500184599
 20
19.146945838
 30
0.0
 10
20.983721526
 20
20.1786632023
 30
0.0
 10
20.8296637831
 20
21.0162232013
 30
0.0
 10
20.7455694694
 20
21.6495105042
 30
0.0
 10
20.6943036842
 20
22.2863326257
 30
0.0
 10
20.6772465186
 20
22.92499997
 30
0.0
 10
20.6943023376
 20
23.563667371
 30
0.0
 10
20.7455690625
 20
24.2004894628
 30
0.0
 10
20.8296648374
 20
24.8337766188
 30
0.0
 10
20.9837221493
 20
25.6713366545
 30
0.0
 10
21.2500168412
 20
26.703054669
 30
0.0
 10
21.5296301411
 20
27.5079319884
 30
0.0
 10
21.6829001219
 20
27.9049598392
 30
0.0
  0
ENDSEC
  0
SECTION
  2
OBJECTS
  0
DICTIONARY
  5
C
100
AcDbDictionary
280
0
281
1
  3
ACAD_GROUP
350
D
  3
ACAD_MLINESTYLE
350
17
  3
ACAD_LAYOUT
350
1A
  3
ACAD_PLOTSETTINGS
350
19
  3
ACAD_PLOTSTYLENAME
350
E
  0
DICTIONARY
  5
D
102
{ACAD_REACTORS
330
C
102
}
100
AcDbDictionary
280
0
281
1
  0
ACDBDICTIONARYWDFLT
  5
E
102
{ACAD_REACTORS
330
C
102
}
100
AcDbDictionary
281
1
  3
Normal
350
F
100
AcDbDictionaryWithDefault
340
F
  0
DICTIONARY
  5
17
102
{ACAD_REACTORS
330
C
102
}
100
AcDbDictionary
280
0
281
1
  3
Standard
350
18
  0
DICTIONARY
  5
19
102
{ACAD_REACTORS
330
C
102
}
100
AcDbDictionary
281
1
  0
DICTIONARY
  5
1A
102
{ACAD_REACTORS
330
C
102
}
100
AcDbDictionary
281
1
  3
Model
350
2A5
  3
Layout1
350
2A6
  0
ACDBPLACEHOLDER
  5
F
102
{ACAD_REACTORS
330
E
102
}
  0
MLINESTYLE
  5
18
102
{ACAD_REACTORS
330
17
102
}
100
AcDbMlineStyle
  2
STANDARD
 70
0
  3

 62
256
 51
90.0
 52
90.0
 71
2
 49
0.5
 62
256
  6
BYLAYER
 49
-0.5
 62
256
  6
BYLAYER
  0
LAYOUT
  5
2A5
102
{ACAD_REACTORS
330
1A
102
}
100
AcDbPlotSettings
  1

  2
none_device
  4

  6

 40
0.0
 41
0.0
 42
0.0
 43
0.0
 44
210.0
 45
297.0
 46
0.0
 47
0.0
 48
0.0
 49
0.0
140
0.0
141
0.0
142
1.0
143
1.0
 70
1024
 72
1
 73
0
 74
0
  7

 75
0
147
1.0
148
0.0
149
0.0
100
AcDbLayout
  1
Model
 70
0
 71
0
 10
0.0
 20
0.0
 11
210.0
 21
297.0
 12
0.0
 22
0.0
 32
0.0
 14
0.0
 24
0.0
 34
0.0
 15
0.0
 25
0.0
 35
0.0
146
0.0
 13
0.0
 23
0.0
 33
0.0
 16
1.0
 26
0.0
 36
0.0
 17
0.0
 27
1.0
 37
0.0
 76
0
330
210
345
0
346
0
  0
LAYOUT
  5
2A6
102
{ACAD_REACTORS
330
1A
102
}
100
AcDbPlotSettings
  1

  2
none_device
  4

  6

 40
0.0
 41
0.0
 42
0.0
 43
0.0
 44
210.0
 45
297.0
 46
0.0
 47
0.0
 48
0.0
 49
0.0
140
0.0
141
0.0
142
1.0
143
1.0
 70
0
 72
1
 73
0
 74
0
  7

 75
0
147
1.0
148
0.0
149
0.0
100
AcDbLayout
  1
Layout1
 70
0
 71
1
 10
0.0
 20
0.0
 11
210.0
 21
297.0
 12
0.0
 22
0.0
 32
0.0
 14
0.0
 24
0.0
 34
0.0
 15
0.0
 25
0.0
 35
0.0
146
0.0
 13
0.0
 23
0.0
 33
0.0
 16
1.0
 26
0.0
 36
0.0
 17
0.0
 27
1.0
 37
0.0
 76
0
330
211
345
0
346
0
  0
ENDSEC
  0
EOF
