999
DXF file: C:\Users\sesa63760\Dev\_Creo\CAD\MCADID0001933_3D-CAD\drw0001_6.dxf
999
Pro/ENGINEER 2019471 by Parametric Technology Corporation
  0
SECTION
  2
HEADER
  9
$ACADVER
  1
AC1024
  9
$DWGCODEPAGE
  3
ANSI_1252
  9
$EXTMAX
 10
569.246695755
 20
805.0774697107
 30
0.0
  9
$EXTMIN
 10
0.0
 20
0.0
 30
0.0
  9
$LIMMIN
 10
0.0
 20
0.0
  9
$LIMMAX
 10
569.246695755
 20
805.0774697107
  9
$VIEWCTR
 10
284.6233478775
 20
402.5387348553
  9
$VIEWSIZE
 40
805.0774697107
  9
$CLAYER
  8
0
  9
$LTSCALE
 40
52.4791239515
  9
$CELTYPE
  6
BYLAYER
  9
$DIMSCALE
 40
1.0
  9
$DIMASZ
 40
6.776746378
  9
$DIMEXO
 40
1.0
  9
$DIMDLI
 40
36.258303821
  9
$DIMEXE
 40
1.0
  9
$DIMCEN
 40
8.5874930102
  9
$DIMLFAC
 40
1.0
  9
$DIMBLK
  1
_FILLED
  9
$DIMALT
 70
0
  9
$DIMALTF
 40
0.0393700787
  9
$DIMTXT
 40
9.4874449293
  9
$DIMTOL
 70
1
  9
$DIMLIM
 70
0
  9
$DIMTFAC
 40
1.0
  9
$DIMTP
 40
0.01
  9
$DIMTM
 40
0.01
  9
$DIMGAP
 40
0.625
  9
$DIMDSEP
 70
46
  9
$AUNITS
 70
0
  9
$PDMODE
 70
3
  9
$PDSIZE
 40
0.3125
  9
$HANDSEED
  5
3AF
  9
$TILEMODE
 70
1
  9
$MEASUREMENT
 70
1
  9
$INSUNITS
 70
4
  0
ENDSEC
  0
SECTION
  2
CLASSES
  0
CLASS
  1
ACDBDICTIONARYWDFLT
  2
AcDbDictionaryWithDefault
  3
AutoCAD 2000
 90
0
 91
1
280
0
281
0
  0
CLASS
  1
ACDBPLACEHOLDER
  2
AcDbPlaceHolder
  3
AutoCAD 2000
 90
0
 91
1
280
0
281
0
  0
CLASS
  1
LAYOUT
  2
AcDbLayout
  3
AutoCAD 2000
 90
0
 91
0
280
0
281
0
  0
ENDSEC
  0
SECTION
  2
TABLES
  0
TABLE
  2
VPORT
  5
8
100
AcDbSymbolTable
 70
2
  0
VPORT
  5
1F4
100
AcDbSymbolTableRecord
100
AcDbViewportTableRecord
  2
*ACTIVE
 70
0
 10
0.0
 20
0.0
 11
1.0
 21
1.0
 12
284.6233478775
 22
402.5387348553
 13
0.0
 23
0.0
 14
1.0
 24
1.0
 15
0.0
 25
0.0
 16
0.0
 26
0.0
 36
1.0
 17
0.0
 27
0.0
 37
0.0
 40
805.0774697107
 41
0.7070707071
 42
50.0
 43
0.0
 44
0.0
 50
0.0
 51
0.0
 71
0
 72
100
 73
1
 74
1
 75
0
 76
0
 77
0
 78
0
  0
ENDTAB
  0
TABLE
  2
LTYPE
  5
5
100
AcDbSymbolTable
 70
6
  0
LTYPE
  5
14
100
AcDbSymbolTableRecord
100
AcDbLinetypeTableRecord
  2
BYBLOCK
 70
0
  3

 72
65
 73
0
 40
0.0
  0
LTYPE
  5
15
100
AcDbSymbolTableRecord
100
AcDbLinetypeTableRecord
  2
BYLAYER
 70
0
  3

 72
65
 73
0
 40
0.0
  0
LTYPE
  5
16
100
AcDbSymbolTableRecord
100
AcDbLinetypeTableRecord
  2
CONTINUOUS
 70
64
  3
Solid line
 72
65
 73
0
 40
0.0
  0
LTYPE
  5
1F5
100
AcDbSymbolTableRecord
100
AcDbLinetypeTableRecord
  2
CENTER
 70
64
  3
____ _ ____ _ ____ _ ____ _ ____ _ ____ _ ____
 72
65
 73
4
 40
0.6
 49
0.375
 74
0
 49
-0.075
 74
0
 49
0.075
 74
0
 49
-0.075
 74
0
  0
LTYPE
  5
1F6
100
AcDbSymbolTableRecord
100
AcDbLinetypeTableRecord
  2
HIDDEN
 70
64
  3
- - - - - - - - - - - - - - - - - - - -
 72
65
 73
2
 40
0.2
 49
0.1
 74
0
 49
-0.1
 74
0
  0
LTYPE
  5
1F7
100
AcDbSymbolTableRecord
100
AcDbLinetypeTableRecord
  2
PHANTOM
 70
64
  3
_____ _ _ _____ _ _ _____ _ _ _____
 72
65
 73
6
 40
0.8
 49
0.45
 74
0
 49
-0.05
 74
0
 49
0.1
 74
0
 49
-0.05
 74
0
 49
0.1
 74
0
 49
-0.05
 74
0
  0
LTYPE
  5
1F8
100
AcDbSymbolTableRecord
100
AcDbLinetypeTableRecord
  2
DOT
 70
64
  3
. . . . . . . . . . . . . . . . . . . .
 72
65
 73
2
 40
0.2
 49
0.1
 74
0
 49
-0.1
 74
0
  0
LTYPE
  5
1F9
100
AcDbSymbolTableRecord
100
AcDbLinetypeTableRecord
  2
DASHED
 70
64
  3
- - - - - - - - - - - - - - - - - - - -
 72
65
 73
2
 40
0.2
 49
0.1
 74
0
 49
-0.1
 74
0
  0
ENDTAB
  0
TABLE
  2
LAYER
  5
2
100
AcDbSymbolTable
 70
36
  0
LAYER
  5
10
100
AcDbSymbolTableRecord
100
AcDbLayerTableRecord
  2
0
 70
0
 62
7
  6
CONTINUOUS
370
-3
390
F
  0
LAYER
  5
1FA
100
AcDbSymbolTableRecord
100
AcDbLayerTableRecord
  2
DEFAULT_1
 70
0
 62
7
  6
CENTER
370
-3
390
F
  0
LAYER
  5
1FB
100
AcDbSymbolTableRecord
100
AcDbLayerTableRecord
  2
DEFAULT_2
 70
0
 62
8
  6
HIDDEN
370
-3
390
F
  0
LAYER
  5
1FC
100
AcDbSymbolTableRecord
100
AcDbLayerTableRecord
  2
DEFAULT_3
 70
0
 62
7
  6
PHANTOM
370
-3
390
F
  0
LAYER
  5
1FD
100
AcDbSymbolTableRecord
100
AcDbLayerTableRecord
  2
00_COMPONENTS
 70
0
 62
7
  6
CONTINUOUS
370
-3
390
F
  0
LAYER
  5
1FE
100
AcDbSymbolTableRecord
100
AcDbLayerTableRecord
  2
01_1_DEFAULT_DATUMS
 70
0
 62
7
  6
CONTINUOUS
370
-3
390
F
  0
LAYER
  5
1FF
100
AcDbSymbolTableRecord
100
AcDbLayerTableRecord
  2
01_PLANES
 70
0
 62
7
  6
CONTINUOUS
370
-3
390
F
  0
LAYER
  5
200
100
AcDbSymbolTableRecord
100
AcDbLayerTableRecord
  2
02_COORD_SYS
 70
0
 62
7
  6
CONTINUOUS
370
-3
390
F
  0
LAYER
  5
201
100
AcDbSymbolTableRecord
100
AcDbLayerTableRecord
  2
03_AXES
 70
0
 62
7
  6
CONTINUOUS
370
-3
390
F
  0
LAYER
  5
202
100
AcDbSymbolTableRecord
100
AcDbLayerTableRecord
  2
04_POINTS
 70
0
 62
7
  6
CONTINUOUS
370
-3
390
F
  0
LAYER
  5
203
100
AcDbSymbolTableRecord
100
AcDbLayerTableRecord
  2
05_CURVES
 70
0
 62
7
  6
CONTINUOUS
370
-3
390
F
  0
LAYER
  5
204
100
AcDbSymbolTableRecord
100
AcDbLayerTableRecord
  2
06_SURFS
 70
0
 62
7
  6
CONTINUOUS
370
-3
390
F
  0
LAYER
  5
205
100
AcDbSymbolTableRecord
100
AcDbLayerTableRecord
  2
07_COSMETICS
 70
0
 62
7
  6
CONTINUOUS
370
-3
390
F
  0
LAYER
  5
206
100
AcDbSymbolTableRecord
100
AcDbLayerTableRecord
  2
10_NOTES
 70
0
 62
7
  6
CONTINUOUS
370
-3
390
F
  0
LAYER
  5
207
100
AcDbSymbolTableRecord
100
AcDbLayerTableRecord
  2
11_NOTES_PUB
 70
0
 62
7
  6
CONTINUOUS
370
-3
390
F
  0
LAYER
  5
208
100
AcDbSymbolTableRecord
100
AcDbLayerTableRecord
  2
13_REF_GTOL
 70
0
 62
7
  6
CONTINUOUS
370
-3
390
F
  0
LAYER
  5
209
100
AcDbSymbolTableRecord
100
AcDbLayerTableRecord
  2
16_MISC
 70
0
 62
7
  6
CONTINUOUS
370
-3
390
F
  0
LAYER
  5
20A
100
AcDbSymbolTableRecord
100
AcDbLayerTableRecord
  2
17_NO_PRINT
 70
0
 62
7
  6
CONTINUOUS
370
-3
390
F
  0
LAYER
  5
20B
100
AcDbSymbolTableRecord
100
AcDbLayerTableRecord
  2
18_DATUM_CAMS_JOINTS
 70
0
 62
7
  6
CONTINUOUS
370
-3
390
F
  0
LAYER
  5
20C
100
AcDbSymbolTableRecord
100
AcDbLayerTableRecord
  2
19_DATUM_FUNCTIONAL
 70
0
 62
7
  6
CONTINUOUS
370
-3
390
F
  0
LAYER
  5
20D
100
AcDbSymbolTableRecord
100
AcDbLayerTableRecord
  2
20_DATUM_KINEMATIC_SCHEME
 70
0
 62
7
  6
CONTINUOUS
370
-3
390
F
  0
LAYER
  5
20E
100
AcDbSymbolTableRecord
100
AcDbLayerTableRecord
  2
_1
 70
0
 62
7
  6
CONTINUOUS
370
-3
390
F
  0
ENDTAB
  0
TABLE
  2
STYLE
  5
3
100
AcDbSymbolTable
 70
1
  0
STYLE
  5
11
100
AcDbSymbolTableRecord
100
AcDbTextStyleTableRecord
  2
STANDARD
 70
0
 40
0.0
 41
0.8
 50
0.0
 71
0
 42
0.2
  3
txt
  4

  0
STYLE
  5
20F
100
AcDbSymbolTableRecord
100
AcDbTextStyleTableRecord
  2
TEXTSTYLE_1
 70
0
 40
0.0
 41
0.8
 50
0.0
 71
0
 42
0.2
  3
gdt
  4

  0
ENDTAB
  0
TABLE
  2
VIEW
  5
6
100
AcDbSymbolTable
 70
0
  0
ENDTAB
  0
TABLE
  2
UCS
  5
7
100
AcDbSymbolTable
 70
0
  0
ENDTAB
  0
TABLE
  2
APPID
  5
9
100
AcDbSymbolTable
 70
1
  0
APPID
  5
210
100
AcDbSymbolTableRecord
100
AcDbRegAppTableRecord
  2
ACAD
 70
0
  0
ENDTAB
  0
TABLE
  2
BLOCK_RECORD
  5
1
100
AcDbSymbolTable
 70
0
  0
BLOCK_RECORD
  5
211
100
AcDbSymbolTableRecord
100
AcDbBlockTableRecord
  2
*Model_Space
  0
BLOCK_RECORD
  5
212
100
AcDbSymbolTableRecord
100
AcDbBlockTableRecord
  2
*Paper_Space
  0
BLOCK_RECORD
  5
213
100
AcDbSymbolTableRecord
100
AcDbBlockTableRecord
  2
_FILLED
  0
ENDTAB
  0
TABLE
  2
DIMSTYLE
  5
A
100
AcDbSymbolTable
 70
1
100
AcDbDimStyleTable
 71
0
  0
DIMSTYLE
105
214
100
AcDbSymbolTableRecord
100
AcDbDimStyleTableRecord
  2
STANDARD
 70
0
  3

  4

 40
1.0
 41
6.776746378
 42
1.0
 43
0.38
 44
1.0
 45
0.0
 46
0.0
 47
0.01
 48
0.01
140
9.4874449293
141
0.09
142
0.0
143
25.4
144
1.0
145
0.0
146
1.0
147
0.625
 71
1
 72
0
 73
0
 74
0
 75
0
 76
0
 77
1
 78
8
 79
2
170
0
171
1
172
0
173
0
174
0
175
0
176
0
177
0
178
0
270
2
179
2
271
2
272
2
273
2
274
2
275
0
280
0
281
0
282
0
283
1
284
8
285
0
286
0
287
3
288
0
340
11
278
46
341
213
342
213
343
213
344
213
  0
ENDTAB
  0
ENDSEC
  0
SECTION
  2
BLOCKS
  0
BLOCK
  5
20
100
AcDbEntity
  8
0
100
AcDbBlockBegin
  2
*Model_Space
 70
0
 10
0.0
 20
0.0
 30
0.0
  3
*Model_Space
  1

  0
ENDBLK
  5
21
100
AcDbEntity
  8
0
100
AcDbBlockEnd
  0
BLOCK
  5
1C
100
AcDbEntity
  8
0
100
AcDbBlockBegin
  2
*Paper_Space
 70
0
 10
0.0
 20
0.0
 30
0.0
  3
*Paper_Space
  1

  0
ENDBLK
  5
1D
100
AcDbEntity
  8
0
100
AcDbBlockEnd
  0
BLOCK
  5
215
100
AcDbEntity
  8
0
100
AcDbBlockBegin
  2
_FILLED
 70
64
 10
0.0
 20
0.0
  3
_FILLED
  1

  0
SOLID
  5
216
100
AcDbEntity
  8
0
  6
BYBLOCK
 62
0
100
AcDbTrace
 10
0.0
 20
0.0
 11
-1.0
 21
0.25
 12
-1.0
 22
-0.25
 13
-1.0
 23
-0.25
  0
ENDBLK
  5
217
100
AcDbEntity
  8
0
  6
BYBLOCK
 62
0
100
AcDbBlockEnd
  0
ENDSEC
  0
SECTION
  2
ENTITIES
  0
LINE
  5
218
100
AcDbEntity
  8
_1
100
AcDbLine
 62
7
  6
CONTINUOUS
 10
64.3848968612
 20
352.7983894531
 11
64.3848968612
 21
390.7969166871
  0
LINE
  5
219
100
AcDbEntity
  8
_1
100
AcDbLine
 62
7
  6
CONTINUOUS
 10
69.3848968612
 20
393.7976530701
 11
69.3848968612
 21
390.7976530701
  0
LINE
  5
21A
100
AcDbEntity
  8
_1
100
AcDbLine
 62
7
  6
CONTINUOUS
 10
74.3848968612
 20
390.1279558499
 11
74.3848968612
 21
393.7976530701
  0
LINE
  5
21B
100
AcDbEntity
  8
_1
100
AcDbLine
 62
7
  6
CONTINUOUS
 10
134.3848968612
 20
393.7976530701
 11
134.3848968612
 21
390.1279558499
  0
LINE
  5
21C
100
AcDbEntity
  8
_1
100
AcDbLine
 62
7
  6
CONTINUOUS
 10
139.3848968612
 20
390.7978069085
 11
139.3848968612
 21
393.7976530701
  0
LINE
  5
21D
100
AcDbEntity
  8
_1
100
AcDbLine
 62
7
  6
CONTINUOUS
 10
140.3848968612
 20
281.7977027545
 11
140.3848968612
 21
461.7976033857
  0
LINE
  5
21E
100
AcDbEntity
  8
_1
100
AcDbLine
 62
7
  6
CONTINUOUS
 10
144.3848968612
 20
269.2976530701
 11
144.3848968612
 21
474.2976530701
  0
LWPOLYLINE
  5
21F
100
AcDbEntity
  8
_1
100
AcDbPolyline
 62
7
  6
CONTINUOUS
 90
4
 70
0
 10
174.375084945
 20
480.7653472672
 10
174.3203169156
 20
480.6670685209
 10
174.0055157812
 20
480.3952100105
 10
174.0432772352
 20
480.4154275261
  0
LINE
  5
220
100
AcDbEntity
  8
_1
100
AcDbLine
 62
7
  6
CONTINUOUS
 10
420.8848968612
 20
269.2976530701
 11
494.8848968612
 21
271.8817900125
  0
LINE
  5
221
100
AcDbEntity
  8
_1
100
AcDbLine
 62
7
  6
CONTINUOUS
 10
161.1848968612
 20
269.2976530701
 11
161.1848968612
 21
308.7836740925
  0
LINE
  5
222
100
AcDbEntity
  8
_1
100
AcDbLine
 62
7
  6
CONTINUOUS
 10
161.1848968612
 20
434.8116320476
 11
161.1848968612
 21
474.2976530701
  0
LINE
  5
223
100
AcDbEntity
  8
_1
100
AcDbLine
 62
7
  6
CONTINUOUS
 10
161.3848968612
 20
474.2976530701
 11
161.3848968612
 21
464.3894370113
  0
LINE
  5
224
100
AcDbEntity
  8
_1
100
AcDbLine
 62
7
  6
CONTINUOUS
 10
161.3848968612
 20
434.8116320476
 11
161.3848968612
 21
308.7836740925
  0
LINE
  5
225
100
AcDbEntity
  8
_1
100
AcDbLine
 62
7
  6
CONTINUOUS
 10
161.3848968612
 20
279.2058691289
 11
161.3848968612
 21
269.2976530701
  0
LINE
  5
226
100
AcDbEntity
  8
_1
100
AcDbLine
 62
7
  6
CONTINUOUS
 10
168.3848968612
 20
479.2976530701
 11
168.3848968612
 21
474.2976530701
  0
LINE
  5
227
100
AcDbEntity
  8
_1
100
AcDbLine
 62
7
  6
CONTINUOUS
 10
174.3848968612
 20
480.7930739608
 11
174.375084945
 21
480.7653472672
  0
LINE
  5
228
100
AcDbEntity
  8
_1
100
AcDbLine
 62
7
  6
CONTINUOUS
 10
174.0447058295
 20
480.4162382842
 11
174.0432772352
 21
480.4154275261
  0
LINE
  5
229
100
AcDbEntity
  8
_1
100
AcDbLine
 62
7
  6
CONTINUOUS
 10
420.884896966
 20
284.2166789994
 11
494.8848969542
 21
285.1060225038
  0
LWPOLYLINE
  5
22A
100
AcDbEntity
  8
_1
100
AcDbPolyline
 62
7
  6
CONTINUOUS
 90
4
 70
0
 10
420.8848968612
 20
284.2166837024
 10
445.0976550947
 20
284.4899027192
 10
469.7643351559
 20
284.7860869342
 10
494.8848968612
 20
285.1060270485
  0
LINE
  5
22B
100
AcDbEntity
  8
_1
100
AcDbLine
 62
7
  6
CONTINUOUS
 10
144.3848968612
 20
269.2976530701
 11
420.8848968612
 21
269.2976530701
  0
LINE
  5
22C
100
AcDbEntity
  8
_1
100
AcDbLine
 62
7
  6
CONTINUOUS
 10
494.8848968612
 20
271.8976530701
 11
504.8032472013
 21
271.8976530701
  0
LINE
  5
22D
100
AcDbEntity
  8
_1
100
AcDbLine
 62
7
  6
CONTINUOUS
 10
194.8848968612
 20
279.2058691289
 11
161.3848968612
 21
279.2058691289
  0
LINE
  5
22E
100
AcDbEntity
  8
_1
100
AcDbLine
 62
7
  6
CONTINUOUS
 10
144.3848968612
 20
281.7976530701
 11
140.3848968612
 21
281.7976530701
  0
LINE
  5
22F
100
AcDbEntity
  8
_1
100
AcDbLine
 62
7
  6
CONTINUOUS
 10
420.8848968612
 20
282.052921142
 11
194.8848968612
 21
282.052921142
  0
LINE
  5
230
100
AcDbEntity
  8
_1
100
AcDbLine
 62
7
  6
CONTINUOUS
 10
172.3848968612
 20
480.6350394243
 11
172.3848968612
 21
481.2976530701
  0
LINE
  5
231
100
AcDbEntity
  8
_1
100
AcDbLine
 62
7
  6
CONTINUOUS
 10
172.4848968612
 20
481.2976530701
 11
172.4848968612
 21
482.8976530701
  0
LINE
  5
232
100
AcDbEntity
  8
_1
100
AcDbLine
 62
7
  6
CONTINUOUS
 10
172.6113941693
 20
482.8976530701
 11
172.6113941693
 21
487.8976530701
  0
LINE
  5
233
100
AcDbEntity
  8
_1
100
AcDbLine
 62
7
  6
CONTINUOUS
 10
174.3848968612
 20
505.2976530701
 11
174.3848968612
 21
480.7003029331
  0
LINE
  5
234
100
AcDbEntity
  8
_1
100
AcDbLine
 62
7
  6
CONTINUOUS
 10
182.3848968612
 20
505.2976530701
 11
182.3848968612
 21
480.7002794077
  0
LINE
  5
235
100
AcDbEntity
  8
_1
100
AcDbLine
 62
7
  6
CONTINUOUS
 10
184.1583995531
 20
482.8976530701
 11
184.1583995531
 21
487.8976530701
  0
LINE
  5
236
100
AcDbEntity
  8
_1
100
AcDbLine
 62
7
  6
CONTINUOUS
 10
184.2848968612
 20
481.2976530701
 11
184.2848968612
 21
482.8976530701
  0
LINE
  5
237
100
AcDbEntity
  8
_1
100
AcDbLine
 62
7
  6
CONTINUOUS
 10
184.3848968612
 20
480.6350394243
 11
184.3848968612
 21
481.2976530701
  0
LINE
  5
238
100
AcDbEntity
  8
_1
100
AcDbLine
 62
7
  6
CONTINUOUS
 10
174.0432772352
 20
480.4154275261
 11
173.6082967671
 21
480.2916102761
  0
LWPOLYLINE
  5
239
100
AcDbEntity
  8
_1
100
AcDbPolyline
 62
7
  6
CONTINUOUS
 90
4
 70
0
 10
420.8848968612
 20
303.1993524116
 10
443.3716434518
 20
304.2932079242
 10
468.3616771333
 20
305.4526332039
 10
494.8848968612
 20
306.6279834969
  0
LINE
  5
23A
100
AcDbEntity
  8
_1
100
AcDbLine
 62
7
  6
CONTINUOUS
 10
494.8848968612
 20
282.8189454512
 11
502.769760328
 21
282.8189454512
  0
LINE
  5
23B
100
AcDbEntity
  8
_1
100
AcDbLine
 62
7
  6
CONTINUOUS
 10
420.8848968612
 20
284.2174057118
 11
194.8848968612
 21
284.2174057118
  0
LINE
  5
23C
100
AcDbEntity
  8
_1
100
AcDbLine
 62
7
  6
CONTINUOUS
 10
502.9538467165
 20
284.4456128665
 11
494.8848968612
 21
284.4456128665
  0
LINE
  5
23D
100
AcDbEntity
  8
_1
100
AcDbLine
 62
7
  6
CONTINUOUS
 10
494.8848968612
 20
288.7126062807
 11
500.8848968612
 21
288.7126062807
  0
LINE
  5
23E
100
AcDbEntity
  8
_1
100
AcDbLine
 62
7
  6
CONTINUOUS
 10
161.1848968612
 20
295.7836740925
 11
194.8848968612
 21
295.7836740925
  0
LINE
  5
23F
100
AcDbEntity
  8
_1
100
AcDbLine
 62
7
  6
CONTINUOUS
 10
188.3848968612
 20
479.2976530701
 11
188.3848968612
 21
474.2976530701
  0
LINE
  5
240
100
AcDbEntity
  8
_1
100
AcDbLine
 62
7
  6
CONTINUOUS
 10
194.8848968612
 20
279.2058691289
 11
194.8848968612
 21
302.9850784035
  0
LINE
  5
241
100
AcDbEntity
  8
_1
100
AcDbLine
 62
7
  6
CONTINUOUS
 10
194.8848968612
 20
303.2001996863
 11
194.8848968612
 21
308.7836740925
  0
LINE
  5
242
100
AcDbEntity
  8
_1
100
AcDbLine
 62
7
  6
CONTINUOUS
 10
194.8848968612
 20
434.8116320476
 11
194.8848968612
 21
440.3951053256
  0
LINE
  5
243
100
AcDbEntity
  8
_1
100
AcDbLine
 62
7
  6
CONTINUOUS
 10
194.8848968612
 20
440.6100671188
 11
194.8848968612
 21
464.3894370113
  0
LINE
  5
244
100
AcDbEntity
  8
_1
100
AcDbLine
 62
7
  6
CONTINUOUS
 10
198.3848968612
 20
474.2976530701
 11
198.3848968612
 21
440.6102277367
  0
LINE
  5
245
100
AcDbEntity
  8
_1
100
AcDbLine
 62
7
  6
CONTINUOUS
 10
198.3848968612
 20
440.3951064539
 11
198.3848968612
 21
303.2002008146
  0
LINE
  5
246
100
AcDbEntity
  8
_1
100
AcDbLine
 62
7
  6
CONTINUOUS
 10
198.3848968612
 20
302.9852390213
 11
198.3848968612
 21
269.2976530701
  0
LINE
  5
247
100
AcDbEntity
  8
_1
100
AcDbLine
 62
7
  6
CONTINUOUS
 10
161.1848968612
 20
300.2522129638
 11
144.3848968612
 21
300.2522129638
  0
LINE
  5
248
100
AcDbEntity
  8
_1
100
AcDbLine
 62
7
  6
CONTINUOUS
 10
420.8848968612
 20
303.2000928353
 11
194.8848968612
 21
303.2000928353
  0
LINE
  5
249
100
AcDbEntity
  8
_1
100
AcDbLine
 62
7
  6
CONTINUOUS
 10
420.8848968612
 20
304.8527964799
 11
194.8848968612
 21
304.8527964799
  0
LINE
  5
24A
100
AcDbEntity
  8
_1
100
AcDbLine
 62
7
  6
CONTINUOUS
 10
494.8848968612
 20
307.3126062807
 11
500.8848968612
 21
307.3126062807
  0
LINE
  5
24B
100
AcDbEntity
  8
_1
100
AcDbLine
 62
7
  6
CONTINUOUS
 10
161.1848968612
 20
308.7836740925
 11
194.8848968612
 21
308.7836740925
  0
LINE
  5
24C
100
AcDbEntity
  8
_1
100
AcDbLine
 62
7
  6
CONTINUOUS
 10
500.8848968612
 20
308.9653099253
 11
494.8848968612
 21
308.9653099253
  0
LINE
  5
24D
100
AcDbEntity
  8
_1
100
AcDbLine
 62
7
  6
CONTINUOUS
 10
500.8848968612
 20
318.0976530701
 11
507.7925847101
 21
318.0976530701
  0
LINE
  5
24E
100
AcDbEntity
  8
_1
100
AcDbLine
 62
7
  6
CONTINUOUS
 10
500.8848968612
 20
323.2835793455
 11
505.8848968612
 21
323.2835793455
  0
LINE
  5
24F
100
AcDbEntity
  8
_1
100
AcDbLine
 62
7
  6
CONTINUOUS
 10
500.8848968612
 20
331.7835793455
 11
505.8848968612
 21
331.7835793455
  0
LINE
  5
250
100
AcDbEntity
  8
_1
100
AcDbLine
 62
7
  6
CONTINUOUS
 10
500.8848968612
 20
333.0976530701
 11
507.0072773083
 21
333.0976530701
  0
LINE
  5
251
100
AcDbEntity
  8
_1
100
AcDbLine
 62
7
  6
CONTINUOUS
 10
342.0348968612
 20
493.7976530701
 11
338.4772106776
 21
491.8469175629
  0
LWPOLYLINE
  5
252
100
AcDbEntity
  8
_1
100
AcDbPolyline
 62
7
  6
CONTINUOUS
 90
3
 70
0
 10
182.4444958596
 20
480.6745378135
 10
182.3913447888
 20
480.7733473152
 10
182.3848968612
 20
480.7905098729
  0
LINE
  5
253
100
AcDbEntity
  8
_1
100
AcDbLine
 62
7
  6
CONTINUOUS
 10
321.4848968612
 20
532.7976530701
 11
322.0622471304
 21
533.7976530701
  0
LINE
  5
254
100
AcDbEntity
  8
_1
100
AcDbLine
 62
7
  6
CONTINUOUS
 10
494.8848968612
 20
354.4474455301
 11
420.8848968612
 21
353.9987148592
  0
LINE
  5
255
100
AcDbEntity
  8
_1
100
AcDbLine
 62
7
  6
CONTINUOUS
 10
140.3848968612
 20
352.7976530701
 11
64.3848968612
 21
352.7976530701
  0
LINE
  5
256
100
AcDbEntity
  8
_1
100
AcDbLine
 62
7
  6
CONTINUOUS
 10
161.3848968612
 20
353.9987148592
 11
420.8848968612
 21
353.9987148592
  0
LINE
  5
257
100
AcDbEntity
  8
_1
100
AcDbLine
 62
7
  6
CONTINUOUS
 10
494.8848968612
 20
354.4502001212
 11
504.8032472013
 21
354.4502001212
  0
LINE
  5
258
100
AcDbEntity
  8
_1
100
AcDbLine
 62
7
  6
CONTINUOUS
 10
513.5751188427
 20
358.7976530701
 11
514.7158682905
 21
358.7976530701
  0
LINE
  5
259
100
AcDbEntity
  8
_1
100
AcDbLine
 62
7
  6
CONTINUOUS
 10
514.7158682905
 20
384.7976530701
 11
513.5751188427
 21
384.7976530701
  0
LINE
  5
25A
100
AcDbEntity
  8
_1
100
AcDbLine
 62
7
  6
CONTINUOUS
 10
331.9848968612
 20
494.7976530701
 11
331.407546592
 21
493.7976530701
  0
LINE
  5
25B
100
AcDbEntity
  8
_1
100
AcDbLine
 62
7
  6
CONTINUOUS
 10
504.8032472013
 20
389.145106019
 11
494.8848968612
 21
389.145106019
  0
LINE
  5
25C
100
AcDbEntity
  8
_1
100
AcDbLine
 62
7
  6
CONTINUOUS
 10
420.8848968612
 20
389.5965912809
 11
161.3848968612
 21
389.5965912809
  0
LINE
  5
25D
100
AcDbEntity
  8
_1
100
AcDbLine
 62
7
  6
CONTINUOUS
 10
134.3848968612
 20
390.1279558499
 11
74.3848968612
 21
390.1279558499
  0
LINE
  5
25E
100
AcDbEntity
  8
_1
100
AcDbLine
 62
7
  6
CONTINUOUS
 10
140.3848968612
 20
390.7976530701
 11
139.3848968612
 21
390.7976530701
  0
LINE
  5
25F
100
AcDbEntity
  8
_1
100
AcDbLine
 62
7
  6
CONTINUOUS
 10
69.3848968612
 20
390.7976530701
 11
64.3848968612
 21
390.7976530701
  0
LINE
  5
260
100
AcDbEntity
  8
_1
100
AcDbLine
 62
7
  6
CONTINUOUS
 10
69.3848968612
 20
393.7976530701
 11
139.3848968612
 21
393.7976530701
  0
LINE
  5
261
100
AcDbEntity
  8
_1
100
AcDbLine
 62
7
  6
CONTINUOUS
 10
420.8848968612
 20
389.5965912809
 11
494.8848968612
 21
389.1478606101
  0
LINE
  5
262
100
AcDbEntity
  8
_1
100
AcDbLine
 62
7
  6
CONTINUOUS
 10
500.8848968612
 20
410.4976530701
 11
507.0072773083
 21
410.4976530701
  0
LINE
  5
263
100
AcDbEntity
  8
_1
100
AcDbLine
 62
7
  6
CONTINUOUS
 10
500.8848968612
 20
411.8117267947
 11
505.8848968612
 21
411.8117267947
  0
LINE
  5
264
100
AcDbEntity
  8
_1
100
AcDbLine
 62
7
  6
CONTINUOUS
 10
500.8848968612
 20
420.3117267947
 11
505.8848968612
 21
420.3117267947
  0
LWPOLYLINE
  5
265
100
AcDbEntity
  8
_1
100
AcDbPolyline
 62
7
  6
CONTINUOUS
 90
3
 70
0
 10
182.7263245777
 20
480.4155362536
 10
182.744095375
 20
480.4057286047
 10
182.4444958596
 20
480.6745378135
  0
LINE
  5
266
100
AcDbEntity
  8
_1
100
AcDbLine
 62
7
  6
CONTINUOUS
 10
182.7263245777
 20
480.4155362536
 11
182.7249891066
 21
480.4162944655
  0
LINE
  5
267
100
AcDbEntity
  8
_1
100
AcDbLine
 62
7
  6
CONTINUOUS
 10
319.9848968612
 20
494.9976530551
 11
319.9848968612
 21
532.5976530701
  0
LINE
  5
268
100
AcDbEntity
  8
_1
100
AcDbLine
 62
7
  6
CONTINUOUS
 10
320.1848968612
 20
494.7976530701
 11
320.1848968612
 21
532.7976530701
  0
LINE
  5
269
100
AcDbEntity
  8
_1
100
AcDbLine
 62
7
  6
CONTINUOUS
 10
321.4848968612
 20
532.7976530701
 11
321.4848968612
 21
494.7976530701
  0
LINE
  5
26A
100
AcDbEntity
  8
_1
100
AcDbLine
 62
7
  6
CONTINUOUS
 10
322.0622471304
 20
493.7976530701
 11
322.0622471304
 21
533.7976530701
  0
LINE
  5
26B
100
AcDbEntity
  8
_1
100
AcDbLine
 62
7
  6
CONTINUOUS
 10
402.0119196723
 20
492.5976530701
 11
402.0134358955
 21
492.5996764563
  0
LINE
  5
26C
100
AcDbEntity
  8
_1
100
AcDbLine
 62
7
  6
CONTINUOUS
 10
507.7925847101
 20
425.4976530701
 11
500.8848968612
 21
425.4976530701
  0
LINE
  5
26D
100
AcDbEntity
  8
_1
100
AcDbLine
 62
7
  6
CONTINUOUS
 10
494.8848968612
 20
434.6299962148
 11
500.8848968612
 21
434.6299962148
  0
LINE
  5
26E
100
AcDbEntity
  8
_1
100
AcDbLine
 62
7
  6
CONTINUOUS
 10
194.8848968612
 20
434.8116320476
 11
161.1848968612
 21
434.8116320476
  0
LINE
  5
26F
100
AcDbEntity
  8
_1
100
AcDbLine
 62
7
  6
CONTINUOUS
 10
500.8848968612
 20
436.2826998595
 11
494.8848968612
 21
436.2826998595
  0
LINE
  5
270
100
AcDbEntity
  8
_1
100
AcDbLine
 62
7
  6
CONTINUOUS
 10
194.8848968612
 20
438.7425096602
 11
420.8848968612
 21
438.7425096602
  0
LINE
  5
271
100
AcDbEntity
  8
_1
100
AcDbLine
 62
7
  6
CONTINUOUS
 10
331.407546592
 20
533.7976530701
 11
331.407546592
 21
493.7976530701
  0
LINE
  5
272
100
AcDbEntity
  8
_1
100
AcDbLine
 62
7
  6
CONTINUOUS
 10
331.9848968612
 20
494.7976530701
 11
331.9848968612
 21
532.7976530701
  0
LINE
  5
273
100
AcDbEntity
  8
_1
100
AcDbLine
 62
7
  6
CONTINUOUS
 10
332.7848968612
 20
532.7976530701
 11
332.7848968612
 21
494.7976530701
  0
LINE
  5
274
100
AcDbEntity
  8
_1
100
AcDbLine
 62
7
  6
CONTINUOUS
 10
332.9848968612
 20
493.8476530572
 11
332.9848968612
 21
533.7476530701
  0
LINE
  5
275
100
AcDbEntity
  8
_1
100
AcDbLine
 62
7
  6
CONTINUOUS
 10
333.1848968612
 20
493.6476530701
 11
333.1848968612
 21
533.9476530701
  0
LINE
  5
276
100
AcDbEntity
  8
_1
100
AcDbLine
 62
7
  6
CONTINUOUS
 10
333.9848968612
 20
533.9476530701
 11
333.9848968612
 21
493.6476530701
  0
LINE
  5
277
100
AcDbEntity
  8
_1
100
AcDbLine
 62
7
  6
CONTINUOUS
 10
334.1848968612
 20
493.7976530574
 11
334.1848968612
 21
533.7976530701
  0
LINE
  5
278
100
AcDbEntity
  8
_1
100
AcDbLine
 62
7
  6
CONTINUOUS
 10
336.6848968612
 20
533.7977027312
 11
336.6848968612
 21
493.7975896868
  0
LINE
  5
279
100
AcDbEntity
  8
_1
100
AcDbLine
 62
7
  6
CONTINUOUS
 10
336.8848968612
 20
493.6476530701
 11
336.8848968612
 21
533.9476530701
  0
LINE
  5
27A
100
AcDbEntity
  8
_1
100
AcDbLine
 62
7
  6
CONTINUOUS
 10
337.1848968612
 20
533.9476530701
 11
337.1848968612
 21
493.6476530701
  0
LINE
  5
27B
100
AcDbEntity
  8
_1
100
AcDbLine
 62
7
  6
CONTINUOUS
 10
337.3848968612
 20
492.1976730737
 11
337.3848968612
 21
535.3976530701
  0
LINE
  5
27C
100
AcDbEntity
  8
_1
100
AcDbLine
 62
7
  6
CONTINUOUS
 10
337.7848968612
 20
491.7976530701
 11
337.7848968612
 21
535.7976530701
  0
LINE
  5
27D
100
AcDbEntity
  8
_1
100
AcDbLine
 62
7
  6
CONTINUOUS
 10
338.2848968612
 20
535.7976530701
 11
338.2848968612
 21
491.7976530701
  0
LINE
  5
27E
100
AcDbEntity
  8
_1
100
AcDbLine
 62
7
  6
CONTINUOUS
 10
338.4772106776
 20
491.8469175629
 11
338.4772106776
 21
535.7483885773
  0
LINE
  5
27F
100
AcDbEntity
  8
_1
100
AcDbLine
 62
7
  6
CONTINUOUS
 10
342.0348968612
 20
493.7976530701
 11
342.0348968612
 21
533.7976530701
  0
LINE
  5
280
100
AcDbEntity
  8
_1
100
AcDbLine
 62
7
  6
CONTINUOUS
 10
342.9848968612
 20
533.7976530701
 11
342.9848968612
 21
493.7976530701
  0
LINE
  5
281
100
AcDbEntity
  8
_1
100
AcDbLine
 62
7
  6
CONTINUOUS
 10
420.8848968612
 20
440.3952133049
 11
194.8848968612
 21
440.3952133049
  0
LINE
  5
282
100
AcDbEntity
  8
_1
100
AcDbLine
 62
7
  6
CONTINUOUS
 10
144.3848968612
 20
443.3430931764
 11
161.1848968612
 21
443.3430931764
  0
LINE
  5
283
100
AcDbEntity
  8
_1
100
AcDbLine
 62
7
  6
CONTINUOUS
 10
194.8848968612
 20
447.8116320476
 11
161.1848968612
 21
447.8116320476
  0
LINE
  5
284
100
AcDbEntity
  8
_1
100
AcDbLine
 62
7
  6
CONTINUOUS
 10
500.8848968612
 20
454.8826998595
 11
494.8848968612
 21
454.8826998595
  0
LWPOLYLINE
  5
285
100
AcDbEntity
  8
_1
100
AcDbPolyline
 62
7
  6
CONTINUOUS
 90
4
 70
0
 10
494.8848968612
 20
436.9673226433
 10
468.3616771101
 20
438.1426729371
 10
443.3716433392
 20
439.3020982211
 10
420.8848968612
 20
440.3959537286
  0
LINE
  5
286
100
AcDbEntity
  8
_1
100
AcDbLine
 62
7
  6
CONTINUOUS
 10
183.1614969553
 20
480.2916102761
 11
182.7263245777
 21
480.4155362536
  0
LINE
  5
287
100
AcDbEntity
  8
_1
100
AcDbLine
 62
7
  6
CONTINUOUS
 10
350.9848968612
 20
493.7976530701
 11
350.9848968612
 21
534.3976530701
  0
LINE
  5
288
100
AcDbEntity
  8
_1
100
AcDbLine
 62
7
  6
CONTINUOUS
 10
358.8848968612
 20
526.7730143367
 11
358.8848968612
 21
522.1976530701
  0
LINE
  5
289
100
AcDbEntity
  8
_1
100
AcDbLine
 62
7
  6
CONTINUOUS
 10
358.9848968612
 20
522.1976530701
 11
358.9848968612
 21
524.1976530701
  0
LINE
  5
28A
100
AcDbEntity
  8
_1
100
AcDbLine
 62
7
  6
CONTINUOUS
 10
379.9815615591
 20
495.5350912187
 11
379.9563578269
 21
495.4352338076
  0
LINE
  5
28B
100
AcDbEntity
  8
_1
100
AcDbLine
 62
7
  6
CONTINUOUS
 10
424.8848968612
 20
480.3617870548
 11
423.7751285932
 21
480.2392291218
  0
LINE
  5
28C
100
AcDbEntity
  8
_1
100
AcDbLine
 62
7
  6
CONTINUOUS
 10
494.8848968612
 20
459.1496932736
 11
502.9538467165
 21
459.1496932736
  0
LINE
  5
28D
100
AcDbEntity
  8
_1
100
AcDbLine
 62
7
  6
CONTINUOUS
 10
420.8848968612
 20
459.3779004283
 11
194.8848968612
 21
459.3779004283
  0
LINE
  5
28E
100
AcDbEntity
  8
_1
100
AcDbLine
 62
7
  6
CONTINUOUS
 10
502.769760328
 20
460.776360689
 11
494.8848968612
 21
460.776360689
  0
LINE
  5
28F
100
AcDbEntity
  8
_1
100
AcDbLine
 62
7
  6
CONTINUOUS
 10
420.8848968612
 20
461.5423849981
 11
194.8848968612
 21
461.5423849981
  0
LINE
  5
290
100
AcDbEntity
  8
_1
100
AcDbLine
 62
7
  6
CONTINUOUS
 10
144.3848968612
 20
461.7976530701
 11
140.3848968612
 21
461.7976530701
  0
LINE
  5
291
100
AcDbEntity
  8
_1
100
AcDbLine
 62
7
  6
CONTINUOUS
 10
161.3848968612
 20
464.3894370113
 11
194.8848968612
 21
464.3894370113
  0
LINE
  5
292
100
AcDbEntity
  8
_1
100
AcDbLine
 62
7
  6
CONTINUOUS
 10
494.8848968612
 20
471.6976530701
 11
504.8032472013
 21
471.6976530701
  0
LINE
  5
293
100
AcDbEntity
  8
_1
100
AcDbLine
 62
7
  6
CONTINUOUS
 10
144.3848968612
 20
474.2976530701
 11
420.8848968612
 21
474.2976530701
  0
LINE
  5
294
100
AcDbEntity
  8
_1
100
AcDbLine
 62
7
  6
CONTINUOUS
 10
494.8848969543
 20
458.489283637
 11
420.884896966
 21
459.3786271415
  0
LWPOLYLINE
  5
295
100
AcDbEntity
  8
_1
100
AcDbPolyline
 62
7
  6
CONTINUOUS
 90
4
 70
0
 10
494.8848968612
 20
458.4892790916
 10
469.7643351615
 20
458.8092192069
 10
445.0976551003
 20
459.1054034218
 10
420.8848968612
 20
459.3786224377
  0
LWPOLYLINE
  5
296
100
AcDbEntity
  8
_1
100
AcDbPolyline
 62
7
  6
CONTINUOUS
 90
4
 70
0
 10
420.8848968612
 20
461.5418694577
 10
445.4873938147
 20
461.2090280181
 10
470.1540622424
 20
460.860884656
 10
494.8848968612
 20
460.4975249937
  0
LINE
  5
297
100
AcDbEntity
  8
_1
100
AcDbLine
 62
7
  6
CONTINUOUS
 10
420.8848968258
 20
461.5418703243
 11
494.8848968304
 21
460.4975257937
  0
LINE
  5
298
100
AcDbEntity
  8
_1
100
AcDbLine
 62
7
  6
CONTINUOUS
 10
182.3892659325
 20
480.8554281385
 11
187.4946651292
 21
480.291610276
  0
LINE
  5
299
100
AcDbEntity
  8
_1
100
AcDbLine
 62
7
  6
CONTINUOUS
 10
365.9848968612
 20
534.3973095981
 11
365.9848968612
 21
529.6083585294
  0
LINE
  5
29A
100
AcDbEntity
  8
_1
100
AcDbLine
 62
7
  6
CONTINUOUS
 10
365.9848968612
 20
522.1976530701
 11
365.9848968612
 21
518.7332381418
  0
LINE
  5
29B
100
AcDbEntity
  8
_1
100
AcDbLine
 62
7
  6
CONTINUOUS
 10
365.9848968612
 20
508.8620679984
 11
365.9848968612
 21
493.7976530701
  0
LINE
  5
29C
100
AcDbEntity
  8
_1
100
AcDbLine
 62
7
  6
CONTINUOUS
 10
366.9848968612
 20
522.1976530701
 11
366.9848968612
 21
524.1976530701
  0
LINE
  5
29D
100
AcDbEntity
  8
_1
100
AcDbLine
 62
7
  6
CONTINUOUS
 10
367.0848968612
 20
522.1976530701
 11
367.0848968612
 21
527.3005718174
  0
LINE
  5
29E
100
AcDbEntity
  8
_1
100
AcDbLine
 62
7
  6
CONTINUOUS
 10
367.7746826957
 20
501.0857001845
 11
367.7746826957
 21
526.509606037
  0
LINE
  5
29F
100
AcDbEntity
  8
_1
100
AcDbLine
 62
7
  6
CONTINUOUS
 10
369.0848968612
 20
527.1653821756
 11
369.0848968612
 21
500.4299239681
  0
LINE
  5
2A0
100
AcDbEntity
  8
_1
100
AcDbLine
 62
7
  6
CONTINUOUS
 10
370.9848968612
 20
474.2976530701
 11
370.9848968612
 21
491.5976530701
  0
LINE
  5
2A1
100
AcDbEntity
  8
_1
100
AcDbLine
 62
7
  6
CONTINUOUS
 10
370.9848968612
 20
493.0976530701
 11
370.9848968612
 21
495.5976530701
  0
LINE
  5
2A2
100
AcDbEntity
  8
_1
100
AcDbLine
 62
7
  6
CONTINUOUS
 10
371.4848968612
 20
492.4636784739
 11
371.4848968612
 21
492.5976530701
  0
LINE
  5
2A3
100
AcDbEntity
  8
_1
100
AcDbLine
 62
7
  6
CONTINUOUS
 10
371.9848968612
 20
478.7976530701
 11
371.9848968612
 21
480.7976530701
  0
LINE
  5
2A4
100
AcDbEntity
  8
_1
100
AcDbLine
 62
7
  6
CONTINUOUS
 10
372.5848968612
 20
474.2976530701
 11
372.5848968612
 21
478.7976530701
  0
LINE
  5
2A5
100
AcDbEntity
  8
_1
100
AcDbLine
 62
7
  6
CONTINUOUS
 10
373.8597261766
 20
531.6338870557
 11
373.8597261766
 21
495.9614190797
  0
LINE
  5
2A6
100
AcDbEntity
  8
_1
100
AcDbLine
 62
7
  6
CONTINUOUS
 10
373.9977449675
 20
491.5976530701
 11
373.9977449675
 21
481.4391354284
  0
LINE
  5
2A7
100
AcDbEntity
  8
_1
100
AcDbLine
 62
7
  6
CONTINUOUS
 10
373.9977449675
 20
493.0976530701
 11
373.9977449675
 21
495.5976530701
  0
LINE
  5
2A8
100
AcDbEntity
  8
_1
100
AcDbLine
 62
7
  6
CONTINUOUS
 10
374.9021493371
 20
492.4636784739
 11
374.9021493371
 21
492.5976530701
  0
LINE
  5
2A9
100
AcDbEntity
  8
_1
100
AcDbLine
 62
7
  6
CONTINUOUS
 10
375.0701995246
 20
495.5976530701
 11
375.0701995246
 21
481.6003705233
  0
LINE
  5
2AA
100
AcDbEntity
  8
_1
100
AcDbLine
 62
7
  6
CONTINUOUS
 10
376.7424218816
 20
495.5976530701
 11
376.7424218816
 21
533.5284766058
  0
LINE
  5
2AB
100
AcDbEntity
  8
_1
100
AcDbLine
 62
7
  6
CONTINUOUS
 10
379.95787405
 20
492.4636784739
 11
379.9563578274
 21
492.4353181015
  0
LINE
  5
2AC
100
AcDbEntity
  8
_1
100
AcDbLine
 62
7
  6
CONTINUOUS
 10
338.4772106776
 20
491.8469175629
 11
338.2848968612
 21
491.7976530701
  0
LINE
  5
2AD
100
AcDbEntity
  8
_1
100
AcDbLine
 62
7
  6
CONTINUOUS
 10
423.8848968612
 20
477.3976530701
 11
449.8848968612
 21
477.3976530701
  0
LINE
  5
2AE
100
AcDbEntity
  8
_1
100
AcDbLine
 62
7
  6
CONTINUOUS
 10
370.9848968612
 20
478.7976530701
 11
410.9848968612
 21
478.7976530701
  0
LINE
  5
2AF
100
AcDbEntity
  8
_1
100
AcDbLine
 62
7
  6
CONTINUOUS
 10
422.8848968612
 20
479.2452719158
 11
424.1348968612
 21
479.2452719158
  0
LINE
  5
2B0
100
AcDbEntity
  8
_1
100
AcDbLine
 62
7
  6
CONTINUOUS
 10
168.3848968612
 20
479.2976530701
 11
174.0697675817
 21
479.2976530701
  0
LINE
  5
2B1
100
AcDbEntity
  8
_1
100
AcDbLine
 62
7
  6
CONTINUOUS
 10
182.7000261406
 20
479.2976530701
 11
188.3848968612
 21
479.2976530701
  0
LINE
  5
2B2
100
AcDbEntity
  8
_1
100
AcDbLine
 62
7
  6
CONTINUOUS
 10
424.1348968612
 20
479.3976530701
 11
429.6348968612
 21
479.3976530701
  0
LINE
  5
2B3
100
AcDbEntity
  8
_1
100
AcDbLine
 62
7
  6
CONTINUOUS
 10
444.1348968612
 20
479.3976530701
 11
449.6348968612
 21
479.3976530701
  0
LINE
  5
2B4
100
AcDbEntity
  8
_1
100
AcDbLine
 62
7
  6
CONTINUOUS
 10
424.6348968612
 20
479.8976530701
 11
429.1348968612
 21
479.8976530701
  0
LINE
  5
2B5
100
AcDbEntity
  8
_1
100
AcDbLine
 62
7
  6
CONTINUOUS
 10
444.6348968612
 20
479.8976530701
 11
449.1348968612
 21
479.8976530701
  0
LINE
  5
2B6
100
AcDbEntity
  8
_1
100
AcDbLine
 62
7
  6
CONTINUOUS
 10
424.8848968612
 20
480.2392291218
 11
423.7751285932
 21
480.2392291218
  0
LINE
  5
2B7
100
AcDbEntity
  8
_1
100
AcDbLine
 62
7
  6
CONTINUOUS
 10
187.4946651292
 20
480.291610276
 11
183.1614969553
 21
480.291610276
  0
LINE
  5
2B8
100
AcDbEntity
  8
_1
100
AcDbLine
 62
7
  6
CONTINUOUS
 10
173.6082967671
 20
480.291610276
 11
169.2751285932
 21
480.291610276
  0
LINE
  5
2B9
100
AcDbEntity
  8
_1
100
AcDbLine
 62
7
  6
CONTINUOUS
 10
371.9848968612
 20
480.7976530701
 11
379.9563578269
 21
480.7976530701
  0
LINE
  5
2BA
100
AcDbEntity
  8
_1
100
AcDbLine
 62
7
  6
CONTINUOUS
 10
402.0134358955
 20
480.7976530701
 11
409.9848968612
 21
480.7976530701
  0
LINE
  5
2BB
100
AcDbEntity
  8
_1
100
AcDbLine
 62
7
  6
CONTINUOUS
 10
422.8848968612
 20
480.9976530701
 11
450.8848968612
 21
480.9976530701
  0
LINE
  5
2BC
100
AcDbEntity
  8
_1
100
AcDbLine
 62
7
  6
CONTINUOUS
 10
172.3848968612
 20
481.2976530701
 11
174.3848968612
 21
481.2976530701
  0
LINE
  5
2BD
100
AcDbEntity
  8
_1
100
AcDbLine
 62
7
  6
CONTINUOUS
 10
182.3848968612
 20
481.2976530701
 11
184.3848968612
 21
481.2976530701
  0
LINE
  5
2BE
100
AcDbEntity
  8
_1
100
AcDbLine
 62
7
  6
CONTINUOUS
 10
406.1586167036
 20
481.6494171729
 11
405.8111770188
 21
481.6494171729
  0
LINE
  5
2BF
100
AcDbEntity
  8
_1
100
AcDbLine
 62
7
  6
CONTINUOUS
 10
376.1586167036
 20
481.6494171729
 11
375.8111770188
 21
481.6494171729
  0
LINE
  5
2C0
100
AcDbEntity
  8
_1
100
AcDbLine
 62
7
  6
CONTINUOUS
 10
172.4848968612
 20
482.8976530701
 11
174.3848968612
 21
482.8976530701
  0
LINE
  5
2C1
100
AcDbEntity
  8
_1
100
AcDbLine
 62
7
  6
CONTINUOUS
 10
182.3848968612
 20
482.8976530701
 11
184.2848968612
 21
482.8976530701
  0
LINE
  5
2C2
100
AcDbEntity
  8
_1
100
AcDbLine
 62
7
  6
CONTINUOUS
 10
450.1166399324
 20
485.9976530701
 11
423.65315379
 21
485.9976530701
  0
LINE
  5
2C3
100
AcDbEntity
  8
_1
100
AcDbLine
 62
7
  6
CONTINUOUS
 10
172.6113941693
 20
487.8976530701
 11
174.3848968612
 21
487.8976530701
  0
LINE
  5
2C4
100
AcDbEntity
  8
_1
100
AcDbLine
 62
7
  6
CONTINUOUS
 10
182.3848968612
 20
487.8976530701
 11
184.1583995531
 21
487.8976530701
  0
LINE
  5
2C5
100
AcDbEntity
  8
_1
100
AcDbLine
 62
7
  6
CONTINUOUS
 10
370.9848968612
 20
491.5976530701
 11
373.9977449675
 21
491.5976530701
  0
LINE
  5
2C6
100
AcDbEntity
  8
_1
100
AcDbLine
 62
7
  6
CONTINUOUS
 10
380.4285399829
 20
491.5976530701
 11
401.5412537394
 21
491.5976530701
  0
LINE
  5
2C7
100
AcDbEntity
  8
_1
100
AcDbLine
 62
7
  6
CONTINUOUS
 10
407.9720487549
 20
491.5976530701
 11
410.9848968612
 21
491.5976530701
  0
LINE
  5
2C8
100
AcDbEntity
  8
_1
100
AcDbLine
 62
7
  6
CONTINUOUS
 10
337.7848968612
 20
491.7976530701
 11
338.2848968612
 21
491.7976530701
  0
LINE
  5
2C9
100
AcDbEntity
  8
_1
100
AcDbLine
 62
7
  6
CONTINUOUS
 10
494.8848968612
 20
471.7135161277
 11
420.8848968612
 21
474.2976530701
  0
LINE
  5
2CA
100
AcDbEntity
  8
_1
100
AcDbLine
 62
7
  6
CONTINUOUS
 10
321.4848968612
 20
494.7976530701
 11
322.0622471304
 21
493.7976530701
  0
LINE
  5
2CB
100
AcDbEntity
  8
_1
100
AcDbLine
 62
7
  6
CONTINUOUS
 10
379.9563578269
 20
478.7976530701
 11
379.9563578269
 21
492.4352554268
  0
LINE
  5
2CC
100
AcDbEntity
  8
_1
100
AcDbLine
 62
7
  6
CONTINUOUS
 10
379.9563578269
 20
492.5997995543
 11
379.9563578269
 21
495.4352554268
  0
LINE
  5
2CD
100
AcDbEntity
  8
_1
100
AcDbLine
 62
7
  6
CONTINUOUS
 10
379.95787405
 20
492.5976530701
 11
379.95787405
 21
492.4636784739
  0
LINE
  5
2CE
100
AcDbEntity
  8
_1
100
AcDbLine
 62
7
  6
CONTINUOUS
 10
380.4285399829
 20
494.5976530701
 11
380.4285399829
 21
493.0976530701
  0
LINE
  5
2CF
100
AcDbEntity
  8
_1
100
AcDbLine
 62
7
  6
CONTINUOUS
 10
380.4285399829
 20
478.7976530701
 11
380.4285399829
 21
491.5976530701
  0
LINE
  5
2D0
100
AcDbEntity
  8
_1
100
AcDbLine
 62
7
  6
CONTINUOUS
 10
385.7882752211
 20
533.7976530701
 11
385.7882752211
 21
495.5976530701
  0
LINE
  5
2D1
100
AcDbEntity
  8
_1
100
AcDbLine
 62
7
  6
CONTINUOUS
 10
174.387720139
 20
480.8562224299
 11
169.2751285932
 21
480.291610276
  0
LINE
  5
2D2
100
AcDbEntity
  8
_1
100
AcDbLine
 62
7
  6
CONTINUOUS
 10
410.4848968612
 20
492.4636784739
 11
407.0676443852
 21
492.4636784739
  0
LINE
  5
2D3
100
AcDbEntity
  8
_1
100
AcDbLine
 62
7
  6
CONTINUOUS
 10
402.0119196723
 20
492.4636784739
 11
379.95787405
 21
492.4636784739
  0
LINE
  5
2D4
100
AcDbEntity
  8
_1
100
AcDbLine
 62
7
  6
CONTINUOUS
 10
374.9021493371
 20
492.4636784739
 11
371.4848968612
 21
492.4636784739
  0
LINE
  5
2D5
100
AcDbEntity
  8
_1
100
AcDbLine
 62
7
  6
CONTINUOUS
 10
410.4848968612
 20
492.5976530701
 11
407.0676443852
 21
492.5976530701
  0
LINE
  5
2D6
100
AcDbEntity
  8
_1
100
AcDbLine
 62
7
  6
CONTINUOUS
 10
374.9021493371
 20
492.5976530701
 11
371.4848968612
 21
492.5976530701
  0
LINE
  5
2D7
100
AcDbEntity
  8
_1
100
AcDbLine
 62
7
  6
CONTINUOUS
 10
379.95787405
 20
492.5976530701
 11
402.0119196723
 21
492.5976530701
  0
LINE
  5
2D8
100
AcDbEntity
  8
_1
100
AcDbLine
 62
7
  6
CONTINUOUS
 10
410.9848968612
 20
493.0976530701
 11
407.9720487549
 21
493.0976530701
  0
LINE
  5
2D9
100
AcDbEntity
  8
_1
100
AcDbLine
 62
7
  6
CONTINUOUS
 10
401.5412537394
 20
493.0976530701
 11
380.4285399829
 21
493.0976530701
  0
LINE
  5
2DA
100
AcDbEntity
  8
_1
100
AcDbLine
 62
7
  6
CONTINUOUS
 10
373.9977449675
 20
493.0976530701
 11
370.9848968612
 21
493.0976530701
  0
LINE
  5
2DB
100
AcDbEntity
  8
_1
100
AcDbLine
 62
7
  6
CONTINUOUS
 10
333.1848968612
 20
493.6476530701
 11
333.9848968612
 21
493.6476530701
  0
LINE
  5
2DC
100
AcDbEntity
  8
_1
100
AcDbLine
 62
7
  6
CONTINUOUS
 10
336.8848968612
 20
493.6476530701
 11
337.1848968612
 21
493.6476530701
  0
LINE
  5
2DD
100
AcDbEntity
  8
_1
100
AcDbLine
 62
7
  6
CONTINUOUS
 10
322.0622471304
 20
493.7976530701
 11
331.407546592
 21
493.7976530701
  0
LINE
  5
2DE
100
AcDbEntity
  8
_1
100
AcDbLine
 62
7
  6
CONTINUOUS
 10
342.0348968612
 20
493.7976530701
 11
365.9848968612
 21
493.7976530701
  0
LINE
  5
2DF
100
AcDbEntity
  8
_1
100
AcDbLine
 62
7
  6
CONTINUOUS
 10
380.4285399829
 20
494.5976530701
 11
401.5412537394
 21
494.5976530701
  0
LINE
  5
2E0
100
AcDbEntity
  8
_1
100
AcDbLine
 62
7
  6
CONTINUOUS
 10
407.9720487549
 20
494.5976530701
 11
410.9848968612
 21
494.5976530701
  0
LINE
  5
2E1
100
AcDbEntity
  8
_1
100
AcDbLine
 62
7
  6
CONTINUOUS
 10
320.1848968612
 20
494.7976530701
 11
321.4848968612
 21
494.7976530701
  0
LINE
  5
2E2
100
AcDbEntity
  8
_1
100
AcDbLine
 62
7
  6
CONTINUOUS
 10
331.9848968612
 20
494.7976530701
 11
332.7848968612
 21
494.7976530701
  0
LINE
  5
2E3
100
AcDbEntity
  8
_1
100
AcDbLine
 62
7
  6
CONTINUOUS
 10
365.9848968612
 20
495.5976530701
 11
409.9848968612
 21
495.5976530701
  0
LINE
  5
2E4
100
AcDbEntity
  8
_1
100
AcDbLine
 62
7
  6
CONTINUOUS
 10
331.9848968612
 20
532.7976530701
 11
331.407546592
 21
533.7976530701
  0
LINE
  5
2E5
100
AcDbEntity
  8
_1
100
AcDbLine
 62
7
  6
CONTINUOUS
 10
402.013435895
 20
492.4353180016
 11
402.0119196723
 21
492.4636784739
  0
LINE
  5
2E6
100
AcDbEntity
  8
_1
100
AcDbLine
 62
7
  6
CONTINUOUS
 10
401.5412537394
 20
491.5976530701
 11
401.5412537394
 21
478.7976530701
  0
LINE
  5
2E7
100
AcDbEntity
  8
_1
100
AcDbLine
 62
7
  6
CONTINUOUS
 10
401.5412537394
 20
493.0976530701
 11
401.5412537394
 21
494.5976530701
  0
LINE
  5
2E8
100
AcDbEntity
  8
_1
100
AcDbLine
 62
7
  6
CONTINUOUS
 10
402.0119196723
 20
492.4636784739
 11
402.0119196723
 21
492.5976530701
  0
LINE
  5
2E9
100
AcDbEntity
  8
_1
100
AcDbLine
 62
7
  6
CONTINUOUS
 10
402.0134358955
 20
478.7976530701
 11
402.0134358955
 21
492.4352554268
  0
LINE
  5
2EA
100
AcDbEntity
  8
_1
100
AcDbLine
 62
7
  6
CONTINUOUS
 10
402.0134358955
 20
492.5997995543
 11
402.0134358955
 21
495.4352554268
  0
LINE
  5
2EB
100
AcDbEntity
  8
_1
100
AcDbLine
 62
7
  6
CONTINUOUS
 10
404.9848968612
 20
498.5976530701
 11
404.9848968612
 21
509.7976530701
  0
LINE
  5
2EC
100
AcDbEntity
  8
_1
100
AcDbLine
 62
7
  6
CONTINUOUS
 10
405.3799988486
 20
533.7976530701
 11
405.3799988486
 21
510.9910944675
  0
LINE
  5
2ED
100
AcDbEntity
  8
_1
100
AcDbLine
 62
7
  6
CONTINUOUS
 10
405.3799988486
 20
497.1095313197
 11
405.3799988486
 21
495.5976530701
  0
LINE
  5
2EE
100
AcDbEntity
  8
_1
100
AcDbLine
 62
7
  6
CONTINUOUS
 10
405.6041361637
 20
495.5976530701
 11
405.6041361637
 21
496.7722822855
  0
LINE
  5
2EF
100
AcDbEntity
  8
_1
100
AcDbLine
 62
7
  6
CONTINUOUS
 10
405.6041361637
 20
511.2445462577
 11
405.6041361637
 21
533.7976530701
  0
LINE
  5
2F0
100
AcDbEntity
  8
_1
100
AcDbLine
 62
7
  6
CONTINUOUS
 10
406.8995942388
 20
481.6003705206
 11
406.8995942388
 21
495.5350912187
  0
LINE
  5
2F1
100
AcDbEntity
  8
_1
100
AcDbLine
 62
7
  6
CONTINUOUS
 10
407.0676443852
 20
492.5976530701
 11
407.0676443852
 21
492.4636784739
  0
LINE
  5
2F2
100
AcDbEntity
  8
_1
100
AcDbLine
 62
7
  6
CONTINUOUS
 10
407.9720487549
 20
494.5976530701
 11
407.9720487549
 21
493.0976530701
  0
LINE
  5
2F3
100
AcDbEntity
  8
_1
100
AcDbLine
 62
7
  6
CONTINUOUS
 10
407.9720487549
 20
491.5976530701
 11
407.9720487549
 21
481.4391354284
  0
LINE
  5
2F4
100
AcDbEntity
  8
_1
100
AcDbLine
 62
7
  6
CONTINUOUS
 10
409.3848968612
 20
474.2976530701
 11
409.3848968612
 21
478.7976530701
  0
LINE
  5
2F5
100
AcDbEntity
  8
_1
100
AcDbLine
 62
7
  6
CONTINUOUS
 10
409.6060899816
 20
533.7976530701
 11
409.6060899816
 21
511.7976530701
  0
LINE
  5
2F6
100
AcDbEntity
  8
_1
100
AcDbLine
 62
7
  6
CONTINUOUS
 10
409.9848968612
 20
478.7976530701
 11
409.9848968612
 21
480.7976530701
  0
LINE
  5
2F7
100
AcDbEntity
  8
_1
100
AcDbLine
 62
7
  6
CONTINUOUS
 10
410.0025584378
 20
511.7976530701
 11
410.0025584378
 21
533.7976530701
  0
LINE
  5
2F8
100
AcDbEntity
  8
_1
100
AcDbLine
 62
7
  6
CONTINUOUS
 10
410.4579551726
 20
529.7976530701
 11
410.4579551726
 21
533.7976530701
  0
LINE
  5
2F9
100
AcDbEntity
  8
_1
100
AcDbLine
 62
7
  6
CONTINUOUS
 10
410.4848968612
 20
492.4636784739
 11
410.4848968612
 21
492.5976530701
  0
LINE
  5
2FA
100
AcDbEntity
  8
_1
100
AcDbLine
 62
7
  6
CONTINUOUS
 10
410.8848968612
 20
511.7976530701
 11
410.8848968612
 21
529.7976530701
  0
LINE
  5
2FB
100
AcDbEntity
  8
_1
100
AcDbLine
 62
7
  6
CONTINUOUS
 10
410.9848968612
 20
474.2976530701
 11
410.9848968612
 21
491.5976530701
  0
LINE
  5
2FC
100
AcDbEntity
  8
_1
100
AcDbLine
 62
7
  6
CONTINUOUS
 10
410.9848968612
 20
493.0976530701
 11
410.9848968612
 21
494.5976530701
  0
LINE
  5
2FD
100
AcDbEntity
  8
_1
100
AcDbLine
 62
7
  6
CONTINUOUS
 10
410.9848968612
 20
529.7976530701
 11
410.9848968612
 21
531.7976530701
  0
LINE
  5
2FE
100
AcDbEntity
  8
_1
100
AcDbLine
 62
7
  6
CONTINUOUS
 10
410.8848877861
 20
511.7976530701
 11
406.9848968612
 21
511.7976530701
  0
LINE
  5
2FF
100
AcDbEntity
  8
_1
100
AcDbLine
 62
7
  6
CONTINUOUS
 10
431.0797897638
 20
512.1976530701
 11
442.6900039586
 21
512.1976530701
  0
LINE
  5
300
100
AcDbEntity
  8
_1
100
AcDbLine
 62
7
  6
CONTINUOUS
 10
358.8848968612
 20
522.1976530701
 11
367.0848968612
 21
522.1976530701
  0
LINE
  5
301
100
AcDbEntity
  8
_1
100
AcDbLine
 62
7
  6
CONTINUOUS
 10
358.9848968612
 20
524.1976530701
 11
366.9848968612
 21
524.1976530701
  0
LINE
  5
302
100
AcDbEntity
  8
_1
100
AcDbLine
 62
7
  6
CONTINUOUS
 10
363.1586167036
 20
525.0494171729
 11
362.8111770188
 21
525.0494171729
  0
LINE
  5
303
100
AcDbEntity
  8
_1
100
AcDbLine
 62
7
  6
CONTINUOUS
 10
420.8848968612
 20
474.2976530701
 11
420.8848968612
 21
440.6102277367
  0
LINE
  5
304
100
AcDbEntity
  8
_1
100
AcDbLine
 62
7
  6
CONTINUOUS
 10
420.8848968612
 20
440.3958184259
 11
420.8848968612
 21
303.1994870971
  0
LINE
  5
305
100
AcDbEntity
  8
_1
100
AcDbLine
 62
7
  6
CONTINUOUS
 10
420.8848968612
 20
302.9852390213
 11
420.8848968612
 21
269.2976530701
  0
LINE
  5
306
100
AcDbEntity
  8
_1
100
AcDbLine
 62
7
  6
CONTINUOUS
 10
422.8848968612
 20
479.2452719158
 11
422.8848968612
 21
474.2278115311
  0
LINE
  5
307
100
AcDbEntity
  8
_1
100
AcDbLine
 62
7
  6
CONTINUOUS
 10
422.8848968612
 20
480.9976530701
 11
422.8848968612
 21
498.2946769437
  0
LINE
  5
308
100
AcDbEntity
  8
_1
100
AcDbLine
 62
7
  6
CONTINUOUS
 10
423.65315379
 20
500.9613433402
 11
423.65315379
 21
485.9976530701
  0
LINE
  5
309
100
AcDbEntity
  8
_1
100
AcDbLine
 62
7
  6
CONTINUOUS
 10
423.8848968612
 20
477.3976530701
 11
423.8848968612
 21
474.1928907616
  0
LINE
  5
30A
100
AcDbEntity
  8
_1
100
AcDbLine
 62
7
  6
CONTINUOUS
 10
424.1348968612
 20
477.3976530701
 11
424.1348968612
 21
479.3976530701
  0
LINE
  5
30B
100
AcDbEntity
  8
_1
100
AcDbLine
 62
7
  6
CONTINUOUS
 10
424.8848968612
 20
479.8976530701
 11
424.8848968612
 21
480.9976530701
  0
LINE
  5
30C
100
AcDbEntity
  8
_1
100
AcDbLine
 62
7
  6
CONTINUOUS
 10
426.8848968612
 20
474.0881284531
 11
426.8848968612
 21
477.3976530701
  0
LINE
  5
30D
100
AcDbEntity
  8
_1
100
AcDbLine
 62
7
  6
CONTINUOUS
 10
427.1463078469
 20
480.9976530701
 11
427.1463078469
 21
479.8976530701
  0
LINE
  5
30E
100
AcDbEntity
  8
_1
100
AcDbLine
 62
7
  6
CONTINUOUS
 10
429.6348968612
 20
477.3976530701
 11
429.6348968612
 21
479.3976530701
  0
LINE
  5
30F
100
AcDbEntity
  8
_1
100
AcDbLine
 62
7
  6
CONTINUOUS
 10
429.8734858755
 20
477.3976530701
 11
429.8734858755
 21
480.9976530701
  0
LINE
  5
310
100
AcDbEntity
  8
_1
100
AcDbLine
 62
7
  6
CONTINUOUS
 10
342.9848968612
 20
533.7976530701
 11
350.9848968612
 21
534.3976530701
  0
LINE
  5
311
100
AcDbEntity
  8
_1
100
AcDbLine
 62
7
  6
CONTINUOUS
 10
410.4579551726
 20
529.7976530701
 11
410.9848204293
 21
529.7976530701
  0
LINE
  5
312
100
AcDbEntity
  8
_1
100
AcDbLine
 62
7
  6
CONTINUOUS
 10
410.4579551726
 20
531.7976530701
 11
410.9848968612
 21
531.7976530701
  0
LINE
  5
313
100
AcDbEntity
  8
_1
100
AcDbLine
 62
7
  6
CONTINUOUS
 10
320.1848968612
 20
532.7976530701
 11
321.4848968612
 21
532.7976530701
  0
LINE
  5
314
100
AcDbEntity
  8
_1
100
AcDbLine
 62
7
  6
CONTINUOUS
 10
331.9848968612
 20
532.7976530701
 11
332.7848968612
 21
532.7976530701
  0
LINE
  5
315
100
AcDbEntity
  8
_1
100
AcDbLine
 62
7
  6
CONTINUOUS
 10
322.0622471304
 20
533.7976530701
 11
331.407546592
 21
533.7976530701
  0
LINE
  5
316
100
AcDbEntity
  8
_1
100
AcDbLine
 62
7
  6
CONTINUOUS
 10
342.0348968612
 20
533.7976530701
 11
342.9848968612
 21
533.7976530701
  0
LINE
  5
317
100
AcDbEntity
  8
_1
100
AcDbLine
 62
7
  6
CONTINUOUS
 10
365.9848968612
 20
533.7976530701
 11
410.4579551726
 21
533.7976530701
  0
LINE
  5
318
100
AcDbEntity
  8
_1
100
AcDbLine
 62
7
  6
CONTINUOUS
 10
333.1848968612
 20
533.9476530701
 11
333.9848968612
 21
533.9476530701
  0
LINE
  5
319
100
AcDbEntity
  8
_1
100
AcDbLine
 62
7
  6
CONTINUOUS
 10
336.8848968612
 20
533.9476530701
 11
337.1848968612
 21
533.9476530701
  0
LINE
  5
31A
100
AcDbEntity
  8
_1
100
AcDbLine
 62
7
  6
CONTINUOUS
 10
350.9848968612
 20
534.3976530701
 11
365.9848968612
 21
534.3976530701
  0
LINE
  5
31B
100
AcDbEntity
  8
_1
100
AcDbLine
 62
7
  6
CONTINUOUS
 10
337.7848968612
 20
535.7976530701
 11
338.2848968612
 21
535.7976530701
  0
LINE
  5
31C
100
AcDbEntity
  8
_1
100
AcDbLine
 62
7
  6
CONTINUOUS
 10
338.4772106776
 20
535.7483885773
 11
338.2848968612
 21
535.7976530701
  0
LINE
  5
31D
100
AcDbEntity
  8
_1
100
AcDbLine
 62
7
  6
CONTINUOUS
 10
342.0348968612
 20
533.7976530701
 11
338.4772106776
 21
535.7483885773
  0
LINE
  5
31E
100
AcDbEntity
  8
_1
100
AcDbLine
 62
7
  6
CONTINUOUS
 10
379.9563578269
 20
492.5996775668
 11
379.95787405
 21
492.5976530701
  0
LINE
  5
31F
100
AcDbEntity
  8
_1
100
AcDbLine
 62
7
  6
CONTINUOUS
 10
402.0134358955
 20
495.4352336161
 11
401.9882321539
 21
495.5350912332
  0
LINE
  5
320
100
AcDbEntity
  8
_1
100
AcDbLine
 62
7
  6
CONTINUOUS
 10
443.8963078469
 20
480.9976530701
 11
443.8963078469
 21
477.3976530701
  0
LINE
  5
321
100
AcDbEntity
  8
_1
100
AcDbLine
 62
7
  6
CONTINUOUS
 10
444.1348968612
 20
477.3976530701
 11
444.1348968612
 21
479.3976530701
  0
LINE
  5
322
100
AcDbEntity
  8
_1
100
AcDbLine
 62
7
  6
CONTINUOUS
 10
446.6234858755
 20
479.8976530701
 11
446.6234858755
 21
480.9976530701
  0
LINE
  5
323
100
AcDbEntity
  8
_1
100
AcDbLine
 62
7
  6
CONTINUOUS
 10
446.8848968612
 20
477.3976530701
 11
446.8848968612
 21
473.3897130633
  0
LINE
  5
324
100
AcDbEntity
  8
_1
100
AcDbLine
 62
7
  6
CONTINUOUS
 10
448.8848968612
 20
480.9976530701
 11
448.8848968612
 21
479.8976530701
  0
LINE
  5
325
100
AcDbEntity
  8
_1
100
AcDbLine
 62
7
  6
CONTINUOUS
 10
449.6348968612
 20
477.3976530701
 11
449.6348968612
 21
479.3976530701
  0
LINE
  5
326
100
AcDbEntity
  8
_1
100
AcDbLine
 62
7
  6
CONTINUOUS
 10
449.8848968612
 20
473.2849507548
 11
449.8848968612
 21
477.3976530701
  0
LINE
  5
327
100
AcDbEntity
  8
_1
100
AcDbLine
 62
7
  6
CONTINUOUS
 10
450.1166399324
 20
485.9976530701
 11
450.1166399324
 21
500.9613433402
  0
LINE
  5
328
100
AcDbEntity
  8
_1
100
AcDbLine
 62
7
  6
CONTINUOUS
 10
450.8848968612
 20
498.2946769437
 11
450.8848968612
 21
480.9976530701
  0
LINE
  5
329
100
AcDbEntity
  8
_1
100
AcDbLine
 62
7
  6
CONTINUOUS
 10
494.8848968612
 20
271.8817900125
 11
494.8848968612
 21
471.7135161277
  0
LINE
  5
32A
100
AcDbEntity
  8
_1
100
AcDbLine
 62
7
  6
CONTINUOUS
 10
500.8848968612
 20
454.8826998595
 11
500.8848968612
 21
410.4976530701
  0
LINE
  5
32B
100
AcDbEntity
  8
_1
100
AcDbLine
 62
7
  6
CONTINUOUS
 10
500.8848968612
 20
333.0976530701
 11
500.8848968612
 21
288.7126062807
  0
LINE
  5
32C
100
AcDbEntity
  8
_1
100
AcDbLine
 62
7
  6
CONTINUOUS
 10
502.769760328
 20
471.6976530701
 11
502.769760328
 21
460.776360689
  0
LINE
  5
32D
100
AcDbEntity
  8
_1
100
AcDbLine
 62
7
  6
CONTINUOUS
 10
502.769760328
 20
282.8189454512
 11
502.769760328
 21
271.8976530701
  0
LINE
  5
32E
100
AcDbEntity
  8
_1
100
AcDbLine
 62
7
  6
CONTINUOUS
 10
504.8032472013
 20
389.145106019
 11
504.8032472013
 21
354.4502001212
  0
LINE
  5
32F
100
AcDbEntity
  8
_1
100
AcDbLine
 62
7
  6
CONTINUOUS
 10
505.8848968612
 20
420.3111588825
 11
505.8848968612
 21
411.8122947069
  0
LINE
  5
330
100
AcDbEntity
  8
_1
100
AcDbLine
 62
7
  6
CONTINUOUS
 10
505.8848968612
 20
331.7830114333
 11
505.8848968612
 21
323.2841472577
  0
ARC
  5
331
100
AcDbEntity
  8
_1
100
AcDbCircle
 62
7
  6
CONTINUOUS
 10
29.5832710728
 20
354.4517115868
 40
475.2199761309
100
AcDbArc
 50
357.4245410447
 51
359.9998177673
  0
ARC
  5
332
100
AcDbEntity
  8
_1
100
AcDbCircle
 62
7
  6
CONTINUOUS
 10
14.8848750149
 20
371.7976505781
 40
500.0000219037
100
AcDbArc
 50
1.4898583772
 51
11.525263604
  0
ARC
  5
333
100
AcDbEntity
  8
_1
100
AcDbCircle
 62
7
  6
CONTINUOUS
 10
14.8848968612
 20
371.7976530701
 40
500.0
100
AcDbArc
 50
348.4747361756
 51
358.5101418431
  0
ARC
  5
334
100
AcDbEntity
  8
_1
100
AcDbCircle
 62
7
  6
CONTINUOUS
 10
14.8848968612
 20
371.7976530701
 40
499.5
100
AcDbArc
 50
358.5086501569
 51
1.4913498431
  0
ARC
  5
335
100
AcDbEntity
  8
_1
100
AcDbCircle
 62
7
  6
CONTINUOUS
 10
14.8848968612
 20
371.7976530701
 40
498.4570568264
100
AcDbArc
 50
359.1378704415
 51
0.8621295585
  0
ARC
  5
336
100
AcDbEntity
  8
_1
100
AcDbCircle
 62
7
  6
CONTINUOUS
 10
14.8848968612
 20
371.7976530701
 40
495.8242417839
100
AcDbArc
 50
6.2175870327
 51
10.1470670899
  0
ARC
  5
337
100
AcDbEntity
  8
_1
100
AcDbCircle
 62
7
  6
CONTINUOUS
 10
14.8848968612
 20
371.7976530701
 40
495.8242417839
100
AcDbArc
 50
349.8529329101
 51
353.7824129673
  0
ARC
  5
338
100
AcDbEntity
  8
_1
100
AcDbCircle
 62
7
  6
CONTINUOUS
 10
29.5832710733
 20
389.1435945534
 40
475.2199761305
100
AcDbArc
 50
0.0001822327
 51
2.5754589553
  0
ARC
  5
339
100
AcDbEntity
  8
_1
100
AcDbCircle
 62
7
  6
CONTINUOUS
 10
169.3848968612
 20
479.2976530701
 40
1.0
100
AcDbArc
 50
96.301957412
 51
180.0
  0
ARC
  5
33A
100
AcDbEntity
  8
_1
100
AcDbCircle
 62
7
  6
CONTINUOUS
 10
187.3848968612
 20
479.2976530701
 40
1.0
100
AcDbArc
 50
0.0
 51
83.698042588
  0
ARC
  5
33B
100
AcDbEntity
  8
_1
100
AcDbCircle
 62
7
  6
CONTINUOUS
 10
178.3848968612
 20
505.2976530701
 40
4.0
100
AcDbArc
 50
0.0
 51
180.0
  0
ARC
  5
33C
100
AcDbEntity
  8
_1
100
AcDbCircle
 62
7
  6
CONTINUOUS
 10
420.3765584236
 20
423.0499568117
 40
116.0640183026
100
AcDbArc
 50
116.2268070243
 51
116.950099502
  0
ARC
  5
33D
100
AcDbEntity
  8
_1
100
AcDbCircle
 62
7
  6
CONTINUOUS
 10
375.8067094893
 20
472.6494171729
 40
9.0
100
AcDbArc
 50
90.0
 51
115.1282487797
  0
ARC
  5
33E
100
AcDbEntity
  8
_1
100
AcDbCircle
 62
7
  6
CONTINUOUS
 10
376.163084233
 20
472.6494171729
 40
9.0
100
AcDbArc
 50
65.0662293461
 51
90.0
  0
ARC
  5
33F
100
AcDbEntity
  8
_1
100
AcDbCircle
 62
7
  6
CONTINUOUS
 10
405.8067094893
 20
472.6494171729
 40
9.0
100
AcDbArc
 50
90.0
 51
114.9337706539
  0
ARC
  5
340
100
AcDbEntity
  8
_1
100
AcDbCircle
 62
7
  6
CONTINUOUS
 10
406.163084233
 20
472.6494171729
 40
9.0
100
AcDbArc
 50
64.8717512203
 51
90.0
  0
ARC
  5
341
100
AcDbEntity
  8
_1
100
AcDbCircle
 62
7
  6
CONTINUOUS
 10
423.8848968612
 20
479.2452719158
 40
1.0
100
AcDbArc
 50
96.301957412
 51
180.0
  0
ARC
  5
342
100
AcDbEntity
  8
_1
100
AcDbCircle
 62
7
  6
CONTINUOUS
 10
444.6348968612
 20
479.3976530701
 40
0.5
100
AcDbArc
 50
90.0
 51
180.0
  0
ARC
  5
343
100
AcDbEntity
  8
_1
100
AcDbCircle
 62
7
  6
CONTINUOUS
 10
449.1348968612
 20
479.3976530701
 40
0.5
100
AcDbArc
 50
0.0
 51
90.0
  0
ARC
  5
344
100
AcDbEntity
  8
_1
100
AcDbCircle
 62
7
  6
CONTINUOUS
 10
429.1348968612
 20
479.3976530701
 40
0.5
100
AcDbArc
 50
0.0
 51
90.0
  0
ARC
  5
345
100
AcDbEntity
  8
_1
100
AcDbCircle
 62
7
  6
CONTINUOUS
 10
424.6348968612
 20
479.3976530701
 40
0.5
100
AcDbArc
 50
90.0
 51
180.0
  0
ARC
  5
346
100
AcDbEntity
  8
_1
100
AcDbCircle
 62
7
  6
CONTINUOUS
 10
362.8067094893
 20
516.0494171729
 40
9.0
100
AcDbArc
 50
90.0
 51
115.1282487797
  0
ARC
  5
347
100
AcDbEntity
  8
_1
100
AcDbCircle
 62
7
  6
CONTINUOUS
 10
363.163084233
 20
516.0494171729
 40
9.0
100
AcDbArc
 50
64.8717512203
 51
90.0
  0
ARC
  5
348
100
AcDbEntity
  8
_1
100
AcDbCircle
 62
7
  6
CONTINUOUS
 10
375.6889543421
 20
490.8755831318
 40
1.7723173901
100
AcDbArc
 50
116.3556276091
 51
118.3593874864
  0
ARC
  5
349
100
AcDbEntity
  8
_1
100
AcDbCircle
 62
7
  6
CONTINUOUS
 10
335.4348968612
 20
533.7976530701
 40
1.25
100
AcDbArc
 50
0.0
 51
180.0
  0
ARC
  5
34A
100
AcDbEntity
  8
_1
100
AcDbCircle
 62
7
  6
CONTINUOUS
 10
335.4348968612
 20
493.7976530701
 40
1.25
100
AcDbArc
 50
180.0
 51
359.9970957302
  0
ARC
  5
34B
100
AcDbEntity
  8
_1
100
AcDbCircle
 62
7
  6
CONTINUOUS
 10
371.9848968612
 20
491.5976530701
 40
1.0
100
AcDbArc
 50
120.0
 51
179.9999999999
  0
ARC
  5
34C
100
AcDbEntity
  8
_1
100
AcDbCircle
 62
7
  6
CONTINUOUS
 10
371.4848968612
 20
493.0976530701
 40
0.5
100
AcDbArc
 50
180.0000000002
 51
270.0
  0
ARC
  5
34D
100
AcDbEntity
  8
_1
100
AcDbCircle
 62
7
  6
CONTINUOUS
 10
337.7848968612
 20
535.3976530701
 40
0.4
100
AcDbArc
 50
90.0
 51
180.0
  0
ARC
  5
34E
100
AcDbEntity
  8
_1
100
AcDbCircle
 62
7
  6
CONTINUOUS
 10
337.7848968612
 20
492.1976530701
 40
0.4
100
AcDbArc
 50
180.0
 51
270.0
  0
ARC
  5
34F
100
AcDbEntity
  8
_1
100
AcDbCircle
 62
7
  6
CONTINUOUS
 10
320.1848968612
 20
532.5976530701
 40
0.2
100
AcDbArc
 50
90.0
 51
179.9999999999
  0
ARC
  5
350
100
AcDbEntity
  8
_1
100
AcDbCircle
 62
7
  6
CONTINUOUS
 10
320.1848968612
 20
494.9976530701
 40
0.2
100
AcDbArc
 50
180.0000000001
 51
270.0
  0
ARC
  5
351
100
AcDbEntity
  8
_1
100
AcDbCircle
 62
7
  6
CONTINUOUS
 10
332.7848968612
 20
532.9976530701
 40
0.2
100
AcDbArc
 50
270.0
 51
360.0
  0
ARC
  5
352
100
AcDbEntity
  8
_1
100
AcDbCircle
 62
7
  6
CONTINUOUS
 10
332.7848968612
 20
494.5976530701
 40
0.2
100
AcDbArc
 50
0.0
 51
90.0
  0
ARC
  5
353
100
AcDbEntity
  8
_1
100
AcDbCircle
 62
7
  6
CONTINUOUS
 10
333.1848968612
 20
533.7476530701
 40
0.2
100
AcDbArc
 50
90.0
 51
179.9999999999
  0
ARC
  5
354
100
AcDbEntity
  8
_1
100
AcDbCircle
 62
7
  6
CONTINUOUS
 10
333.1848968612
 20
493.8476530701
 40
0.2
100
AcDbArc
 50
180.0000000001
 51
270.0
  0
ARC
  5
355
100
AcDbEntity
  8
_1
100
AcDbCircle
 62
7
  6
CONTINUOUS
 10
333.9848968612
 20
533.7476530701
 40
0.2
100
AcDbArc
 50
0.0182463527
 51
90.0
  0
ARC
  5
356
100
AcDbEntity
  8
_1
100
AcDbCircle
 62
7
  6
CONTINUOUS
 10
333.9848968612
 20
493.8476530701
 40
0.2
100
AcDbArc
 50
270.0
 51
359.9818981116
  0
ARC
  5
357
100
AcDbEntity
  8
_1
100
AcDbCircle
 62
7
  6
CONTINUOUS
 10
336.8848968612
 20
533.7476530701
 40
0.2
100
AcDbArc
 50
90.0
 51
166.0048094716
  0
ARC
  5
358
100
AcDbEntity
  8
_1
100
AcDbCircle
 62
7
  6
CONTINUOUS
 10
336.8848968612
 20
493.8476530701
 40
0.2
100
AcDbArc
 50
194.0129254881
 51
270.0
  0
ARC
  5
359
100
AcDbEntity
  8
_1
100
AcDbCircle
 62
7
  6
CONTINUOUS
 10
337.1848968612
 20
534.1476530701
 40
0.2
100
AcDbArc
 50
270.0
 51
360.0
  0
ARC
  5
35A
100
AcDbEntity
  8
_1
100
AcDbCircle
 62
7
  6
CONTINUOUS
 10
337.1848968612
 20
493.4476530701
 40
0.2
100
AcDbArc
 50
0.0
 51
90.0
  0
CIRCLE
  5
35B
100
AcDbEntity
  8
_1
100
AcDbCircle
 62
7
  6
CONTINUOUS
 10
436.8848968612
 20
498.1976530701
 40
11.5
  0
CIRCLE
  5
35C
100
AcDbEntity
  8
_1
100
AcDbCircle
 62
7
  6
CONTINUOUS
 10
436.8848968612
 20
498.1976530701
 40
9.5
  0
ARC
  5
35D
100
AcDbEntity
  8
_1
100
AcDbCircle
 62
7
  6
CONTINUOUS
 10
407.163084233
 20
523.6494171729
 40
9.0
100
AcDbArc
 50
64.8717512203
 51
68.4625746099
  0
ARC
  5
35E
100
AcDbEntity
  8
_1
100
AcDbCircle
 62
7
  6
CONTINUOUS
 10
407.9848968612
 20
498.5976530701
 40
3.0
100
AcDbArc
 50
180.0
 51
270.0
  0
ARC
  5
35F
100
AcDbEntity
  8
_1
100
AcDbCircle
 62
7
  6
CONTINUOUS
 10
406.9848968612
 20
509.7976530701
 40
2.0
100
AcDbArc
 50
90.0
 51
180.0
  0
ARC
  5
360
100
AcDbEntity
  8
_1
100
AcDbCircle
 62
7
  6
CONTINUOUS
 10
406.2816006949
 20
490.8752806901
 40
1.7722506038
100
AcDbArc
 50
61.6674132506
 51
63.6707676205
  0
ARC
  5
361
100
AcDbEntity
  8
_1
100
AcDbCircle
 62
7
  6
CONTINUOUS
 10
409.9848968612
 20
491.5976530701
 40
1.0
100
AcDbArc
 50
0.0
 51
60.0
  0
ARC
  5
362
100
AcDbEntity
  8
_1
100
AcDbCircle
 62
7
  6
CONTINUOUS
 10
409.9848968612
 20
494.5976530701
 40
1.0
100
AcDbArc
 50
0.0000000001
 51
90.0
  0
CIRCLE
  5
363
100
AcDbEntity
  8
_1
100
AcDbCircle
 62
7
  6
CONTINUOUS
 10
442.4707607156
 20
499.2726530701
 40
0.5
  0
CIRCLE
  5
364
100
AcDbEntity
  8
_1
100
AcDbCircle
 62
7
  6
CONTINUOUS
 10
441.8549135073
 20
495.4306267714
 40
0.5
  0
CIRCLE
  5
365
100
AcDbEntity
  8
_1
100
AcDbCircle
 62
7
  6
CONTINUOUS
 10
440.4729201465
 20
502.6116749214
 40
0.5
  0
CIRCLE
  5
366
100
AcDbEntity
  8
_1
100
AcDbCircle
 62
7
  6
CONTINUOUS
 10
438.9135402747
 20
492.88332283
 40
0.5
  0
CIRCLE
  5
367
100
AcDbEntity
  8
_1
100
AcDbCircle
 62
7
  6
CONTINUOUS
 10
436.8848968612
 20
502.4976530701
 40
0.5
  0
CIRCLE
  5
368
100
AcDbEntity
  8
_1
100
AcDbCircle
 62
7
  6
CONTINUOUS
 10
436.8848968612
 20
496.0476530701
 40
0.5
  0
CIRCLE
  5
369
100
AcDbEntity
  8
_1
100
AcDbCircle
 62
7
  6
CONTINUOUS
 10
435.0229422431
 20
492.8226530701
 40
0.5
  0
CIRCLE
  5
36A
100
AcDbEntity
  8
_1
100
AcDbCircle
 62
7
  6
CONTINUOUS
 10
435.0229422431
 20
499.2726530701
 40
0.5
  0
CIRCLE
  5
36B
100
AcDbEntity
  8
_1
100
AcDbCircle
 62
7
  6
CONTINUOUS
 10
433.1609876249
 20
502.4976530701
 40
0.5
  0
CIRCLE
  5
36C
100
AcDbEntity
  8
_1
100
AcDbCircle
 62
7
  6
CONTINUOUS
 10
431.2682301624
 20
499.0979614588
 40
0.5
  0
ARC
  5
36D
100
AcDbEntity
  8
_1
100
AcDbCircle
 62
7
  6
CONTINUOUS
 10
410.4848968612
 20
493.0976530701
 40
0.5
100
AcDbArc
 50
270.0
 51
360.0
  0
ARC
  5
36E
100
AcDbEntity
  8
_1
100
AcDbCircle
 62
7
  6
CONTINUOUS
 10
420.3765170841
 20
604.5452698759
 40
116.0639287573
100
AcDbArc
 50
243.0499009168
 51
243.7731939482
  0
ARC
  5
36F
100
AcDbEntity
  8
_1
100
AcDbCircle
 62
7
  6
CONTINUOUS
 10
990.1642559585
 20
-11182.1014062431
 40
11501.0504249262
100
AcDbArc
 50
92.4681393614
 51
92.8371876641
  0
ARC
  5
370
100
AcDbEntity
  8
_1
100
AcDbCircle
 62
7
  6
CONTINUOUS
 10
990.1642536653
 20
11925.6966669826
 40
11501.0503794863
100
AcDbArc
 50
267.1628123361
 51
267.5318606403
  0
SPLINE
  5
371
100
AcDbEntity
  8
_1
100
AcDbSpline
 62
7
  6
CONTINUOUS
 70
0
 71
3
 72
14
 73
10
 74
0
 42
0.0000001
 43
0.0000001
 44
0.0000000001
 40
0.0
 40
0.0
 40
0.0
 40
0.0
 40
0.0390256095
 40
0.1055869766
 40
0.2008423383
 40
0.3220393796
 40
0.4674262825
 40
0.6319113939
 40
1.0
 40
1.0
 40
1.0
 40
1.0
 10
183.1614525036
 20
480.2916132496
 30
0.0
 10
183.1506861708
 20
480.2822398122
 30
0.0
 10
183.1343989542
 20
480.2452709739
 30
0.0
 10
183.1101410992
 20
480.1771048407
 30
0.0
 10
183.0752634394
 20
480.0790952526
 30
0.0
 10
183.0263215063
 20
479.9562862957
 30
0.0
 10
182.9621602933
 20
479.8121379715
 30
0.0
 10
182.8535363835
 20
479.5891918742
 30
0.0
 10
182.7617324935
 20
479.4173249338
 30
0.0
 10
182.6999999508
 20
479.2976696739
 30
0.0
  0
SPLINE
  5
372
100
AcDbEntity
  8
_1
100
AcDbSpline
 62
7
  6
CONTINUOUS
 70
0
 71
3
 72
14
 73
10
 74
0
 42
0.0000001
 43
0.0000001
 44
0.0000000001
 40
0.0
 40
0.0
 40
0.0
 40
0.0
 40
0.130688551
 40
0.2579555102
 40
0.3825358612
 40
0.5055468491
 40
0.6284505528
 40
0.751931006
 40
1.0
 40
1.0
 40
1.0
 40
1.0
 10
174.5876054094
 20
479.5398655819
 30
0.0
 10
174.6450439498
 20
479.3220171443
 30
0.0
 10
174.7869416581
 20
478.8985914938
 30
0.0
 10
175.0950440443
 20
478.3121252085
 30
0.0
 10
175.4925943957
 20
477.7981064617
 30
0.0
 10
175.971996363
 20
477.3708752812
 30
0.0
 10
176.5171346648
 20
477.0352269398
 30
0.0
 10
177.3108276849
 20
476.7167116636
 30
0.0
 10
177.9572517994
 20
476.6211162214
 30
0.0
 10
178.3848968593
 20
476.6211561577
 30
0.0
  0
SPLINE
  5
373
100
AcDbEntity
  8
_1
100
AcDbSpline
 62
7
  6
CONTINUOUS
 70
0
 71
3
 72
9
 73
5
 74
0
 42
0.0000001
 43
0.0000001
 44
0.0000000001
 40
0.0
 40
0.0
 40
0.0
 40
0.0
 40
0.4480169109
 40
1.0
 40
1.0
 40
1.0
 40
1.0
 10
174.3849089511
 20
480.7002060654
 30
0.0
 10
174.3849474751
 20
480.523979401
 30
0.0
 10
174.4384763468
 20
480.1315803703
 30
0.0
 10
174.5322309401
 20
479.7498023287
 30
0.0
 10
174.5875830953
 20
479.5398549049
 30
0.0
  0
SPLINE
  5
374
100
AcDbEntity
  8
_1
100
AcDbSpline
 62
7
  6
CONTINUOUS
 70
0
 71
3
 72
9
 73
5
 74
0
 42
0.0000001
 43
0.0000001
 44
0.0000000001
 40
0.0
 40
0.0
 40
0.0
 40
0.0
 40
0.5597100512
 40
1.0
 40
1.0
 40
1.0
 40
1.0
 10
182.1822237253
 20
479.5398486373
 30
0.0
 10
182.238351521
 20
479.7527394382
 30
0.0
 10
182.3320595639
 20
480.1345772478
 30
0.0
 10
182.3849030116
 20
480.527018925
 30
0.0
 10
182.3848980343
 20
480.7002097256
 30
0.0
  0
SPLINE
  5
375
100
AcDbEntity
  8
_1
100
AcDbSpline
 62
7
  6
CONTINUOUS
 70
0
 71
3
 72
12
 73
8
 74
0
 42
0.0000001
 43
0.0000001
 44
0.0000000001
 40
0.0
 40
0.0
 40
0.0
 40
0.0
 40
0.2482854542
 40
0.4938195807
 40
0.6173543893
 40
0.741796468
 40
1.0
 40
1.0
 40
1.0
 40
1.0
 10
178.3848968598
 20
476.6211379548
 30
0.0
 10
178.8121907958
 20
476.6211778581
 30
0.0
 10
179.6676364897
 20
476.7458198491
 30
0.0
 10
180.6382271373
 20
477.2280138714
 30
0.0
 10
181.2750260438
 20
477.7966630433
 30
0.0
 10
181.8121725052
 20
478.4877292985
 30
0.0
 10
182.0689050142
 20
479.1101840892
 30
0.0
 10
182.1821939949
 20
479.539862863
 30
0.0
  0
SPLINE
  5
376
100
AcDbEntity
  8
_1
100
AcDbSpline
 62
7
  6
CONTINUOUS
 70
0
 71
3
 72
11
 73
7
 74
0
 42
0.0000001
 43
0.0000001
 44
0.0000000001
 40
0.0
 40
0.0
 40
0.0
 40
0.0
 40
0.1355644334
 40
0.3578839422
 40
0.6547118382
 40
1.0
 40
1.0
 40
1.0
 40
1.0
 10
174.5875830952
 20
479.5398549049
 30
0.0
 10
174.5702054107
 20
479.5205794014
 30
0.0
 10
174.5117781875
 20
479.4824844951
 30
0.0
 10
174.400526939
 20
479.4258162142
 30
0.0
 10
174.2475112561
 20
479.3618362334
 30
0.0
 10
174.132183788
 20
479.3194172777
 30
0.0
 10
174.0697675817
 20
479.2976530701
 30
0.0
  0
SPLINE
  5
377
100
AcDbEntity
  8
_1
100
AcDbSpline
 62
7
  6
CONTINUOUS
 70
0
 71
3
 72
11
 73
7
 74
0
 42
0.0000001
 43
0.0000001
 44
0.0000000001
 40
0.0
 40
0.0
 40
0.0
 40
0.0
 40
0.3452881618
 40
0.6421160578
 40
0.8644355666
 40
1.0
 40
1.0
 40
1.0
 40
1.0
 10
182.7000261406
 20
479.2976530701
 30
0.0
 10
182.6376099343
 20
479.3194172777
 30
0.0
 10
182.5222824662
 20
479.3618362334
 30
0.0
 10
182.3692667834
 20
479.4258162142
 30
0.0
 10
182.2580155349
 20
479.4824844951
 30
0.0
 10
182.1995883116
 20
479.5205794014
 30
0.0
 10
182.1822106272
 20
479.5398549049
 30
0.0
  0
SPLINE
  5
378
100
AcDbEntity
  8
_1
100
AcDbSpline
 62
7
  6
CONTINUOUS
 70
0
 71
3
 72
9
 73
5
 74
0
 42
0.0000001
 43
0.0000001
 44
0.0000000001
 40
0.0
 40
0.0
 40
0.0
 40
0.0
 40
0.2088721887
 40
1.0
 40
1.0
 40
1.0
 40
1.0
 10
173.6082967671
 20
480.291610276
 30
0.0
 10
173.6347329959
 20
480.3061254785
 30
0.0
 10
173.7638621838
 20
480.3709623872
 30
0.0
 10
173.8999711266
 20
480.4206998815
 30
0.0
 10
174.0082995956
 20
480.4569435555
 30
0.0
  0
SPLINE
  5
379
100
AcDbEntity
  8
_1
100
AcDbSpline
 62
7
  6
CONTINUOUS
 70
0
 71
3
 72
12
 73
8
 74
0
 42
0.0000001
 43
0.0000001
 44
0.0000000001
 40
0.0
 40
0.0
 40
0.0
 40
0.0
 40
0.2608508164
 40
0.3870299857
 40
0.5116284756
 40
0.7560608219
 40
1.0
 40
1.0
 40
1.0
 40
1.0
 10
182.6999832683
 20
479.2976666604
 30
0.0
 10
182.5700499035
 20
478.7939859547
 30
0.0
 10
182.278016176
 20
478.0628163346
 30
0.0
 10
181.6704090275
 20
477.2376865241
 30
0.0
 10
180.9515196543
 20
476.5536508001
 30
0.0
 10
179.8526288434
 20
475.9618508647
 30
0.0
 10
178.87134297
 20
475.8058189852
 30
0.0
 10
178.3848968561
 20
475.8057699157
 30
0.0
  0
SPLINE
  5
37A
100
AcDbEntity
  8
_1
100
AcDbSpline
 62
7
  6
CONTINUOUS
 70
0
 71
3
 72
9
 73
5
 74
0
 42
0.0000001
 43
0.0000001
 44
0.0000000001
 40
0.0
 40
0.0
 40
0.0
 40
0.0
 40
0.2914179488
 40
1.0
 40
1.0
 40
1.0
 40
1.0
 10
182.7586001456
 20
480.4578711846
 30
0.0
 10
182.7987820389
 20
480.4444471236
 30
0.0
 10
182.935968932
 20
480.3966232274
 30
0.0
 10
183.0712284681
 20
480.3412361042
 30
0.0
 10
183.1614969553
 20
480.291610276
 30
0.0
  0
SPLINE
  5
37B
100
AcDbEntity
  8
_1
100
AcDbSpline
 62
7
  6
CONTINUOUS
 70
0
 71
3
 72
14
 73
10
 74
0
 42
0.0000001
 43
0.0000001
 44
0.0000000001
 40
0.0
 40
0.0
 40
0.0
 40
0.0
 40
0.3671346803
 40
0.5320298369
 40
0.6774389708
 40
0.7991612077
 40
0.8943057816
 40
0.9611080328
 40
1.0
 40
1.0
 40
1.0
 40
1.0
 10
174.069775724
 20
479.2976582322
 30
0.0
 10
174.0082014975
 20
479.4170035253
 30
0.0
 10
173.9164066277
 20
479.5886567414
 30
0.0
 10
173.8080440134
 20
479.8115147627
 30
0.0
 10
173.7435251943
 20
479.9558911617
 30
0.0
 10
173.694708343
 20
480.07892215
 30
0.0
 10
173.6596058578
 20
480.1771052874
 30
0.0
 10
173.6353449597
 20
480.2452671389
 30
0.0
 10
173.6190394495
 20
480.2822690301
 30
0.0
 10
173.6083105869
 20
480.2916112003
 30
0.0
  0
SPLINE
  5
37C
100
AcDbEntity
  8
_1
100
AcDbSpline
 62
7
  6
CONTINUOUS
 70
0
 71
3
 72
15
 73
11
 74
0
 42
0.0000001
 43
0.0000001
 44
0.0000000001
 40
0.0
 40
0.0
 40
0.0
 40
0.0
 40
0.1221884073
 40
0.2443531022
 40
0.3666745675
 40
0.489496002
 40
0.6134734026
 40
0.7396919004
 40
0.8685753803
 40
1.0
 40
1.0
 40
1.0
 40
1.0
 10
178.3848968422
 20
475.8059075168
 30
0.0
 10
178.1406379442
 20
475.8058828795
 30
0.0
 10
177.6511360556
 20
475.8442898759
 30
0.0
 10
176.9367658019
 20
476.0219575413
 30
0.0
 10
176.2593955166
 20
476.3145028618
 30
0.0
 10
175.6405810054
 20
476.7234362802
 30
0.0
 10
175.0969782953
 20
477.2395817494
 30
0.0
 10
174.6467014024
 20
477.8538853657
 30
0.0
 10
174.2975613712
 20
478.546725906
 30
0.0
 10
174.1355523198
 20
479.043309524
 30
0.0
 10
174.0699281303
 20
479.2977039637
 30
0.0
  0
SPLINE
  5
37D
100
AcDbEntity
  8
_1
100
AcDbSpline
 62
7
  6
CONTINUOUS
 70
0
 71
3
 72
13
 73
9
 74
0
 42
0.0000001
 43
0.0000001
 44
0.0000000001
 40
0.0
 40
0.0
 40
0.0
 40
0.0
 40
0.141676576
 40
0.2762832408
 40
0.4049985542
 40
0.529115402
 40
0.7676322109
 40
1.0
 40
1.0
 40
1.0
 40
1.0
 10
431.0797897638
 20
512.1976530701
 30
0.0
 10
430.3627202824
 20
511.8410715967
 30
0.0
 10
429.023773887
 20
511.0186939737
 30
0.0
 10
427.2934468595
 20
509.5059028049
 30
0.0
 10
425.8787045594
 20
507.823405578
 30
0.0
 10
424.4045654719
 20
505.4606635045
 30
0.0
 10
423.2007716984
 20
502.2798278131
 30
0.0
 10
422.8848968612
 20
499.6081515917
 30
0.0
 10
422.8848968612
 20
498.2946769437
 30
0.0
  0
SPLINE
  5
37E
100
AcDbEntity
  8
_1
100
AcDbSpline
 62
7
  6
CONTINUOUS
 70
0
 71
3
 72
12
 73
8
 74
0
 42
0.0000001
 43
0.0000001
 44
0.0000000001
 40
0.0
 40
0.0
 40
0.0
 40
0.0
 40
0.141776594
 40
0.2764701279
 40
0.5288282543
 40
0.767485937
 40
1.0
 40
1.0
 40
1.0
 40
1.0
 10
442.6900039586
 20
512.1976530701
 30
0.0
 10
443.4071196099
 20
511.8410486375
 30
0.0
 10
444.7460583791
 20
511.0180514828
 30
0.0
 10
447.0033412072
 20
509.0457092947
 30
0.0
 10
449.1094813278
 20
506.141261901
 30
0.0
 10
450.568121879
 20
502.2807917424
 30
0.0
 10
450.8848968612
 20
499.6081357893
 30
0.0
 10
450.8848968612
 20
498.2946769437
 30
0.0
  0
SPLINE
  5
37F
100
AcDbEntity
  8
_1
100
AcDbSpline
 62
7
  6
CONTINUOUS
 70
0
 71
3
 72
9
 73
5
 74
0
 42
0.0000001
 43
0.0000001
 44
0.0000000001
 40
0.0
 40
0.0
 40
0.0
 40
0.0
 40
0.356910402
 40
1.0
 40
1.0
 40
1.0
 40
1.0
 10
401.9202954401
 20
495.5976530701
 30
0.0
 10
401.9315163643
 20
495.5976530701
 30
0.0
 10
401.9597980445
 20
495.5771648952
 30
0.0
 10
401.9772512356
 20
495.5520674538
 30
0.0
 10
401.9882321539
 20
495.5350912332
 30
0.0
  0
SPLINE
  5
380
100
AcDbEntity
  8
_1
100
AcDbSpline
 62
7
  6
CONTINUOUS
 70
0
 71
3
 72
9
 73
5
 74
0
 42
0.0000001
 43
0.0000001
 44
0.0000000001
 40
0.0
 40
0.0
 40
0.0
 40
0.0
 40
0.6430896091
 40
1.0
 40
1.0
 40
1.0
 40
1.0
 10
379.9815615591
 20
495.5350912187
 30
0.0
 10
379.9925424789
 20
495.5520674431
 30
0.0
 10
380.0099956719
 20
495.5771648895
 30
0.0
 10
380.0382773564
 20
495.5976530701
 30
0.0
 10
380.0494982822
 20
495.5976530701
 30
0.0
  0
SPLINE
  5
381
100
AcDbEntity
  8
_1
100
AcDbSpline
 62
7
  6
CONTINUOUS
 70
0
 71
3
 72
11
 73
7
 74
0
 42
0.0000001
 43
0.0000001
 44
0.0000000001
 40
0.0
 40
0.0
 40
0.0
 40
0.0
 40
0.2665418063
 40
0.5153596585
 40
0.7536351802
 40
1.0
 40
1.0
 40
1.0
 40
1.0
 10
367.0848968612
 20
527.3005718174
 30
0.0
 10
367.0848968612
 20
527.5399495913
 30
0.0
 10
367.0568916586
 20
528.0039630697
 30
0.0
 10
366.8869719929
 20
528.6653356369
 30
0.0
 10
366.5422189078
 20
529.2413709673
 30
0.0
 10
366.1829335707
 20
529.5096865588
 30
0.0
 10
365.9848968612
 20
529.6083585294
 30
0.0
  0
SPLINE
  5
382
100
AcDbEntity
  8
_1
100
AcDbSpline
 62
7
  6
CONTINUOUS
 70
0
 71
3
 72
14
 73
10
 74
0
 42
0.0000001
 43
0.0000001
 44
0.0000000001
 40
0.0
 40
0.0
 40
0.0
 40
0.0
 40
0.1511684841
 40
0.2947083625
 40
0.4265255359
 40
0.547155923
 40
0.6606679
 40
0.7718520718
 40
1.0
 40
1.0
 40
1.0
 40
1.0
 10
362.9848968612
 20
530.6128248163
 30
0.0
 10
362.6646308931
 20
530.6128248163
 30
0.0
 10
362.0389036645
 20
530.5615515673
 30
0.0
 10
361.1596773935
 20
530.3322835512
 30
0.0
 10
360.4002312458
 20
529.9607806147
 30
0.0
 10
359.7932908678
 20
529.4663209803
 30
0.0
 10
359.352429266
 20
528.8732677379
 30
0.0
 10
358.9687829232
 20
527.9865820576
 30
0.0
 10
358.8848968612
 20
527.2563691679
 30
0.0
 10
358.8848968612
 20
526.7730143367
 30
0.0
  0
SPLINE
  5
383
100
AcDbEntity
  8
_1
100
AcDbSpline
 62
7
  6
CONTINUOUS
 70
0
 71
3
 72
10
 73
6
 74
0
 42
0.0000001
 43
0.0000001
 44
0.0000000001
 40
0.0
 40
0.0
 40
0.0
 40
0.0
 40
0.1870379587
 40
0.4238392376
 40
1.0
 40
1.0
 40
1.0
 40
1.0
 10
379.9563596886
 20
492.4352544614
 30
0.0
 10
379.9563645814
 20
492.3745092128
 30
0.0
 10
379.9942403053
 20
492.2384601978
 30
0.0
 10
380.1420954559
 20
491.949535012
 30
0.0
 10
380.3056049864
 20
491.738726999
 30
0.0
 10
380.4285399829
 20
491.5976530701
 30
0.0
  0
SPLINE
  5
384
100
AcDbEntity
  8
_1
100
AcDbSpline
 62
7
  6
CONTINUOUS
 70
0
 71
3
 72
9
 73
5
 74
0
 42
0.0000001
 43
0.0000001
 44
0.0000000001
 40
0.0
 40
0.0
 40
0.0
 40
0.0
 40
0.5302054833
 40
1.0
 40
1.0
 40
1.0
 40
1.0
 10
407.1226911602
 20
492.4352290232
 30
0.0
 10
407.3101026098
 20
492.33431488
 30
0.0
 10
407.6327809065
 20
492.0849857629
 30
0.0
 10
407.8822386293
 20
491.7634983202
 30
0.0
 10
407.9720487549
 20
491.5976530701
 30
0.0
  0
SPLINE
  5
385
100
AcDbEntity
  8
_1
100
AcDbSpline
 62
7
  6
CONTINUOUS
 70
0
 71
3
 72
9
 73
5
 74
0
 42
0.0000001
 43
0.0000001
 44
0.0000000001
 40
0.0
 40
0.0
 40
0.0
 40
0.0
 40
0.2612088439
 40
1.0
 40
1.0
 40
1.0
 40
1.0
 10
365.9848968612
 20
508.8620679984
 30
0.0
 10
366.0681515551
 20
508.1714974698
 30
0.0
 10
366.4557456896
 20
505.5369102293
 30
0.0
 10
367.1153595503
 20
502.9392496619
 30
0.0
 10
367.7746826957
 20
501.0857001845
 30
0.0
  0
SPLINE
  5
386
100
AcDbEntity
  8
_1
100
AcDbSpline
 62
7
  6
CONTINUOUS
 70
0
 71
3
 72
11
 73
7
 74
0
 42
0.0000001
 43
0.0000001
 44
0.0000000001
 40
0.0
 40
0.0
 40
0.0
 40
0.0
 40
0.2676886154
 40
0.5266914499
 40
0.7723126191
 40
1.0
 40
1.0
 40
1.0
 40
1.0
 10
369.0848968612
 20
500.4299239681
 30
0.0
 10
369.6129818869
 20
500.1696759241
 30
0.0
 10
370.5889488558
 20
499.5287772276
 30
0.0
 10
371.8581501506
 20
498.3956905719
 30
0.0
 10
372.9455647407
 20
497.2044500993
 30
0.0
 10
373.5774387594
 20
496.3750241813
 30
0.0
 10
373.8597261766
 20
495.9614190797
 30
0.0
  0
SPLINE
  5
387
100
AcDbEntity
  8
_1
100
AcDbSpline
 62
7
  6
CONTINUOUS
 70
0
 71
3
 72
11
 73
7
 74
0
 42
0.0000001
 43
0.0000001
 44
0.0000000001
 40
0.0
 40
0.0
 40
0.0
 40
0.0
 40
0.2276905892
 40
0.4733078322
 40
0.7323235097
 40
1.0
 40
1.0
 40
1.0
 40
1.0
 10
373.8597261766
 20
531.6338870618
 30
0.0
 10
373.5774333182
 20
531.2202739837
 30
0.0
 10
372.9456199707
 20
530.390781365
 30
0.0
 10
371.8579194189
 20
529.1997914253
 30
0.0
 10
370.5892532235
 20
528.0660663992
 30
0.0
 10
369.6129607047
 20
527.4256190708
 30
0.0
 10
369.0848968612
 20
527.1653814572
 30
0.0
  0
SPLINE
  5
388
100
AcDbEntity
  8
_1
100
AcDbSpline
 62
7
  6
CONTINUOUS
 70
0
 71
3
 72
10
 73
6
 74
0
 42
0.0000001
 43
0.0000001
 44
0.0000000001
 40
0.0
 40
0.0
 40
0.0
 40
0.0
 40
0.5761744796
 40
0.8129791162
 40
1.0
 40
1.0
 40
1.0
 40
1.0
 10
401.5412537394
 20
494.5976530701
 30
0.0
 10
401.6641922152
 20
494.7387309915
 30
0.0
 10
401.8277062616
 20
494.9495451858
 30
0.0
 10
401.975557368
 20
495.2384727844
 30
0.0
 10
402.0134360772
 20
495.3745176185
 30
0.0
 10
402.0134389539
 20
495.4352575945
 30
0.0
  0
SPLINE
  5
389
100
AcDbEntity
  8
_1
100
AcDbSpline
 62
7
  6
CONTINUOUS
 70
0
 71
3
 72
9
 73
5
 74
0
 42
0.0000001
 43
0.0000001
 44
0.0000000001
 40
0.0
 40
0.0
 40
0.0
 40
0.0
 40
0.2450162202
 40
1.0
 40
1.0
 40
1.0
 40
1.0
 10
373.8597261766
 20
495.9614190797
 30
0.0
 10
373.8778917358
 20
495.9303646727
 30
0.0
 10
373.9542719729
 20
495.8049402703
 30
0.0
 10
374.0393977316
 20
495.6848727073
 30
0.0
 10
374.1078261806
 20
495.5976530701
 30
0.0
  0
SPLINE
  5
38A
100
AcDbEntity
  8
_1
100
AcDbSpline
 62
7
  6
CONTINUOUS
 70
0
 71
3
 72
9
 73
5
 74
0
 42
0.0000001
 43
0.0000001
 44
0.0000000001
 40
0.0
 40
0.0
 40
0.0
 40
0.0
 40
0.2764600673
 40
1.0
 40
1.0
 40
1.0
 40
1.0
 10
375.9848968612
 20
533.3282542046
 30
0.0
 10
375.7475381985
 20
533.2403532024
 30
0.0
 10
374.9189816059
 20
532.85217065
 30
0.0
 10
374.1942010929
 20
532.2056789946
 30
0.0
 10
373.8597261766
 20
531.6338870557
 30
0.0
  0
SPLINE
  5
38B
100
AcDbEntity
  8
_1
100
AcDbSpline
 62
7
  6
CONTINUOUS
 70
0
 71
3
 72
9
 73
5
 74
0
 42
0.0000001
 43
0.0000001
 44
0.0000000001
 40
0.0
 40
0.0
 40
0.0
 40
0.0
 40
0.2450190898
 40
1.0
 40
1.0
 40
1.0
 40
1.0
 10
376.7424218816
 20
533.5284766058
 30
0.0
 10
376.6791023339
 20
533.5187802259
 30
0.0
 10
376.421834219
 20
533.4717397984
 30
0.0
 10
376.1699938717
 20
533.3968015423
 30
0.0
 10
375.9848968612
 20
533.3282545909
 30
0.0
  0
SPLINE
  5
38C
100
AcDbEntity
  8
_1
100
AcDbSpline
 62
7
  6
CONTINUOUS
 70
0
 71
3
 72
9
 73
5
 74
0
 42
0.0000001
 43
0.0000001
 44
0.0000000001
 40
0.0
 40
0.0
 40
0.0
 40
0.0
 40
0.4591609869
 40
1.0
 40
1.0
 40
1.0
 40
1.0
 10
407.9720487549
 20
493.0976530701
 30
0.0
 10
407.8890857385
 20
492.9893234374
 30
0.0
 10
407.6680497175
 20
492.7848249257
 30
0.0
 10
407.3929800814
 20
492.6504380667
 30
0.0
 10
407.2358692283
 20
492.6165663848
 30
0.0
  0
SPLINE
  5
38D
100
AcDbEntity
  8
_1
100
AcDbSpline
 62
7
  6
CONTINUOUS
 70
0
 71
3
 72
8
 73
4
 74
0
 42
0.0000001
 43
0.0000001
 44
0.0000000001
 40
0.0
 40
0.0
 40
0.0
 40
0.0
 40
1.0
 40
1.0
 40
1.0
 40
1.0
 10
407.2358692283
 20
492.6165663848
 30
0.0
 10
407.1985913418
 20
492.608529609
 30
0.0
 10
407.1607137066
 20
492.6027873874
 30
0.0
 10
407.1226911602
 20
492.5998690744
 30
0.0
  0
SPLINE
  5
38E
100
AcDbEntity
  8
_1
100
AcDbSpline
 62
7
  6
CONTINUOUS
 70
0
 71
3
 72
8
 73
4
 74
0
 42
0.0000001
 43
0.0000001
 44
0.0000000001
 40
0.0
 40
0.0
 40
0.0
 40
0.0
 40
1.0
 40
1.0
 40
1.0
 40
1.0
 10
407.1226911602
 20
492.5998690153
 30
0.0
 10
407.1043812256
 20
492.5984636881
 30
0.0
 10
407.0860081716
 20
492.5976530701
 30
0.0
 10
407.0676443852
 20
492.5976530701
 30
0.0
  0
SPLINE
  5
38F
100
AcDbEntity
  8
_1
100
AcDbSpline
 62
7
  6
CONTINUOUS
 70
0
 71
3
 72
8
 73
4
 74
0
 42
0.0000001
 43
0.0000001
 44
0.0000000001
 40
0.0
 40
0.0
 40
0.0
 40
0.0
 40
1.0
 40
1.0
 40
1.0
 40
1.0
 10
406.8995942388
 20
495.5350912187
 30
0.0
 10
406.7794745965
 20
495.5775919239
 30
0.0
 10
406.6499150724
 20
495.5976530701
 30
0.0
 10
406.5224982822
 20
495.5976530701
 30
0.0
  0
SPLINE
  5
390
100
AcDbEntity
  8
_1
100
AcDbSpline
 62
7
  6
CONTINUOUS
 70
0
 71
3
 72
13
 73
9
 74
0
 42
0.0000001
 43
0.0000001
 44
0.0000000001
 40
0.0
 40
0.0
 40
0.0
 40
0.0
 40
0.0363905321
 40
0.1105193026
 40
0.2142264968
 40
0.3410464591
 40
0.6460177432
 40
1.0
 40
1.0
 40
1.0
 40
1.0
 10
402.0134300091
 20
492.5998032179
 30
0.0
 10
402.0134247957
 20
492.6081735767
 30
0.0
 10
401.998012276
 20
492.63077282
 30
0.0
 10
401.9726328689
 20
492.6714119071
 30
0.0
 10
401.9280378807
 20
492.7264495186
 30
0.0
 10
401.8473073133
 20
492.819053395
 30
0.0
 10
401.718898414
 20
492.9468661154
 30
0.0
 10
401.6044786333
 20
493.0463498837
 30
0.0
 10
401.5412537394
 20
493.0976530701
 30
0.0
  0
SPLINE
  5
391
100
AcDbEntity
  8
_1
100
AcDbSpline
 62
7
  6
CONTINUOUS
 70
0
 71
3
 72
8
 73
4
 74
0
 42
0.0000001
 43
0.0000001
 44
0.0000000001
 40
0.0
 40
0.0
 40
0.0
 40
0.0
 40
1.0
 40
1.0
 40
1.0
 40
1.0
 10
374.9021493371
 20
492.5976530701
 30
0.0
 10
374.8837856603
 20
492.5976530701
 30
0.0
 10
374.8654124132
 20
492.5984558487
 30
0.0
 10
374.8471025622
 20
492.5998608338
 30
0.0
  0
SPLINE
  5
392
100
AcDbEntity
  8
_1
100
AcDbSpline
 62
7
  6
CONTINUOUS
 70
0
 71
3
 72
8
 73
4
 74
0
 42
0.0000001
 43
0.0000001
 44
0.0000000001
 40
0.0
 40
0.0
 40
0.0
 40
0.0
 40
1.0
 40
1.0
 40
1.0
 40
1.0
 10
374.8471025622
 20
492.5998608872
 30
0.0
 10
374.8090880029
 20
492.6027778901
 30
0.0
 10
374.7712190605
 20
492.6085245135
 30
0.0
 10
374.7339493626
 20
492.6165610079
 30
0.0
  0
SPLINE
  5
393
100
AcDbEntity
  8
_1
100
AcDbSpline
 62
7
  6
CONTINUOUS
 70
0
 71
3
 72
9
 73
5
 74
0
 42
0.0000001
 43
0.0000001
 44
0.0000000001
 40
0.0
 40
0.0
 40
0.0
 40
0.0
 40
0.5408393788
 40
1.0
 40
1.0
 40
1.0
 40
1.0
 10
374.7339493626
 20
492.6165610079
 30
0.0
 10
374.576835296
 20
492.650439638
 30
0.0
 10
374.3017523358
 20
492.7848126816
 30
0.0
 10
374.0807102392
 20
492.9893204926
 30
0.0
 10
373.9977449675
 20
493.0976530701
 30
0.0
  0
SPLINE
  5
394
100
AcDbEntity
  8
_1
100
AcDbSpline
 62
7
  6
CONTINUOUS
 70
0
 71
3
 72
9
 73
5
 74
0
 42
0.0000001
 43
0.0000001
 44
0.0000000001
 40
0.0
 40
0.0
 40
0.0
 40
0.0
 40
0.4697957958
 40
1.0
 40
1.0
 40
1.0
 40
1.0
 10
373.9977449675
 20
491.5976530701
 30
0.0
 10
374.0875538836
 20
491.7634960868
 30
0.0
 10
374.3369986544
 20
492.084989219
 30
0.0
 10
374.6596953144
 20
492.334282962
 30
0.0
 10
374.8471025622
 20
492.4351965571
 30
0.0
  0
SPLINE
  5
395
100
AcDbEntity
  8
_1
100
AcDbSpline
 62
7
  6
CONTINUOUS
 70
0
 71
3
 72
13
 73
9
 74
0
 42
0.0000001
 43
0.0000001
 44
0.0000000001
 40
0.0
 40
0.0
 40
0.0
 40
0.0
 40
0.3539822786
 40
0.6589535147
 40
0.785773489
 40
0.8894807012
 40
0.9636094685
 40
1.0
 40
1.0
 40
1.0
 40
1.0
 10
380.4285399829
 20
493.0976530701
 30
0.0
 10
380.3653150854
 20
493.0463498808
 30
0.0
 10
380.2508953054
 20
492.9468661201
 30
0.0
 10
380.1224864203
 20
492.8190533954
 30
0.0
 10
380.0417558409
 20
492.726449531
 30
0.0
 10
379.9971608716
 20
492.6714119048
 30
0.0
 10
379.9717814247
 20
492.6307728276
 30
0.0
 10
379.9563689427
 20
492.6081735784
 30
0.0
 10
379.9563637181
 20
492.5998032198
 30
0.0
  0
SPLINE
  5
396
100
AcDbEntity
  8
_1
100
AcDbSpline
 62
7
  6
CONTINUOUS
 70
0
 71
3
 72
10
 73
6
 74
0
 42
0.0000001
 43
0.0000001
 44
0.0000000001
 40
0.0
 40
0.0
 40
0.0
 40
0.0
 40
0.5761606161
 40
0.8129619642
 40
1.0
 40
1.0
 40
1.0
 40
1.0
 10
401.5412537394
 20
491.5976530701
 30
0.0
 10
401.6641887048
 20
491.7387269632
 30
0.0
 10
401.8276982236
 20
491.9495349508
 30
0.0
 10
401.9755533916
 20
492.2384601275
 30
0.0
 10
402.0134291373
 20
492.3745091874
 30
0.0
 10
402.013434033
 20
492.4352544609
 30
0.0
  0
SPLINE
  5
397
100
AcDbEntity
  8
_1
100
AcDbSpline
 62
7
  6
CONTINUOUS
 70
0
 71
3
 72
9
 73
5
 74
0
 42
0.0000001
 43
0.0000001
 44
0.0000000001
 40
0.0
 40
0.0
 40
0.0
 40
0.0
 40
0.5306977054
 40
1.0
 40
1.0
 40
1.0
 40
1.0
 10
407.1226911602
 20
495.4349970699
 30
0.0
 10
407.3102622015
 20
495.3340033452
 30
0.0
 10
407.6331927474
 20
495.0850089199
 30
0.0
 10
407.8823408793
 20
494.7633095034
 30
0.0
 10
407.9720487549
 20
494.5976530701
 30
0.0
  0
SPLINE
  5
398
100
AcDbEntity
  8
_1
100
AcDbSpline
 62
7
  6
CONTINUOUS
 70
0
 71
3
 72
8
 73
4
 74
0
 42
0.0000001
 43
0.0000001
 44
0.0000000001
 40
0.0
 40
0.0
 40
0.0
 40
0.0
 40
1.0
 40
1.0
 40
1.0
 40
1.0
 10
406.8995942388
 20
495.5350912187
 30
0.0
 10
406.9764333129
 20
495.5079040345
 30
0.0
 10
407.0509256591
 20
495.4736407001
 30
0.0
 10
407.1226911602
 20
495.4350000592
 30
0.0
  0
SPLINE
  5
399
100
AcDbEntity
  8
_1
100
AcDbSpline
 62
7
  6
CONTINUOUS
 70
0
 71
3
 72
10
 73
6
 74
0
 42
0.0000001
 43
0.0000001
 44
0.0000000001
 40
0.0
 40
0.0
 40
0.0
 40
0.0
 40
0.1870208412
 40
0.4238254913
 40
1.0
 40
1.0
 40
1.0
 40
1.0
 10
379.956354767
 20
495.4352575954
 30
0.0
 10
379.9563576428
 20
495.374517633
 30
0.0
 10
379.9942363447
 20
495.2384728076
 30
0.0
 10
380.1420874439
 20
494.9495452038
 30
0.0
 10
380.3056015008
 20
494.7387309989
 30
0.0
 10
380.4285399829
 20
494.5976530701
 30
0.0
  0
SPLINE
  5
39A
100
AcDbEntity
  8
_1
100
AcDbSpline
 62
7
  6
CONTINUOUS
 70
0
 71
3
 72
10
 73
6
 74
0
 42
0.0000001
 43
0.0000001
 44
0.0000000001
 40
0.0
 40
0.0
 40
0.0
 40
0.0
 40
0.4642233087
 40
0.7262343246
 40
1.0
 40
1.0
 40
1.0
 40
1.0
 10
365.9848968612
 20
529.6083585294
 30
0.0
 10
365.6138022409
 20
529.9410789591
 30
0.0
 10
364.9019114563
 20
530.3219929459
 30
0.0
 10
363.8556102618
 20
530.5688842259
 30
0.0
 10
363.2788243307
 20
530.6131876419
 30
0.0
 10
362.9848968612
 20
530.6131876419
 30
0.0
  0
SPLINE
  5
39B
100
AcDbEntity
  8
_1
100
AcDbSpline
 62
7
  6
CONTINUOUS
 70
0
 71
3
 72
16
 73
12
 74
0
 42
0.0000001
 43
0.0000001
 44
0.0000000001
 40
0.0
 40
0.0
 40
0.0
 40
0.0
 40
0.0080671114
 40
0.0236599703
 40
0.0812740991
 40
0.1734814018
 40
0.2971827685
 40
0.4478161183
 40
0.6196044602
 40
0.8061461586
 40
1.0
 40
1.0
 40
1.0
 40
1.0
 10
513.5751188427
 20
384.7976530701
 30
0.0
 10
513.5602270347
 20
384.7976530701
 30
0.0
 10
513.5256848671
 20
384.7590770973
 30
0.0
 10
513.4796094154
 20
384.6217584993
 30
0.0
 10
513.4240816231
 20
384.3151185521
 30
0.0
 10
513.3741655804
 20
383.8156484383
 30
0.0
 10
513.3302672251
 20
383.1390445192
 30
0.0
 10
513.2984942451
 20
382.31652066
 30
0.0
 10
513.2793229023
 20
381.3769810255
 30
0.0
 10
513.2741976165
 20
380.3576813011
 30
0.0
 10
513.2801419754
 20
379.6554648381
 30
0.0
 10
513.2855263752
 20
379.2976530701
 30
0.0
  0
SPLINE
  5
39C
100
AcDbEntity
  8
_1
100
AcDbSpline
 62
7
  6
CONTINUOUS
 70
0
 71
3
 72
16
 73
12
 74
0
 42
0.0000001
 43
0.0000001
 44
0.0000000001
 40
0.0
 40
0.0
 40
0.0
 40
0.0
 40
0.1938559825
 40
0.3803954974
 40
0.552178359
 40
0.7028107535
 40
0.8265142622
 40
0.9187240404
 40
0.976340118
 40
0.9919330303
 40
1.0
 40
1.0
 40
1.0
 40
1.0
 10
513.2855263752
 20
364.2976530701
 30
0.0
 10
513.2801419147
 20
363.939837264
 30
0.0
 10
513.2741996627
 20
363.2376206421
 30
0.0
 10
513.2793449124
 20
362.218330914
 30
0.0
 10
513.2985234232
 20
361.2788073304
 30
0.0
 10
513.3302659397
 20
360.4562901576
 30
0.0
 10
513.3741358833
 20
359.7796775232
 30
0.0
 10
513.4240592216
 20
359.2801948223
 30
0.0
 10
513.4796091771
 20
358.9735505718
 30
0.0
 10
513.52568549
 20
358.8362292033
 30
0.0
 10
513.5602272927
 20
358.7976530701
 30
0.0
 10
513.5751188427
 20
358.7976530701
 30
0.0
  0
SPLINE
  5
39D
100
AcDbEntity
  8
_1
100
AcDbSpline
 62
7
  6
CONTINUOUS
 70
0
 71
3
 72
18
 73
14
 74
0
 42
0.0000001
 43
0.0000001
 44
0.0000000001
 40
0.0
 40
0.0
 40
0.0
 40
0.0
 40
0.0155005739
 40
0.0349627783
 40
0.0610934132
 40
0.0949011901
 40
0.1366806127
 40
0.186344073
 40
0.3080578477
 40
0.456228653
 40
0.6253960108
 40
0.8090350088
 40
1.0
 40
1.0
 40
1.0
 40
1.0
 10
507.0072773083
 20
410.4976530701
 30
0.0
 10
507.0867606587
 20
410.4976530701
 30
0.0
 10
507.2670581849
 20
410.5613544215
 30
0.0
 10
507.4776300381
 20
410.8027208699
 30
0.0
 10
507.6622748994
 20
411.1673982336
 30
0.0
 10
507.8256915705
 20
411.6642610521
 30
0.0
 10
507.9674309469
 20
412.2912300995
 30
0.0
 10
508.1365886045
 20
413.3717112582
 30
0.0
 10
508.2657527768
 20
415.0071370357
 30
0.0
 10
508.3105872222
 20
417.2587324617
 30
0.0
 10
508.2470226068
 20
419.8276083189
 30
0.0
 10
508.0772836759
 20
422.6112487709
 30
0.0
 10
507.8986391059
 20
424.5241888798
 30
0.0
 10
507.7925847101
 20
425.4976530701
 30
0.0
  0
SPLINE
  5
39E
100
AcDbEntity
  8
_1
100
AcDbSpline
 62
7
  6
CONTINUOUS
 70
0
 71
3
 72
18
 73
14
 74
0
 42
0.0000001
 43
0.0000001
 44
0.0000000001
 40
0.0
 40
0.0
 40
0.0
 40
0.0
 40
0.1909643182
 40
0.3745995642
 40
0.5437676658
 40
0.6919365157
 40
0.8136531928
 40
0.8633172793
 40
0.9050967695
 40
0.9389051964
 40
0.9650367811
 40
0.9844993384
 40
1.0
 40
1.0
 40
1.0
 40
1.0
 10
507.7925847101
 20
318.0976530701
 30
0.0
 10
507.8986387386
 20
319.0711138886
 30
0.0
 10
508.0772779828
 20
320.9840314817
 30
0.0
 10
508.2470388555
 20
323.7676525483
 30
0.0
 10
508.3105576376
 20
326.3365037108
 30
0.0
 10
508.2657661244
 20
328.5881085213
 30
0.0
 10
508.1365963663
 20
330.2235425688
 30
0.0
 10
507.9674399199
 20
331.3040424746
 30
0.0
 10
507.8257005051
 20
331.9310188167
 30
0.0
 10
507.6622814643
 20
332.4278895376
 30
0.0
 10
507.4776377806
 20
332.7925789119
 30
0.0
 10
507.267060883
 20
333.0339511953
 30
0.0
 10
507.0867611132
 20
333.0976530701
 30
0.0
 10
507.0072773083
 20
333.0976530701
 30
0.0
  0
SPLINE
  5
39F
100
AcDbEntity
  8
_1
100
AcDbSpline
 62
7
  6
CONTINUOUS
 70
0
 71
3
 72
9
 73
5
 74
0
 42
0.0000001
 43
0.0000001
 44
0.0000000001
 40
0.0
 40
0.0
 40
0.0
 40
0.0
 40
0.5620823345
 40
1.0
 40
1.0
 40
1.0
 40
1.0
 10
502.9538467165
 20
284.4456128665
 30
0.0
 10
502.8997693402
 20
284.1434620734
 30
0.0
 10
502.8189485649
 20
283.6034241137
 30
0.0
 10
502.769760328
 20
283.0580912987
 30
0.0
 10
502.769760328
 20
282.8189454512
 30
0.0
  0
SPLINE
  5
3A0
100
AcDbEntity
  8
_1
100
AcDbSpline
 62
7
  6
CONTINUOUS
 70
0
 71
3
 72
9
 73
5
 74
0
 42
0.0000001
 43
0.0000001
 44
0.0000000001
 40
0.0
 40
0.0
 40
0.0
 40
0.0
 40
0.4379239126
 40
1.0
 40
1.0
 40
1.0
 40
1.0
 10
502.769760328
 20
460.776360689
 30
0.0
 10
502.769760328
 20
460.5372113992
 30
0.0
 10
502.8189435525
 20
459.9918780654
 30
0.0
 10
502.8997699343
 20
459.4518407474
 30
0.0
 10
502.9538467165
 20
459.1496932736
 30
0.0
  0
SPLINE
  5
3A1
100
AcDbEntity
  8
_1
100
AcDbSpline
 62
7
  6
CONTINUOUS
 70
0
 71
3
 72
8
 73
4
 74
0
 42
0.0000001
 43
0.0000001
 44
0.0000000001
 40
0.0
 40
0.0
 40
0.0
 40
0.0
 40
1.0
 40
1.0
 40
1.0
 40
1.0
 10
494.8848968612
 20
283.0977811465
 30
0.0
 10
470.2182846191
 20
282.7458310496
 30
0.0
 10
445.5516144534
 20
282.3979241269
 30
0.0
 10
420.8848968612
 20
282.0534366824
 30
0.0
  0
SPLINE
  5
3A2
100
AcDbEntity
  8
_1
100
AcDbSpline
 62
7
  6
CONTINUOUS
 70
0
 71
3
 72
21
 73
17
 74
0
 42
0.0000001
 43
0.0000001
 44
0.0000000001
 40
0.0
 40
0.0
 40
0.0
 40
0.0
 40
0.0012607901
 40
0.0050205036
 40
0.011249722
 40
0.0199190493
 40
0.0444588945
 40
0.0783139733
 40
0.1210270753
 40
0.1721257174
 40
0.2310429314
 40
0.2971569433
 40
0.4483708732
 40
0.6201708578
 40
0.8064585092
 40
1.0
 40
1.0
 40
1.0
 40
1.0
 10
139.3851951157
 20
390.7976529319
 30
0.0
 10
139.3851951157
 20
390.795526945
 30
0.0
 10
139.3720380071
 20
390.7971493052
 30
0.0
 10
139.3584692189
 20
390.7886838189
 30
0.0
 10
139.3253348813
 20
390.7828070692
 30
0.0
 10
139.2625586663
 20
390.7649570403
 30
0.0
 10
139.1517853638
 20
390.7379393643
 30
0.0
 10
138.9868937358
 20
390.6963672681
 30
0.0
 10
138.7772848136
 20
390.6465383277
 30
0.0
 10
138.526232299
 20
390.5893580449
 30
0.0
 10
138.2357630111
 20
390.5272869745
 30
0.0
 10
137.7788005801
 20
390.4368736212
 30
0.0
 10
137.1317666498
 20
390.3267631384
 30
0.0
 10
136.2795310753
 20
390.2183915399
 30
0.0
 10
135.3518604322
 20
390.1452990704
 30
0.0
 10
134.7112530589
 20
390.1279558499
 30
0.0
 10
134.3848968612
 20
390.1279558499
 30
0.0
  0
SPLINE
  5
3A3
100
AcDbEntity
  8
_1
100
AcDbSpline
 62
7
  6
CONTINUOUS
 70
0
 71
3
 72
9
 73
5
 74
0
 42
0.0000001
 43
0.0000001
 44
0.0000000001
 40
0.0
 40
0.0
 40
0.0
 40
0.0
 40
0.7028185055
 40
1.0
 40
1.0
 40
1.0
 40
1.0
 10
74.3848968612
 20
390.1279558499
 30
0.0
 10
73.2010615259
 20
390.1279558499
 30
0.0
 10
71.5128572809
 20
390.2960610251
 30
0.0
 10
69.8680488043
 20
390.6697134525
 30
0.0
 10
69.3848968612
 20
390.7976530701
 30
0.0
  0
ELLIPSE
  5
3A4
100
AcDbEntity
  8
_1
100
AcDbEllipse
 62
7
  6
CONTINUOUS
 10
450.2912437798
 20
485.9976530701
 30
0.0
 11
0.0
 21
5.0
 31
0.0
 40
0.0349207695
 41
-4.7123889804
 42
-3.1415926536
  0
ELLIPSE
  5
3A5
100
AcDbEntity
  8
_1
100
AcDbEllipse
 62
7
  6
CONTINUOUS
 10
423.4785499425
 20
485.9976530701
 30
0.0
 11
0.0
 21
5.0
 31
0.0
 40
0.0349207695
 41
-3.1415926536
 42
-1.5707963268
  0
ELLIPSE
  5
3A6
100
AcDbEntity
  8
_1
100
AcDbEllipse
 62
7
  6
CONTINUOUS
 10
436.8848968612
 20
463.2198115501
 30
0.0
 11
13.2075188366
 21
37.7505922521
 31
0.0
 40
0.1230028499
 41
-0.3380770455
 42
-0.0052561986
  0
ELLIPSE
  5
3A7
100
AcDbEntity
  8
_1
100
AcDbEllipse
 62
7
  6
CONTINUOUS
 10
436.8848968612
 20
496.3699263461
 30
0.0
 11
0.0
 21
14.0534777256
 31
0.0
 40
0.9961946981
 41
-1.23797548
 42
1.23797548
  0
ELLIPSE
  5
3A8
100
AcDbEntity
  8
_1
100
AcDbEllipse
 62
7
  6
CONTINUOUS
 10
436.8848968612
 20
463.2198115501
 30
0.0
 11
-13.2075188366
 21
37.7505922521
 31
0.0
 40
0.1230028499
 41
0.0052561986
 42
0.3380770455
  0
ELLIPSE
  5
3A9
100
AcDbEntity
  8
_1
100
AcDbEllipse
 62
7
  6
CONTINUOUS
 10
380.0701069881
 20
513.7976530701
 30
0.0
 11
0.0
 21
24.5152070733
 31
0.0
 40
0.5865603311
 41
1.2210660073
 42
1.3680833558
  0
ELLIPSE
  5
3AA
100
AcDbEntity
  8
_1
100
AcDbEllipse
 62
7
  6
CONTINUOUS
 10
380.0701069881
 20
513.7976530701
 30
0.0
 11
-0.0
 21
24.5152070733
 31
0.0
 40
0.5865603311
 41
1.0256615103
 42
1.1267644599
  0
ELLIPSE
  5
3AB
100
AcDbEntity
  8
_1
100
AcDbEllipse
 62
7
  6
CONTINUOUS
 10
377.531902245
 20
513.7976530701
 30
0.0
 11
0.0
 21
20.6
 31
0.0
 40
0.5773502692
 41
1.328851244
 42
1.8127414096
  0
ELLIPSE
  5
3AC
100
AcDbEntity
  8
_1
100
AcDbEllipse
 62
7
  6
CONTINUOUS
 10
772.9438978235
 20
513.7976530701
 30
0.0
 11
456.0974385736
 21
0.0
 31
0.0
 40
0.087327388
 41
2.6155249632
 42
2.6233222149
  0
ENDSEC
  0
SECTION
  2
OBJECTS
  0
DICTIONARY
  5
C
100
AcDbDictionary
280
0
281
1
  3
ACAD_GROUP
350
D
  3
ACAD_MLINESTYLE
350
17
  3
ACAD_LAYOUT
350
1A
  3
ACAD_PLOTSETTINGS
350
19
  3
ACAD_PLOTSTYLENAME
350
E
  0
DICTIONARY
  5
D
102
{ACAD_REACTORS
330
C
102
}
100
AcDbDictionary
280
0
281
1
  0
ACDBDICTIONARYWDFLT
  5
E
102
{ACAD_REACTORS
330
C
102
}
100
AcDbDictionary
281
1
  3
Normal
350
F
100
AcDbDictionaryWithDefault
340
F
  0
DICTIONARY
  5
17
102
{ACAD_REACTORS
330
C
102
}
100
AcDbDictionary
280
0
281
1
  3
Standard
350
18
  0
DICTIONARY
  5
19
102
{ACAD_REACTORS
330
C
102
}
100
AcDbDictionary
281
1
  0
DICTIONARY
  5
1A
102
{ACAD_REACTORS
330
C
102
}
100
AcDbDictionary
281
1
  3
Model
350
3AD
  3
Layout1
350
3AE
  0
ACDBPLACEHOLDER
  5
F
102
{ACAD_REACTORS
330
E
102
}
  0
MLINESTYLE
  5
18
102
{ACAD_REACTORS
330
17
102
}
100
AcDbMlineStyle
  2
STANDARD
 70
0
  3

 62
256
 51
90.0
 52
90.0
 71
2
 49
0.5
 62
256
  6
BYLAYER
 49
-0.5
 62
256
  6
BYLAYER
  0
LAYOUT
  5
3AD
102
{ACAD_REACTORS
330
1A
102
}
100
AcDbPlotSettings
  1

  2
none_device
  4

  6

 40
0.0
 41
0.0
 42
0.0
 43
0.0
 44
210.0
 45
297.0
 46
0.0
 47
0.0
 48
0.0
 49
0.0
140
0.0
141
0.0
142
1.0
143
1.0
 70
1024
 72
1
 73
0
 74
0
  7

 75
0
147
1.0
148
0.0
149
0.0
100
AcDbLayout
  1
Model
 70
0
 71
0
 10
0.0
 20
0.0
 11
210.0
 21
297.0
 12
0.0
 22
0.0
 32
0.0
 14
0.0
 24
0.0
 34
0.0
 15
0.0
 25
0.0
 35
0.0
146
0.0
 13
0.0
 23
0.0
 33
0.0
 16
1.0
 26
0.0
 36
0.0
 17
0.0
 27
1.0
 37
0.0
 76
0
330
211
345
0
346
0
  0
LAYOUT
  5
3AE
102
{ACAD_REACTORS
330
1A
102
}
100
AcDbPlotSettings
  1

  2
none_device
  4

  6

 40
0.0
 41
0.0
 42
0.0
 43
0.0
 44
210.0
 45
297.0
 46
0.0
 47
0.0
 48
0.0
 49
0.0
140
0.0
141
0.0
142
1.0
143
1.0
 70
0
 72
1
 73
0
 74
0
  7

 75
0
147
1.0
148
0.0
149
0.0
100
AcDbLayout
  1
Layout1
 70
0
 71
1
 10
0.0
 20
0.0
 11
210.0
 21
297.0
 12
0.0
 22
0.0
 32
0.0
 14
0.0
 24
0.0
 34
0.0
 15
0.0
 25
0.0
 35
0.0
146
0.0
 13
0.0
 23
0.0
 33
0.0
 16
1.0
 26
0.0
 36
0.0
 17
0.0
 27
1.0
 37
0.0
 76
0
330
212
345
0
346
0
  0
ENDSEC
  0
EOF
