999
DXF file: C:\Users\sesa63760\Dev\_Creo\CAD\MCADID0001892_3D-CAD\drw0001_1.dxf
999
Pro/ENGINEER 2019471 by Parametric Technology Corporation
  0
SECTION
  2
HEADER
  9
$ACADVER
  1
AC1024
  9
$DWGCODEPAGE
  3
ANSI_1252
  9
$EXTMAX
 10
44.4567623934
 20
62.8745639563
 30
0.0
  9
$EXTMIN
 10
0.0
 20
0.0
 30
0.0
  9
$LIMMIN
 10
0.0
 20
0.0
  9
$LIMMAX
 10
44.4567623934
 20
62.8745639563
  9
$VIEWCTR
 10
22.2283811967
 20
31.4372819782
  9
$VIEWSIZE
 40
62.8745639563
  9
$CLAYER
  8
0
  9
$LTSCALE
 40
4.0984900949
  9
$CELTYPE
  6
BYLAYER
  9
$DIMSCALE
 40
1.0
  9
$DIMASZ
 40
0.5292471713
  9
$DIMEXO
 40
1.0
  9
$DIMDLI
 40
2.8316840656
  9
$DIMEXE
 40
1.0
  9
$DIMCEN
 40
0.6706620155
  9
$DIMLFAC
 40
1.0
  9
$DIMBLK
  1
_FILLED
  9
$DIMALT
 70
0
  9
$DIMALTF
 40
0.0393700787
  9
$DIMTXT
 40
0.7409460399
  9
$DIMTOL
 70
1
  9
$DIMLIM
 70
0
  9
$DIMTFAC
 40
1.0
  9
$DIMTP
 40
0.01
  9
$DIMTM
 40
0.01
  9
$DIMGAP
 40
0.625
  9
$DIMDSEP
 70
46
  9
$AUNITS
 70
0
  9
$PDMODE
 70
3
  9
$PDSIZE
 40
0.3125
  9
$HANDSEED
  5
335
  9
$TILEMODE
 70
1
  9
$MEASUREMENT
 70
1
  9
$INSUNITS
 70
4
  0
ENDSEC
  0
SECTION
  2
CLASSES
  0
CLASS
  1
ACDBDICTIONARYWDFLT
  2
AcDbDictionaryWithDefault
  3
AutoCAD 2000
 90
0
 91
1
280
0
281
0
  0
CLASS
  1
ACDBPLACEHOLDER
  2
AcDbPlaceHolder
  3
AutoCAD 2000
 90
0
 91
1
280
0
281
0
  0
CLASS
  1
LAYOUT
  2
AcDbLayout
  3
AutoCAD 2000
 90
0
 91
0
280
0
281
0
  0
ENDSEC
  0
SECTION
  2
TABLES
  0
TABLE
  2
VPORT
  5
8
100
AcDbSymbolTable
 70
2
  0
VPORT
  5
1F4
100
AcDbSymbolTableRecord
100
AcDbViewportTableRecord
  2
*ACTIVE
 70
0
 10
0.0
 20
0.0
 11
1.0
 21
1.0
 12
22.2283811967
 22
31.4372819782
 13
0.0
 23
0.0
 14
1.0
 24
1.0
 15
0.0
 25
0.0
 16
0.0
 26
0.0
 36
1.0
 17
0.0
 27
0.0
 37
0.0
 40
62.8745639563
 41
0.7070707071
 42
50.0
 43
0.0
 44
0.0
 50
0.0
 51
0.0
 71
0
 72
100
 73
1
 74
1
 75
0
 76
0
 77
0
 78
0
  0
ENDTAB
  0
TABLE
  2
LTYPE
  5
5
100
AcDbSymbolTable
 70
6
  0
LTYPE
  5
14
100
AcDbSymbolTableRecord
100
AcDbLinetypeTableRecord
  2
BYBLOCK
 70
0
  3

 72
65
 73
0
 40
0.0
  0
LTYPE
  5
15
100
AcDbSymbolTableRecord
100
AcDbLinetypeTableRecord
  2
BYLAYER
 70
0
  3

 72
65
 73
0
 40
0.0
  0
LTYPE
  5
16
100
AcDbSymbolTableRecord
100
AcDbLinetypeTableRecord
  2
CONTINUOUS
 70
64
  3
Solid line
 72
65
 73
0
 40
0.0
  0
LTYPE
  5
1F5
100
AcDbSymbolTableRecord
100
AcDbLinetypeTableRecord
  2
CENTER
 70
64
  3
____ _ ____ _ ____ _ ____ _ ____ _ ____ _ ____
 72
65
 73
4
 40
0.6
 49
0.375
 74
0
 49
-0.075
 74
0
 49
0.075
 74
0
 49
-0.075
 74
0
  0
LTYPE
  5
1F6
100
AcDbSymbolTableRecord
100
AcDbLinetypeTableRecord
  2
HIDDEN
 70
64
  3
- - - - - - - - - - - - - - - - - - - -
 72
65
 73
2
 40
0.2
 49
0.1
 74
0
 49
-0.1
 74
0
  0
LTYPE
  5
1F7
100
AcDbSymbolTableRecord
100
AcDbLinetypeTableRecord
  2
PHANTOM
 70
64
  3
_____ _ _ _____ _ _ _____ _ _ _____
 72
65
 73
6
 40
0.8
 49
0.45
 74
0
 49
-0.05
 74
0
 49
0.1
 74
0
 49
-0.05
 74
0
 49
0.1
 74
0
 49
-0.05
 74
0
  0
LTYPE
  5
1F8
100
AcDbSymbolTableRecord
100
AcDbLinetypeTableRecord
  2
DOT
 70
64
  3
. . . . . . . . . . . . . . . . . . . .
 72
65
 73
2
 40
0.2
 49
0.1
 74
0
 49
-0.1
 74
0
  0
LTYPE
  5
1F9
100
AcDbSymbolTableRecord
100
AcDbLinetypeTableRecord
  2
DASHED
 70
64
  3
- - - - - - - - - - - - - - - - - - - -
 72
65
 73
2
 40
0.2
 49
0.1
 74
0
 49
-0.1
 74
0
  0
ENDTAB
  0
TABLE
  2
LAYER
  5
2
100
AcDbSymbolTable
 70
36
  0
LAYER
  5
10
100
AcDbSymbolTableRecord
100
AcDbLayerTableRecord
  2
0
 70
0
 62
7
  6
CONTINUOUS
370
-3
390
F
  0
LAYER
  5
1FA
100
AcDbSymbolTableRecord
100
AcDbLayerTableRecord
  2
DEFAULT_1
 70
0
 62
7
  6
CENTER
370
-3
390
F
  0
LAYER
  5
1FB
100
AcDbSymbolTableRecord
100
AcDbLayerTableRecord
  2
DEFAULT_2
 70
0
 62
8
  6
HIDDEN
370
-3
390
F
  0
LAYER
  5
1FC
100
AcDbSymbolTableRecord
100
AcDbLayerTableRecord
  2
DEFAULT_3
 70
0
 62
7
  6
PHANTOM
370
-3
390
F
  0
LAYER
  5
1FD
100
AcDbSymbolTableRecord
100
AcDbLayerTableRecord
  2
00_COMPONENTS
 70
0
 62
7
  6
CONTINUOUS
370
-3
390
F
  0
LAYER
  5
1FE
100
AcDbSymbolTableRecord
100
AcDbLayerTableRecord
  2
01_1_DEFAULT_DATUMS
 70
0
 62
7
  6
CONTINUOUS
370
-3
390
F
  0
LAYER
  5
1FF
100
AcDbSymbolTableRecord
100
AcDbLayerTableRecord
  2
01_PLANES
 70
0
 62
7
  6
CONTINUOUS
370
-3
390
F
  0
LAYER
  5
200
100
AcDbSymbolTableRecord
100
AcDbLayerTableRecord
  2
02_COORD_SYS
 70
0
 62
7
  6
CONTINUOUS
370
-3
390
F
  0
LAYER
  5
201
100
AcDbSymbolTableRecord
100
AcDbLayerTableRecord
  2
03_AXES
 70
0
 62
7
  6
CONTINUOUS
370
-3
390
F
  0
LAYER
  5
202
100
AcDbSymbolTableRecord
100
AcDbLayerTableRecord
  2
04_POINTS
 70
0
 62
7
  6
CONTINUOUS
370
-3
390
F
  0
LAYER
  5
203
100
AcDbSymbolTableRecord
100
AcDbLayerTableRecord
  2
05_CURVES
 70
0
 62
7
  6
CONTINUOUS
370
-3
390
F
  0
LAYER
  5
204
100
AcDbSymbolTableRecord
100
AcDbLayerTableRecord
  2
06_SURFS
 70
0
 62
7
  6
CONTINUOUS
370
-3
390
F
  0
LAYER
  5
205
100
AcDbSymbolTableRecord
100
AcDbLayerTableRecord
  2
07_COSMETICS
 70
0
 62
7
  6
CONTINUOUS
370
-3
390
F
  0
LAYER
  5
206
100
AcDbSymbolTableRecord
100
AcDbLayerTableRecord
  2
10_NOTES
 70
0
 62
7
  6
CONTINUOUS
370
-3
390
F
  0
LAYER
  5
207
100
AcDbSymbolTableRecord
100
AcDbLayerTableRecord
  2
11_NOTES_PUB
 70
0
 62
7
  6
CONTINUOUS
370
-3
390
F
  0
LAYER
  5
208
100
AcDbSymbolTableRecord
100
AcDbLayerTableRecord
  2
13_REF_GTOL
 70
0
 62
7
  6
CONTINUOUS
370
-3
390
F
  0
LAYER
  5
209
100
AcDbSymbolTableRecord
100
AcDbLayerTableRecord
  2
16_MISC
 70
0
 62
7
  6
CONTINUOUS
370
-3
390
F
  0
LAYER
  5
20A
100
AcDbSymbolTableRecord
100
AcDbLayerTableRecord
  2
17_NO_PRINT
 70
0
 62
7
  6
CONTINUOUS
370
-3
390
F
  0
LAYER
  5
20B
100
AcDbSymbolTableRecord
100
AcDbLayerTableRecord
  2
18_DATUM_CAMS_JOINTS
 70
0
 62
7
  6
CONTINUOUS
370
-3
390
F
  0
LAYER
  5
20C
100
AcDbSymbolTableRecord
100
AcDbLayerTableRecord
  2
19_DATUM_FUNCTIONAL
 70
0
 62
7
  6
CONTINUOUS
370
-3
390
F
  0
LAYER
  5
20D
100
AcDbSymbolTableRecord
100
AcDbLayerTableRecord
  2
20_DATUM_KINEMATIC_SCHEME
 70
0
 62
7
  6
CONTINUOUS
370
-3
390
F
  0
ENDTAB
  0
TABLE
  2
STYLE
  5
3
100
AcDbSymbolTable
 70
1
  0
STYLE
  5
11
100
AcDbSymbolTableRecord
100
AcDbTextStyleTableRecord
  2
STANDARD
 70
0
 40
0.0
 41
0.8
 50
0.0
 71
0
 42
0.2
  3
txt
  4

  0
STYLE
  5
20E
100
AcDbSymbolTableRecord
100
AcDbTextStyleTableRecord
  2
TEXTSTYLE_1
 70
0
 40
0.0
 41
0.8
 50
0.0
 71
0
 42
0.2
  3
gdt
  4

  0
ENDTAB
  0
TABLE
  2
VIEW
  5
6
100
AcDbSymbolTable
 70
0
  0
ENDTAB
  0
TABLE
  2
UCS
  5
7
100
AcDbSymbolTable
 70
0
  0
ENDTAB
  0
TABLE
  2
APPID
  5
9
100
AcDbSymbolTable
 70
1
  0
APPID
  5
20F
100
AcDbSymbolTableRecord
100
AcDbRegAppTableRecord
  2
ACAD
 70
0
  0
ENDTAB
  0
TABLE
  2
BLOCK_RECORD
  5
1
100
AcDbSymbolTable
 70
0
  0
BLOCK_RECORD
  5
210
100
AcDbSymbolTableRecord
100
AcDbBlockTableRecord
  2
*Model_Space
  0
BLOCK_RECORD
  5
211
100
AcDbSymbolTableRecord
100
AcDbBlockTableRecord
  2
*Paper_Space
  0
BLOCK_RECORD
  5
212
100
AcDbSymbolTableRecord
100
AcDbBlockTableRecord
  2
_FILLED
  0
ENDTAB
  0
TABLE
  2
DIMSTYLE
  5
A
100
AcDbSymbolTable
 70
1
100
AcDbDimStyleTable
 71
0
  0
DIMSTYLE
105
213
100
AcDbSymbolTableRecord
100
AcDbDimStyleTableRecord
  2
STANDARD
 70
0
  3

  4

 40
1.0
 41
0.5292471713
 42
1.0
 43
0.38
 44
1.0
 45
0.0
 46
0.0
 47
0.01
 48
0.01
140
0.7409460399
141
0.09
142
0.0
143
25.4
144
1.0
145
0.0
146
1.0
147
0.625
 71
1
 72
0
 73
0
 74
0
 75
0
 76
0
 77
1
 78
8
 79
2
170
0
171
1
172
0
173
0
174
0
175
0
176
0
177
0
178
0
270
2
179
2
271
2
272
2
273
2
274
2
275
0
280
0
281
0
282
0
283
1
284
8
285
0
286
0
287
3
288
0
340
11
278
46
341
212
342
212
343
212
344
212
  0
ENDTAB
  0
ENDSEC
  0
SECTION
  2
BLOCKS
  0
BLOCK
  5
20
100
AcDbEntity
  8
0
100
AcDbBlockBegin
  2
*Model_Space
 70
0
 10
0.0
 20
0.0
 30
0.0
  3
*Model_Space
  1

  0
ENDBLK
  5
21
100
AcDbEntity
  8
0
100
AcDbBlockEnd
  0
BLOCK
  5
1C
100
AcDbEntity
  8
0
100
AcDbBlockBegin
  2
*Paper_Space
 70
0
 10
0.0
 20
0.0
 30
0.0
  3
*Paper_Space
  1

  0
ENDBLK
  5
1D
100
AcDbEntity
  8
0
100
AcDbBlockEnd
  0
BLOCK
  5
214
100
AcDbEntity
  8
0
100
AcDbBlockBegin
  2
_FILLED
 70
64
 10
0.0
 20
0.0
  3
_FILLED
  1

  0
SOLID
  5
215
100
AcDbEntity
  8
0
  6
BYBLOCK
 62
0
100
AcDbTrace
 10
0.0
 20
0.0
 11
-1.0
 21
0.25
 12
-1.0
 22
-0.25
 13
-1.0
 23
-0.25
  0
ENDBLK
  5
216
100
AcDbEntity
  8
0
  6
BYBLOCK
 62
0
100
AcDbBlockEnd
  0
ENDSEC
  0
SECTION
  2
ENTITIES
  0
LINE
  5
217
100
AcDbEntity
  8
0
100
AcDbLine
 62
7
  6
CONTINUOUS
 10
12.802049784
 20
8.264858047
 11
5.2417508375
 21
12.629699933
  0
LINE
  5
218
100
AcDbEntity
  8
0
100
AcDbLine
 62
7
  6
CONTINUOUS
 10
20.149038063
 20
4.852734802
 11
13.3240149959
 21
8.7930745646
  0
LINE
  5
219
100
AcDbEntity
  8
0
100
AcDbLine
 62
7
  6
CONTINUOUS
 10
10.7790814044
 20
51.153544818
 11
11.1382901537
 21
51.3609328481
  0
LINE
  5
21A
100
AcDbEntity
  8
0
100
AcDbLine
 62
7
  6
CONTINUOUS
 10
13.3833448369
 20
52.6571080367
 11
13.7425535862
 21
52.8644960669
  0
LINE
  5
21B
100
AcDbEntity
  8
0
100
AcDbLine
 62
7
  6
CONTINUOUS
 10
17.7836520158
 20
55.1976114062
 11
18.1428607651
 21
55.4049994364
  0
LINE
  5
21C
100
AcDbEntity
  8
0
100
AcDbLine
 62
7
  6
CONTINUOUS
 10
22.4533657568
 20
57.8936557984
 11
22.8125745061
 21
58.1010438286
  0
LINE
  5
21D
100
AcDbEntity
  8
0
100
AcDbLine
 62
7
  6
CONTINUOUS
 10
5.2417508375
 20
15.3257909144
 11
20.149038063
 21
6.7192593276
  0
LINE
  5
21E
100
AcDbEntity
  8
0
100
AcDbLine
 62
7
  6
CONTINUOUS
 10
5.3764544923
 20
15.351714634
 11
20.1041358477
 21
6.8488761988
  0
LINE
  5
21F
100
AcDbEntity
  8
0
100
AcDbLine
 62
7
  6
CONTINUOUS
 10
20.149038063
 20
6.9266509415
 11
5.2417508375
 21
15.5331825283
  0
LINE
  5
220
100
AcDbEntity
  8
0
100
AcDbLine
 62
7
  6
CONTINUOUS
 10
12.6953645395
 20
49.13064524
 11
13.0545732888
 21
49.3380332702
  0
LINE
  5
221
100
AcDbEntity
  8
0
100
AcDbLine
 62
7
  6
CONTINUOUS
 10
15.299627972
 20
50.6342084588
 11
15.6588367213
 21
50.8415964889
  0
LINE
  5
222
100
AcDbEntity
  8
0
100
AcDbLine
 62
7
  6
CONTINUOUS
 10
19.699935151
 20
53.1747118283
 11
20.0591439003
 21
53.3820998585
  0
LINE
  5
223
100
AcDbEntity
  8
0
100
AcDbLine
 62
7
  6
CONTINUOUS
 10
24.3696488919
 20
55.8707562205
 11
24.7288576412
 21
56.0781442506
  0
LINE
  5
224
100
AcDbEntity
  8
0
100
AcDbLine
 62
7
  6
CONTINUOUS
 10
24.9982320492
 20
55.9743501406
 11
24.7288576412
 21
55.818827682
  0
LINE
  5
225
100
AcDbEntity
  8
0
100
AcDbLine
 62
7
  6
CONTINUOUS
 10
23.6564484805
 20
55.1996756602
 11
23.1432062229
 21
54.9033568734
  0
LINE
  5
226
100
AcDbEntity
  8
0
100
AcDbLine
 62
7
  6
CONTINUOUS
 10
22.1245755146
 20
54.3152536703
 11
21.4959467435
 21
53.9523168465
  0
LINE
  5
227
100
AcDbEntity
  8
0
100
AcDbLine
 62
7
  6
CONTINUOUS
 10
17.4548617736
 20
51.6192092781
 11
15.6588367213
 21
50.5822799203
  0
LINE
  5
228
100
AcDbEntity
  8
0
100
AcDbLine
 62
7
  6
CONTINUOUS
 10
14.5864275605
 20
49.9631278985
 11
14.073185303
 21
49.6668091117
  0
LINE
  5
229
100
AcDbEntity
  8
0
100
AcDbLine
 62
7
  6
CONTINUOUS
 10
8.7440361432
 20
46.5900417756
 11
5.2417508375
 21
44.5680084814
  0
LINE
  5
22A
100
AcDbEntity
  8
0
100
AcDbLine
 62
7
  6
CONTINUOUS
 10
8.9236420134
 20
46.4863486239
 11
10.4502911622
 21
47.3677546597
  0
LINE
  5
22B
100
AcDbEntity
  8
0
100
AcDbLine
 62
7
  6
CONTINUOUS
 10
11.5778949372
 20
48.0187731167
 11
12.0701854318
 21
48.3029954696
  0
LINE
  5
22C
100
AcDbEntity
  8
0
100
AcDbLine
 62
7
  6
CONTINUOUS
 10
18.5824655487
 20
52.0628397049
 11
19.0747560433
 21
52.3470620579
  0
LINE
  5
22D
100
AcDbEntity
  8
0
100
AcDbLine
 62
7
  6
CONTINUOUS
 10
20.0591439003
 20
52.9153952596
 11
21.6755526137
 21
53.8486236948
  0
LINE
  5
22E
100
AcDbEntity
  8
0
100
AcDbLine
 62
7
  6
CONTINUOUS
 10
22.1245755146
 20
54.0456671499
 11
20.3824090425
 21
53.0398328723
  0
LINE
  5
22F
100
AcDbEntity
  8
0
100
AcDbLine
 62
7
  6
CONTINUOUS
 10
17.4548617736
 20
51.3496227577
 11
15.6588367213
 21
50.3126933999
  0
LINE
  5
230
100
AcDbEntity
  8
0
100
AcDbLine
 62
7
  6
CONTINUOUS
 10
14.691412947
 20
49.7541543574
 11
14.2148408741
 21
49.4790069853
  0
LINE
  5
231
100
AcDbEntity
  8
0
100
AcDbLine
 62
7
  6
CONTINUOUS
 10
12.0871495145
 20
48.2505911387
 11
11.6105774417
 21
47.9754437666
  0
LINE
  5
232
100
AcDbEntity
  8
0
100
AcDbLine
 62
7
  6
CONTINUOUS
 10
10.4502911622
 20
47.3055561695
 11
7.50477538
 21
45.6049719908
  0
LINE
  5
233
100
AcDbEntity
  8
0
100
AcDbLine
 62
7
  6
CONTINUOUS
 10
5.4213598113
 20
43.4273554682
 11
5.2417508375
 21
43.3236587977
  0
LINE
  5
234
100
AcDbEntity
  8
0
100
AcDbLine
 62
7
  6
CONTINUOUS
 10
5.2417508375
 20
12.629699933
 11
5.2417508375
 21
15.3257909144
  0
LINE
  5
235
100
AcDbEntity
  8
0
100
AcDbLine
 62
7
  6
CONTINUOUS
 10
5.2417508375
 20
15.5331825283
 11
5.2417508375
 21
43.3236587977
  0
LINE
  5
236
100
AcDbEntity
  8
0
100
AcDbLine
 62
7
  6
CONTINUOUS
 10
5.2417508375
 20
43.5310504117
 11
5.2417508375
 21
44.5680084814
  0
LINE
  5
237
100
AcDbEntity
  8
0
100
AcDbLine
 62
7
  6
CONTINUOUS
 10
5.3764544923
 20
15.351714634
 11
5.3764544923
 21
15.4554130963
  0
LINE
  5
238
100
AcDbEntity
  8
0
100
AcDbLine
 62
7
  6
CONTINUOUS
 10
5.4213559599
 20
43.3236592294
 11
5.4213559599
 21
43.4273576917
  0
LINE
  5
239
100
AcDbEntity
  8
0
100
AcDbLine
 62
7
  6
CONTINUOUS
 10
12.6953645395
 20
45.4494440924
 11
13.0545732888
 21
45.6568321226
  0
LINE
  5
23A
100
AcDbEntity
  8
0
100
AcDbLine
 62
7
  6
CONTINUOUS
 10
15.299627972
 20
46.9530073111
 11
15.6588367213
 21
47.1603953413
  0
LINE
  5
23B
100
AcDbEntity
  8
0
100
AcDbLine
 62
7
  6
CONTINUOUS
 10
19.699935151
 20
49.4935106807
 11
20.0591439003
 21
49.7008987108
  0
LINE
  5
23C
100
AcDbEntity
  8
0
100
AcDbLine
 62
7
  6
CONTINUOUS
 10
24.3696488919
 20
52.1895550728
 11
24.7288576412
 21
52.396943103
  0
LINE
  5
23D
100
AcDbEntity
  8
0
100
AcDbLine
 62
7
  6
CONTINUOUS
 10
27.6755511432
 20
9.1981432163
 11
28.3939870387
 21
8.7833634422
  0
LINE
  5
23E
100
AcDbEntity
  8
0
100
AcDbLine
 62
7
  6
CONTINUOUS
 10
7.50477538
 20
44.5680139211
 11
7.50477538
 21
45.6049719908
  0
LINE
  5
23F
100
AcDbEntity
  8
0
100
AcDbLine
 62
7
  6
CONTINUOUS
 10
30.6558169601
 20
52.7080158637
 11
30.4762125855
 21
52.6043218486
  0
LINE
  5
240
100
AcDbEntity
  8
0
100
AcDbLine
 62
7
  6
CONTINUOUS
 10
11.078940123
 20
41.4053682196
 11
10.8993357484
 21
41.3016742045
  0
LINE
  5
241
100
AcDbEntity
  8
0
100
AcDbLine
 62
7
  6
CONTINUOUS
 10
20.2083895892
 20
45.7096543565
 11
20.5675983385
 21
45.9170423866
  0
LINE
  5
242
100
AcDbEntity
  8
0
100
AcDbLine
 62
7
  6
CONTINUOUS
 10
22.8126530217
 20
47.2132175752
 11
23.171861771
 21
47.4206056053
  0
LINE
  5
243
100
AcDbEntity
  8
0
100
AcDbLine
 62
7
  6
CONTINUOUS
 10
27.2129602007
 20
49.7537209447
 11
27.57216895
 21
49.9611089749
  0
LINE
  5
244
100
AcDbEntity
  8
0
100
AcDbLine
 62
7
  6
CONTINUOUS
 10
31.8826739416
 20
52.4497653369
 11
32.2418826909
 21
52.657153367
  0
LINE
  5
245
100
AcDbEntity
  8
0
100
AcDbLine
 62
7
  6
CONTINUOUS
 10
10.8993357484
 20
40.2647161348
 11
11.078940123
 21
40.3684101498
  0
LINE
  5
246
100
AcDbEntity
  8
0
100
AcDbLine
 62
7
  6
CONTINUOUS
 10
10.4502911622
 20
46.745608488
 11
10.4502911622
 21
50.4268096357
  0
LINE
  5
247
100
AcDbEntity
  8
0
100
AcDbLine
 62
7
  6
CONTINUOUS
 10
10.8993357484
 20
41.3016742045
 11
10.8993357484
 21
40.2647161348
  0
LINE
  5
248
100
AcDbEntity
  8
0
100
AcDbLine
 62
7
  6
CONTINUOUS
 10
11.078940123
 20
41.4053682196
 11
11.078940123
 21
40.3684101498
  0
LINE
  5
249
100
AcDbEntity
  8
0
100
AcDbLine
 62
7
  6
CONTINUOUS
 10
22.1246727244
 20
43.6867547785
 11
22.4838814737
 21
43.8941428087
  0
LINE
  5
24A
100
AcDbEntity
  8
0
100
AcDbLine
 62
7
  6
CONTINUOUS
 10
24.7289361568
 20
45.1903179972
 11
25.0881449061
 21
45.3977060274
  0
LINE
  5
24B
100
AcDbEntity
  8
0
100
AcDbLine
 62
7
  6
CONTINUOUS
 10
29.1292433358
 20
47.7308213668
 11
29.4884520851
 21
47.9382093969
  0
LINE
  5
24C
100
AcDbEntity
  8
0
100
AcDbLine
 62
7
  6
CONTINUOUS
 10
33.7989570768
 20
50.4268657589
 11
34.1581658261
 21
50.6342537891
  0
LINE
  5
24D
100
AcDbEntity
  8
0
100
AcDbLine
 62
7
  6
CONTINUOUS
 10
14.4914531521
 20
39.2278111716
 11
14.6710575268
 21
39.3315051866
  0
LINE
  5
24E
100
AcDbEntity
  8
0
100
AcDbLine
 62
7
  6
CONTINUOUS
 10
34.1581658261
 20
50.5823252506
 11
34.2479343639
 21
50.6341528307
  0
LINE
  5
24F
100
AcDbEntity
  8
0
100
AcDbLine
 62
7
  6
CONTINUOUS
 10
27.8720261731
 20
9.3115774506
 11
28.3939870387
 21
8.7833634422
  0
LINE
  5
250
100
AcDbEntity
  8
0
100
AcDbLine
 62
7
  6
CONTINUOUS
 10
12.6953645395
 20
49.13064524
 11
12.6953645395
 21
45.4494440924
  0
LINE
  5
251
100
AcDbEntity
  8
0
100
AcDbLine
 62
7
  6
CONTINUOUS
 10
13.0545732888
 20
45.6568321226
 11
13.0545545947
 21
51.9303728544
  0
LINE
  5
252
100
AcDbEntity
  8
0
100
AcDbLine
 62
7
  6
CONTINUOUS
 10
14.4914531521
 20
38.1908531018
 11
14.4914531521
 21
39.2278111716
  0
LINE
  5
253
100
AcDbEntity
  8
0
100
AcDbLine
 62
7
  6
CONTINUOUS
 10
15.299627972
 20
50.6342084588
 11
15.299627972
 21
46.9530073111
  0
LINE
  5
254
100
AcDbEntity
  8
0
100
AcDbLine
 62
7
  6
CONTINUOUS
 10
15.6588367213
 20
47.1603953413
 11
15.6588367213
 21
50.8415964889
  0
LINE
  5
255
100
AcDbEntity
  8
0
100
AcDbLine
 62
7
  6
CONTINUOUS
 10
22.1246727244
 20
40.0055536309
 11
22.4838814737
 21
40.2129416611
  0
LINE
  5
256
100
AcDbEntity
  8
0
100
AcDbLine
 62
7
  6
CONTINUOUS
 10
24.7289361568
 20
41.5091168496
 11
25.0881449061
 21
41.7165048798
  0
LINE
  5
257
100
AcDbEntity
  8
0
100
AcDbLine
 62
7
  6
CONTINUOUS
 10
29.1292433358
 20
44.0496202191
 11
29.4884520851
 21
44.2570082493
  0
LINE
  5
258
100
AcDbEntity
  8
0
100
AcDbLine
 62
7
  6
CONTINUOUS
 10
33.7989570768
 20
46.7456646113
 11
34.1581658261
 21
46.9530526415
  0
LINE
  5
259
100
AcDbEntity
  8
0
100
AcDbLine
 62
7
  6
CONTINUOUS
 10
35.9003322982
 20
47.3989392376
 11
33.0266623037
 21
45.7398349963
  0
LINE
  5
25A
100
AcDbEntity
  8
0
100
AcDbLine
 62
7
  6
CONTINUOUS
 10
31.1048954949
 20
44.6303090349
 11
20.1490286411
 21
38.3049741148
  0
LINE
  5
25B
100
AcDbEntity
  8
0
100
AcDbLine
 62
7
  6
CONTINUOUS
 10
20.1490286411
 20
37.268016045
 11
31.1048954949
 21
43.5933509651
  0
LINE
  5
25C
100
AcDbEntity
  8
0
100
AcDbLine
 62
7
  6
CONTINUOUS
 10
33.0266623037
 20
44.7028769265
 11
35.9003322982
 21
46.3619811679
  0
LINE
  5
25D
100
AcDbEntity
  8
0
100
AcDbLine
 62
7
  6
CONTINUOUS
 10
17.4548617736
 20
50.7896750763
 11
17.4548617736
 21
54.4708762239
  0
LINE
  5
25E
100
AcDbEntity
  8
0
100
AcDbLine
 62
7
  6
CONTINUOUS
 10
36.2236280989
 20
45.4494784113
 11
32.6315406058
 21
43.3755981097
  0
LINE
  5
25F
100
AcDbEntity
  8
0
100
AcDbLine
 62
7
  6
CONTINUOUS
 10
27.0638049916
 20
40.1610836421
 11
23.4717174985
 21
38.0872033404
  0
LINE
  5
260
100
AcDbEntity
  8
0
100
AcDbLine
 62
7
  6
CONTINUOUS
 10
20.149038063
 20
35.9614768946
 11
23.6513233687
 21
37.9835101888
  0
LINE
  5
261
100
AcDbEntity
  8
0
100
AcDbLine
 62
7
  6
CONTINUOUS
 10
27.2434108618
 20
40.0573904904
 11
32.811146476
 21
43.271904958
  0
LINE
  5
262
100
AcDbEntity
  8
0
100
AcDbLine
 62
7
  6
CONTINUOUS
 10
36.4032339691
 20
45.3457852597
 11
39.9055192748
 21
47.3678185538
  0
LINE
  5
263
100
AcDbEntity
  8
0
100
AcDbLine
 62
7
  6
CONTINUOUS
 10
36.2236280989
 20
44.4125203416
 11
32.811146476
 21
42.4423349184
  0
LINE
  5
264
100
AcDbEntity
  8
0
100
AcDbLine
 62
7
  6
CONTINUOUS
 10
27.0638049916
 20
39.1241255723
 11
23.6513233687
 21
37.1539401492
  0
LINE
  5
265
100
AcDbEntity
  8
0
100
AcDbLine
 62
7
  6
CONTINUOUS
 10
36.313431034
 20
44.3606737658
 11
32.811146476
 21
42.3386409033
  0
LINE
  5
266
100
AcDbEntity
  8
0
100
AcDbLine
 62
7
  6
CONTINUOUS
 10
27.1536079267
 20
39.0722789965
 11
23.6513233687
 21
37.0502461341
  0
LINE
  5
267
100
AcDbEntity
  8
0
100
AcDbLine
 62
7
  6
CONTINUOUS
 10
39.9055192748
 20
46.3308604841
 11
36.4032339691
 21
44.3088271899
  0
LINE
  5
268
100
AcDbEntity
  8
0
100
AcDbLine
 62
7
  6
CONTINUOUS
 10
32.811146476
 20
42.2349468883
 11
27.2434108618
 21
39.0204324207
  0
LINE
  5
269
100
AcDbEntity
  8
0
100
AcDbLine
 62
7
  6
CONTINUOUS
 10
23.6513233687
 20
36.946552119
 11
20.149038063
 21
34.9245188249
  0
LINE
  5
26A
100
AcDbEntity
  8
0
100
AcDbLine
 62
7
  6
CONTINUOUS
 10
20.1490373152
 20
34.8208207943
 11
39.7259141524
 21
46.1234684384
  0
LINE
  5
26B
100
AcDbEntity
  8
0
100
AcDbLine
 62
7
  6
CONTINUOUS
 10
20.149038063
 20
34.7171272109
 11
39.9055192748
 21
46.1234688701
  0
LINE
  5
26C
100
AcDbEntity
  8
0
100
AcDbLine
 62
7
  6
CONTINUOUS
 10
19.699935151
 20
53.1747118283
 11
19.699935151
 21
49.4935106807
  0
LINE
  5
26D
100
AcDbEntity
  8
0
100
AcDbLine
 62
7
  6
CONTINUOUS
 10
19.879599347
 20
41.3017180265
 11
19.879599347
 21
44.9829191741
  0
LINE
  5
26E
100
AcDbEntity
  8
0
100
AcDbLine
 62
7
  6
CONTINUOUS
 10
20.0591439003
 20
49.7008987108
 11
20.0591439003
 21
53.3820998585
  0
LINE
  5
26F
100
AcDbEntity
  8
0
100
AcDbLine
 62
7
  6
CONTINUOUS
 10
20.1041358477
 20
6.9525746611
 11
20.1041358477
 21
6.8488761988
  0
LINE
  5
270
100
AcDbEntity
  8
0
100
AcDbLine
 62
7
  6
CONTINUOUS
 10
20.1490286411
 20
38.3049741148
 11
20.1490286411
 21
37.268016045
  0
LINE
  5
271
100
AcDbEntity
  8
0
100
AcDbLine
 62
7
  6
CONTINUOUS
 10
20.149038063
 20
4.852734802
 11
20.149038063
 21
6.7192593276
  0
LINE
  5
272
100
AcDbEntity
  8
0
100
AcDbLine
 62
7
  6
CONTINUOUS
 10
20.149038063
 20
6.9266509415
 11
20.149038063
 21
34.7171272109
  0
LINE
  5
273
100
AcDbEntity
  8
0
100
AcDbLine
 62
7
  6
CONTINUOUS
 10
20.1490373152
 20
34.8208207943
 11
20.149038063
 21
35.9614768946
  0
LINE
  5
274
100
AcDbEntity
  8
0
100
AcDbLine
 62
7
  6
CONTINUOUS
 10
20.3824090425
 20
52.0028748026
 11
20.3824090425
 21
53.0398328723
  0
LINE
  5
275
100
AcDbEntity
  8
0
100
AcDbLine
 62
7
  6
CONTINUOUS
 10
26.7943999252
 20
36.4798896295
 11
22.8431036828
 21
34.1986212977
  0
LINE
  5
276
100
AcDbEntity
  8
0
100
AcDbLine
 62
7
  6
CONTINUOUS
 10
39.9055192748
 20
18.1256009867
 11
39.7259103009
 21
18.2292959302
  0
LINE
  5
277
100
AcDbEntity
  8
0
100
AcDbLine
 62
7
  6
CONTINUOUS
 10
21.4959467435
 20
53.9523168465
 11
21.4959467435
 21
53.7449288163
  0
LINE
  5
278
100
AcDbEntity
  8
0
100
AcDbLine
 62
7
  6
CONTINUOUS
 10
22.1245755146
 20
53.4857194684
 11
22.1245755146
 21
57.1669206161
  0
LINE
  5
279
100
AcDbEntity
  8
0
100
AcDbLine
 62
7
  6
CONTINUOUS
 10
22.1246727244
 20
43.6867547785
 11
22.1246727244
 21
40.0055536309
  0
LINE
  5
27A
100
AcDbEntity
  8
0
100
AcDbLine
 62
7
  6
CONTINUOUS
 10
22.4838814737
 20
40.2129416611
 11
22.4838627795
 21
46.4864823928
  0
LINE
  5
27B
100
AcDbEntity
  8
0
100
AcDbLine
 62
7
  6
CONTINUOUS
 10
22.8431036828
 20
34.1986212977
 11
22.8431036828
 21
29.0138309489
  0
LINE
  5
27C
100
AcDbEntity
  8
0
100
AcDbLine
 62
7
  6
CONTINUOUS
 10
35.4154084129
 20
22.5845610368
 11
35.5950142831
 21
22.4808678851
  0
LINE
  5
27D
100
AcDbEntity
  8
0
100
AcDbLine
 62
7
  6
CONTINUOUS
 10
23.3819168068
 20
25.0733849082
 11
23.3819168068
 21
23.1031645756
  0
LINE
  5
27E
100
AcDbEntity
  8
0
100
AcDbLine
 62
7
  6
CONTINUOUS
 10
23.3819168068
 20
17.399895192
 11
23.3819168068
 21
15.4296748594
  0
LINE
  5
27F
100
AcDbEntity
  8
0
100
AcDbLine
 62
7
  6
CONTINUOUS
 10
23.6513233687
 20
37.9835101888
 11
23.6513233687
 21
36.946552119
  0
LINE
  5
280
100
AcDbEntity
  8
0
100
AcDbLine
 62
7
  6
CONTINUOUS
 10
24.3696488919
 20
55.8707562205
 11
24.3696488919
 21
52.1895550728
  0
LINE
  5
281
100
AcDbEntity
  8
0
100
AcDbLine
 62
7
  6
CONTINUOUS
 10
24.7288576412
 20
52.396943103
 11
24.7288576412
 21
56.0781442506
  0
LINE
  5
282
100
AcDbEntity
  8
0
100
AcDbLine
 62
7
  6
CONTINUOUS
 10
24.7289361568
 20
45.1903179972
 11
24.7289361568
 21
41.5091168496
  0
LINE
  5
283
100
AcDbEntity
  8
0
100
AcDbLine
 62
7
  6
CONTINUOUS
 10
26.614794055
 20
31.3987924324
 11
22.8431036828
 21
29.2212189791
  0
LINE
  5
284
100
AcDbEntity
  8
0
100
AcDbLine
 62
7
  6
CONTINUOUS
 10
22.8431036828
 20
29.0138309489
 11
26.7943999252
 21
31.2950992807
  0
LINE
  5
285
100
AcDbEntity
  8
0
100
AcDbLine
 62
7
  6
CONTINUOUS
 10
5.2417508375
 20
43.3236587977
 11
20.149038063
 21
34.7171272109
  0
LINE
  5
286
100
AcDbEntity
  8
0
100
AcDbLine
 62
7
  6
CONTINUOUS
 10
5.4213559599
 20
43.3236592294
 11
20.1490373152
 21
34.8208207943
  0
LINE
  5
287
100
AcDbEntity
  8
0
100
AcDbLine
 62
7
  6
CONTINUOUS
 10
20.149038063
 20
34.9245188249
 11
14.4914531521
 21
38.1908531018
  0
LINE
  5
288
100
AcDbEntity
  8
0
100
AcDbLine
 62
7
  6
CONTINUOUS
 10
10.8993357484
 20
40.2647161348
 11
5.2417508375
 21
43.5310504117
  0
LINE
  5
289
100
AcDbEntity
  8
0
100
AcDbLine
 62
7
  6
CONTINUOUS
 10
14.4914531521
 20
38.2945462535
 11
10.9891379357
 21
40.3165631423
  0
LINE
  5
28A
100
AcDbEntity
  8
0
100
AcDbLine
 62
7
  6
CONTINUOUS
 10
26.614794055
 20
31.3987924324
 11
26.7943999252
 21
31.2950992807
  0
LINE
  5
28B
100
AcDbEntity
  8
0
100
AcDbLine
 62
7
  6
CONTINUOUS
 10
14.4914531521
 20
38.3982394051
 11
11.078940123
 21
40.3684101498
  0
LINE
  5
28C
100
AcDbEntity
  8
0
100
AcDbLine
 62
7
  6
CONTINUOUS
 10
25.0881449061
 20
41.7165048798
 11
25.0881449061
 21
45.3977060274
  0
LINE
  5
28D
100
AcDbEntity
  8
0
100
AcDbLine
 62
7
  6
CONTINUOUS
 10
26.614794055
 20
36.376194751
 11
26.614794055
 21
31.3987924324
  0
LINE
  5
28E
100
AcDbEntity
  8
0
100
AcDbLine
 62
7
  6
CONTINUOUS
 10
26.7943999252
 20
31.2950992807
 11
26.7943999252
 21
36.4798896295
  0
LINE
  5
28F
100
AcDbEntity
  8
0
100
AcDbLine
 62
7
  6
CONTINUOUS
 10
26.8841699585
 20
45.3457846147
 11
26.8841699585
 21
49.0269857624
  0
LINE
  5
290
100
AcDbEntity
  8
0
100
AcDbLine
 62
7
  6
CONTINUOUS
 10
27.0638049916
 20
40.1610836421
 11
27.0638049916
 21
39.1241255723
  0
LINE
  5
291
100
AcDbEntity
  8
0
100
AcDbLine
 62
7
  6
CONTINUOUS
 10
5.2417508375
 20
44.5680084814
 11
10.8993357484
 21
41.3016742045
  0
LINE
  5
292
100
AcDbEntity
  8
0
100
AcDbLine
 62
7
  6
CONTINUOUS
 10
14.4914531521
 20
39.2278111716
 11
20.149038063
 21
35.9614768946
  0
LINE
  5
293
100
AcDbEntity
  8
0
100
AcDbLine
 62
7
  6
CONTINUOUS
 10
14.6710575268
 20
39.3315051866
 11
11.078940123
 21
41.4053682196
  0
LINE
  5
294
100
AcDbEntity
  8
0
100
AcDbLine
 62
7
  6
CONTINUOUS
 10
7.50477538
 20
44.5680139211
 11
20.1490286411
 21
37.268016045
  0
LINE
  5
295
100
AcDbEntity
  8
0
100
AcDbLine
 62
7
  6
CONTINUOUS
 10
27.2434108618
 20
39.0204324207
 11
27.2434108618
 21
40.0573904904
  0
LINE
  5
296
100
AcDbEntity
  8
0
100
AcDbLine
 62
7
  6
CONTINUOUS
 10
29.1292433358
 20
47.7308213668
 11
29.1292433358
 21
44.0496202191
  0
LINE
  5
297
100
AcDbEntity
  8
0
100
AcDbLine
 62
7
  6
CONTINUOUS
 10
5.3764544923
 20
15.4035616415
 11
5.2417508375
 21
15.3257909144
  0
LINE
  5
298
100
AcDbEntity
  8
0
100
AcDbLine
 62
7
  6
CONTINUOUS
 10
35.5950142831
 20
32.1245779338
 11
23.3819168068
 21
25.0733849082
  0
LINE
  5
299
100
AcDbEntity
  8
0
100
AcDbLine
 62
7
  6
CONTINUOUS
 10
7.50477538
 20
45.6049719908
 11
20.1490286411
 21
38.3049741148
  0
LINE
  5
29A
100
AcDbEntity
  8
0
100
AcDbLine
 62
7
  6
CONTINUOUS
 10
35.4154084129
 20
30.2580507529
 11
35.5950142831
 21
30.1543576013
  0
LINE
  5
29B
100
AcDbEntity
  8
0
100
AcDbLine
 62
7
  6
CONTINUOUS
 10
8.7440361432
 20
46.5900417756
 11
8.9236420134
 21
46.4863486239
  0
LINE
  5
29C
100
AcDbEntity
  8
0
100
AcDbLine
 62
7
  6
CONTINUOUS
 10
23.4717174985
 20
38.0872033404
 11
23.6513233687
 21
37.9835101888
  0
LINE
  5
29D
100
AcDbEntity
  8
0
100
AcDbLine
 62
7
  6
CONTINUOUS
 10
29.4884520851
 20
44.2570082493
 11
29.4884520851
 21
47.9382093969
  0
LINE
  5
29E
100
AcDbEntity
  8
0
100
AcDbLine
 62
7
  6
CONTINUOUS
 10
30.6558169601
 20
52.5006295604
 11
30.6558169601
 21
52.7080158637
  0
LINE
  5
29F
100
AcDbEntity
  8
0
100
AcDbLine
 62
7
  6
CONTINUOUS
 10
31.1048954949
 20
43.5933509651
 11
31.1048954949
 21
44.6303090349
  0
LINE
  5
2A0
100
AcDbEntity
  8
0
100
AcDbLine
 62
7
  6
CONTINUOUS
 10
35.4154084129
 20
30.2580507529
 11
23.3819168068
 21
23.3105526058
  0
LINE
  5
2A1
100
AcDbEntity
  8
0
100
AcDbLine
 62
7
  6
CONTINUOUS
 10
23.3819168068
 20
23.1031645756
 11
35.5950142831
 21
30.1543576013
  0
LINE
  5
2A2
100
AcDbEntity
  8
0
100
AcDbLine
 62
7
  6
CONTINUOUS
 10
10.4502911622
 20
46.745608488
 11
12.6953645395
 21
45.4494440924
  0
LINE
  5
2A3
100
AcDbEntity
  8
0
100
AcDbLine
 62
7
  6
CONTINUOUS
 10
19.879599347
 20
41.3017180265
 11
22.1246727244
 21
40.0055536309
  0
LINE
  5
2A4
100
AcDbEntity
  8
0
100
AcDbLine
 62
7
  6
CONTINUOUS
 10
31.5538836994
 20
48.0418290069
 11
31.5538836994
 21
51.7230301545
  0
LINE
  5
2A5
100
AcDbEntity
  8
0
100
AcDbLine
 62
7
  6
CONTINUOUS
 10
32.811146476
 20
43.271904958
 11
32.811146476
 21
42.2349468883
  0
LINE
  5
2A6
100
AcDbEntity
  8
0
100
AcDbLine
 62
7
  6
CONTINUOUS
 10
33.0266623037
 20
45.7398349963
 11
33.0266623037
 21
44.7028769265
  0
LINE
  5
2A7
100
AcDbEntity
  8
0
100
AcDbLine
 62
7
  6
CONTINUOUS
 10
12.802049784
 20
8.264858047
 11
13.3240149959
 21
8.7930745646
  0
LINE
  5
2A8
100
AcDbEntity
  8
0
100
AcDbLine
 62
7
  6
CONTINUOUS
 10
27.0638049916
 20
39.1241255723
 11
27.2434108618
 21
39.0204324207
  0
LINE
  5
2A9
100
AcDbEntity
  8
0
100
AcDbLine
 62
7
  6
CONTINUOUS
 10
27.2434108618
 20
40.0573904904
 11
27.0638049916
 21
40.1610836421
  0
LINE
  5
2AA
100
AcDbEntity
  8
0
100
AcDbLine
 62
7
  6
CONTINUOUS
 10
13.0545545947
 20
48.2491717067
 11
15.299627972
 21
46.9530073111
  0
LINE
  5
2AB
100
AcDbEntity
  8
0
100
AcDbLine
 62
7
  6
CONTINUOUS
 10
22.4838627795
 20
42.8052812452
 11
24.7289361568
 21
41.5091168496
  0
LINE
  5
2AC
100
AcDbEntity
  8
0
100
AcDbLine
 62
7
  6
CONTINUOUS
 10
33.7989570768
 20
50.4268657589
 11
33.7989570768
 21
46.7456646113
  0
LINE
  5
2AD
100
AcDbEntity
  8
0
100
AcDbLine
 62
7
  6
CONTINUOUS
 10
34.1581658261
 20
46.9530526415
 11
34.1581658261
 21
50.6342537891
  0
LINE
  5
2AE
100
AcDbEntity
  8
0
100
AcDbLine
 62
7
  6
CONTINUOUS
 10
35.4154084129
 20
32.0208830553
 11
35.4154084129
 21
30.2580507529
  0
LINE
  5
2AF
100
AcDbEntity
  8
0
100
AcDbLine
 62
7
  6
CONTINUOUS
 10
35.4154084129
 20
24.3473933391
 11
35.4154084129
 21
22.5845610368
  0
LINE
  5
2B0
100
AcDbEntity
  8
0
100
AcDbLine
 62
7
  6
CONTINUOUS
 10
35.5950142831
 20
24.4510882176
 11
23.3819168068
 21
17.399895192
  0
LINE
  5
2B1
100
AcDbEntity
  8
0
100
AcDbLine
 62
7
  6
CONTINUOUS
 10
35.5950142831
 20
22.4808678851
 11
35.5950142831
 21
24.4510882176
  0
LINE
  5
2B2
100
AcDbEntity
  8
0
100
AcDbLine
 62
7
  6
CONTINUOUS
 10
35.5950142831
 20
30.1543576013
 11
35.5950142831
 21
32.1245779338
  0
LINE
  5
2B3
100
AcDbEntity
  8
0
100
AcDbLine
 62
7
  6
CONTINUOUS
 10
35.9003322982
 20
46.3619811679
 11
35.9003322982
 21
47.3989392376
  0
LINE
  5
2B4
100
AcDbEntity
  8
0
100
AcDbLine
 62
7
  6
CONTINUOUS
 10
36.2236280989
 20
45.4494784113
 11
36.2236280989
 21
44.4125203416
  0
LINE
  5
2B5
100
AcDbEntity
  8
0
100
AcDbLine
 62
7
  6
CONTINUOUS
 10
36.4032339691
 20
44.3088271899
 11
36.4032339691
 21
45.3457852597
  0
LINE
  5
2B6
100
AcDbEntity
  8
0
100
AcDbLine
 62
7
  6
CONTINUOUS
 10
35.4154084129
 20
22.5845610368
 11
23.3819168068
 21
15.6370628896
  0
LINE
  5
2B7
100
AcDbEntity
  8
0
100
AcDbLine
 62
7
  6
CONTINUOUS
 10
23.3819168068
 20
15.4296748594
 11
35.5950142831
 21
22.4808678851
  0
LINE
  5
2B8
100
AcDbEntity
  8
0
100
AcDbLine
 62
7
  6
CONTINUOUS
 10
17.4548617736
 20
50.7896750763
 11
19.699935151
 21
49.4935106807
  0
LINE
  5
2B9
100
AcDbEntity
  8
0
100
AcDbLine
 62
7
  6
CONTINUOUS
 10
26.8841699585
 20
45.3457846147
 11
29.1292433358
 21
44.0496202191
  0
LINE
  5
2BA
100
AcDbEntity
  8
0
100
AcDbLine
 62
7
  6
CONTINUOUS
 10
39.6810126848
 20
18.1515238429
 11
39.6810126848
 21
18.2033744342
  0
LINE
  5
2BB
100
AcDbEntity
  8
0
100
AcDbLine
 62
7
  6
CONTINUOUS
 10
39.7259141524
 20
46.1234684384
 11
39.7259141524
 21
46.2271660372
  0
LINE
  5
2BC
100
AcDbEntity
  8
0
100
AcDbLine
 62
7
  6
CONTINUOUS
 10
12.802049784
 20
8.264858047
 11
13.5204856795
 21
8.6796447287
  0
LINE
  5
2BD
100
AcDbEntity
  8
0
100
AcDbLine
 62
7
  6
CONTINUOUS
 10
32.6315406058
 20
43.3755981097
 11
32.811146476
 21
43.271904958
  0
LINE
  5
2BE
100
AcDbEntity
  8
0
100
AcDbLine
 62
7
  6
CONTINUOUS
 10
31.1048954949
 20
44.6303090349
 11
29.4884520851
 21
45.5635419601
  0
LINE
  5
2BF
100
AcDbEntity
  8
0
100
AcDbLine
 62
7
  6
CONTINUOUS
 10
26.8841699585
 20
47.0670909322
 11
20.0591439003
 21
51.0074324217
  0
LINE
  5
2C0
100
AcDbEntity
  8
0
100
AcDbLine
 62
7
  6
CONTINUOUS
 10
20.3824090425
 20
52.0028748026
 11
26.8841699585
 21
48.2491663078
  0
LINE
  5
2C1
100
AcDbEntity
  8
0
100
AcDbLine
 62
7
  6
CONTINUOUS
 10
29.4884520851
 20
46.7456173357
 11
33.0266623037
 21
44.7028769265
  0
LINE
  5
2C2
100
AcDbEntity
  8
0
100
AcDbLine
 62
7
  6
CONTINUOUS
 10
39.9055192748
 20
15.4295100054
 11
39.9055192748
 21
18.1256009867
  0
LINE
  5
2C3
100
AcDbEntity
  8
0
100
AcDbLine
 62
7
  6
CONTINUOUS
 10
39.9055192748
 20
18.3329926007
 11
39.9055192748
 21
46.1234688701
  0
LINE
  5
2C4
100
AcDbEntity
  8
0
100
AcDbLine
 62
7
  6
CONTINUOUS
 10
39.9055192748
 20
46.3308604841
 11
39.9055192748
 21
47.3678185538
  0
LINE
  5
2C5
100
AcDbEntity
  8
0
100
AcDbLine
 62
7
  6
CONTINUOUS
 10
20.3824090425
 20
53.0398328723
 11
26.9095821825
 21
49.271452955
  0
LINE
  5
2C6
100
AcDbEntity
  8
0
100
AcDbLine
 62
7
  6
CONTINUOUS
 10
29.4884520851
 20
47.7825754055
 11
33.0266623037
 21
45.7398349963
  0
LINE
  5
2C7
100
AcDbEntity
  8
0
100
AcDbLine
 62
7
  6
CONTINUOUS
 10
36.2236280989
 20
44.4125203416
 11
36.4032339691
 21
44.3088271899
  0
LINE
  5
2C8
100
AcDbEntity
  8
0
100
AcDbLine
 62
7
  6
CONTINUOUS
 10
22.1245755146
 20
53.4857194684
 11
24.3696488919
 21
52.1895550728
  0
LINE
  5
2C9
100
AcDbEntity
  8
0
100
AcDbLine
 62
7
  6
CONTINUOUS
 10
31.5538836994
 20
48.0418290069
 11
33.7989570768
 21
46.7456646113
  0
LINE
  5
2CA
100
AcDbEntity
  8
0
100
AcDbLine
 62
7
  6
CONTINUOUS
 10
36.4032339691
 20
45.3457852597
 11
36.2236280989
 21
45.4494784113
  0
LINE
  5
2CB
100
AcDbEntity
  8
0
100
AcDbLine
 62
7
  6
CONTINUOUS
 10
21.6755526137
 20
53.8486236948
 11
21.4959467435
 21
53.9523168465
  0
LINE
  5
2CC
100
AcDbEntity
  8
0
100
AcDbLine
 62
7
  6
CONTINUOUS
 10
39.9055192748
 20
18.3329926007
 11
20.149038063
 21
6.9266509415
  0
LINE
  5
2CD
100
AcDbEntity
  8
0
100
AcDbLine
 62
7
  6
CONTINUOUS
 10
20.1041358477
 20
6.8488761988
 11
39.6810126848
 21
18.1515238429
  0
LINE
  5
2CE
100
AcDbEntity
  8
0
100
AcDbLine
 62
7
  6
CONTINUOUS
 10
20.149038063
 20
6.7192593276
 11
39.9055192748
 21
18.1256009867
  0
LINE
  5
2CF
100
AcDbEntity
  8
0
100
AcDbLine
 62
7
  6
CONTINUOUS
 10
35.9003322982
 20
47.3989392376
 11
34.1581658261
 21
48.4047567646
  0
LINE
  5
2D0
100
AcDbEntity
  8
0
100
AcDbLine
 62
7
  6
CONTINUOUS
 10
33.2571362478
 20
48.9249546657
 11
32.7585763334
 21
49.2127918548
  0
LINE
  5
2D1
100
AcDbEntity
  8
0
100
AcDbLine
 62
7
  6
CONTINUOUS
 10
31.5538836994
 20
49.9083057366
 11
24.7288576412
 21
53.8486472261
  0
LINE
  5
2D2
100
AcDbEntity
  8
0
100
AcDbLine
 62
7
  6
CONTINUOUS
 10
23.827828063
 20
54.3688451272
 11
23.3292681486
 21
54.6566823163
  0
LINE
  5
2D3
100
AcDbEntity
  8
0
100
AcDbLine
 62
7
  6
CONTINUOUS
 10
39.9055192748
 20
46.1234688701
 11
39.7259103009
 21
46.2271638136
  0
LINE
  5
2D4
100
AcDbEntity
  8
0
100
AcDbLine
 62
7
  6
CONTINUOUS
 10
27.8720261731
 20
9.3115774506
 11
20.149038063
 21
4.852734802
  0
LINE
  5
2D5
100
AcDbEntity
  8
0
100
AcDbLine
 62
7
  6
CONTINUOUS
 10
39.9055192748
 20
15.4295100054
 11
28.3939870387
 21
8.7833634422
  0
LINE
  5
2D6
100
AcDbEntity
  8
0
100
AcDbLine
 62
7
  6
CONTINUOUS
 10
30.4762125855
 20
52.6043218486
 11
31.5792933196
 21
51.9674722973
  0
LINE
  5
2D7
100
AcDbEntity
  8
0
100
AcDbLine
 62
7
  6
CONTINUOUS
 10
39.9055192748
 20
47.3678185538
 11
34.2479343639
 21
50.6341528307
  0
LINE
  5
2D8
100
AcDbEntity
  8
0
100
AcDbLine
 62
7
  6
CONTINUOUS
 10
30.6558169601
 20
52.7080158637
 11
24.9982320492
 21
55.9743501406
  0
SPLINE
  5
2D9
100
AcDbEntity
  8
0
100
AcDbSpline
 62
7
  6
CONTINUOUS
 70
0
 71
3
 72
14
 73
10
 74
0
 42
0.0000001
 43
0.0000001
 44
0.0000000001
 40
0.0
 40
0.0
 40
0.0
 40
0.0
 40
0.108046144
 40
0.2181359093
 40
0.3321085861
 40
0.4514831362
 40
0.5774302378
 40
0.7107534897
 40
1.0
 40
1.0
 40
1.0
 40
1.0
 10
18.1428665998
 20
55.4049893304
 30
0.0
 10
18.1688933777
 20
55.4200158089
 30
0.0
 10
18.2241484936
 20
55.4459089709
 30
0.0
 10
18.313571212
 20
55.4706056394
 30
0.0
 10
18.4088801938
 20
55.4812525214
 30
0.0
 10
18.5090746053
 20
55.4777756406
 30
0.0
 10
18.6132214962
 20
55.4603111242
 30
0.0
 10
18.7599375381
 20
55.4175131088
 30
0.0
 10
18.866931554
 20
55.3666059931
 30
0.0
 10
18.9366072116
 20
55.3263796435
 30
0.0
  0
SPLINE
  5
2DA
100
AcDbEntity
  8
0
100
AcDbSpline
 62
7
  6
CONTINUOUS
 70
0
 71
3
 72
15
 73
11
 74
0
 42
0.0000001
 43
0.0000001
 44
0.0000000001
 40
0.0
 40
0.0
 40
0.0
 40
0.0
 40
0.1141465952
 40
0.2373352439
 40
0.366975646
 40
0.4999989181
 40
0.6330223406
 40
0.7626631822
 40
0.8858525235
 40
1.0
 40
1.0
 40
1.0
 40
1.0
 10
18.9366072116
 20
55.3263796435
 30
0.0
 10
19.0134482551
 20
55.28201645
 30
0.0
 10
19.1652334521
 20
55.1756055029
 30
0.0
 10
19.3740942773
 20
54.9802250105
 30
0.0
 10
19.5665467663
 20
54.7492372878
 30
0.0
 10
19.7353876282
 20
54.4913711277
 30
0.0
 10
19.8742873007
 20
54.2162179275
 30
0.0
 10
19.9781041158
 20
53.9340549385
 30
0.0
 10
20.0428802932
 20
53.6554848094
 30
0.0
 10
20.0591439003
 20
53.470828436
 30
0.0
 10
20.0591439003
 20
53.3820998585
 30
0.0
  0
SPLINE
  5
2DB
100
AcDbEntity
  8
0
100
AcDbSpline
 62
7
  6
CONTINUOUS
 70
0
 71
3
 72
14
 73
10
 74
0
 42
0.0000001
 43
0.0000001
 44
0.0000000001
 40
0.0
 40
0.0
 40
0.0
 40
0.0
 40
0.1080456362
 40
0.2181349707
 40
0.332107362
 40
0.4514818058
 40
0.577428993
 40
0.7107525123
 40
1.0
 40
1.0
 40
1.0
 40
1.0
 10
17.7836578505
 20
55.1976013002
 30
0.0
 10
17.7576304977
 20
55.1825744899
 30
0.0
 10
17.7075775522
 20
55.1476681067
 30
0.0
 10
17.6414767313
 20
55.0825725598
 30
0.0
 10
17.5846006421
 20
55.0053539104
 30
0.0
 10
17.5375137749
 20
54.9168419968
 30
0.0
 10
17.5005647526
 20
54.8179128945
 30
0.0
 10
17.4642710791
 20
54.6694494227
 30
0.0
 10
17.4548617736
 20
54.5513327154
 30
0.0
 10
17.4548617736
 20
54.4708762239
 30
0.0
  0
SPLINE
  5
2DC
100
AcDbEntity
  8
0
100
AcDbSpline
 62
7
  6
CONTINUOUS
 70
0
 71
3
 72
9
 73
5
 74
0
 42
0.0000001
 43
0.0000001
 44
0.0000000001
 40
0.0
 40
0.0
 40
0.0
 40
0.0
 40
0.5221455342
 40
1.0
 40
1.0
 40
1.0
 40
1.0
 10
18.9366072116
 20
51.6970263993
 30
0.0
 10
18.9690294471
 20
51.6783078364
 30
0.0
 10
19.0336344263
 20
51.6465666114
 30
0.0
 10
19.1027257047
 20
51.6257227497
 30
0.0
 10
19.1363835436
 20
51.6193164071
 30
0.0
  0
SPLINE
  5
2DD
100
AcDbEntity
  8
0
100
AcDbSpline
 62
7
  6
CONTINUOUS
 70
0
 71
3
 72
16
 73
12
 74
0
 42
0.0000001
 43
0.0000001
 44
0.0000000001
 40
0.0
 40
0.0
 40
0.0
 40
0.0
 40
0.0980465385
 40
0.1525473284
 40
0.2105764837
 40
0.3359400815
 40
0.470672367
 40
0.609825734
 40
0.7478618235
 40
0.8794674892
 40
1.0
 40
1.0
 40
1.0
 40
1.0
 10
27.785448719
 20
47.5927321716
 30
0.0
 10
27.7643392266
 20
47.5462455561
 30
0.0
 10
27.744056733
 20
47.467977225
 30
0.0
 10
27.7358959795
 20
47.3585655595
 30
0.0
 10
27.7400358259
 20
47.2345090888
 30
0.0
 10
27.7699692017
 20
47.0706383373
 30
0.0
 10
27.8392540232
 20
46.8738525789
 30
0.0
 10
27.9389411338
 20
46.6831275945
 30
0.0
 10
28.0632496936
 20
46.5094144879
 30
0.0
 10
28.2050086867
 20
46.3628380518
 30
0.0
 10
28.3115598882
 20
46.2845173952
 30
0.0
 10
28.3659153965
 20
46.2531359378
 30
0.0
  0
SPLINE
  5
2DE
100
AcDbEntity
  8
0
100
AcDbSpline
 62
7
  6
CONTINUOUS
 70
0
 71
3
 72
12
 73
8
 74
0
 42
0.0000001
 43
0.0000001
 44
0.0000000001
 40
0.0
 40
0.0
 40
0.0
 40
0.0
 40
0.1081687912
 40
0.2183555695
 40
0.4513113955
 40
0.7105889062
 40
1.0
 40
1.0
 40
1.0
 40
1.0
 10
27.5622179031
 20
47.5415001201
 30
0.0
 10
27.576796977
 20
47.5499095829
 30
0.0
 10
27.6077456801
 20
47.5643914749
 30
0.0
 10
27.6756806709
 20
47.5832412082
 30
0.0
 10
27.7708959898
 20
47.5857685097
 30
0.0
 10
27.8900794393
 20
47.5568934367
 30
0.0
 10
27.9677083721
 20
47.5200043605
 30
0.0
 10
28.0067066471
 20
47.4974892053
 30
0.0
  0
SPLINE
  5
2DF
100
AcDbEntity
  8
0
100
AcDbSpline
 62
7
  6
CONTINUOUS
 70
0
 71
3
 72
14
 73
10
 74
0
 42
0.0000001
 43
0.0000001
 44
0.0000000001
 40
0.0
 40
0.0
 40
0.0
 40
0.0
 40
0.108046144
 40
0.2181359093
 40
0.3321085861
 40
0.4514831362
 40
0.5774302378
 40
0.7107534897
 40
1.0
 40
1.0
 40
1.0
 40
1.0
 10
27.5721747846
 20
49.9610988689
 30
0.0
 10
27.5982015625
 20
49.9761253473
 30
0.0
 10
27.6534566785
 20
50.0020185093
 30
0.0
 10
27.7428793969
 20
50.0267151778
 30
0.0
 10
27.8381883787
 20
50.0373620599
 30
0.0
 10
27.9383827902
 20
50.033885179
 30
0.0
 10
28.042529681
 20
50.0164206627
 30
0.0
 10
28.1892457229
 20
49.9736226472
 30
0.0
 10
28.2962397388
 20
49.9227155316
 30
0.0
 10
28.3659153965
 20
49.8824891819
 30
0.0
  0
SPLINE
  5
2E0
100
AcDbEntity
  8
0
100
AcDbSpline
 62
7
  6
CONTINUOUS
 70
0
 71
3
 72
14
 73
10
 74
0
 42
0.0000001
 43
0.0000001
 44
0.0000000001
 40
0.0
 40
0.0
 40
0.0
 40
0.0
 40
0.1080456362
 40
0.2181349707
 40
0.332107362
 40
0.4514818058
 40
0.577428993
 40
0.7107525123
 40
1.0
 40
1.0
 40
1.0
 40
1.0
 10
27.2129660353
 20
49.7537108387
 30
0.0
 10
27.1869386825
 20
49.7386840283
 30
0.0
 10
27.1368857371
 20
49.7037776452
 30
0.0
 10
27.0707849161
 20
49.6386820982
 30
0.0
 10
27.0139088269
 20
49.5614634489
 30
0.0
 10
26.9668219597
 20
49.4729515353
 30
0.0
 10
26.9298729374
 20
49.374022433
 30
0.0
 10
26.893579264
 20
49.2255589612
 30
0.0
 10
26.8841699585
 20
49.1074422539
 30
0.0
 10
26.8841699585
 20
49.0269857624
 30
0.0
  0
SPLINE
  5
2E1
100
AcDbEntity
  8
0
100
AcDbSpline
 62
7
  6
CONTINUOUS
 70
0
 71
3
 72
16
 73
12
 74
0
 42
0.0000001
 43
0.0000001
 44
0.0000000001
 40
0.0
 40
0.0
 40
0.0
 40
0.0
 40
0.0980465385
 40
0.1525473284
 40
0.2105764837
 40
0.3359400815
 40
0.470672367
 40
0.609825734
 40
0.7478618235
 40
0.8794674892
 40
1.0
 40
1.0
 40
1.0
 40
1.0
 10
13.9558333551
 20
50.4961192636
 30
0.0
 10
13.9347238628
 20
50.4496326481
 30
0.0
 10
13.9144413692
 20
50.371364317
 30
0.0
 10
13.9062806157
 20
50.2619526515
 30
0.0
 10
13.9104204621
 20
50.1378961808
 30
0.0
 10
13.9403538379
 20
49.9740254293
 30
0.0
 10
14.0096386594
 20
49.7772396709
 30
0.0
 10
14.10932577
 20
49.5865146865
 30
0.0
 10
14.2336343298
 20
49.4128015799
 30
0.0
 10
14.3753933229
 20
49.2662251438
 30
0.0
 10
14.4819445244
 20
49.1879044872
 30
0.0
 10
14.5363000326
 20
49.1565230298
 30
0.0
  0
SPLINE
  5
2E2
100
AcDbEntity
  8
0
100
AcDbSpline
 62
7
  6
CONTINUOUS
 70
0
 71
3
 72
12
 73
8
 74
0
 42
0.0000001
 43
0.0000001
 44
0.0000000001
 40
0.0
 40
0.0
 40
0.0
 40
0.0
 40
0.1081687912
 40
0.2183555695
 40
0.4513113955
 40
0.7105889062
 40
1.0
 40
1.0
 40
1.0
 40
1.0
 10
13.7326025393
 20
50.4448872121
 30
0.0
 10
13.7471816132
 20
50.4532966749
 30
0.0
 10
13.7781303163
 20
50.4677785669
 30
0.0
 10
13.8460653071
 20
50.4866283002
 30
0.0
 10
13.941280626
 20
50.4891556016
 30
0.0
 10
14.0604640755
 20
50.4602805286
 30
0.0
 10
14.1380930083
 20
50.4233914525
 30
0.0
 10
14.1770912833
 20
50.4008762973
 30
0.0
  0
SPLINE
  5
2E3
100
AcDbEntity
  8
0
100
AcDbSpline
 62
7
  6
CONTINUOUS
 70
0
 71
3
 72
14
 73
10
 74
0
 42
0.0000001
 43
0.0000001
 44
0.0000000001
 40
0.0
 40
0.0
 40
0.0
 40
0.0
 40
0.108046144
 40
0.2181359093
 40
0.3321085861
 40
0.4514831362
 40
0.5774302378
 40
0.7107534897
 40
1.0
 40
1.0
 40
1.0
 40
1.0
 10
13.7425594208
 20
52.8644859609
 30
0.0
 10
13.7685861987
 20
52.8795124393
 30
0.0
 10
13.8238413146
 20
52.9054056013
 30
0.0
 10
13.913264033
 20
52.9301022698
 30
0.0
 10
14.0085730148
 20
52.9407491519
 30
0.0
 10
14.1087674263
 20
52.937272271
 30
0.0
 10
14.2129143172
 20
52.9198077546
 30
0.0
 10
14.3596303591
 20
52.8770097392
 30
0.0
 10
14.466624375
 20
52.8261026236
 30
0.0
 10
14.5363000326
 20
52.7858762739
 30
0.0
  0
SPLINE
  5
2E4
100
AcDbEntity
  8
0
100
AcDbSpline
 62
7
  6
CONTINUOUS
 70
0
 71
3
 72
14
 73
10
 74
0
 42
0.0000001
 43
0.0000001
 44
0.0000000001
 40
0.0
 40
0.0
 40
0.0
 40
0.0
 40
0.1080456362
 40
0.2181349707
 40
0.332107362
 40
0.4514818058
 40
0.577428993
 40
0.7107525123
 40
1.0
 40
1.0
 40
1.0
 40
1.0
 10
13.3833506715
 20
52.6570979307
 30
0.0
 10
13.3573233187
 20
52.6420711203
 30
0.0
 10
13.3072703732
 20
52.6071647371
 30
0.0
 10
13.2411695523
 20
52.5420691902
 30
0.0
 10
13.1842934631
 20
52.4648505409
 30
0.0
 10
13.1372065959
 20
52.3763386272
 30
0.0
 10
13.1002575736
 20
52.2774095249
 30
0.0
 10
13.0639639001
 20
52.1289460531
 30
0.0
 10
13.0545545947
 20
52.0108293459
 30
0.0
 10
13.0545545947
 20
51.9303728544
 30
0.0
  0
SPLINE
  5
2E5
100
AcDbEntity
  8
0
100
AcDbSpline
 62
7
  6
CONTINUOUS
 70
0
 71
3
 72
16
 73
12
 74
0
 42
0.0000001
 43
0.0000001
 44
0.0000000001
 40
0.0
 40
0.0
 40
0.0
 40
0.0
 40
0.0980465385
 40
0.1525473284
 40
0.2105764837
 40
0.3359400815
 40
0.470672367
 40
0.609825734
 40
0.7478618235
 40
0.8794674892
 40
1.0
 40
1.0
 40
1.0
 40
1.0
 10
23.38514154
 20
45.0522288021
 30
0.0
 10
23.3640320477
 20
45.0057421866
 30
0.0
 10
23.3437495541
 20
44.9274738554
 30
0.0
 10
23.3355888005
 20
44.81806219
 30
0.0
 10
23.3397286469
 20
44.6940057192
 30
0.0
 10
23.3696620227
 20
44.5301349678
 30
0.0
 10
23.4389468442
 20
44.3333492094
 30
0.0
 10
23.5386339548
 20
44.142624225
 30
0.0
 10
23.6629425146
 20
43.9689111184
 30
0.0
 10
23.8047015077
 20
43.8223346823
 30
0.0
 10
23.9112527092
 20
43.7440140256
 30
0.0
 10
23.9656082175
 20
43.7126325682
 30
0.0
  0
SPLINE
  5
2E6
100
AcDbEntity
  8
0
100
AcDbSpline
 62
7
  6
CONTINUOUS
 70
0
 71
3
 72
12
 73
8
 74
0
 42
0.0000001
 43
0.0000001
 44
0.0000000001
 40
0.0
 40
0.0
 40
0.0
 40
0.0
 40
0.1081687912
 40
0.2183555695
 40
0.4513113955
 40
0.7105889062
 40
1.0
 40
1.0
 40
1.0
 40
1.0
 10
23.1619107241
 20
45.0009967505
 30
0.0
 10
23.176489798
 20
45.0094062133
 30
0.0
 10
23.2074385011
 20
45.0238881053
 30
0.0
 10
23.2753734919
 20
45.0427378387
 30
0.0
 10
23.3705888108
 20
45.0452651401
 30
0.0
 10
23.4897722603
 20
45.0163900671
 30
0.0
 10
23.5674011931
 20
44.979500991
 30
0.0
 10
23.6063994682
 20
44.9569858357
 30
0.0
  0
SPLINE
  5
2E7
100
AcDbEntity
  8
0
100
AcDbSpline
 62
7
  6
CONTINUOUS
 70
0
 71
3
 72
14
 73
10
 74
0
 42
0.0000001
 43
0.0000001
 44
0.0000000001
 40
0.0
 40
0.0
 40
0.0
 40
0.0
 40
0.108046144
 40
0.2181359093
 40
0.3321085861
 40
0.4514831362
 40
0.5774302378
 40
0.7107534897
 40
1.0
 40
1.0
 40
1.0
 40
1.0
 10
23.1718676057
 20
47.4205954993
 30
0.0
 10
23.1978943835
 20
47.4356219778
 30
0.0
 10
23.2531494995
 20
47.4615151398
 30
0.0
 10
23.3425722179
 20
47.4862118083
 30
0.0
 10
23.4378811997
 20
47.4968586904
 30
0.0
 10
23.5380756112
 20
47.4933818095
 30
0.0
 10
23.6422225021
 20
47.4759172931
 30
0.0
 10
23.788938544
 20
47.4331192777
 30
0.0
 10
23.8959325599
 20
47.382212162
 30
0.0
 10
23.9656082175
 20
47.3419858124
 30
0.0
  0
SPLINE
  5
2E8
100
AcDbEntity
  8
0
100
AcDbSpline
 62
7
  6
CONTINUOUS
 70
0
 71
3
 72
14
 73
10
 74
0
 42
0.0000001
 43
0.0000001
 44
0.0000000001
 40
0.0
 40
0.0
 40
0.0
 40
0.0
 40
0.1080456362
 40
0.2181349707
 40
0.332107362
 40
0.4514818058
 40
0.577428993
 40
0.7107525123
 40
1.0
 40
1.0
 40
1.0
 40
1.0
 10
22.8126588564
 20
47.2132074692
 30
0.0
 10
22.7866315035
 20
47.1981806588
 30
0.0
 10
22.7365785581
 20
47.1632742756
 30
0.0
 10
22.6704777372
 20
47.0981787287
 30
0.0
 10
22.6136016479
 20
47.0209600794
 30
0.0
 10
22.5665147807
 20
46.9324481657
 30
0.0
 10
22.5295657584
 20
46.8335190634
 30
0.0
 10
22.493272085
 20
46.6850555916
 30
0.0
 10
22.4838627795
 20
46.5669388844
 30
0.0
 10
22.4838627795
 20
46.4864823928
 30
0.0
  0
SPLINE
  5
2E9
100
AcDbEntity
  8
0
100
AcDbSpline
 62
7
  6
CONTINUOUS
 70
0
 71
3
 72
16
 73
12
 74
0
 42
0.0000001
 43
0.0000001
 44
0.0000000001
 40
0.0
 40
0.0
 40
0.0
 40
0.0
 40
0.0980465385
 40
0.1525473284
 40
0.2105764837
 40
0.3359400815
 40
0.470672367
 40
0.609825734
 40
0.7478618235
 40
0.8794674892
 40
1.0
 40
1.0
 40
1.0
 40
1.0
 10
11.3515699227
 20
48.9925560449
 30
0.0
 10
11.3304604304
 20
48.9460694294
 30
0.0
 10
11.3101779368
 20
48.8678010983
 30
0.0
 10
11.3020171833
 20
48.7583894328
 30
0.0
 10
11.3061570296
 20
48.6343329621
 30
0.0
 10
11.3360904054
 20
48.4704622106
 30
0.0
 10
11.4053752269
 20
48.2736764522
 30
0.0
 10
11.5050623375
 20
48.0829514678
 30
0.0
 10
11.6293708973
 20
47.9092383612
 30
0.0
 10
11.7711298904
 20
47.7626619251
 30
0.0
 10
11.8776810919
 20
47.6843412685
 30
0.0
 10
11.9320366002
 20
47.6529598111
 30
0.0
  0
SPLINE
  5
2EA
100
AcDbEntity
  8
0
100
AcDbSpline
 62
7
  6
CONTINUOUS
 70
0
 71
3
 72
12
 73
8
 74
0
 42
0.0000001
 43
0.0000001
 44
0.0000000001
 40
0.0
 40
0.0
 40
0.0
 40
0.0
 40
0.1081687912
 40
0.2183555695
 40
0.4513113955
 40
0.7105889062
 40
1.0
 40
1.0
 40
1.0
 40
1.0
 10
11.1283391068
 20
48.9413239933
 30
0.0
 10
11.1429181807
 20
48.9497334562
 30
0.0
 10
11.1738668838
 20
48.9642153482
 30
0.0
 10
11.2418018746
 20
48.9830650815
 30
0.0
 10
11.3370171935
 20
48.9855923829
 30
0.0
 10
11.456200643
 20
48.9567173099
 30
0.0
 10
11.5338295758
 20
48.9198282338
 30
0.0
 10
11.5728278509
 20
48.8973130786
 30
0.0
  0
SPLINE
  5
2EB
100
AcDbEntity
  8
0
100
AcDbSpline
 62
7
  6
CONTINUOUS
 70
0
 71
3
 72
14
 73
10
 74
0
 42
0.0000001
 43
0.0000001
 44
0.0000000001
 40
0.0
 40
0.0
 40
0.0
 40
0.0
 40
0.108046144
 40
0.2181359093
 40
0.3321085861
 40
0.4514831362
 40
0.5774302378
 40
0.7107534897
 40
1.0
 40
1.0
 40
1.0
 40
1.0
 10
11.1382959884
 20
51.3609227422
 30
0.0
 10
11.1643227662
 20
51.3759492206
 30
0.0
 10
11.2195778822
 20
51.4018423826
 30
0.0
 10
11.3090006006
 20
51.4265390511
 30
0.0
 10
11.4043095824
 20
51.4371859332
 30
0.0
 10
11.5045039939
 20
51.4337090523
 30
0.0
 10
11.6086508848
 20
51.4162445359
 30
0.0
 10
11.7553669267
 20
51.3734465205
 30
0.0
 10
11.8623609426
 20
51.3225394048
 30
0.0
 10
11.9320366002
 20
51.2823130552
 30
0.0
  0
SPLINE
  5
2EC
100
AcDbEntity
  8
0
100
AcDbSpline
 62
7
  6
CONTINUOUS
 70
0
 71
3
 72
14
 73
10
 74
0
 42
0.0000001
 43
0.0000001
 44
0.0000000001
 40
0.0
 40
0.0
 40
0.0
 40
0.0
 40
0.1080456362
 40
0.2181349707
 40
0.332107362
 40
0.4514818058
 40
0.577428993
 40
0.7107525123
 40
1.0
 40
1.0
 40
1.0
 40
1.0
 10
10.7790872391
 20
51.153534712
 30
0.0
 10
10.7530598863
 20
51.1385079016
 30
0.0
 10
10.7030069408
 20
51.1036015184
 30
0.0
 10
10.6369061199
 20
51.0385059715
 30
0.0
 10
10.5800300306
 20
50.9612873222
 30
0.0
 10
10.5329431634
 20
50.8727754085
 30
0.0
 10
10.4959941411
 20
50.7738463062
 30
0.0
 10
10.4597004677
 20
50.6253828344
 30
0.0
 10
10.4502911622
 20
50.5072661272
 30
0.0
 10
10.4502911622
 20
50.4268096357
 30
0.0
  0
SPLINE
  5
2ED
100
AcDbEntity
  8
0
100
AcDbSpline
 62
7
  6
CONTINUOUS
 70
0
 71
3
 72
16
 73
12
 74
0
 42
0.0000001
 43
0.0000001
 44
0.0000000001
 40
0.0
 40
0.0
 40
0.0
 40
0.0
 40
0.0980465385
 40
0.1525473284
 40
0.2105764837
 40
0.3359400815
 40
0.470672367
 40
0.609825734
 40
0.7478618235
 40
0.8794674892
 40
1.0
 40
1.0
 40
1.0
 40
1.0
 10
20.7808781075
 20
43.5486655833
 30
0.0
 10
20.7597686152
 20
43.5021789679
 30
0.0
 10
20.7394861216
 20
43.4239106367
 30
0.0
 10
20.7313253681
 20
43.3144989713
 30
0.0
 10
20.7354652145
 20
43.1904425005
 30
0.0
 10
20.7653985903
 20
43.0265717491
 30
0.0
 10
20.8346834118
 20
42.8297859906
 30
0.0
 10
20.9343705224
 20
42.6390610063
 30
0.0
 10
21.0586790821
 20
42.4653478997
 30
0.0
 10
21.2004380752
 20
42.3187714636
 30
0.0
 10
21.3069892767
 20
42.2404508069
 30
0.0
 10
21.361344785
 20
42.2090693495
 30
0.0
  0
SPLINE
  5
2EE
100
AcDbEntity
  8
0
100
AcDbSpline
 62
7
  6
CONTINUOUS
 70
0
 71
3
 72
12
 73
8
 74
0
 42
0.0000001
 43
0.0000001
 44
0.0000000001
 40
0.0
 40
0.0
 40
0.0
 40
0.0
 40
0.1081687912
 40
0.2183555695
 40
0.4513113955
 40
0.7105889062
 40
1.0
 40
1.0
 40
1.0
 40
1.0
 10
20.5576472917
 20
43.4974335318
 30
0.0
 10
20.5722263656
 20
43.5058429946
 30
0.0
 10
20.6031750686
 20
43.5203248866
 30
0.0
 10
20.6711100594
 20
43.5391746199
 30
0.0
 10
20.7663253784
 20
43.5417019214
 30
0.0
 10
20.8855088279
 20
43.5128268484
 30
0.0
 10
20.9631377607
 20
43.4759377723
 30
0.0
 10
21.0021360357
 20
43.453422617
 30
0.0
  0
SPLINE
  5
2EF
100
AcDbEntity
  8
0
100
AcDbSpline
 62
7
  6
CONTINUOUS
 70
0
 71
3
 72
14
 73
10
 74
0
 42
0.0000001
 43
0.0000001
 44
0.0000000001
 40
0.0
 40
0.0
 40
0.0
 40
0.0
 40
0.108046144
 40
0.2181359093
 40
0.3321085861
 40
0.4514831362
 40
0.5774302378
 40
0.7107534897
 40
1.0
 40
1.0
 40
1.0
 40
1.0
 10
20.5676041732
 20
45.9170322806
 30
0.0
 10
20.5936309511
 20
45.9320587591
 30
0.0
 10
20.648886067
 20
45.9579519211
 30
0.0
 10
20.7383087854
 20
45.9826485896
 30
0.0
 10
20.8336177672
 20
45.9932954716
 30
0.0
 10
20.9338121787
 20
45.9898185908
 30
0.0
 10
21.0379590696
 20
45.9723540744
 30
0.0
 10
21.1846751115
 20
45.929556059
 30
0.0
 10
21.2916691274
 20
45.8786489433
 30
0.0
 10
21.361344785
 20
45.8384225937
 30
0.0
  0
SPLINE
  5
2F0
100
AcDbEntity
  8
0
100
AcDbSpline
 62
7
  6
CONTINUOUS
 70
0
 71
3
 72
14
 73
10
 74
0
 42
0.0000001
 43
0.0000001
 44
0.0000000001
 40
0.0
 40
0.0
 40
0.0
 40
0.0
 40
0.1080456362
 40
0.2181349707
 40
0.332107362
 40
0.4514818058
 40
0.577428993
 40
0.7107525123
 40
1.0
 40
1.0
 40
1.0
 40
1.0
 10
20.2083954239
 20
45.7096442505
 30
0.0
 10
20.1823680711
 20
45.6946174401
 30
0.0
 10
20.1323151256
 20
45.6597110569
 30
0.0
 10
20.0662143047
 20
45.59461551
 30
0.0
 10
20.0093382155
 20
45.5173968606
 30
0.0
 10
19.9622513483
 20
45.428884947
 30
0.0
 10
19.925302326
 20
45.3299558447
 30
0.0
 10
19.8890086525
 20
45.1814923729
 30
0.0
 10
19.879599347
 20
45.0633756656
 30
0.0
 10
19.879599347
 20
44.9829191741
 30
0.0
  0
SPLINE
  5
2F1
100
AcDbEntity
  8
0
100
AcDbSpline
 62
7
  6
CONTINUOUS
 70
0
 71
3
 72
13
 73
9
 74
0
 42
0.0000001
 43
0.0000001
 44
0.0000000001
 40
0.0
 40
0.0
 40
0.0
 40
0.0
 40
0.203326511
 40
0.3207347128
 40
0.4472550882
 40
0.5810025869
 40
0.7196014837
 40
1.0
 40
1.0
 40
1.0
 40
1.0
 10
23.0258542751
 20
55.7326670253
 30
0.0
 10
22.994989977
 20
55.6646987039
 30
0.0
 10
22.973431451
 20
55.545067611
 30
0.0
 10
22.9804319251
 20
55.3810276268
 30
0.0
 10
23.0046047191
 20
55.2440082625
 30
0.0
 10
23.0467070767
 20
55.10345672
 30
0.0
 10
23.1253499709
 20
54.9161117235
 30
0.0
 10
23.2062130723
 20
54.7836195566
 30
0.0
 10
23.2685848676
 20
54.70172255
 30
0.0
  0
SPLINE
  5
2F2
100
AcDbEntity
  8
0
100
AcDbSpline
 62
7
  6
CONTINUOUS
 70
0
 71
3
 72
10
 73
6
 74
0
 42
0.0000001
 43
0.0000001
 44
0.0000000001
 40
0.0
 40
0.0
 40
0.0
 40
0.0
 40
0.523153644
 40
0.7689172772
 40
1.0
 40
1.0
 40
1.0
 40
1.0
 10
23.2685848676
 20
54.70172255
 30
0.0
 10
23.3171887067
 20
54.6379034964
 30
0.0
 10
23.3964969614
 20
54.5494975176
 30
0.0
 10
23.5145944857
 20
54.4514049437
 30
0.0
 10
23.5756340895
 20
54.4107874593
 30
0.0
 10
23.6063209526
 20
54.3930707915
 30
0.0
  0
SPLINE
  5
2F3
100
AcDbEntity
  8
0
100
AcDbSpline
 62
7
  6
CONTINUOUS
 70
0
 71
3
 72
12
 73
8
 74
0
 42
0.0000001
 43
0.0000001
 44
0.0000000001
 40
0.0
 40
0.0
 40
0.0
 40
0.0
 40
0.1081687912
 40
0.2183555695
 40
0.4513113955
 40
0.7105889062
 40
1.0
 40
1.0
 40
1.0
 40
1.0
 10
22.8026234592
 20
55.6814349738
 30
0.0
 10
22.8172025331
 20
55.6898444366
 30
0.0
 10
22.8481512362
 20
55.7043263286
 30
0.0
 10
22.916086227
 20
55.7231760619
 30
0.0
 10
23.0113015459
 20
55.7257033634
 30
0.0
 10
23.1304849954
 20
55.6968282904
 30
0.0
 10
23.2081139282
 20
55.6599392142
 30
0.0
 10
23.2471122033
 20
55.637424059
 30
0.0
  0
SPLINE
  5
2F4
100
AcDbEntity
  8
0
100
AcDbSpline
 62
7
  6
CONTINUOUS
 70
0
 71
3
 72
14
 73
10
 74
0
 42
0.0000001
 43
0.0000001
 44
0.0000000001
 40
0.0
 40
0.0
 40
0.0
 40
0.0
 40
0.108046144
 40
0.2181359093
 40
0.3321085861
 40
0.4514831362
 40
0.5774302378
 40
0.7107534897
 40
1.0
 40
1.0
 40
1.0
 40
1.0
 10
22.8125803408
 20
58.1010337226
 30
0.0
 10
22.8386071186
 20
58.116060201
 30
0.0
 10
22.8938622346
 20
58.141953363
 30
0.0
 10
22.983284953
 20
58.1666500315
 30
0.0
 10
23.0785939348
 20
58.1772969136
 30
0.0
 10
23.1787883463
 20
58.1738200327
 30
0.0
 10
23.2829352372
 20
58.1563555163
 30
0.0
 10
23.4296512791
 20
58.1135575009
 30
0.0
 10
23.536645295
 20
58.0626503853
 30
0.0
 10
23.6063209526
 20
58.0224240356
 30
0.0
  0
SPLINE
  5
2F5
100
AcDbEntity
  8
0
100
AcDbSpline
 62
7
  6
CONTINUOUS
 70
0
 71
3
 72
14
 73
10
 74
0
 42
0.0000001
 43
0.0000001
 44
0.0000000001
 40
0.0
 40
0.0
 40
0.0
 40
0.0
 40
0.1080456362
 40
0.2181349707
 40
0.332107362
 40
0.4514818058
 40
0.577428993
 40
0.7107525123
 40
1.0
 40
1.0
 40
1.0
 40
1.0
 10
22.4533715915
 20
57.8936456924
 30
0.0
 10
22.4273442387
 20
57.878618882
 30
0.0
 10
22.3772912932
 20
57.8437124989
 30
0.0
 10
22.3111904723
 20
57.7786169519
 30
0.0
 10
22.254314383
 20
57.7013983026
 30
0.0
 10
22.2072275158
 20
57.6128863889
 30
0.0
 10
22.1702784935
 20
57.5139572867
 30
0.0
 10
22.1339848201
 20
57.3654938149
 30
0.0
 10
22.1245755146
 20
57.2473771076
 30
0.0
 10
22.1245755146
 20
57.1669206161
 30
0.0
  0
SPLINE
  5
2F6
100
AcDbEntity
  8
0
100
AcDbSpline
 62
7
  6
CONTINUOUS
 70
0
 71
3
 72
16
 73
12
 74
0
 42
0.0000001
 43
0.0000001
 44
0.0000000001
 40
0.0
 40
0.0
 40
0.0
 40
0.0
 40
0.0980465385
 40
0.1525473284
 40
0.2105764837
 40
0.3359400815
 40
0.470672367
 40
0.609825734
 40
0.7478618235
 40
0.8794674892
 40
1.0
 40
1.0
 40
1.0
 40
1.0
 10
32.4551624599
 20
50.2887765638
 30
0.0
 10
32.4340529676
 20
50.2422899483
 30
0.0
 10
32.413770474
 20
50.1640216172
 30
0.0
 10
32.4056097205
 20
50.0546099517
 30
0.0
 10
32.4097495669
 20
49.9305534809
 30
0.0
 10
32.4396829427
 20
49.7666827295
 30
0.0
 10
32.5089677642
 20
49.5698969711
 30
0.0
 10
32.6086548748
 20
49.3791719867
 30
0.0
 10
32.7329634345
 20
49.2054588801
 30
0.0
 10
32.8747224276
 20
49.058882444
 30
0.0
 10
32.9812736291
 20
48.9805617873
 30
0.0
 10
33.0356291374
 20
48.94918033
 30
0.0
  0
SPLINE
  5
2F7
100
AcDbEntity
  8
0
100
AcDbSpline
 62
7
  6
CONTINUOUS
 70
0
 71
3
 72
12
 73
8
 74
0
 42
0.0000001
 43
0.0000001
 44
0.0000000001
 40
0.0
 40
0.0
 40
0.0
 40
0.0
 40
0.1081687912
 40
0.2183555695
 40
0.4513113955
 40
0.7105889062
 40
1.0
 40
1.0
 40
1.0
 40
1.0
 10
32.2319316441
 20
50.2375445122
 30
0.0
 10
32.246510718
 20
50.2459539751
 30
0.0
 10
32.277459421
 20
50.260435867
 30
0.0
 10
32.3453944118
 20
50.2792856004
 30
0.0
 10
32.4406097308
 20
50.2818129018
 30
0.0
 10
32.5597931803
 20
50.2529378288
 30
0.0
 10
32.6374221131
 20
50.2160487527
 30
0.0
 10
32.6764203881
 20
50.1935335974
 30
0.0
  0
SPLINE
  5
2F8
100
AcDbEntity
  8
0
100
AcDbSpline
 62
7
  6
CONTINUOUS
 70
0
 71
3
 72
14
 73
10
 74
0
 42
0.0000001
 43
0.0000001
 44
0.0000000001
 40
0.0
 40
0.0
 40
0.0
 40
0.0
 40
0.108046144
 40
0.2181359093
 40
0.3321085861
 40
0.4514831362
 40
0.5774302378
 40
0.7107534897
 40
1.0
 40
1.0
 40
1.0
 40
1.0
 10
32.2418885256
 20
52.6571432611
 30
0.0
 10
32.2679153035
 20
52.6721697395
 30
0.0
 10
32.3231704194
 20
52.6980629015
 30
0.0
 10
32.4125931378
 20
52.72275957
 30
0.0
 10
32.5079021196
 20
52.7334064521
 30
0.0
 10
32.6080965311
 20
52.7299295712
 30
0.0
 10
32.712243422
 20
52.7124650548
 30
0.0
 10
32.8589594639
 20
52.6696670394
 30
0.0
 10
32.9659534798
 20
52.6187599237
 30
0.0
 10
33.0356291374
 20
52.5785335741
 30
0.0
  0
SPLINE
  5
2F9
100
AcDbEntity
  8
0
100
AcDbSpline
 62
7
  6
CONTINUOUS
 70
0
 71
3
 72
14
 73
10
 74
0
 42
0.0000001
 43
0.0000001
 44
0.0000000001
 40
0.0
 40
0.0
 40
0.0
 40
0.0
 40
0.1080456362
 40
0.2181349707
 40
0.332107362
 40
0.4514818058
 40
0.577428993
 40
0.7107525123
 40
1.0
 40
1.0
 40
1.0
 40
1.0
 10
31.8826797763
 20
52.4497552309
 30
0.0
 10
31.8566524235
 20
52.4347284205
 30
0.0
 10
31.806599478
 20
52.3998220373
 30
0.0
 10
31.7404986571
 20
52.3347264904
 30
0.0
 10
31.6836225679
 20
52.2575078411
 30
0.0
 10
31.6365357007
 20
52.1689959274
 30
0.0
 10
31.5995866784
 20
52.0700668251
 30
0.0
 10
31.5632930049
 20
51.9216033533
 30
0.0
 10
31.5538836994
 20
51.8034866461
 30
0.0
 10
31.5538836994
 20
51.7230301545
 30
0.0
  0
SPLINE
  5
2FA
100
AcDbEntity
  8
0
100
AcDbSpline
 62
7
  6
CONTINUOUS
 70
0
 71
3
 72
13
 73
9
 74
0
 42
0.0000001
 43
0.0000001
 44
0.0000000001
 40
0.0
 40
0.0
 40
0.0
 40
0.0
 40
0.2033804354
 40
0.320613415
 40
0.4469031841
 40
0.5804519018
 40
0.7189792722
 40
1.0
 40
1.0
 40
1.0
 40
1.0
 10
18.3561405341
 20
53.0366226331
 30
0.0
 10
18.3257847944
 20
52.969774242
 30
0.0
 10
18.3041653005
 20
52.8523623013
 30
0.0
 10
18.3101390311
 20
52.6911507819
 30
0.0
 10
18.3329718292
 20
52.5564947997
 30
0.0
 10
18.3732587963
 20
52.4181619564
 30
0.0
 10
18.449043958
 20
52.2331777728
 30
0.0
 10
18.5272987773
 20
52.1019634012
 30
0.0
 10
18.5877387523
 20
52.0204888512
 30
0.0
  0
SPLINE
  5
2FB
100
AcDbEntity
  8
0
100
AcDbSpline
 62
7
  6
CONTINUOUS
 70
0
 71
3
 72
10
 73
6
 74
0
 42
0.0000001
 43
0.0000001
 44
0.0000000001
 40
0.0
 40
0.0
 40
0.0
 40
0.0
 40
0.5234851517
 40
0.7692793149
 40
1.0
 40
1.0
 40
1.0
 40
1.0
 10
18.5877387523
 20
52.0204888512
 30
0.0
 10
18.6374847318
 20
51.9534300662
 30
0.0
 10
18.7191241233
 20
51.8605615151
 30
0.0
 10
18.8413778586
 20
51.7578052606
 30
0.0
 10
18.9047373841
 20
51.7154260365
 30
0.0
 10
18.9366072116
 20
51.6970263993
 30
0.0
  0
SPLINE
  5
2FC
100
AcDbEntity
  8
0
100
AcDbSpline
 62
7
  6
CONTINUOUS
 70
0
 71
3
 72
12
 73
8
 74
0
 42
0.0000001
 43
0.0000001
 44
0.0000000001
 40
0.0
 40
0.0
 40
0.0
 40
0.0
 40
0.1081687912
 40
0.2183555695
 40
0.4513113955
 40
0.7105889062
 40
1.0
 40
1.0
 40
1.0
 40
1.0
 10
18.1329097183
 20
52.9853905816
 30
0.0
 10
18.1474887922
 20
52.9938000444
 30
0.0
 10
18.1784374952
 20
53.0082819364
 30
0.0
 10
18.2463724861
 20
53.0271316697
 30
0.0
 10
18.341587805
 20
53.0296589712
 30
0.0
 10
18.4607712545
 20
53.0007838982
 30
0.0
 10
18.5384001873
 20
52.963894822
 30
0.0
 10
18.5773984623
 20
52.9413796668
 30
0.0
  0
SPLINE
  5
2FD
100
AcDbEntity
  8
0
100
AcDbSpline
 62
7
  6
CONTINUOUS
 70
0
 71
3
 72
20
 73
16
 74
0
 42
0.0000001
 43
0.0000001
 44
0.0000000001
 40
0.0
 40
0.0
 40
0.0
 40
0.0
 40
0.0623641411
 40
0.128804205
 40
0.2703039228
 40
0.4173616336
 40
0.5616108901
 40
0.6302487174
 40
0.6953759123
 40
0.7563588722
 40
0.8128293967
 40
0.8647615268
 40
0.9125646103
 40
0.9571664467
 40
1.0
 40
1.0
 40
1.0
 40
1.0
 10
18.5773984623
 20
52.9413796668
 30
0.0
 10
18.6093100956
 20
52.9229558936
 30
0.0
 10
18.6727474311
 20
52.8805196018
 30
0.0
 10
18.7951625068
 20
52.777573715
 30
0.0
 10
18.9345008484
 20
52.6190021791
 30
0.0
 10
19.0689811679
 20
52.4002468977
 30
0.0
 10
19.1491753418
 20
52.2019326821
 30
0.0
 10
19.1887553077
 20
52.0422715427
 30
0.0
 10
19.2049280853
 20
51.9281129252
 30
0.0
 10
19.2076678542
 20
51.8199980405
 30
0.0
 10
19.1969073322
 20
51.7201488943
 30
0.0
 10
19.1727079549
 20
51.6306243219
 30
0.0
 10
19.1353553434
 20
51.5533007143
 30
0.0
 10
19.0853558096
 20
51.4900789526
 30
0.0
 10
19.0438100016
 20
51.4582729031
 30
0.0
 10
19.0218872063
 20
51.4456274544
 30
0.0
  0
SPLINE
  5
2FE
100
AcDbEntity
  8
0
100
AcDbSpline
 62
7
  6
CONTINUOUS
 70
0
 71
3
 72
20
 73
16
 74
0
 42
0.0000001
 43
0.0000001
 44
0.0000000001
 40
0.0
 40
0.0
 40
0.0
 40
0.0
 40
0.0623641411
 40
0.128804205
 40
0.2703039228
 40
0.4173616336
 40
0.5616108901
 40
0.6302487174
 40
0.6953759123
 40
0.7563588722
 40
0.8128293967
 40
0.8647615268
 40
0.9125646103
 40
0.9571664467
 40
1.0
 40
1.0
 40
1.0
 40
1.0
 10
28.0067066471
 20
47.4974892053
 30
0.0
 10
28.0386182804
 20
47.479065432
 30
0.0
 10
28.1020556159
 20
47.4366291403
 30
0.0
 10
28.2244706916
 20
47.3336832535
 30
0.0
 10
28.3638090333
 20
47.1751117176
 30
0.0
 10
28.4982893528
 20
46.9563564362
 30
0.0
 10
28.5784835266
 20
46.7580422206
 30
0.0
 10
28.6180634925
 20
46.5983810811
 30
0.0
 10
28.6342362701
 20
46.4842224636
 30
0.0
 10
28.6369760391
 20
46.3761075789
 30
0.0
 10
28.626215517
 20
46.2762584327
 30
0.0
 10
28.6020161397
 20
46.1867338604
 30
0.0
 10
28.5646635282
 20
46.1094102527
 30
0.0
 10
28.5146639945
 20
46.0461884911
 30
0.0
 10
28.4731181865
 20
46.0143824416
 30
0.0
 10
28.4511953912
 20
46.0017369928
 30
0.0
  0
SPLINE
  5
2FF
100
AcDbEntity
  8
0
100
AcDbSpline
 62
7
  6
CONTINUOUS
 70
0
 71
3
 72
9
 73
5
 74
0
 42
0.0000001
 43
0.0000001
 44
0.0000000001
 40
0.0
 40
0.0
 40
0.0
 40
0.0
 40
0.5221455342
 40
1.0
 40
1.0
 40
1.0
 40
1.0
 10
28.3659153965
 20
46.2531359378
 30
0.0
 10
28.398337632
 20
46.2344173749
 30
0.0
 10
28.4629426112
 20
46.2026761498
 30
0.0
 10
28.5320338896
 20
46.1818322882
 30
0.0
 10
28.5656917284
 20
46.1754259456
 30
0.0
  0
SPLINE
  5
300
100
AcDbEntity
  8
0
100
AcDbSpline
 62
7
  6
CONTINUOUS
 70
0
 71
3
 72
15
 73
11
 74
0
 42
0.0000001
 43
0.0000001
 44
0.0000000001
 40
0.0
 40
0.0
 40
0.0
 40
0.0
 40
0.1141465952
 40
0.2373352439
 40
0.366975646
 40
0.4999989181
 40
0.6330223406
 40
0.7626631822
 40
0.8858525235
 40
1.0
 40
1.0
 40
1.0
 40
1.0
 10
28.3659153965
 20
49.8824891819
 30
0.0
 10
28.4427564399
 20
49.8381259884
 30
0.0
 10
28.5945416369
 20
49.7317150413
 30
0.0
 10
28.8034024622
 20
49.5363345489
 30
0.0
 10
28.9958549512
 20
49.3053468263
 30
0.0
 10
29.164695813
 20
49.0474806662
 30
0.0
 10
29.3035954856
 20
48.7723274659
 30
0.0
 10
29.4074123006
 20
48.490164477
 30
0.0
 10
29.472188478
 20
48.2115943479
 30
0.0
 10
29.4884520851
 20
48.0269379744
 30
0.0
 10
29.4884520851
 20
47.9382093969
 30
0.0
  0
SPLINE
  5
301
100
AcDbEntity
  8
0
100
AcDbSpline
 62
7
  6
CONTINUOUS
 70
0
 71
3
 72
20
 73
16
 74
0
 42
0.0000001
 43
0.0000001
 44
0.0000000001
 40
0.0
 40
0.0
 40
0.0
 40
0.0
 40
0.0623641411
 40
0.128804205
 40
0.2703039228
 40
0.4173616336
 40
0.5616108901
 40
0.6302487174
 40
0.6953759123
 40
0.7563588722
 40
0.8128293967
 40
0.8647615268
 40
0.9125646103
 40
0.9571664467
 40
1.0
 40
1.0
 40
1.0
 40
1.0
 10
14.1770912833
 20
50.4008762973
 30
0.0
 10
14.2090029166
 20
50.382452524
 30
0.0
 10
14.2724402521
 20
50.3400162323
 30
0.0
 10
14.3948553278
 20
50.2370703455
 30
0.0
 10
14.5341936694
 20
50.0784988096
 30
0.0
 10
14.6686739889
 20
49.8597435281
 30
0.0
 10
14.7488681628
 20
49.6614293126
 30
0.0
 10
14.7884481287
 20
49.5017681731
 30
0.0
 10
14.8046209063
 20
49.3876095556
 30
0.0
 10
14.8073606752
 20
49.2794946709
 30
0.0
 10
14.7966001532
 20
49.1796455247
 30
0.0
 10
14.7724007759
 20
49.0901209524
 30
0.0
 10
14.7350481644
 20
49.0127973447
 30
0.0
 10
14.6850486306
 20
48.9495755831
 30
0.0
 10
14.6435028227
 20
48.9177695336
 30
0.0
 10
14.6215800274
 20
48.9051240848
 30
0.0
  0
SPLINE
  5
302
100
AcDbEntity
  8
0
100
AcDbSpline
 62
7
  6
CONTINUOUS
 70
0
 71
3
 72
9
 73
5
 74
0
 42
0.0000001
 43
0.0000001
 44
0.0000000001
 40
0.0
 40
0.0
 40
0.0
 40
0.0
 40
0.5221455342
 40
1.0
 40
1.0
 40
1.0
 40
1.0
 10
14.5363000326
 20
49.1565230298
 30
0.0
 10
14.5687222681
 20
49.1378044669
 30
0.0
 10
14.6333272473
 20
49.1060632418
 30
0.0
 10
14.7024185258
 20
49.0852193802
 30
0.0
 10
14.7360763646
 20
49.0788130376
 30
0.0
  0
SPLINE
  5
303
100
AcDbEntity
  8
0
100
AcDbSpline
 62
7
  6
CONTINUOUS
 70
0
 71
3
 72
15
 73
11
 74
0
 42
0.0000001
 43
0.0000001
 44
0.0000000001
 40
0.0
 40
0.0
 40
0.0
 40
0.0
 40
0.1141465952
 40
0.2373352439
 40
0.366975646
 40
0.4999989181
 40
0.6330223406
 40
0.7626631822
 40
0.8858525235
 40
1.0
 40
1.0
 40
1.0
 40
1.0
 10
14.5363000326
 20
52.7858762739
 30
0.0
 10
14.6131410761
 20
52.7415130804
 30
0.0
 10
14.7649262731
 20
52.6351021333
 30
0.0
 10
14.9737870984
 20
52.4397216409
 30
0.0
 10
15.1662395873
 20
52.2087339183
 30
0.0
 10
15.3350804492
 20
51.9508677581
 30
0.0
 10
15.4739801217
 20
51.6757145579
 30
0.0
 10
15.5777969368
 20
51.3935515689
 30
0.0
 10
15.6425731142
 20
51.1149814399
 30
0.0
 10
15.6588367213
 20
50.9303250664
 30
0.0
 10
15.6588367213
 20
50.8415964889
 30
0.0
  0
SPLINE
  5
304
100
AcDbEntity
  8
0
100
AcDbSpline
 62
7
  6
CONTINUOUS
 70
0
 71
3
 72
20
 73
16
 74
0
 42
0.0000001
 43
0.0000001
 44
0.0000000001
 40
0.0
 40
0.0
 40
0.0
 40
0.0
 40
0.0623641411
 40
0.128804205
 40
0.2703039228
 40
0.4173616336
 40
0.5616108901
 40
0.6302487174
 40
0.6953759123
 40
0.7563588722
 40
0.8128293967
 40
0.8647615268
 40
0.9125646103
 40
0.9571664467
 40
1.0
 40
1.0
 40
1.0
 40
1.0
 10
23.6063994682
 20
44.9569858357
 30
0.0
 10
23.6383111014
 20
44.9385620625
 30
0.0
 10
23.7017484369
 20
44.8961257708
 30
0.0
 10
23.8241635126
 20
44.7931798839
 30
0.0
 10
23.9635018543
 20
44.6346083481
 30
0.0
 10
24.0979821738
 20
44.4158530666
 30
0.0
 10
24.1781763476
 20
44.217538851
 30
0.0
 10
24.2177563136
 20
44.0578777116
 30
0.0
 10
24.2339290912
 20
43.9437190941
 30
0.0
 10
24.2366688601
 20
43.8356042094
 30
0.0
 10
24.225908338
 20
43.7357550632
 30
0.0
 10
24.2017089607
 20
43.6462304909
 30
0.0
 10
24.1643563492
 20
43.5689068832
 30
0.0
 10
24.1143568155
 20
43.5056851216
 30
0.0
 10
24.0728110075
 20
43.473879072
 30
0.0
 10
24.0508882122
 20
43.4612336233
 30
0.0
  0
SPLINE
  5
305
100
AcDbEntity
  8
0
100
AcDbSpline
 62
7
  6
CONTINUOUS
 70
0
 71
3
 72
9
 73
5
 74
0
 42
0.0000001
 43
0.0000001
 44
0.0000000001
 40
0.0
 40
0.0
 40
0.0
 40
0.0
 40
0.5221455342
 40
1.0
 40
1.0
 40
1.0
 40
1.0
 10
23.9656082175
 20
43.7126325682
 30
0.0
 10
23.998030453
 20
43.6939140053
 30
0.0
 10
24.0626354322
 20
43.6621727803
 30
0.0
 10
24.1317267106
 20
43.6413289187
 30
0.0
 10
24.1653845494
 20
43.634922576
 30
0.0
  0
SPLINE
  5
306
100
AcDbEntity
  8
0
100
AcDbSpline
 62
7
  6
CONTINUOUS
 70
0
 71
3
 72
15
 73
11
 74
0
 42
0.0000001
 43
0.0000001
 44
0.0000000001
 40
0.0
 40
0.0
 40
0.0
 40
0.0
 40
0.1141465952
 40
0.2373352439
 40
0.366975646
 40
0.4999989181
 40
0.6330223406
 40
0.7626631822
 40
0.8858525235
 40
1.0
 40
1.0
 40
1.0
 40
1.0
 10
23.9656082175
 20
47.3419858124
 30
0.0
 10
24.0424492609
 20
47.2976226189
 30
0.0
 10
24.194234458
 20
47.1912116718
 30
0.0
 10
24.4030952832
 20
46.9958311794
 30
0.0
 10
24.5955477722
 20
46.7648434568
 30
0.0
 10
24.7643886341
 20
46.5069772966
 30
0.0
 10
24.9032883066
 20
46.2318240964
 30
0.0
 10
25.0071051216
 20
45.9496611074
 30
0.0
 10
25.071881299
 20
45.6710909784
 30
0.0
 10
25.0881449061
 20
45.4864346049
 30
0.0
 10
25.0881449061
 20
45.3977060274
 30
0.0
  0
SPLINE
  5
307
100
AcDbEntity
  8
0
100
AcDbSpline
 62
7
  6
CONTINUOUS
 70
0
 71
3
 72
20
 73
16
 74
0
 42
0.0000001
 43
0.0000001
 44
0.0000000001
 40
0.0
 40
0.0
 40
0.0
 40
0.0
 40
0.0623641411
 40
0.128804205
 40
0.2703039228
 40
0.4173616336
 40
0.5616108901
 40
0.6302487174
 40
0.6953759123
 40
0.7563588722
 40
0.8128293967
 40
0.8647615268
 40
0.9125646103
 40
0.9571664467
 40
1.0
 40
1.0
 40
1.0
 40
1.0
 10
11.5728278509
 20
48.8973130786
 30
0.0
 10
11.6047394841
 20
48.8788893053
 30
0.0
 10
11.6681768196
 20
48.8364530136
 30
0.0
 10
11.7905918953
 20
48.7335071267
 30
0.0
 10
11.929930237
 20
48.5749355909
 30
0.0
 10
12.0644105565
 20
48.3561803094
 30
0.0
 10
12.1446047303
 20
48.1578660938
 30
0.0
 10
12.1841846963
 20
47.9982049544
 30
0.0
 10
12.2003574739
 20
47.8840463369
 30
0.0
 10
12.2030972428
 20
47.7759314522
 30
0.0
 10
12.1923367207
 20
47.676082306
 30
0.0
 10
12.1681373434
 20
47.5865577337
 30
0.0
 10
12.1307847319
 20
47.509234126
 30
0.0
 10
12.0807851982
 20
47.4460123644
 30
0.0
 10
12.0392393902
 20
47.4142063149
 30
0.0
 10
12.0173165949
 20
47.4015608661
 30
0.0
  0
SPLINE
  5
308
100
AcDbEntity
  8
0
100
AcDbSpline
 62
7
  6
CONTINUOUS
 70
0
 71
3
 72
9
 73
5
 74
0
 42
0.0000001
 43
0.0000001
 44
0.0000000001
 40
0.0
 40
0.0
 40
0.0
 40
0.0
 40
0.5221455342
 40
1.0
 40
1.0
 40
1.0
 40
1.0
 10
11.9320366002
 20
47.6529598111
 30
0.0
 10
11.9644588357
 20
47.6342412481
 30
0.0
 10
12.0290638149
 20
47.6025000231
 30
0.0
 10
12.0981550933
 20
47.5816561615
 30
0.0
 10
12.1318129321
 20
47.5752498189
 30
0.0
  0
SPLINE
  5
309
100
AcDbEntity
  8
0
100
AcDbSpline
 62
7
  6
CONTINUOUS
 70
0
 71
3
 72
15
 73
11
 74
0
 42
0.0000001
 43
0.0000001
 44
0.0000000001
 40
0.0
 40
0.0
 40
0.0
 40
0.0
 40
0.1141465952
 40
0.2373352439
 40
0.366975646
 40
0.4999989181
 40
0.6330223406
 40
0.7626631822
 40
0.8858525235
 40
1.0
 40
1.0
 40
1.0
 40
1.0
 10
11.9320366002
 20
51.2823130552
 30
0.0
 10
12.0088776436
 20
51.2379498617
 30
0.0
 10
12.1606628407
 20
51.1315389146
 30
0.0
 10
12.3695236659
 20
50.9361584222
 30
0.0
 10
12.5619761549
 20
50.7051706996
 30
0.0
 10
12.7308170168
 20
50.4473045394
 30
0.0
 10
12.8697166893
 20
50.1721513392
 30
0.0
 10
12.9735335043
 20
49.8899883502
 30
0.0
 10
13.0383096818
 20
49.6114182212
 30
0.0
 10
13.0545732888
 20
49.4267618477
 30
0.0
 10
13.0545732888
 20
49.3380332702
 30
0.0
  0
SPLINE
  5
30A
100
AcDbEntity
  8
0
100
AcDbSpline
 62
7
  6
CONTINUOUS
 70
0
 71
3
 72
20
 73
16
 74
0
 42
0.0000001
 43
0.0000001
 44
0.0000000001
 40
0.0
 40
0.0
 40
0.0
 40
0.0
 40
0.0623641411
 40
0.128804205
 40
0.2703039228
 40
0.4173616336
 40
0.5616108901
 40
0.6302487174
 40
0.6953759123
 40
0.7563588722
 40
0.8128293967
 40
0.8647615268
 40
0.9125646103
 40
0.9571664467
 40
1.0
 40
1.0
 40
1.0
 40
1.0
 10
21.0021360357
 20
43.453422617
 30
0.0
 10
21.034047669
 20
43.4349988438
 30
0.0
 10
21.0974850045
 20
43.3925625521
 30
0.0
 10
21.2199000802
 20
43.2896166652
 30
0.0
 10
21.3592384218
 20
43.1310451294
 30
0.0
 10
21.4937187413
 20
42.9122898479
 30
0.0
 10
21.5739129152
 20
42.7139756323
 30
0.0
 10
21.6134928811
 20
42.5543144929
 30
0.0
 10
21.6296656587
 20
42.4401558754
 30
0.0
 10
21.6324054276
 20
42.3320409907
 30
0.0
 10
21.6216449056
 20
42.2321918445
 30
0.0
 10
21.5974455283
 20
42.1426672721
 30
0.0
 10
21.5600929168
 20
42.0653436645
 30
0.0
 10
21.510093383
 20
42.0021219029
 30
0.0
 10
21.468547575
 20
41.9703158533
 30
0.0
 10
21.4466247797
 20
41.9576704046
 30
0.0
  0
SPLINE
  5
30B
100
AcDbEntity
  8
0
100
AcDbSpline
 62
7
  6
CONTINUOUS
 70
0
 71
3
 72
9
 73
5
 74
0
 42
0.0000001
 43
0.0000001
 44
0.0000000001
 40
0.0
 40
0.0
 40
0.0
 40
0.0
 40
0.5221455342
 40
1.0
 40
1.0
 40
1.0
 40
1.0
 10
21.361344785
 20
42.2090693495
 30
0.0
 10
21.3937670205
 20
42.1903507866
 30
0.0
 10
21.4583719997
 20
42.1586095616
 30
0.0
 10
21.5274632781
 20
42.1377657
 30
0.0
 10
21.5611211169
 20
42.1313593573
 30
0.0
  0
SPLINE
  5
30C
100
AcDbEntity
  8
0
100
AcDbSpline
 62
7
  6
CONTINUOUS
 70
0
 71
3
 72
15
 73
11
 74
0
 42
0.0000001
 43
0.0000001
 44
0.0000000001
 40
0.0
 40
0.0
 40
0.0
 40
0.0
 40
0.1141465952
 40
0.2373352439
 40
0.366975646
 40
0.4999989181
 40
0.6330223406
 40
0.7626631822
 40
0.8858525235
 40
1.0
 40
1.0
 40
1.0
 40
1.0
 10
21.361344785
 20
45.8384225937
 30
0.0
 10
21.4381858285
 20
45.7940594002
 30
0.0
 10
21.5899710255
 20
45.6876484531
 30
0.0
 10
21.7988318507
 20
45.4922679607
 30
0.0
 10
21.9912843397
 20
45.261280238
 30
0.0
 10
22.1601252016
 20
45.0034140779
 30
0.0
 10
22.2990248741
 20
44.7282608777
 30
0.0
 10
22.4028416892
 20
44.4460978887
 30
0.0
 10
22.4676178666
 20
44.1675277597
 30
0.0
 10
22.4838814737
 20
43.9828713862
 30
0.0
 10
22.4838814737
 20
43.8941428087
 30
0.0
  0
SPLINE
  5
30D
100
AcDbEntity
  8
0
100
AcDbSpline
 62
7
  6
CONTINUOUS
 70
0
 71
3
 72
20
 73
16
 74
0
 42
0.0000001
 43
0.0000001
 44
0.0000000001
 40
0.0
 40
0.0
 40
0.0
 40
0.0
 40
0.0623641411
 40
0.128804205
 40
0.2703039228
 40
0.4173616336
 40
0.5616108901
 40
0.6302487174
 40
0.6953759123
 40
0.7563588722
 40
0.8128293967
 40
0.8647615268
 40
0.9125646103
 40
0.9571664467
 40
1.0
 40
1.0
 40
1.0
 40
1.0
 10
23.2471122033
 20
55.637424059
 30
0.0
 10
23.2790238365
 20
55.6190002857
 30
0.0
 10
23.342461172
 20
55.576563994
 30
0.0
 10
23.4648762477
 20
55.4736181072
 30
0.0
 10
23.6042145894
 20
55.3150465713
 30
0.0
 10
23.7386949089
 20
55.0962912898
 30
0.0
 10
23.8188890827
 20
54.8979770743
 30
0.0
 10
23.8584690487
 20
54.7383159348
 30
0.0
 10
23.8746418263
 20
54.6241573173
 30
0.0
 10
23.8773815952
 20
54.5160424326
 30
0.0
 10
23.8666210731
 20
54.4161932864
 30
0.0
 10
23.8424216958
 20
54.3266687141
 30
0.0
 10
23.8050690843
 20
54.2493451064
 30
0.0
 10
23.7550695506
 20
54.1861233448
 30
0.0
 10
23.7135237426
 20
54.1543172953
 30
0.0
 10
23.6916009473
 20
54.1416718465
 30
0.0
  0
SPLINE
  5
30E
100
AcDbEntity
  8
0
100
AcDbSpline
 62
7
  6
CONTINUOUS
 70
0
 71
3
 72
9
 73
5
 74
0
 42
0.0000001
 43
0.0000001
 44
0.0000000001
 40
0.0
 40
0.0
 40
0.0
 40
0.0
 40
0.5221455342
 40
1.0
 40
1.0
 40
1.0
 40
1.0
 10
23.6063209526
 20
54.3930707915
 30
0.0
 10
23.6387431881
 20
54.3743522286
 30
0.0
 10
23.7033481673
 20
54.3426110035
 30
0.0
 10
23.7724394457
 20
54.3217671419
 30
0.0
 10
23.8060972845
 20
54.3153607993
 30
0.0
  0
SPLINE
  5
30F
100
AcDbEntity
  8
0
100
AcDbSpline
 62
7
  6
CONTINUOUS
 70
0
 71
3
 72
15
 73
11
 74
0
 42
0.0000001
 43
0.0000001
 44
0.0000000001
 40
0.0
 40
0.0
 40
0.0
 40
0.0
 40
0.1141465952
 40
0.2373352439
 40
0.366975646
 40
0.4999989181
 40
0.6330223406
 40
0.7626631822
 40
0.8858525235
 40
1.0
 40
1.0
 40
1.0
 40
1.0
 10
23.6063209526
 20
58.0224240356
 30
0.0
 10
23.683161996
 20
57.9780608421
 30
0.0
 10
23.8349471931
 20
57.871649895
 30
0.0
 10
24.0438080183
 20
57.6762694026
 30
0.0
 10
24.2362605073
 20
57.44528168
 30
0.0
 10
24.4051013692
 20
57.1874155198
 30
0.0
 10
24.5440010417
 20
56.9122623196
 30
0.0
 10
24.6478178567
 20
56.6300993307
 30
0.0
 10
24.7125940342
 20
56.3515292016
 30
0.0
 10
24.7288576412
 20
56.1668728281
 30
0.0
 10
24.7288576412
 20
56.0781442506
 30
0.0
  0
SPLINE
  5
310
100
AcDbEntity
  8
0
100
AcDbSpline
 62
7
  6
CONTINUOUS
 70
0
 71
3
 72
20
 73
16
 74
0
 42
0.0000001
 43
0.0000001
 44
0.0000000001
 40
0.0
 40
0.0
 40
0.0
 40
0.0
 40
0.0623641411
 40
0.128804205
 40
0.2703039228
 40
0.4173616336
 40
0.5616108901
 40
0.6302487174
 40
0.6953759123
 40
0.7563588722
 40
0.8128293967
 40
0.8647615268
 40
0.9125646103
 40
0.9571664467
 40
1.0
 40
1.0
 40
1.0
 40
1.0
 10
32.6764203881
 20
50.1935335974
 30
0.0
 10
32.7083320214
 20
50.1751098242
 30
0.0
 10
32.7717693569
 20
50.1326735325
 30
0.0
 10
32.8941844326
 20
50.0297276456
 30
0.0
 10
33.0335227742
 20
49.8711561098
 30
0.0
 10
33.1680030937
 20
49.6524008283
 30
0.0
 10
33.2481972676
 20
49.4540866127
 30
0.0
 10
33.2877772335
 20
49.2944254733
 30
0.0
 10
33.3039500111
 20
49.1802668558
 30
0.0
 10
33.30668978
 20
49.0721519711
 30
0.0
 10
33.295929258
 20
48.9723028249
 30
0.0
 10
33.2717298807
 20
48.8827782526
 30
0.0
 10
33.2343772692
 20
48.8054546449
 30
0.0
 10
33.1843777354
 20
48.7422328833
 30
0.0
 10
33.1428319274
 20
48.7104268338
 30
0.0
 10
33.1209091321
 20
48.697781385
 30
0.0
  0
SPLINE
  5
311
100
AcDbEntity
  8
0
100
AcDbSpline
 62
7
  6
CONTINUOUS
 70
0
 71
3
 72
9
 73
5
 74
0
 42
0.0000001
 43
0.0000001
 44
0.0000000001
 40
0.0
 40
0.0
 40
0.0
 40
0.0
 40
0.5221455342
 40
1.0
 40
1.0
 40
1.0
 40
1.0
 10
33.0356291374
 20
48.94918033
 30
0.0
 10
33.0680513729
 20
48.930461767
 30
0.0
 10
33.1326563521
 20
48.898720542
 30
0.0
 10
33.2017476305
 20
48.8778766804
 30
0.0
 10
33.2354054693
 20
48.8714703378
 30
0.0
  0
SPLINE
  5
312
100
AcDbEntity
  8
0
100
AcDbSpline
 62
7
  6
CONTINUOUS
 70
0
 71
3
 72
15
 73
11
 74
0
 42
0.0000001
 43
0.0000001
 44
0.0000000001
 40
0.0
 40
0.0
 40
0.0
 40
0.0
 40
0.1141465952
 40
0.2373352439
 40
0.366975646
 40
0.4999989181
 40
0.6330223406
 40
0.7626631822
 40
0.8858525235
 40
1.0
 40
1.0
 40
1.0
 40
1.0
 10
33.0356291374
 20
52.5785335741
 30
0.0
 10
33.1124701809
 20
52.5341703806
 30
0.0
 10
33.2642553779
 20
52.4277594335
 30
0.0
 10
33.4731162031
 20
52.2323789411
 30
0.0
 10
33.6655686921
 20
52.0013912185
 30
0.0
 10
33.834409554
 20
51.7435250583
 30
0.0
 10
33.9733092265
 20
51.4683718581
 30
0.0
 10
34.0771260416
 20
51.1862088691
 30
0.0
 10
34.141902219
 20
50.9076387401
 30
0.0
 10
34.1581658261
 20
50.7229823666
 30
0.0
 10
34.1581658261
 20
50.6342537891
 30
0.0
  0
SPLINE
  5
313
100
AcDbEntity
  8
0
100
AcDbSpline
 62
7
  6
CONTINUOUS
 70
0
 71
3
 72
12
 73
8
 74
0
 42
0.0000001
 43
0.0000001
 44
0.0000000001
 40
0.0
 40
0.0
 40
0.0
 40
0.0
 40
0.1081687912
 40
0.2183555695
 40
0.4513113955
 40
0.7105889062
 40
1.0
 40
1.0
 40
1.0
 40
1.0
 10
23.6916009473
 20
54.1416718465
 30
0.0
 10
23.6770218734
 20
54.1332623837
 30
0.0
 10
23.6460731703
 20
54.1187804917
 30
0.0
 10
23.5781381795
 20
54.0999307584
 30
0.0
 10
23.4829228606
 20
54.0974034569
 30
0.0
 10
23.3637394111
 20
54.1262785299
 30
0.0
 10
23.2861104783
 20
54.1631676061
 30
0.0
 10
23.2471122033
 20
54.1856827613
 30
0.0
  0
SPLINE
  5
314
100
AcDbEntity
  8
0
100
AcDbSpline
 62
7
  6
CONTINUOUS
 70
0
 71
3
 72
20
 73
16
 74
0
 42
0.0000001
 43
0.0000001
 44
0.0000000001
 40
0.0
 40
0.0
 40
0.0
 40
0.0
 40
0.0623641411
 40
0.128804205
 40
0.2703039228
 40
0.4173616336
 40
0.5616108901
 40
0.6302487174
 40
0.6953759123
 40
0.7563588722
 40
0.8128293967
 40
0.8647615268
 40
0.9125646103
 40
0.9571664467
 40
1.0
 40
1.0
 40
1.0
 40
1.0
 10
28.0067066471
 20
46.0457479076
 30
0.0
 10
27.9747950139
 20
46.0641716809
 30
0.0
 10
27.9113576784
 20
46.1066079726
 30
0.0
 10
27.7889426027
 20
46.2095538594
 30
0.0
 10
27.649604261
 20
46.3681253953
 30
0.0
 10
27.5151239415
 20
46.5868806768
 30
0.0
 10
27.4349297677
 20
46.7851948923
 30
0.0
 10
27.3953498017
 20
46.9448560318
 30
0.0
 10
27.3791770241
 20
47.0590146493
 30
0.0
 10
27.3764372552
 20
47.167129534
 30
0.0
 10
27.3871977773
 20
47.2669786802
 30
0.0
 10
27.4113971546
 20
47.3565032525
 30
0.0
 10
27.4487497661
 20
47.4338268602
 30
0.0
 10
27.4987492998
 20
47.4970486218
 30
0.0
 10
27.5402951078
 20
47.5288546713
 30
0.0
 10
27.5622179031
 20
47.5415001201
 30
0.0
  0
SPLINE
  5
315
100
AcDbEntity
  8
0
100
AcDbSpline
 62
7
  6
CONTINUOUS
 70
0
 71
3
 72
15
 73
11
 74
0
 42
0.0000001
 43
0.0000001
 44
0.0000000001
 40
0.0
 40
0.0
 40
0.0
 40
0.0
 40
0.1141474765
 40
0.2373368178
 40
0.3669776594
 40
0.5000010819
 40
0.633024354
 40
0.7626647561
 40
0.8858534048
 40
1.0
 40
1.0
 40
1.0
 40
1.0
 10
29.1292433358
 20
47.7308213668
 30
0.0
 10
29.1292433358
 20
47.8195499443
 30
0.0
 10
29.1129797287
 20
48.0042063177
 30
0.0
 10
29.0482035513
 20
48.2827764468
 30
0.0
 10
28.9443867362
 20
48.5649394358
 30
0.0
 10
28.8054870637
 20
48.840092636
 30
0.0
 10
28.6366462018
 20
49.0979587961
 30
0.0
 10
28.4441937129
 20
49.3289465188
 30
0.0
 10
28.2353328876
 20
49.5243270112
 30
0.0
 10
28.0835476906
 20
49.6307379583
 30
0.0
 10
28.0067066471
 20
49.6751011518
 30
0.0
  0
SPLINE
  5
316
100
AcDbEntity
  8
0
100
AcDbSpline
 62
7
  6
CONTINUOUS
 70
0
 71
3
 72
14
 73
10
 74
0
 42
0.0000001
 43
0.0000001
 44
0.0000000001
 40
0.0
 40
0.0
 40
0.0
 40
0.0
 40
0.2892465103
 40
0.4225697622
 40
0.5485168638
 40
0.6678914139
 40
0.7818640907
 40
0.891953856
 40
1.0
 40
1.0
 40
1.0
 40
1.0
 10
28.0067066471
 20
49.6751011518
 30
0.0
 10
27.9370309895
 20
49.7153275014
 30
0.0
 10
27.8300369736
 20
49.7662346171
 30
0.0
 10
27.6833209317
 20
49.8090326325
 30
0.0
 10
27.5791740409
 20
49.8264971489
 30
0.0
 10
27.4789796294
 20
49.8299740297
 30
0.0
 10
27.3836706476
 20
49.8193271477
 30
0.0
 10
27.2942479292
 20
49.7946304792
 30
0.0
 10
27.2389928132
 20
49.7687373172
 30
0.0
 10
27.2129660353
 20
49.7537108387
 30
0.0
  0
SPLINE
  5
317
100
AcDbEntity
  8
0
100
AcDbSpline
 62
7
  6
CONTINUOUS
 70
0
 71
3
 72
12
 73
8
 74
0
 42
0.0000001
 43
0.0000001
 44
0.0000000001
 40
0.0
 40
0.0
 40
0.0
 40
0.0
 40
0.1081687912
 40
0.2183555695
 40
0.4513113955
 40
0.7105889062
 40
1.0
 40
1.0
 40
1.0
 40
1.0
 10
24.0508882122
 20
43.4612336233
 30
0.0
 10
24.0363091383
 20
43.4528241605
 30
0.0
 10
24.0053604352
 20
43.4383422685
 30
0.0
 10
23.9374254444
 20
43.4194925352
 30
0.0
 10
23.8422101255
 20
43.4169652337
 30
0.0
 10
23.723026676
 20
43.4458403067
 30
0.0
 10
23.6453977432
 20
43.4827293829
 30
0.0
 10
23.6063994682
 20
43.5052445381
 30
0.0
  0
SPLINE
  5
318
100
AcDbEntity
  8
0
100
AcDbSpline
 62
7
  6
CONTINUOUS
 70
0
 71
3
 72
20
 73
16
 74
0
 42
0.0000001
 43
0.0000001
 44
0.0000000001
 40
0.0
 40
0.0
 40
0.0
 40
0.0
 40
0.0623641411
 40
0.128804205
 40
0.2703039228
 40
0.4173616336
 40
0.5616108901
 40
0.6302487174
 40
0.6953759123
 40
0.7563588722
 40
0.8128293967
 40
0.8647615268
 40
0.9125646103
 40
0.9571664467
 40
1.0
 40
1.0
 40
1.0
 40
1.0
 10
14.1770912833
 20
48.9491349996
 30
0.0
 10
14.1451796501
 20
48.9675587729
 30
0.0
 10
14.0817423146
 20
49.0099950646
 30
0.0
 10
13.9593272389
 20
49.1129409514
 30
0.0
 10
13.8199888972
 20
49.2715124873
 30
0.0
 10
13.6855085777
 20
49.4902677687
 30
0.0
 10
13.6053144039
 20
49.6885819843
 30
0.0
 10
13.5657344379
 20
49.8482431238
 30
0.0
 10
13.5495616603
 20
49.9624017413
 30
0.0
 10
13.5468218914
 20
50.070516626
 30
0.0
 10
13.5575824135
 20
50.1703657721
 30
0.0
 10
13.5817817908
 20
50.2598903445
 30
0.0
 10
13.6191344023
 20
50.3372139522
 30
0.0
 10
13.669133936
 20
50.4004357138
 30
0.0
 10
13.710679744
 20
50.4322417633
 30
0.0
 10
13.7326025393
 20
50.4448872121
 30
0.0
  0
SPLINE
  5
319
100
AcDbEntity
  8
0
100
AcDbSpline
 62
7
  6
CONTINUOUS
 70
0
 71
3
 72
15
 73
11
 74
0
 42
0.0000001
 43
0.0000001
 44
0.0000000001
 40
0.0
 40
0.0
 40
0.0
 40
0.0
 40
0.1141474765
 40
0.2373368178
 40
0.3669776594
 40
0.5000010819
 40
0.633024354
 40
0.7626647561
 40
0.8858534048
 40
1.0
 40
1.0
 40
1.0
 40
1.0
 10
15.299627972
 20
50.6342084588
 30
0.0
 10
15.299627972
 20
50.7229370363
 30
0.0
 10
15.2833643649
 20
50.9075934097
 30
0.0
 10
15.2185881875
 20
51.1861635388
 30
0.0
 10
15.1147713724
 20
51.4683265278
 30
0.0
 10
14.9758716999
 20
51.743479728
 30
0.0
 10
14.807030838
 20
52.0013458881
 30
0.0
 10
14.6145783491
 20
52.2323336108
 30
0.0
 10
14.4057175238
 20
52.4277141032
 30
0.0
 10
14.2539323268
 20
52.5341250502
 30
0.0
 10
14.1770912833
 20
52.5784882438
 30
0.0
  0
SPLINE
  5
31A
100
AcDbEntity
  8
0
100
AcDbSpline
 62
7
  6
CONTINUOUS
 70
0
 71
3
 72
14
 73
10
 74
0
 42
0.0000001
 43
0.0000001
 44
0.0000000001
 40
0.0
 40
0.0
 40
0.0
 40
0.0
 40
0.2892465103
 40
0.4225697622
 40
0.5485168638
 40
0.6678914139
 40
0.7818640907
 40
0.891953856
 40
1.0
 40
1.0
 40
1.0
 40
1.0
 10
14.1770912833
 20
52.5784882438
 30
0.0
 10
14.1074156257
 20
52.6187145934
 30
0.0
 10
14.0004216098
 20
52.669621709
 30
0.0
 10
13.8537055679
 20
52.7124197245
 30
0.0
 10
13.749558677
 20
52.7298842409
 30
0.0
 10
13.6493642655
 20
52.7333611217
 30
0.0
 10
13.5540552837
 20
52.7227142397
 30
0.0
 10
13.4646325653
 20
52.6980175712
 30
0.0
 10
13.4093774494
 20
52.6721244091
 30
0.0
 10
13.3833506715
 20
52.6570979307
 30
0.0
  0
SPLINE
  5
31B
100
AcDbEntity
  8
0
100
AcDbSpline
 62
7
  6
CONTINUOUS
 70
0
 71
3
 72
20
 73
16
 74
0
 42
0.0000001
 43
0.0000001
 44
0.0000000001
 40
0.0
 40
0.0
 40
0.0
 40
0.0
 40
0.0623641411
 40
0.128804205
 40
0.2703039228
 40
0.4173616336
 40
0.5616108901
 40
0.6302487174
 40
0.6953759123
 40
0.7563588722
 40
0.8128293967
 40
0.8647615268
 40
0.9125646103
 40
0.9571664467
 40
1.0
 40
1.0
 40
1.0
 40
1.0
 10
23.6063994682
 20
43.5052445381
 30
0.0
 10
23.5744878349
 20
43.5236683113
 30
0.0
 10
23.5110504994
 20
43.566104603
 30
0.0
 10
23.3886354237
 20
43.6690504899
 30
0.0
 10
23.249297082
 20
43.8276220257
 30
0.0
 10
23.1148167626
 20
44.0463773072
 30
0.0
 10
23.0346225887
 20
44.2446915228
 30
0.0
 10
22.9950426228
 20
44.4043526622
 30
0.0
 10
22.9788698452
 20
44.5185112797
 30
0.0
 10
22.9761300762
 20
44.6266261644
 30
0.0
 10
22.9868905983
 20
44.7264753106
 30
0.0
 10
23.0110899756
 20
44.815999883
 30
0.0
 10
23.0484425871
 20
44.8933234906
 30
0.0
 10
23.0984421209
 20
44.9565452522
 30
0.0
 10
23.1399879288
 20
44.9883513018
 30
0.0
 10
23.1619107241
 20
45.0009967505
 30
0.0
  0
SPLINE
  5
31C
100
AcDbEntity
  8
0
100
AcDbSpline
 62
7
  6
CONTINUOUS
 70
0
 71
3
 72
15
 73
11
 74
0
 42
0.0000001
 43
0.0000001
 44
0.0000000001
 40
0.0
 40
0.0
 40
0.0
 40
0.0
 40
0.1141474765
 40
0.2373368178
 40
0.3669776594
 40
0.5000010819
 40
0.633024354
 40
0.7626647561
 40
0.8858534048
 40
1.0
 40
1.0
 40
1.0
 40
1.0
 10
24.7289361568
 20
45.1903179972
 30
0.0
 10
24.7289361568
 20
45.2790465747
 30
0.0
 10
24.7126725497
 20
45.4637029482
 30
0.0
 10
24.6478963723
 20
45.7422730772
 30
0.0
 10
24.5440795573
 20
46.0244360662
 30
0.0
 10
24.4051798847
 20
46.2995892664
 30
0.0
 10
24.2363390229
 20
46.5574554266
 30
0.0
 10
24.0438865339
 20
46.7884431492
 30
0.0
 10
23.8350257087
 20
46.9838236416
 30
0.0
 10
23.6832405116
 20
47.0902345887
 30
0.0
 10
23.6063994682
 20
47.1345977822
 30
0.0
  0
SPLINE
  5
31D
100
AcDbEntity
  8
0
100
AcDbSpline
 62
7
  6
CONTINUOUS
 70
0
 71
3
 72
14
 73
10
 74
0
 42
0.0000001
 43
0.0000001
 44
0.0000000001
 40
0.0
 40
0.0
 40
0.0
 40
0.0
 40
0.2892465103
 40
0.4225697622
 40
0.5485168638
 40
0.6678914139
 40
0.7818640907
 40
0.891953856
 40
1.0
 40
1.0
 40
1.0
 40
1.0
 10
23.6063994682
 20
47.1345977822
 30
0.0
 10
23.5367238106
 20
47.1748241319
 30
0.0
 10
23.4297297947
 20
47.2257312475
 30
0.0
 10
23.2830137527
 20
47.2685292629
 30
0.0
 10
23.1788668619
 20
47.2859937793
 30
0.0
 10
23.0786724504
 20
47.2894706602
 30
0.0
 10
22.9833634686
 20
47.2788237781
 30
0.0
 10
22.8939407502
 20
47.2541271096
 30
0.0
 10
22.8386856342
 20
47.2282339476
 30
0.0
 10
22.8126588564
 20
47.2132074692
 30
0.0
  0
SPLINE
  5
31E
100
AcDbEntity
  8
0
100
AcDbSpline
 62
7
  6
CONTINUOUS
 70
0
 71
3
 72
12
 73
8
 74
0
 42
0.0000001
 43
0.0000001
 44
0.0000000001
 40
0.0
 40
0.0
 40
0.0
 40
0.0
 40
0.1081687912
 40
0.2183555695
 40
0.4513113955
 40
0.7105889062
 40
1.0
 40
1.0
 40
1.0
 40
1.0
 10
33.1209091321
 20
48.697781385
 30
0.0
 10
33.1063300582
 20
48.6893719222
 30
0.0
 10
33.0753813552
 20
48.6748900302
 30
0.0
 10
33.0074463644
 20
48.6560402969
 30
0.0
 10
32.9122310454
 20
48.6535129954
 30
0.0
 10
32.793047596
 20
48.6823880684
 30
0.0
 10
32.7154186631
 20
48.7192771446
 30
0.0
 10
32.6764203881
 20
48.7417922998
 30
0.0
  0
SPLINE
  5
31F
100
AcDbEntity
  8
0
100
AcDbSpline
 62
7
  6
CONTINUOUS
 70
0
 71
3
 72
20
 73
16
 74
0
 42
0.0000001
 43
0.0000001
 44
0.0000000001
 40
0.0
 40
0.0
 40
0.0
 40
0.0
 40
0.0623641411
 40
0.128804205
 40
0.2703039228
 40
0.4173616336
 40
0.5616108901
 40
0.6302487174
 40
0.6953759123
 40
0.7563588722
 40
0.8128293967
 40
0.8647615268
 40
0.9125646103
 40
0.9571664467
 40
1.0
 40
1.0
 40
1.0
 40
1.0
 10
11.5728278509
 20
47.4455717809
 30
0.0
 10
11.5409162176
 20
47.4639955542
 30
0.0
 10
11.4774788821
 20
47.5064318459
 30
0.0
 10
11.3550638064
 20
47.6093777327
 30
0.0
 10
11.2157254648
 20
47.7679492686
 30
0.0
 10
11.0812451453
 20
47.98670455
 30
0.0
 10
11.0010509714
 20
48.1850187656
 30
0.0
 10
10.9614710055
 20
48.3446799051
 30
0.0
 10
10.9452982279
 20
48.4588385226
 30
0.0
 10
10.942558459
 20
48.5669534073
 30
0.0
 10
10.953318981
 20
48.6668025534
 30
0.0
 10
10.9775183583
 20
48.7563271258
 30
0.0
 10
11.0148709698
 20
48.8336507335
 30
0.0
 10
11.0648705036
 20
48.8968724951
 30
0.0
 10
11.1064163115
 20
48.9286785446
 30
0.0
 10
11.1283391068
 20
48.9413239933
 30
0.0
  0
SPLINE
  5
320
100
AcDbEntity
  8
0
100
AcDbSpline
 62
7
  6
CONTINUOUS
 70
0
 71
3
 72
15
 73
11
 74
0
 42
0.0000001
 43
0.0000001
 44
0.0000000001
 40
0.0
 40
0.0
 40
0.0
 40
0.0
 40
0.1141474765
 40
0.2373368178
 40
0.3669776594
 40
0.5000010819
 40
0.633024354
 40
0.7626647561
 40
0.8858534048
 40
1.0
 40
1.0
 40
1.0
 40
1.0
 10
12.6953645395
 20
49.13064524
 30
0.0
 10
12.6953645395
 20
49.2193738175
 30
0.0
 10
12.6791009324
 20
49.404030191
 30
0.0
 10
12.614324755
 20
49.6826003201
 30
0.0
 10
12.51050794
 20
49.964763309
 30
0.0
 10
12.3716082675
 20
50.2399165093
 30
0.0
 10
12.2027674056
 20
50.4977826694
 30
0.0
 10
12.0103149166
 20
50.728770392
 30
0.0
 10
11.8014540914
 20
50.9241508844
 30
0.0
 10
11.6496688943
 20
51.0305618315
 30
0.0
 10
11.5728278509
 20
51.074925025
 30
0.0
  0
SPLINE
  5
321
100
AcDbEntity
  8
0
100
AcDbSpline
 62
7
  6
CONTINUOUS
 70
0
 71
3
 72
14
 73
10
 74
0
 42
0.0000001
 43
0.0000001
 44
0.0000000001
 40
0.0
 40
0.0
 40
0.0
 40
0.0
 40
0.2892465103
 40
0.4225697622
 40
0.5485168638
 40
0.6678914139
 40
0.7818640907
 40
0.891953856
 40
1.0
 40
1.0
 40
1.0
 40
1.0
 10
11.5728278509
 20
51.074925025
 30
0.0
 10
11.5031521933
 20
51.1151513747
 30
0.0
 10
11.3961581774
 20
51.1660584903
 30
0.0
 10
11.2494421355
 20
51.2088565058
 30
0.0
 10
11.1452952446
 20
51.2263210221
 30
0.0
 10
11.0451008331
 20
51.229797903
 30
0.0
 10
10.9497918513
 20
51.2191510209
 30
0.0
 10
10.8603691329
 20
51.1944543524
 30
0.0
 10
10.8051140169
 20
51.1685611904
 30
0.0
 10
10.7790872391
 20
51.153534712
 30
0.0
  0
SPLINE
  5
322
100
AcDbEntity
  8
0
100
AcDbSpline
 62
7
  6
CONTINUOUS
 70
0
 71
3
 72
12
 73
8
 74
0
 42
0.0000001
 43
0.0000001
 44
0.0000000001
 40
0.0
 40
0.0
 40
0.0
 40
0.0
 40
0.1081687912
 40
0.2183555695
 40
0.4513113955
 40
0.7105889062
 40
1.0
 40
1.0
 40
1.0
 40
1.0
 10
14.6215800274
 20
48.9051240848
 30
0.0
 10
14.6070009535
 20
48.896714622
 30
0.0
 10
14.5760522504
 20
48.88223273
 30
0.0
 10
14.5081172596
 20
48.8633829967
 30
0.0
 10
14.4129019407
 20
48.8608556952
 30
0.0
 10
14.2937184912
 20
48.8897307682
 30
0.0
 10
14.2160895584
 20
48.9266198444
 30
0.0
 10
14.1770912833
 20
48.9491349996
 30
0.0
  0
SPLINE
  5
323
100
AcDbEntity
  8
0
100
AcDbSpline
 62
7
  6
CONTINUOUS
 70
0
 71
3
 72
12
 73
8
 74
0
 42
0.0000001
 43
0.0000001
 44
0.0000000001
 40
0.0
 40
0.0
 40
0.0
 40
0.0
 40
0.1081687912
 40
0.2183555695
 40
0.4513113955
 40
0.7105889062
 40
1.0
 40
1.0
 40
1.0
 40
1.0
 10
12.0173165949
 20
47.4015608661
 30
0.0
 10
12.002737521
 20
47.3931514033
 30
0.0
 10
11.9717888179
 20
47.3786695113
 30
0.0
 10
11.9038538271
 20
47.359819778
 30
0.0
 10
11.8086385082
 20
47.3572924765
 30
0.0
 10
11.6894550587
 20
47.3861675495
 30
0.0
 10
11.6118261259
 20
47.4230566257
 30
0.0
 10
11.5728278509
 20
47.4455717809
 30
0.0
  0
SPLINE
  5
324
100
AcDbEntity
  8
0
100
AcDbSpline
 62
7
  6
CONTINUOUS
 70
0
 71
3
 72
20
 73
16
 74
0
 42
0.0000001
 43
0.0000001
 44
0.0000000001
 40
0.0
 40
0.0
 40
0.0
 40
0.0
 40
0.0623641411
 40
0.128804205
 40
0.2703039228
 40
0.4173616336
 40
0.5616108901
 40
0.6302487174
 40
0.6953759123
 40
0.7563588722
 40
0.8128293967
 40
0.8647615268
 40
0.9125646103
 40
0.9571664467
 40
1.0
 40
1.0
 40
1.0
 40
1.0
 10
21.0021360357
 20
42.0016813194
 30
0.0
 10
20.9702244024
 20
42.0201050926
 30
0.0
 10
20.9067870669
 20
42.0625413843
 30
0.0
 10
20.7843719913
 20
42.1654872712
 30
0.0
 10
20.6450336496
 20
42.324058807
 30
0.0
 10
20.5105533301
 20
42.5428140885
 30
0.0
 10
20.4303591562
 20
42.7411283041
 30
0.0
 10
20.3907791903
 20
42.9007894435
 30
0.0
 10
20.3746064127
 20
43.014948061
 30
0.0
 10
20.3718666438
 20
43.1230629457
 30
0.0
 10
20.3826271658
 20
43.2229120919
 30
0.0
 10
20.4068265431
 20
43.3124366643
 30
0.0
 10
20.4441791546
 20
43.3897602719
 30
0.0
 10
20.4941786884
 20
43.4529820335
 30
0.0
 10
20.5357244964
 20
43.4847880831
 30
0.0
 10
20.5576472917
 20
43.4974335318
 30
0.0
  0
SPLINE
  5
325
100
AcDbEntity
  8
0
100
AcDbSpline
 62
7
  6
CONTINUOUS
 70
0
 71
3
 72
15
 73
11
 74
0
 42
0.0000001
 43
0.0000001
 44
0.0000000001
 40
0.0
 40
0.0
 40
0.0
 40
0.0
 40
0.1141474765
 40
0.2373368178
 40
0.3669776594
 40
0.5000010819
 40
0.633024354
 40
0.7626647561
 40
0.8858534048
 40
1.0
 40
1.0
 40
1.0
 40
1.0
 10
22.1246727244
 20
43.6867547785
 30
0.0
 10
22.1246727244
 20
43.775483356
 30
0.0
 10
22.1084091173
 20
43.9601397295
 30
0.0
 10
22.0436329399
 20
44.2387098585
 30
0.0
 10
21.9398161248
 20
44.5208728475
 30
0.0
 10
21.8009164523
 20
44.7960260477
 30
0.0
 10
21.6320755904
 20
45.0538922079
 30
0.0
 10
21.4396231014
 20
45.2848799305
 30
0.0
 10
21.2307622762
 20
45.4802604229
 30
0.0
 10
21.0789770792
 20
45.58667137
 30
0.0
 10
21.0021360357
 20
45.6310345635
 30
0.0
  0
SPLINE
  5
326
100
AcDbEntity
  8
0
100
AcDbSpline
 62
7
  6
CONTINUOUS
 70
0
 71
3
 72
14
 73
10
 74
0
 42
0.0000001
 43
0.0000001
 44
0.0000000001
 40
0.0
 40
0.0
 40
0.0
 40
0.0
 40
0.2892465103
 40
0.4225697622
 40
0.5485168638
 40
0.6678914139
 40
0.7818640907
 40
0.891953856
 40
1.0
 40
1.0
 40
1.0
 40
1.0
 10
21.0021360357
 20
45.6310345635
 30
0.0
 10
20.9324603781
 20
45.6712609132
 30
0.0
 10
20.8254663622
 20
45.7221680288
 30
0.0
 10
20.6787503203
 20
45.7649660442
 30
0.0
 10
20.5746034294
 20
45.7824305606
 30
0.0
 10
20.4744090179
 20
45.7859074415
 30
0.0
 10
20.3791000361
 20
45.7752605594
 30
0.0
 10
20.2896773177
 20
45.7505638909
 30
0.0
 10
20.2344222018
 20
45.7246707289
 30
0.0
 10
20.2083954239
 20
45.7096442505
 30
0.0
  0
SPLINE
  5
327
100
AcDbEntity
  8
0
100
AcDbSpline
 62
7
  6
CONTINUOUS
 70
0
 71
3
 72
12
 73
8
 74
0
 42
0.0000001
 43
0.0000001
 44
0.0000000001
 40
0.0
 40
0.0
 40
0.0
 40
0.0
 40
0.1081687912
 40
0.2183555695
 40
0.4513113955
 40
0.7105889062
 40
1.0
 40
1.0
 40
1.0
 40
1.0
 10
19.0218872063
 20
51.4456274544
 30
0.0
 10
19.0073081324
 20
51.4372179915
 30
0.0
 10
18.9763594294
 20
51.4227360996
 30
0.0
 10
18.9084244386
 20
51.4038863662
 30
0.0
 10
18.8132091196
 20
51.4013590648
 30
0.0
 10
18.6940256702
 20
51.4302341378
 30
0.0
 10
18.6163967373
 20
51.4671232139
 30
0.0
 10
18.5773984623
 20
51.4896383692
 30
0.0
  0
SPLINE
  5
328
100
AcDbEntity
  8
0
100
AcDbSpline
 62
7
  6
CONTINUOUS
 70
0
 71
3
 72
20
 73
16
 74
0
 42
0.0000001
 43
0.0000001
 44
0.0000000001
 40
0.0
 40
0.0
 40
0.0
 40
0.0
 40
0.0623641411
 40
0.128804205
 40
0.2703039228
 40
0.4173616336
 40
0.5616108901
 40
0.6302487174
 40
0.6953759123
 40
0.7563588722
 40
0.8128293967
 40
0.8647615268
 40
0.9125646103
 40
0.9571664467
 40
1.0
 40
1.0
 40
1.0
 40
1.0
 10
18.5773984623
 20
51.4896383692
 30
0.0
 10
18.545486829
 20
51.5080621424
 30
0.0
 10
18.4820494935
 20
51.5504984341
 30
0.0
 10
18.3596344179
 20
51.653444321
 30
0.0
 10
18.2202960762
 20
51.8120158568
 30
0.0
 10
18.0858157567
 20
52.0307711383
 30
0.0
 10
18.0056215828
 20
52.2290853539
 30
0.0
 10
17.9660416169
 20
52.3887464933
 30
0.0
 10
17.9498688393
 20
52.5029051108
 30
0.0
 10
17.9471290704
 20
52.6110199955
 30
0.0
 10
17.9578895925
 20
52.7108691417
 30
0.0
 10
17.9820889697
 20
52.800393714
 30
0.0
 10
18.0194415813
 20
52.8777173217
 30
0.0
 10
18.069441115
 20
52.9409390833
 30
0.0
 10
18.110986923
 20
52.9727451329
 30
0.0
 10
18.1329097183
 20
52.9853905816
 30
0.0
  0
SPLINE
  5
329
100
AcDbEntity
  8
0
100
AcDbSpline
 62
7
  6
CONTINUOUS
 70
0
 71
3
 72
15
 73
11
 74
0
 42
0.0000001
 43
0.0000001
 44
0.0000000001
 40
0.0
 40
0.0
 40
0.0
 40
0.0
 40
0.1141474765
 40
0.2373368178
 40
0.3669776594
 40
0.5000010819
 40
0.633024354
 40
0.7626647561
 40
0.8858534048
 40
1.0
 40
1.0
 40
1.0
 40
1.0
 10
19.699935151
 20
53.1747118283
 30
0.0
 10
19.699935151
 20
53.2634404058
 30
0.0
 10
19.6836715439
 20
53.4480967793
 30
0.0
 10
19.6188953665
 20
53.7266669083
 30
0.0
 10
19.5150785514
 20
54.0088298973
 30
0.0
 10
19.3761788789
 20
54.2839830975
 30
0.0
 10
19.207338017
 20
54.5418492577
 30
0.0
 10
19.014885528
 20
54.7728369803
 30
0.0
 10
18.8060247028
 20
54.9682174727
 30
0.0
 10
18.6542395058
 20
55.0746284198
 30
0.0
 10
18.5773984623
 20
55.1189916133
 30
0.0
  0
SPLINE
  5
32A
100
AcDbEntity
  8
0
100
AcDbSpline
 62
7
  6
CONTINUOUS
 70
0
 71
3
 72
20
 73
16
 74
0
 42
0.0000001
 43
0.0000001
 44
0.0000000001
 40
0.0
 40
0.0
 40
0.0
 40
0.0
 40
0.0623641411
 40
0.128804205
 40
0.2703039228
 40
0.4173616336
 40
0.5616108901
 40
0.6302487174
 40
0.6953759123
 40
0.7563588722
 40
0.8128293967
 40
0.8647615268
 40
0.9125646103
 40
0.9571664467
 40
1.0
 40
1.0
 40
1.0
 40
1.0
 10
23.2471122033
 20
54.1856827613
 30
0.0
 10
23.21520057
 20
54.2041065346
 30
0.0
 10
23.1517632345
 20
54.2465428263
 30
0.0
 10
23.0293481588
 20
54.3494887131
 30
0.0
 10
22.8900098172
 20
54.508060249
 30
0.0
 10
22.7555294977
 20
54.7268155305
 30
0.0
 10
22.6753353238
 20
54.925129746
 30
0.0
 10
22.6357553579
 20
55.0847908855
 30
0.0
 10
22.6195825803
 20
55.198949503
 30
0.0
 10
22.6168428114
 20
55.3070643877
 30
0.0
 10
22.6276033334
 20
55.4069135339
 30
0.0
 10
22.6518027107
 20
55.4964381062
 30
0.0
 10
22.6891553222
 20
55.5737617139
 30
0.0
 10
22.739154856
 20
55.6369834755
 30
0.0
 10
22.7807006639
 20
55.668789525
 30
0.0
 10
22.8026234592
 20
55.6814349738
 30
0.0
  0
SPLINE
  5
32B
100
AcDbEntity
  8
0
100
AcDbSpline
 62
7
  6
CONTINUOUS
 70
0
 71
3
 72
14
 73
10
 74
0
 42
0.0000001
 43
0.0000001
 44
0.0000000001
 40
0.0
 40
0.0
 40
0.0
 40
0.0
 40
0.2892465103
 40
0.4225697622
 40
0.5485168638
 40
0.6678914139
 40
0.7818640907
 40
0.891953856
 40
1.0
 40
1.0
 40
1.0
 40
1.0
 10
18.5773984623
 20
55.1189916133
 30
0.0
 10
18.5077228047
 20
55.1592179629
 30
0.0
 10
18.4007287888
 20
55.2101250786
 30
0.0
 10
18.2540127469
 20
55.252923094
 30
0.0
 10
18.149865856
 20
55.2703876104
 30
0.0
 10
18.0496714445
 20
55.2738644913
 30
0.0
 10
17.9543624627
 20
55.2632176092
 30
0.0
 10
17.8649397443
 20
55.2385209407
 30
0.0
 10
17.8096846284
 20
55.2126277787
 30
0.0
 10
17.7836578505
 20
55.1976013002
 30
0.0
  0
SPLINE
  5
32C
100
AcDbEntity
  8
0
100
AcDbSpline
 62
7
  6
CONTINUOUS
 70
0
 71
3
 72
15
 73
11
 74
0
 42
0.0000001
 43
0.0000001
 44
0.0000000001
 40
0.0
 40
0.0
 40
0.0
 40
0.0
 40
0.1141474765
 40
0.2373368178
 40
0.3669776594
 40
0.5000010819
 40
0.633024354
 40
0.7626647561
 40
0.8858534048
 40
1.0
 40
1.0
 40
1.0
 40
1.0
 10
24.3696488919
 20
55.8707562205
 30
0.0
 10
24.3696488919
 20
55.959484798
 30
0.0
 10
24.3533852848
 20
56.1441411714
 30
0.0
 10
24.2886091074
 20
56.4227113005
 30
0.0
 10
24.1847922924
 20
56.7048742895
 30
0.0
 10
24.0458926199
 20
56.9800274897
 30
0.0
 10
23.877051758
 20
57.2378936498
 30
0.0
 10
23.684599269
 20
57.4688813725
 30
0.0
 10
23.4757384438
 20
57.6642618649
 30
0.0
 10
23.3239532467
 20
57.770672812
 30
0.0
 10
23.2471122033
 20
57.8150360055
 30
0.0
  0
SPLINE
  5
32D
100
AcDbEntity
  8
0
100
AcDbSpline
 62
7
  6
CONTINUOUS
 70
0
 71
3
 72
14
 73
10
 74
0
 42
0.0000001
 43
0.0000001
 44
0.0000000001
 40
0.0
 40
0.0
 40
0.0
 40
0.0
 40
0.2892465103
 40
0.4225697622
 40
0.5485168638
 40
0.6678914139
 40
0.7818640907
 40
0.891953856
 40
1.0
 40
1.0
 40
1.0
 40
1.0
 10
23.2471122033
 20
57.8150360055
 30
0.0
 10
23.1774365457
 20
57.8552623551
 30
0.0
 10
23.0704425298
 20
57.9061694708
 30
0.0
 10
22.9237264879
 20
57.9489674862
 30
0.0
 10
22.819579597
 20
57.9664320026
 30
0.0
 10
22.7193851855
 20
57.9699088834
 30
0.0
 10
22.6240762037
 20
57.9592620014
 30
0.0
 10
22.5346534853
 20
57.9345653329
 30
0.0
 10
22.4793983693
 20
57.9086721709
 30
0.0
 10
22.4533715915
 20
57.8936456924
 30
0.0
  0
SPLINE
  5
32E
100
AcDbEntity
  8
0
100
AcDbSpline
 62
7
  6
CONTINUOUS
 70
0
 71
3
 72
20
 73
16
 74
0
 42
0.0000001
 43
0.0000001
 44
0.0000000001
 40
0.0
 40
0.0
 40
0.0
 40
0.0
 40
0.0623641411
 40
0.128804205
 40
0.2703039228
 40
0.4173616336
 40
0.5616108901
 40
0.6302487174
 40
0.6953759123
 40
0.7563588722
 40
0.8128293967
 40
0.8647615268
 40
0.9125646103
 40
0.9571664467
 40
1.0
 40
1.0
 40
1.0
 40
1.0
 10
32.6764203881
 20
48.7417922998
 30
0.0
 10
32.6445087548
 20
48.7602160731
 30
0.0
 10
32.5810714193
 20
48.8026523648
 30
0.0
 10
32.4586563437
 20
48.9055982516
 30
0.0
 10
32.319318002
 20
49.0641697875
 30
0.0
 10
32.1848376825
 20
49.2829250689
 30
0.0
 10
32.1046435086
 20
49.4812392845
 30
0.0
 10
32.0650635427
 20
49.6409004239
 30
0.0
 10
32.0488907651
 20
49.7550590414
 30
0.0
 10
32.0461509962
 20
49.8631739261
 30
0.0
 10
32.0569115182
 20
49.9630230723
 30
0.0
 10
32.0811108955
 20
50.0525476447
 30
0.0
 10
32.118463507
 20
50.1298712523
 30
0.0
 10
32.1684630408
 20
50.193093014
 30
0.0
 10
32.2100088488
 20
50.2248990635
 30
0.0
 10
32.2319316441
 20
50.2375445122
 30
0.0
  0
SPLINE
  5
32F
100
AcDbEntity
  8
0
100
AcDbSpline
 62
7
  6
CONTINUOUS
 70
0
 71
3
 72
12
 73
8
 74
0
 42
0.0000001
 43
0.0000001
 44
0.0000000001
 40
0.0
 40
0.0
 40
0.0
 40
0.0
 40
0.1081687912
 40
0.2183555695
 40
0.4513113955
 40
0.7105889062
 40
1.0
 40
1.0
 40
1.0
 40
1.0
 10
21.4466247797
 20
41.9576704046
 30
0.0
 10
21.4320457058
 20
41.9492609418
 30
0.0
 10
21.4010970028
 20
41.9347790498
 30
0.0
 10
21.333162012
 20
41.9159293165
 30
0.0
 10
21.237946693
 20
41.913402015
 30
0.0
 10
21.1187632436
 20
41.942277088
 30
0.0
 10
21.0411343107
 20
41.9791661642
 30
0.0
 10
21.0021360357
 20
42.0016813194
 30
0.0
  0
SPLINE
  5
330
100
AcDbEntity
  8
0
100
AcDbSpline
 62
7
  6
CONTINUOUS
 70
0
 71
3
 72
15
 73
11
 74
0
 42
0.0000001
 43
0.0000001
 44
0.0000000001
 40
0.0
 40
0.0
 40
0.0
 40
0.0
 40
0.1141474765
 40
0.2373368178
 40
0.3669776594
 40
0.5000010819
 40
0.633024354
 40
0.7626647561
 40
0.8858534048
 40
1.0
 40
1.0
 40
1.0
 40
1.0
 10
33.7989570768
 20
50.4268657589
 30
0.0
 10
33.7989570768
 20
50.5155943364
 30
0.0
 10
33.7826934697
 20
50.7002507099
 30
0.0
 10
33.7179172923
 20
50.978820839
 30
0.0
 10
33.6141004772
 20
51.2609838279
 30
0.0
 10
33.4752008047
 20
51.5361370282
 30
0.0
 10
33.3063599428
 20
51.7940031883
 30
0.0
 10
33.1139074538
 20
52.0249909109
 30
0.0
 10
32.9050466286
 20
52.2203714033
 30
0.0
 10
32.7532614316
 20
52.3267823504
 30
0.0
 10
32.6764203881
 20
52.3711455439
 30
0.0
  0
SPLINE
  5
331
100
AcDbEntity
  8
0
100
AcDbSpline
 62
7
  6
CONTINUOUS
 70
0
 71
3
 72
14
 73
10
 74
0
 42
0.0000001
 43
0.0000001
 44
0.0000000001
 40
0.0
 40
0.0
 40
0.0
 40
0.0
 40
0.2892465103
 40
0.4225697622
 40
0.5485168638
 40
0.6678914139
 40
0.7818640907
 40
0.891953856
 40
1.0
 40
1.0
 40
1.0
 40
1.0
 10
32.6764203881
 20
52.3711455439
 30
0.0
 10
32.6067447305
 20
52.4113718936
 30
0.0
 10
32.4997507146
 20
52.4622790092
 30
0.0
 10
32.3530346727
 20
52.5050770247
 30
0.0
 10
32.2488877818
 20
52.522541541
 30
0.0
 10
32.1486933703
 20
52.5260184219
 30
0.0
 10
32.0533843885
 20
52.5153715398
 30
0.0
 10
31.9639616701
 20
52.4906748713
 30
0.0
 10
31.9087065542
 20
52.4647817093
 30
0.0
 10
31.8826797763
 20
52.4497552309
 30
0.0
  0
SPLINE
  5
332
100
AcDbEntity
  8
0
100
AcDbSpline
 62
7
  6
CONTINUOUS
 70
0
 71
3
 72
12
 73
8
 74
0
 42
0.0000001
 43
0.0000001
 44
0.0000000001
 40
0.0
 40
0.0
 40
0.0
 40
0.0
 40
0.1081687912
 40
0.2183555695
 40
0.4513113955
 40
0.7105889062
 40
1.0
 40
1.0
 40
1.0
 40
1.0
 10
28.4511953912
 20
46.0017369928
 30
0.0
 10
28.4366163173
 20
45.99332753
 30
0.0
 10
28.4056676142
 20
45.978845638
 30
0.0
 10
28.3377326234
 20
45.9599959047
 30
0.0
 10
28.2425173045
 20
45.9574686032
 30
0.0
 10
28.123333855
 20
45.9863436762
 30
0.0
 10
28.0457049222
 20
46.0232327524
 30
0.0
 10
28.0067066471
 20
46.0457479076
 30
0.0
  0
ENDSEC
  0
SECTION
  2
OBJECTS
  0
DICTIONARY
  5
C
100
AcDbDictionary
280
0
281
1
  3
ACAD_GROUP
350
D
  3
ACAD_MLINESTYLE
350
17
  3
ACAD_LAYOUT
350
1A
  3
ACAD_PLOTSETTINGS
350
19
  3
ACAD_PLOTSTYLENAME
350
E
  0
DICTIONARY
  5
D
102
{ACAD_REACTORS
330
C
102
}
100
AcDbDictionary
280
0
281
1
  0
ACDBDICTIONARYWDFLT
  5
E
102
{ACAD_REACTORS
330
C
102
}
100
AcDbDictionary
281
1
  3
Normal
350
F
100
AcDbDictionaryWithDefault
340
F
  0
DICTIONARY
  5
17
102
{ACAD_REACTORS
330
C
102
}
100
AcDbDictionary
280
0
281
1
  3
Standard
350
18
  0
DICTIONARY
  5
19
102
{ACAD_REACTORS
330
C
102
}
100
AcDbDictionary
281
1
  0
DICTIONARY
  5
1A
102
{ACAD_REACTORS
330
C
102
}
100
AcDbDictionary
281
1
  3
Model
350
333
  3
Layout1
350
334
  0
ACDBPLACEHOLDER
  5
F
102
{ACAD_REACTORS
330
E
102
}
  0
MLINESTYLE
  5
18
102
{ACAD_REACTORS
330
17
102
}
100
AcDbMlineStyle
  2
STANDARD
 70
0
  3

 62
256
 51
90.0
 52
90.0
 71
2
 49
0.5
 62
256
  6
BYLAYER
 49
-0.5
 62
256
  6
BYLAYER
  0
LAYOUT
  5
333
102
{ACAD_REACTORS
330
1A
102
}
100
AcDbPlotSettings
  1

  2
none_device
  4

  6

 40
0.0
 41
0.0
 42
0.0
 43
0.0
 44
210.0
 45
297.0
 46
0.0
 47
0.0
 48
0.0
 49
0.0
140
0.0
141
0.0
142
1.0
143
1.0
 70
1024
 72
1
 73
0
 74
0
  7

 75
0
147
1.0
148
0.0
149
0.0
100
AcDbLayout
  1
Model
 70
0
 71
0
 10
0.0
 20
0.0
 11
210.0
 21
297.0
 12
0.0
 22
0.0
 32
0.0
 14
0.0
 24
0.0
 34
0.0
 15
0.0
 25
0.0
 35
0.0
146
0.0
 13
0.0
 23
0.0
 33
0.0
 16
1.0
 26
0.0
 36
0.0
 17
0.0
 27
1.0
 37
0.0
 76
0
330
210
345
0
346
0
  0
LAYOUT
  5
334
102
{ACAD_REACTORS
330
1A
102
}
100
AcDbPlotSettings
  1

  2
none_device
  4

  6

 40
0.0
 41
0.0
 42
0.0
 43
0.0
 44
210.0
 45
297.0
 46
0.0
 47
0.0
 48
0.0
 49
0.0
140
0.0
141
0.0
142
1.0
143
1.0
 70
0
 72
1
 73
0
 74
0
  7

 75
0
147
1.0
148
0.0
149
0.0
100
AcDbLayout
  1
Layout1
 70
0
 71
1
 10
0.0
 20
0.0
 11
210.0
 21
297.0
 12
0.0
 22
0.0
 32
0.0
 14
0.0
 24
0.0
 34
0.0
 15
0.0
 25
0.0
 35
0.0
146
0.0
 13
0.0
 23
0.0
 33
0.0
 16
1.0
 26
0.0
 36
0.0
 17
0.0
 27
1.0
 37
0.0
 76
0
330
211
345
0
346
0
  0
ENDSEC
  0
EOF
