999
DXF file: C:\Users\sesa63760\Dev\_Creo\CAD\MCADID0000027_3D-CAD\drw0001_4.dxf
999
Pro/ENGINEER 2019471 by Parametric Technology Corporation
  0
SECTION
  2
HEADER
  9
$ACADVER
  1
AC1024
  9
$DWGCODEPAGE
  3
ANSI_1252
  9
$EXTMAX
 10
144.5438703583
 20
204.4263309353
 30
0.0
  9
$EXTMIN
 10
0.0
 20
0.0
 30
0.0
  9
$LIMMIN
 10
0.0
 20
0.0
  9
$LIMMAX
 10
144.5438703583
 20
204.4263309353
  9
$VIEWCTR
 10
72.2719351791
 20
102.2131654676
  9
$VIEWSIZE
 40
204.4263309353
  9
$CLAYER
  8
0
  9
$LTSCALE
 40
13.3255682387
  9
$CELTYPE
  6
BYLAYER
  9
$DIMSCALE
 40
1.0
  9
$DIMASZ
 40
1.7207603614
  9
$DIMEXO
 40
1.0
  9
$DIMDLI
 40
9.2067562377
  9
$DIMEXE
 40
1.0
  9
$DIMCEN
 40
2.18054753
  9
$DIMLFAC
 40
1.0
  9
$DIMBLK
  1
_FILLED
  9
$DIMALT
 70
0
  9
$DIMALTF
 40
0.0393700787
  9
$DIMTXT
 40
2.409064506
  9
$DIMTOL
 70
1
  9
$DIMLIM
 70
0
  9
$DIMTFAC
 40
1.0
  9
$DIMTP
 40
0.01
  9
$DIMTM
 40
0.01
  9
$DIMGAP
 40
0.625
  9
$DIMDSEP
 70
46
  9
$AUNITS
 70
0
  9
$PDMODE
 70
3
  9
$PDSIZE
 40
0.3125
  9
$HANDSEED
  5
3B6
  9
$TILEMODE
 70
1
  9
$MEASUREMENT
 70
1
  9
$INSUNITS
 70
4
  0
ENDSEC
  0
SECTION
  2
CLASSES
  0
CLASS
  1
ACDBDICTIONARYWDFLT
  2
AcDbDictionaryWithDefault
  3
AutoCAD 2000
 90
0
 91
1
280
0
281
0
  0
CLASS
  1
ACDBPLACEHOLDER
  2
AcDbPlaceHolder
  3
AutoCAD 2000
 90
0
 91
1
280
0
281
0
  0
CLASS
  1
LAYOUT
  2
AcDbLayout
  3
AutoCAD 2000
 90
0
 91
0
280
0
281
0
  0
ENDSEC
  0
SECTION
  2
TABLES
  0
TABLE
  2
VPORT
  5
8
100
AcDbSymbolTable
 70
2
  0
VPORT
  5
1F4
100
AcDbSymbolTableRecord
100
AcDbViewportTableRecord
  2
*ACTIVE
 70
0
 10
0.0
 20
0.0
 11
1.0
 21
1.0
 12
72.2719351791
 22
102.2131654676
 13
0.0
 23
0.0
 14
1.0
 24
1.0
 15
0.0
 25
0.0
 16
0.0
 26
0.0
 36
1.0
 17
0.0
 27
0.0
 37
0.0
 40
204.4263309353
 41
0.7070707071
 42
50.0
 43
0.0
 44
0.0
 50
0.0
 51
0.0
 71
0
 72
100
 73
1
 74
1
 75
0
 76
0
 77
0
 78
0
  0
ENDTAB
  0
TABLE
  2
LTYPE
  5
5
100
AcDbSymbolTable
 70
6
  0
LTYPE
  5
14
100
AcDbSymbolTableRecord
100
AcDbLinetypeTableRecord
  2
BYBLOCK
 70
0
  3

 72
65
 73
0
 40
0.0
  0
LTYPE
  5
15
100
AcDbSymbolTableRecord
100
AcDbLinetypeTableRecord
  2
BYLAYER
 70
0
  3

 72
65
 73
0
 40
0.0
  0
LTYPE
  5
16
100
AcDbSymbolTableRecord
100
AcDbLinetypeTableRecord
  2
CONTINUOUS
 70
64
  3
Solid line
 72
65
 73
0
 40
0.0
  0
LTYPE
  5
1F5
100
AcDbSymbolTableRecord
100
AcDbLinetypeTableRecord
  2
CENTER
 70
64
  3
____ _ ____ _ ____ _ ____ _ ____ _ ____ _ ____
 72
65
 73
4
 40
0.6
 49
0.375
 74
0
 49
-0.075
 74
0
 49
0.075
 74
0
 49
-0.075
 74
0
  0
LTYPE
  5
1F6
100
AcDbSymbolTableRecord
100
AcDbLinetypeTableRecord
  2
HIDDEN
 70
64
  3
- - - - - - - - - - - - - - - - - - - -
 72
65
 73
2
 40
0.2
 49
0.1
 74
0
 49
-0.1
 74
0
  0
LTYPE
  5
1F7
100
AcDbSymbolTableRecord
100
AcDbLinetypeTableRecord
  2
PHANTOM
 70
64
  3
_____ _ _ _____ _ _ _____ _ _ _____
 72
65
 73
6
 40
0.8
 49
0.45
 74
0
 49
-0.05
 74
0
 49
0.1
 74
0
 49
-0.05
 74
0
 49
0.1
 74
0
 49
-0.05
 74
0
  0
LTYPE
  5
1F8
100
AcDbSymbolTableRecord
100
AcDbLinetypeTableRecord
  2
DOT
 70
64
  3
. . . . . . . . . . . . . . . . . . . .
 72
65
 73
2
 40
0.2
 49
0.1
 74
0
 49
-0.1
 74
0
  0
LTYPE
  5
1F9
100
AcDbSymbolTableRecord
100
AcDbLinetypeTableRecord
  2
DASHED
 70
64
  3
- - - - - - - - - - - - - - - - - - - -
 72
65
 73
2
 40
0.2
 49
0.1
 74
0
 49
-0.1
 74
0
  0
ENDTAB
  0
TABLE
  2
LAYER
  5
2
100
AcDbSymbolTable
 70
36
  0
LAYER
  5
10
100
AcDbSymbolTableRecord
100
AcDbLayerTableRecord
  2
0
 70
0
 62
7
  6
CONTINUOUS
370
-3
390
F
  0
LAYER
  5
1FA
100
AcDbSymbolTableRecord
100
AcDbLayerTableRecord
  2
DEFAULT_1
 70
0
 62
7
  6
CENTER
370
-3
390
F
  0
LAYER
  5
1FB
100
AcDbSymbolTableRecord
100
AcDbLayerTableRecord
  2
DEFAULT_2
 70
0
 62
8
  6
HIDDEN
370
-3
390
F
  0
LAYER
  5
1FC
100
AcDbSymbolTableRecord
100
AcDbLayerTableRecord
  2
DEFAULT_3
 70
0
 62
7
  6
PHANTOM
370
-3
390
F
  0
LAYER
  5
1FD
100
AcDbSymbolTableRecord
100
AcDbLayerTableRecord
  2
00_COMPONENTS
 70
0
 62
7
  6
CONTINUOUS
370
-3
390
F
  0
LAYER
  5
1FE
100
AcDbSymbolTableRecord
100
AcDbLayerTableRecord
  2
01_1_DEFAULT_DATUMS
 70
0
 62
7
  6
CONTINUOUS
370
-3
390
F
  0
LAYER
  5
1FF
100
AcDbSymbolTableRecord
100
AcDbLayerTableRecord
  2
01_PLANES
 70
0
 62
7
  6
CONTINUOUS
370
-3
390
F
  0
LAYER
  5
200
100
AcDbSymbolTableRecord
100
AcDbLayerTableRecord
  2
02_COORD_SYS
 70
0
 62
7
  6
CONTINUOUS
370
-3
390
F
  0
LAYER
  5
201
100
AcDbSymbolTableRecord
100
AcDbLayerTableRecord
  2
03_AXES
 70
0
 62
7
  6
CONTINUOUS
370
-3
390
F
  0
LAYER
  5
202
100
AcDbSymbolTableRecord
100
AcDbLayerTableRecord
  2
04_POINTS
 70
0
 62
7
  6
CONTINUOUS
370
-3
390
F
  0
LAYER
  5
203
100
AcDbSymbolTableRecord
100
AcDbLayerTableRecord
  2
05_CURVES
 70
0
 62
7
  6
CONTINUOUS
370
-3
390
F
  0
LAYER
  5
204
100
AcDbSymbolTableRecord
100
AcDbLayerTableRecord
  2
06_SURFS
 70
0
 62
7
  6
CONTINUOUS
370
-3
390
F
  0
LAYER
  5
205
100
AcDbSymbolTableRecord
100
AcDbLayerTableRecord
  2
07_COSMETICS
 70
0
 62
7
  6
CONTINUOUS
370
-3
390
F
  0
LAYER
  5
206
100
AcDbSymbolTableRecord
100
AcDbLayerTableRecord
  2
10_NOTES
 70
0
 62
7
  6
CONTINUOUS
370
-3
390
F
  0
LAYER
  5
207
100
AcDbSymbolTableRecord
100
AcDbLayerTableRecord
  2
11_NOTES_PUB
 70
0
 62
7
  6
CONTINUOUS
370
-3
390
F
  0
LAYER
  5
208
100
AcDbSymbolTableRecord
100
AcDbLayerTableRecord
  2
13_REF_GTOL
 70
0
 62
7
  6
CONTINUOUS
370
-3
390
F
  0
LAYER
  5
209
100
AcDbSymbolTableRecord
100
AcDbLayerTableRecord
  2
16_MISC
 70
0
 62
7
  6
CONTINUOUS
370
-3
390
F
  0
LAYER
  5
20A
100
AcDbSymbolTableRecord
100
AcDbLayerTableRecord
  2
17_NO_PRINT
 70
0
 62
7
  6
CONTINUOUS
370
-3
390
F
  0
LAYER
  5
20B
100
AcDbSymbolTableRecord
100
AcDbLayerTableRecord
  2
18_DATUM_CAMS_JOINTS
 70
0
 62
7
  6
CONTINUOUS
370
-3
390
F
  0
LAYER
  5
20C
100
AcDbSymbolTableRecord
100
AcDbLayerTableRecord
  2
19_DATUM_FUNCTIONAL
 70
0
 62
7
  6
CONTINUOUS
370
-3
390
F
  0
LAYER
  5
20D
100
AcDbSymbolTableRecord
100
AcDbLayerTableRecord
  2
20_DATUM_KINEMATIC_SCHEME
 70
0
 62
7
  6
CONTINUOUS
370
-3
390
F
  0
ENDTAB
  0
TABLE
  2
STYLE
  5
3
100
AcDbSymbolTable
 70
1
  0
STYLE
  5
11
100
AcDbSymbolTableRecord
100
AcDbTextStyleTableRecord
  2
STANDARD
 70
0
 40
0.0
 41
0.8
 50
0.0
 71
0
 42
0.2
  3
txt
  4

  0
STYLE
  5
20E
100
AcDbSymbolTableRecord
100
AcDbTextStyleTableRecord
  2
TEXTSTYLE_1
 70
0
 40
0.0
 41
0.8
 50
0.0
 71
0
 42
0.2
  3
gdt
  4

  0
ENDTAB
  0
TABLE
  2
VIEW
  5
6
100
AcDbSymbolTable
 70
0
  0
ENDTAB
  0
TABLE
  2
UCS
  5
7
100
AcDbSymbolTable
 70
0
  0
ENDTAB
  0
TABLE
  2
APPID
  5
9
100
AcDbSymbolTable
 70
1
  0
APPID
  5
20F
100
AcDbSymbolTableRecord
100
AcDbRegAppTableRecord
  2
ACAD
 70
0
  0
ENDTAB
  0
TABLE
  2
BLOCK_RECORD
  5
1
100
AcDbSymbolTable
 70
0
  0
BLOCK_RECORD
  5
210
100
AcDbSymbolTableRecord
100
AcDbBlockTableRecord
  2
*Model_Space
  0
BLOCK_RECORD
  5
211
100
AcDbSymbolTableRecord
100
AcDbBlockTableRecord
  2
*Paper_Space
  0
BLOCK_RECORD
  5
212
100
AcDbSymbolTableRecord
100
AcDbBlockTableRecord
  2
_FILLED
  0
ENDTAB
  0
TABLE
  2
DIMSTYLE
  5
A
100
AcDbSymbolTable
 70
1
100
AcDbDimStyleTable
 71
0
  0
DIMSTYLE
105
213
100
AcDbSymbolTableRecord
100
AcDbDimStyleTableRecord
  2
STANDARD
 70
0
  3

  4

 40
1.0
 41
1.7207603614
 42
1.0
 43
0.38
 44
1.0
 45
0.0
 46
0.0
 47
0.01
 48
0.01
140
2.409064506
141
0.09
142
0.0
143
25.4
144
1.0
145
0.0
146
1.0
147
0.625
 71
1
 72
0
 73
0
 74
0
 75
0
 76
0
 77
1
 78
8
 79
2
170
0
171
1
172
0
173
0
174
0
175
0
176
0
177
0
178
0
270
2
179
2
271
2
272
2
273
2
274
2
275
0
280
0
281
0
282
0
283
1
284
8
285
0
286
0
287
3
288
0
340
11
278
46
341
212
342
212
343
212
344
212
  0
ENDTAB
  0
ENDSEC
  0
SECTION
  2
BLOCKS
  0
BLOCK
  5
20
100
AcDbEntity
  8
0
100
AcDbBlockBegin
  2
*Model_Space
 70
0
 10
0.0
 20
0.0
 30
0.0
  3
*Model_Space
  1

  0
ENDBLK
  5
21
100
AcDbEntity
  8
0
100
AcDbBlockEnd
  0
BLOCK
  5
1C
100
AcDbEntity
  8
0
100
AcDbBlockBegin
  2
*Paper_Space
 70
0
 10
0.0
 20
0.0
 30
0.0
  3
*Paper_Space
  1

  0
ENDBLK
  5
1D
100
AcDbEntity
  8
0
100
AcDbBlockEnd
  0
BLOCK
  5
214
100
AcDbEntity
  8
0
100
AcDbBlockBegin
  2
_FILLED
 70
64
 10
0.0
 20
0.0
  3
_FILLED
  1

  0
SOLID
  5
215
100
AcDbEntity
  8
0
  6
BYBLOCK
 62
0
100
AcDbTrace
 10
0.0
 20
0.0
 11
-1.0
 21
0.25
 12
-1.0
 22
-0.25
 13
-1.0
 23
-0.25
  0
ENDBLK
  5
216
100
AcDbEntity
  8
0
  6
BYBLOCK
 62
0
100
AcDbBlockEnd
  0
ENDSEC
  0
SECTION
  2
ENTITIES
  0
LINE
  5
217
100
AcDbEntity
  8
0
100
AcDbLine
 62
7
  6
CONTINUOUS
 10
65.1485538837
 20
14.6376258993
 11
83.1485538837
 21
14.6376258993
  0
LINE
  5
218
100
AcDbEntity
  8
0
100
AcDbLine
 62
7
  6
CONTINUOUS
 10
77.1485538837
 20
14.8876258993
 11
71.1485538837
 21
14.8876258993
  0
LINE
  5
219
100
AcDbEntity
  8
0
100
AcDbLine
 62
7
  6
CONTINUOUS
 10
83.6485538837
 20
15.1376258993
 11
77.1485538837
 21
15.1376258993
  0
LINE
  5
21A
100
AcDbEntity
  8
0
100
AcDbLine
 62
7
  6
CONTINUOUS
 10
71.1485538837
 20
15.1376258993
 11
64.6485538837
 21
15.1376258993
  0
LINE
  5
21B
100
AcDbEntity
  8
0
100
AcDbLine
 62
7
  6
CONTINUOUS
 10
71.1485538837
 20
36.6376258993
 11
71.3985538837
 21
36.6376258993
  0
LINE
  5
21C
100
AcDbEntity
  8
0
100
AcDbLine
 62
7
  6
CONTINUOUS
 10
76.8985538837
 20
36.6376258993
 11
77.1485538837
 21
36.6376258993
  0
LINE
  5
21D
100
AcDbEntity
  8
0
100
AcDbLine
 62
7
  6
CONTINUOUS
 10
64.6485538837
 20
15.1376258993
 11
65.1485538837
 21
14.6376258993
  0
LINE
  5
21E
100
AcDbEntity
  8
0
100
AcDbLine
 62
7
  6
CONTINUOUS
 10
71.1485538837
 20
14.8876258993
 11
71.3985538837
 21
14.6376258993
  0
LINE
  5
21F
100
AcDbEntity
  8
0
100
AcDbLine
 62
7
  6
CONTINUOUS
 10
39.6485538837
 20
46.6376258993
 11
39.1485538837
 21
47.1376258993
  0
LINE
  5
220
100
AcDbEntity
  8
0
100
AcDbLine
 62
7
  6
CONTINUOUS
 10
64.6485538837
 20
44.1426258993
 11
83.6485538837
 21
44.1426258993
  0
LINE
  5
221
100
AcDbEntity
  8
0
100
AcDbLine
 62
7
  6
CONTINUOUS
 10
84.1435538837
 20
44.6376258993
 11
64.1535538837
 21
44.6376258993
  0
LINE
  5
222
100
AcDbEntity
  8
0
100
AcDbLine
 62
7
  6
CONTINUOUS
 10
70.7335538837
 20
175.9126258993
 11
71.7335538837
 21
176.9126258993
  0
LINE
  5
223
100
AcDbEntity
  8
0
100
AcDbLine
 62
7
  6
CONTINUOUS
 10
74.8735538837
 20
180.0526258993
 11
75.8735538837
 21
181.0526258993
  0
LINE
  5
224
100
AcDbEntity
  8
0
100
AcDbLine
 62
7
  6
CONTINUOUS
 10
73.4235538837
 20
175.2226258993
 11
72.4235538837
 21
174.2226258993
  0
LINE
  5
225
100
AcDbEntity
  8
0
100
AcDbLine
 62
7
  6
CONTINUOUS
 10
99.6478855734
 20
45.6376258993
 11
48.6492221941
 21
45.6376258993
  0
LINE
  5
226
100
AcDbEntity
  8
0
100
AcDbLine
 62
7
  6
CONTINUOUS
 10
108.6479994681
 20
46.6376258993
 11
39.6491082994
 21
46.6376258993
  0
LINE
  5
227
100
AcDbEntity
  8
0
100
AcDbLine
 62
7
  6
CONTINUOUS
 10
109.1485538837
 20
47.1376258993
 11
39.1485538837
 21
47.1376258993
  0
LINE
  5
228
100
AcDbEntity
  8
0
100
AcDbLine
 62
7
  6
CONTINUOUS
 10
34.1485538837
 20
49.6376258993
 11
114.1485538837
 21
49.6376258993
  0
LINE
  5
229
100
AcDbEntity
  8
0
100
AcDbLine
 62
7
  6
CONTINUOUS
 10
64.0228432685
 20
159.0117867755
 11
64.1420942009
 21
159.1310377082
  0
LINE
  5
22A
100
AcDbEntity
  8
0
100
AcDbLine
 62
7
  6
CONTINUOUS
 10
65.6419656926
 20
157.6311662165
 11
65.5230574063
 21
157.5122579306
  0
LINE
  5
22B
100
AcDbEntity
  8
0
100
AcDbLine
 62
7
  6
CONTINUOUS
 10
34.1485538837
 20
57.6376258993
 11
51.1485538837
 21
57.6376258993
  0
LINE
  5
22C
100
AcDbEntity
  8
0
100
AcDbLine
 62
7
  6
CONTINUOUS
 10
97.1485538837
 20
57.6376258993
 11
114.1485538837
 21
57.6376258993
  0
LINE
  5
22D
100
AcDbEntity
  8
0
100
AcDbLine
 62
7
  6
CONTINUOUS
 10
64.6485538837
 20
44.1426258993
 11
64.1535538837
 21
44.6376258993
  0
LINE
  5
22E
100
AcDbEntity
  8
0
100
AcDbLine
 62
7
  6
CONTINUOUS
 10
34.1485538837
 20
151.637626111
 11
34.1485538837
 21
49.6376258993
  0
LINE
  5
22F
100
AcDbEntity
  8
0
100
AcDbLine
 62
7
  6
CONTINUOUS
 10
35.8985538837
 20
184.1376258993
 11
35.8985538837
 21
186.8376258993
  0
LINE
  5
230
100
AcDbEntity
  8
0
100
AcDbLine
 62
7
  6
CONTINUOUS
 10
36.1134028599
 20
187.1376258993
 11
36.1134028599
 21
187.6376258993
  0
LINE
  5
231
100
AcDbEntity
  8
0
100
AcDbLine
 62
7
  6
CONTINUOUS
 10
34.1485538865
 20
151.637626111
 11
34.6133600161
 21
187.1441706813
  0
LINE
  5
232
100
AcDbEntity
  8
0
100
AcDbLine
 62
7
  6
CONTINUOUS
 10
37.5737665892
 20
184.1376258509
 11
37.1484253762
 21
151.6376261538
  0
LINE
  5
233
100
AcDbEntity
  8
0
100
AcDbLine
 62
7
  6
CONTINUOUS
 10
37.1485538837
 20
57.6376258993
 11
37.1484253762
 21
151.6376261538
  0
LINE
  5
234
100
AcDbEntity
  8
0
100
AcDbLine
 62
7
  6
CONTINUOUS
 10
38.6485538837
 20
187.6376258993
 11
38.6485538837
 21
187.1376258993
  0
LINE
  5
235
100
AcDbEntity
  8
0
100
AcDbLine
 62
7
  6
CONTINUOUS
 10
39.1485538837
 20
47.1376258993
 11
39.1485538837
 21
57.6376258993
  0
LINE
  5
236
100
AcDbEntity
  8
0
100
AcDbLine
 62
7
  6
CONTINUOUS
 10
41.1485538837
 20
184.1376258993
 11
41.1485538837
 21
57.6376258993
  0
LINE
  5
237
100
AcDbEntity
  8
0
100
AcDbLine
 62
7
  6
CONTINUOUS
 10
41.3985538837
 20
184.1376258993
 11
41.3985538837
 21
186.8376258993
  0
LINE
  5
238
100
AcDbEntity
  8
0
100
AcDbLine
 62
7
  6
CONTINUOUS
 10
41.8985538837
 20
187.1376263008
 11
41.8985538837
 21
184.1376259535
  0
LINE
  5
239
100
AcDbEntity
  8
0
100
AcDbLine
 62
7
  6
CONTINUOUS
 10
43.0204384138
 20
184.1376258971
 11
43.0221083904
 21
187.1441711616
  0
LINE
  5
23A
100
AcDbEntity
  8
0
100
AcDbLine
 62
7
  6
CONTINUOUS
 10
48.0346476934
 20
151.6376258993
 11
48.0346476934
 21
149.1376258993
  0
LINE
  5
23B
100
AcDbEntity
  8
0
100
AcDbLine
 62
7
  6
CONTINUOUS
 10
48.1485538837
 20
149.1376258993
 11
48.1485538837
 21
57.6376258993
  0
LINE
  5
23C
100
AcDbEntity
  8
0
100
AcDbLine
 62
7
  6
CONTINUOUS
 10
49.3985538837
 20
149.1376258993
 11
49.3985538837
 21
150.8376258993
  0
LINE
  5
23D
100
AcDbEntity
  8
0
100
AcDbLine
 62
7
  6
CONTINUOUS
 10
48.1485538837
 20
151.6376258993
 11
48.6133600249
 21
187.1441713501
  0
LINE
  5
23E
100
AcDbEntity
  8
0
100
AcDbLine
 62
7
  6
CONTINUOUS
 10
49.5102392241
 20
151.0591188607
 11
49.5102392241
 21
151.6376258993
  0
LINE
  5
23F
100
AcDbEntity
  8
0
100
AcDbLine
 62
7
  6
CONTINUOUS
 10
51.1485538837
 20
57.6376258993
 11
51.1485538837
 21
149.1376258993
  0
LINE
  5
240
100
AcDbEntity
  8
0
100
AcDbLine
 62
7
  6
CONTINUOUS
 10
51.6131029991
 20
187.1441712651
 11
51.6131029991
 21
187.6376258993
  0
LINE
  5
241
100
AcDbEntity
  8
0
100
AcDbLine
 62
7
  6
CONTINUOUS
 10
52.1485538837
 20
151.6376258993
 11
52.1485538837
 21
151.1376258993
  0
LINE
  5
242
100
AcDbEntity
  8
0
100
AcDbLine
 62
7
  6
CONTINUOUS
 10
54.8985538837
 20
149.1376258993
 11
54.8985538837
 21
150.8376258993
  0
LINE
  5
243
100
AcDbEntity
  8
0
100
AcDbLine
 62
7
  6
CONTINUOUS
 10
55.1754835646
 20
151.6376258993
 11
55.1754835646
 21
149.1376258993
  0
LINE
  5
244
100
AcDbEntity
  8
0
100
AcDbLine
 62
7
  6
CONTINUOUS
 10
51.6131030004
 20
187.1441712695
 11
51.1482968665
 21
151.6376258993
  0
LINE
  5
245
100
AcDbEntity
  8
0
100
AcDbLine
 62
7
  6
CONTINUOUS
 10
62.7664046765
 20
133.1763397285
 11
62.7445494294
 21
133.1326259051
  0
LINE
  5
246
100
AcDbEntity
  8
0
100
AcDbLine
 62
7
  6
CONTINUOUS
 10
63.744435203
 20
132.1326258993
 11
63.7663285248
 21
132.1764158778
  0
LINE
  5
247
100
AcDbEntity
  8
0
100
AcDbLine
 62
7
  6
CONTINUOUS
 10
84.5307411678
 20
142.5197751065
 11
84.6485919607
 21
142.6376258993
  0
LINE
  5
248
100
AcDbEntity
  8
0
100
AcDbLine
 62
7
  6
CONTINUOUS
 10
85.6485538837
 20
141.6376639762
 11
85.530703091
 21
141.5198131834
  0
LINE
  5
249
100
AcDbEntity
  8
0
100
AcDbLine
 62
7
  6
CONTINUOUS
 10
56.6754835646
 20
149.1376258993
 11
56.6754835646
 21
151.6376258993
  0
LINE
  5
24A
100
AcDbEntity
  8
0
100
AcDbLine
 62
7
  6
CONTINUOUS
 10
62.6485538837
 20
115.6375878223
 11
62.7664046765
 21
115.7554386152
  0
LINE
  5
24B
100
AcDbEntity
  8
0
100
AcDbLine
 62
7
  6
CONTINUOUS
 10
63.7663665996
 20
114.755476692
 11
63.6485158068
 21
114.6376258993
  0
LINE
  5
24C
100
AcDbEntity
  8
0
100
AcDbLine
 62
7
  6
CONTINUOUS
 10
68.6049687358
 20
114.6419512555
 11
68.6485538837
 21
114.6855364035
  0
LINE
  5
24D
100
AcDbEntity
  8
0
100
AcDbLine
 62
7
  6
CONTINUOUS
 10
63.5182378441
 20
186.1310792766
 11
63.5228861055
 21
159.0052419784
  0
LINE
  5
24E
100
AcDbEntity
  8
0
100
AcDbLine
 62
7
  6
CONTINUOUS
 10
64.0181947979
 20
186.1376258981
 11
64.0228432685
 21
159.0117867755
  0
LINE
  5
24F
100
AcDbEntity
  8
0
100
AcDbLine
 62
7
  6
CONTINUOUS
 10
62.6485538837
 20
115.6375878223
 11
62.6485538837
 21
141.6376639762
  0
LINE
  5
250
100
AcDbEntity
  8
0
100
AcDbLine
 62
7
  6
CONTINUOUS
 10
62.7445494294
 20
133.1326259051
 11
62.7445494294
 21
126.1426258935
  0
LINE
  5
251
100
AcDbEntity
  8
0
100
AcDbLine
 62
7
  6
CONTINUOUS
 10
62.7664046765
 20
141.5198131834
 11
62.7664046765
 21
133.1763397285
  0
LINE
  5
252
100
AcDbEntity
  8
0
100
AcDbLine
 62
7
  6
CONTINUOUS
 10
62.7664046765
 20
126.09891207
 11
62.7664046765
 21
115.7554386152
  0
LINE
  5
253
100
AcDbEntity
  8
0
100
AcDbLine
 62
7
  6
CONTINUOUS
 10
63.2663856381
 20
115.7554386152
 11
63.2663868325
 21
126.0988925363
  0
LINE
  5
254
100
AcDbEntity
  8
0
100
AcDbLine
 62
7
  6
CONTINUOUS
 10
63.2663868144
 20
133.1763592108
 11
63.2663856381
 21
141.5198131834
  0
LINE
  5
255
100
AcDbEntity
  8
0
100
AcDbLine
 62
7
  6
CONTINUOUS
 10
63.7663285249
 20
126.5989125826
 11
63.7663285249
 21
127.0988359207
  0
LINE
  5
256
100
AcDbEntity
  8
0
100
AcDbLine
 62
7
  6
CONTINUOUS
 10
63.7663285249
 20
132.1764158779
 11
63.7663285249
 21
132.6763392227
  0
LINE
  5
257
100
AcDbEntity
  8
0
100
AcDbLine
 62
7
  6
CONTINUOUS
 10
63.7663665996
 20
114.755476692
 11
63.7663665996
 21
115.2554576537
  0
LINE
  5
258
100
AcDbEntity
  8
0
100
AcDbLine
 62
7
  6
CONTINUOUS
 10
63.7663665996
 20
142.0197941449
 11
63.7663665996
 21
142.5197751065
  0
LINE
  5
259
100
AcDbEntity
  8
0
100
AcDbLine
 62
7
  6
CONTINUOUS
 10
63.7936603483
 20
187.6376258993
 11
63.7936603483
 21
187.1441712651
  0
LINE
  5
25A
100
AcDbEntity
  8
0
100
AcDbLine
 62
7
  6
CONTINUOUS
 10
64.1420942011
 20
186.1376258992
 11
64.1420942009
 21
159.1310377082
  0
LINE
  5
25B
100
AcDbEntity
  8
0
100
AcDbLine
 62
7
  6
CONTINUOUS
 10
64.1535538837
 20
45.6376111289
 11
64.1535538837
 21
44.6376258993
  0
LINE
  5
25C
100
AcDbEntity
  8
0
100
AcDbLine
 62
7
  6
CONTINUOUS
 10
64.6420513651
 20
159.1310377082
 11
64.6420496009
 21
186.1376593379
  0
LINE
  5
25D
100
AcDbEntity
  8
0
100
AcDbLine
 62
7
  6
CONTINUOUS
 10
64.6485538837
 20
44.1426258993
 11
64.6485538837
 21
15.1376258993
  0
LINE
  5
25E
100
AcDbEntity
  8
0
100
AcDbLine
 62
7
  6
CONTINUOUS
 10
65.1485538837
 20
132.6763392227
 11
65.1485538837
 21
132.1326258993
  0
LINE
  5
25F
100
AcDbEntity
  8
0
100
AcDbLine
 62
7
  6
CONTINUOUS
 10
65.1485538837
 20
127.1426258993
 11
65.1485538837
 21
126.5989125826
  0
LINE
  5
260
100
AcDbEntity
  8
0
100
AcDbLine
 62
7
  6
CONTINUOUS
 10
65.5230574063
 20
157.0123007667
 11
65.5230574063
 21
157.5122579306
  0
LINE
  5
261
100
AcDbEntity
  8
0
100
AcDbLine
 62
7
  6
CONTINUOUS
 10
65.6419656927
 20
157.6311662164
 11
65.6419656927
 21
158.1311233806
  0
LINE
  5
262
100
AcDbEntity
  8
0
100
AcDbLine
 62
7
  6
CONTINUOUS
 10
65.6421370448
 20
187.1376243921
 11
65.6421370448
 21
187.6376258993
  0
LINE
  5
263
100
AcDbEntity
  8
0
100
AcDbLine
 62
7
  6
CONTINUOUS
 10
66.1485538837
 20
185.6376258993
 11
66.1485538837
 21
169.6376258993
  0
LINE
  5
264
100
AcDbEntity
  8
0
100
AcDbLine
 62
7
  6
CONTINUOUS
 10
67.1485538837
 20
184.6376258993
 11
67.1485538837
 21
183.6376258993
  0
LINE
  5
265
100
AcDbEntity
  8
0
100
AcDbLine
 62
7
  6
CONTINUOUS
 10
67.1485538837
 20
183.1376258993
 11
67.1485538837
 21
170.6376258993
  0
LINE
  5
266
100
AcDbEntity
  8
0
100
AcDbLine
 62
7
  6
CONTINUOUS
 10
68.2835538837
 20
183.5026258993
 11
68.2835538837
 21
180.0526258993
  0
LINE
  5
267
100
AcDbEntity
  8
0
100
AcDbLine
 62
7
  6
CONTINUOUS
 10
68.2835538837
 20
179.3626258993
 11
68.2835538837
 21
175.9126258993
  0
LINE
  5
268
100
AcDbEntity
  8
0
100
AcDbLine
 62
7
  6
CONTINUOUS
 10
68.2835538837
 20
175.2226258993
 11
68.2835538837
 21
171.7726258993
  0
LINE
  5
269
100
AcDbEntity
  8
0
100
AcDbLine
 62
7
  6
CONTINUOUS
 10
68.9985538837
 20
108.8876258993
 11
68.9985538837
 21
97.8876258993
  0
LINE
  5
26A
100
AcDbEntity
  8
0
100
AcDbLine
 62
7
  6
CONTINUOUS
 10
69.3485538837
 20
98.5876258993
 11
69.3485538837
 21
108.1876258993
  0
LINE
  5
26B
100
AcDbEntity
  8
0
100
AcDbLine
 62
7
  6
CONTINUOUS
 10
70.3485538837
 20
99.4876258993
 11
70.3485538837
 21
102.8876258993
  0
LINE
  5
26C
100
AcDbEntity
  8
0
100
AcDbLine
 62
7
  6
CONTINUOUS
 10
70.3485538837
 20
104.4376258993
 11
70.3485538837
 21
107.0876258993
  0
LINE
  5
26D
100
AcDbEntity
  8
0
100
AcDbLine
 62
7
  6
CONTINUOUS
 10
70.4485538837
 20
109.5376258993
 11
70.4485538837
 21
114.7188232839
  0
LINE
  5
26E
100
AcDbEntity
  8
0
100
AcDbLine
 62
7
  6
CONTINUOUS
 10
71.1485538837
 20
14.6376258993
 11
71.1485538837
 21
36.6376258993
  0
LINE
  5
26F
100
AcDbEntity
  8
0
100
AcDbLine
 62
7
  6
CONTINUOUS
 10
71.3485538837
 20
184.6376258993
 11
71.3485538837
 21
188.5376258993
  0
LINE
  5
270
100
AcDbEntity
  8
0
100
AcDbLine
 62
7
  6
CONTINUOUS
 10
71.3985538837
 20
14.6376258993
 11
71.3985538837
 21
36.6376258993
  0
LINE
  5
271
100
AcDbEntity
  8
0
100
AcDbLine
 62
7
  6
CONTINUOUS
 10
71.4485538837
 20
108.1876258993
 11
71.4485538837
 21
111.9876258993
  0
LINE
  5
272
100
AcDbEntity
  8
0
100
AcDbLine
 62
7
  6
CONTINUOUS
 10
71.7335538837
 20
171.7726258993
 11
71.7335538837
 21
175.2226258993
  0
LINE
  5
273
100
AcDbEntity
  8
0
100
AcDbLine
 62
7
  6
CONTINUOUS
 10
71.7335538837
 20
176.9126258993
 11
71.7335538837
 21
178.3626258993
  0
LINE
  5
274
100
AcDbEntity
  8
0
100
AcDbLine
 62
7
  6
CONTINUOUS
 10
71.7335538837
 20
180.0526258993
 11
71.7335538837
 21
183.5026258993
  0
LINE
  5
275
100
AcDbEntity
  8
0
100
AcDbLine
 62
7
  6
CONTINUOUS
 10
72.4235538837
 20
183.5026258993
 11
72.4235538837
 21
181.0526258993
  0
LINE
  5
276
100
AcDbEntity
  8
0
100
AcDbLine
 62
7
  6
CONTINUOUS
 10
72.4235538837
 20
179.3626258993
 11
72.4235538837
 21
175.9126258993
  0
LINE
  5
277
100
AcDbEntity
  8
0
100
AcDbLine
 62
7
  6
CONTINUOUS
 10
72.4235538837
 20
174.2226258993
 11
72.4235538837
 21
171.7726258993
  0
LINE
  5
278
100
AcDbEntity
  8
0
100
AcDbLine
 62
7
  6
CONTINUOUS
 10
72.6485538837
 20
108.1876258993
 11
72.6485538837
 21
111.6876258993
  0
LINE
  5
279
100
AcDbEntity
  8
0
100
AcDbLine
 62
7
  6
CONTINUOUS
 10
72.6485538837
 20
184.6376258993
 11
72.6485538837
 21
188.0376258993
  0
LINE
  5
27A
100
AcDbEntity
  8
0
100
AcDbLine
 62
7
  6
CONTINUOUS
 10
73.6485538837
 20
188.0376258993
 11
73.6485538837
 21
188.5376258993
  0
LINE
  5
27B
100
AcDbEntity
  8
0
100
AcDbLine
 62
7
  6
CONTINUOUS
 10
73.7485538837
 20
107.0876258993
 11
73.7485538837
 21
104.4376258993
  0
LINE
  5
27C
100
AcDbEntity
  8
0
100
AcDbLine
 62
7
  6
CONTINUOUS
 10
73.7485538837
 20
102.8876258993
 11
73.7485538837
 21
99.4876258993
  0
LINE
  5
27D
100
AcDbEntity
  8
0
100
AcDbLine
 62
7
  6
CONTINUOUS
 10
74.5485538837
 20
100.2376258993
 11
74.5485538837
 21
102.8876258993
  0
LINE
  5
27E
100
AcDbEntity
  8
0
100
AcDbLine
 62
7
  6
CONTINUOUS
 10
74.5485538837
 20
103.6876258993
 11
74.5485538837
 21
107.0876258993
  0
LINE
  5
27F
100
AcDbEntity
  8
0
100
AcDbLine
 62
7
  6
CONTINUOUS
 10
74.6485538837
 20
188.5376258993
 11
74.6485538837
 21
188.0376258993
  0
LINE
  5
280
100
AcDbEntity
  8
0
100
AcDbLine
 62
7
  6
CONTINUOUS
 10
84.5526725645
 20
127.1426258993
 11
84.5307792426
 21
127.0988359208
  0
LINE
  5
281
100
AcDbEntity
  8
0
100
AcDbLine
 62
7
  6
CONTINUOUS
 10
85.530703091
 20
126.09891207
 11
85.552558338
 21
126.1426258935
  0
LINE
  5
282
100
AcDbEntity
  8
0
100
AcDbLine
 62
7
  6
CONTINUOUS
 10
72.9985538837
 20
103.6876258993
 11
73.7485538837
 21
104.4376258993
  0
LINE
  5
283
100
AcDbEntity
  8
0
100
AcDbLine
 62
7
  6
CONTINUOUS
 10
69.6485538837
 20
97.2376258993
 11
78.6485538836
 21
97.2376258993
  0
LINE
  5
284
100
AcDbEntity
  8
0
100
AcDbLine
 62
7
  6
CONTINUOUS
 10
78.9485538837
 20
98.5876258993
 11
76.7735538837
 21
98.5876258993
  0
LINE
  5
285
100
AcDbEntity
  8
0
100
AcDbLine
 62
7
  6
CONTINUOUS
 10
76.2735538837
 20
98.5876258993
 11
76.2235538837
 21
98.5876258993
  0
LINE
  5
286
100
AcDbEntity
  8
0
100
AcDbLine
 62
7
  6
CONTINUOUS
 10
75.7235538837
 20
98.5876258993
 11
72.2985538837
 21
98.5876258993
  0
LINE
  5
287
100
AcDbEntity
  8
0
100
AcDbLine
 62
7
  6
CONTINUOUS
 10
71.7985538837
 20
98.5876258993
 11
69.3485538837
 21
98.5876258993
  0
LINE
  5
288
100
AcDbEntity
  8
0
100
AcDbLine
 62
7
  6
CONTINUOUS
 10
77.1985538837
 20
99.4876258993
 11
75.2985538837
 21
99.4876258993
  0
LINE
  5
289
100
AcDbEntity
  8
0
100
AcDbLine
 62
7
  6
CONTINUOUS
 10
73.7485538837
 20
99.4876258993
 11
70.3485538837
 21
99.4876258993
  0
LINE
  5
28A
100
AcDbEntity
  8
0
100
AcDbLine
 62
7
  6
CONTINUOUS
 10
70.3485538837
 20
104.4376258993
 11
71.0985538837
 21
103.6876258993
  0
LINE
  5
28B
100
AcDbEntity
  8
0
100
AcDbLine
 62
7
  6
CONTINUOUS
 10
74.5485538837
 20
100.2376258993
 11
75.2985538837
 21
99.4876258993
  0
LINE
  5
28C
100
AcDbEntity
  8
0
100
AcDbLine
 62
7
  6
CONTINUOUS
 10
62.7445494294
 20
126.1426258935
 11
62.7664046765
 21
126.09891207
  0
LINE
  5
28D
100
AcDbEntity
  8
0
100
AcDbLine
 62
7
  6
CONTINUOUS
 10
75.6485538837
 20
108.1876258993
 11
75.6485538837
 21
111.6876258993
  0
LINE
  5
28E
100
AcDbEntity
  8
0
100
AcDbLine
 62
7
  6
CONTINUOUS
 10
75.6485538837
 20
184.6376258993
 11
75.6485538837
 21
188.0376258993
  0
LINE
  5
28F
100
AcDbEntity
  8
0
100
AcDbLine
 62
7
  6
CONTINUOUS
 10
75.8735538837
 20
171.7726258993
 11
75.8735538837
 21
174.2226258993
  0
LINE
  5
290
100
AcDbEntity
  8
0
100
AcDbLine
 62
7
  6
CONTINUOUS
 10
75.8735538837
 20
175.9126258993
 11
75.8735538837
 21
179.3626258993
  0
LINE
  5
291
100
AcDbEntity
  8
0
100
AcDbLine
 62
7
  6
CONTINUOUS
 10
75.8735538837
 20
181.0526258993
 11
75.8735538837
 21
183.5026258993
  0
LINE
  5
292
100
AcDbEntity
  8
0
100
AcDbLine
 62
7
  6
CONTINUOUS
 10
76.5635538837
 20
183.5026258993
 11
76.5635538837
 21
180.0526258993
  0
LINE
  5
293
100
AcDbEntity
  8
0
100
AcDbLine
 62
7
  6
CONTINUOUS
 10
76.5635538837
 20
179.3626258993
 11
76.5635538837
 21
175.9126258993
  0
LINE
  5
294
100
AcDbEntity
  8
0
100
AcDbLine
 62
7
  6
CONTINUOUS
 10
76.5635538837
 20
175.2226258993
 11
76.5635538837
 21
171.7726258993
  0
LINE
  5
295
100
AcDbEntity
  8
0
100
AcDbLine
 62
7
  6
CONTINUOUS
 10
76.8485538837
 20
108.1876258993
 11
76.8485538837
 21
111.9876258993
  0
LINE
  5
296
100
AcDbEntity
  8
0
100
AcDbLine
 62
7
  6
CONTINUOUS
 10
76.8985538837
 20
36.6376258993
 11
76.8985538837
 21
14.6376258993
  0
LINE
  5
297
100
AcDbEntity
  8
0
100
AcDbLine
 62
7
  6
CONTINUOUS
 10
76.9485538837
 20
188.5376258993
 11
76.9485538837
 21
184.6376258993
  0
LINE
  5
298
100
AcDbEntity
  8
0
100
AcDbLine
 62
7
  6
CONTINUOUS
 10
77.1485538837
 20
14.6376258993
 11
77.1485538837
 21
36.6376258993
  0
LINE
  5
299
100
AcDbEntity
  8
0
100
AcDbLine
 62
7
  6
CONTINUOUS
 10
77.8485538837
 20
109.5376258993
 11
77.8485538837
 21
114.7188232525
  0
LINE
  5
29A
100
AcDbEntity
  8
0
100
AcDbLine
 62
7
  6
CONTINUOUS
 10
77.9485538837
 20
107.0876258993
 11
77.9485538837
 21
103.6876258993
  0
LINE
  5
29B
100
AcDbEntity
  8
0
100
AcDbLine
 62
7
  6
CONTINUOUS
 10
77.9485538837
 20
102.8876258993
 11
77.9485538837
 21
100.2376258993
  0
LINE
  5
29C
100
AcDbEntity
  8
0
100
AcDbLine
 62
7
  6
CONTINUOUS
 10
78.9485538837
 20
98.5876258993
 11
78.9485538837
 21
108.1876258993
  0
LINE
  5
29D
100
AcDbEntity
  8
0
100
AcDbLine
 62
7
  6
CONTINUOUS
 10
79.2985538837
 20
97.8876258993
 11
79.2985538837
 21
108.8876258993
  0
LINE
  5
29E
100
AcDbEntity
  8
0
100
AcDbLine
 62
7
  6
CONTINUOUS
 10
80.0135538837
 20
171.7726258993
 11
80.0135538837
 21
175.2226258993
  0
LINE
  5
29F
100
AcDbEntity
  8
0
100
AcDbLine
 62
7
  6
CONTINUOUS
 10
80.0135538837
 20
175.9126258993
 11
80.0135538837
 21
179.3626258993
  0
LINE
  5
2A0
100
AcDbEntity
  8
0
100
AcDbLine
 62
7
  6
CONTINUOUS
 10
80.0135538837
 20
180.0526258993
 11
80.0135538837
 21
183.5026258993
  0
LINE
  5
2A1
100
AcDbEntity
  8
0
100
AcDbLine
 62
7
  6
CONTINUOUS
 10
81.1485538837
 20
170.6376258993
 11
81.1485538837
 21
184.6376258993
  0
LINE
  5
2A2
100
AcDbEntity
  8
0
100
AcDbLine
 62
7
  6
CONTINUOUS
 10
77.1985538837
 20
99.4876258993
 11
77.9485538837
 21
100.2376258993
  0
LINE
  5
2A3
100
AcDbEntity
  8
0
100
AcDbLine
 62
7
  6
CONTINUOUS
 10
70.3485538837
 20
102.8876258993
 11
73.7485538837
 21
102.8876258993
  0
LINE
  5
2A4
100
AcDbEntity
  8
0
100
AcDbLine
 62
7
  6
CONTINUOUS
 10
74.5485538837
 20
102.8876258993
 11
77.9485538837
 21
102.8876258993
  0
LINE
  5
2A5
100
AcDbEntity
  8
0
100
AcDbLine
 62
7
  6
CONTINUOUS
 10
77.9485538837
 20
103.6876258993
 11
74.5485538837
 21
103.6876258993
  0
LINE
  5
2A6
100
AcDbEntity
  8
0
100
AcDbLine
 62
7
  6
CONTINUOUS
 10
72.9985538837
 20
103.6876258993
 11
71.0985538837
 21
103.6876258993
  0
LINE
  5
2A7
100
AcDbEntity
  8
0
100
AcDbLine
 62
7
  6
CONTINUOUS
 10
70.3485538837
 20
107.0876258993
 11
73.7485538837
 21
107.0876258993
  0
LINE
  5
2A8
100
AcDbEntity
  8
0
100
AcDbLine
 62
7
  6
CONTINUOUS
 10
74.5485538837
 20
107.0876258993
 11
77.9485538837
 21
107.0876258993
  0
LINE
  5
2A9
100
AcDbEntity
  8
0
100
AcDbLine
 62
7
  6
CONTINUOUS
 10
78.9485538837
 20
108.1876258993
 11
69.3485538837
 21
108.1876258993
  0
LINE
  5
2AA
100
AcDbEntity
  8
0
100
AcDbLine
 62
7
  6
CONTINUOUS
 10
76.8485538837
 20
108.4876258993
 11
75.6485538837
 21
108.4876258993
  0
LINE
  5
2AB
100
AcDbEntity
  8
0
100
AcDbLine
 62
7
  6
CONTINUOUS
 10
72.6485538837
 20
108.4876258993
 11
71.4485538837
 21
108.4876258993
  0
LINE
  5
2AC
100
AcDbEntity
  8
0
100
AcDbLine
 62
7
  6
CONTINUOUS
 10
63.7663285248
 20
127.0988359208
 11
63.744435203
 21
127.1426258993
  0
LINE
  5
2AD
100
AcDbEntity
  8
0
100
AcDbLine
 62
7
  6
CONTINUOUS
 10
82.1485538837
 20
169.6376258993
 11
82.1485538837
 21
185.6376258993
  0
LINE
  5
2AE
100
AcDbEntity
  8
0
100
AcDbLine
 62
7
  6
CONTINUOUS
 10
82.6549707226
 20
187.6376258993
 11
82.6549707226
 21
187.1376243921
  0
LINE
  5
2AF
100
AcDbEntity
  8
0
100
AcDbLine
 62
7
  6
CONTINUOUS
 10
82.6551420748
 20
158.1311233806
 11
82.6551420748
 21
157.6311662164
  0
LINE
  5
2B0
100
AcDbEntity
  8
0
100
AcDbLine
 62
7
  6
CONTINUOUS
 10
82.7740503612
 20
157.5122579306
 11
82.7740503612
 21
157.0123007667
  0
LINE
  5
2B1
100
AcDbEntity
  8
0
100
AcDbLine
 62
7
  6
CONTINUOUS
 10
83.1485538837
 20
126.5989125834
 11
83.1485538837
 21
127.1426258993
  0
LINE
  5
2B2
100
AcDbEntity
  8
0
100
AcDbLine
 62
7
  6
CONTINUOUS
 10
83.1485538837
 20
132.1326258993
 11
83.1485538837
 21
132.6763392152
  0
LINE
  5
2B3
100
AcDbEntity
  8
0
100
AcDbLine
 62
7
  6
CONTINUOUS
 10
83.6485538837
 20
44.1426258993
 11
83.6485538837
 21
15.1376258993
  0
LINE
  5
2B4
100
AcDbEntity
  8
0
100
AcDbLine
 62
7
  6
CONTINUOUS
 10
83.6550582504
 20
186.1376597566
 11
83.6550564024
 21
159.1310377082
  0
LINE
  5
2B5
100
AcDbEntity
  8
0
100
AcDbLine
 62
7
  6
CONTINUOUS
 10
84.1435538837
 20
45.6376258993
 11
84.1435538837
 21
44.6376258993
  0
LINE
  5
2B6
100
AcDbEntity
  8
0
100
AcDbLine
 62
7
  6
CONTINUOUS
 10
84.1550135665
 20
159.1310377082
 11
84.1550135664
 21
186.1376258993
  0
LINE
  5
2B7
100
AcDbEntity
  8
0
100
AcDbLine
 62
7
  6
CONTINUOUS
 10
84.5034474192
 20
187.1441711343
 11
84.5034474192
 21
187.6376258993
  0
LINE
  5
2B8
100
AcDbEntity
  8
0
100
AcDbLine
 62
7
  6
CONTINUOUS
 10
84.5307411678
 20
142.5197751065
 11
84.5307411678
 21
142.0197941449
  0
LINE
  5
2B9
100
AcDbEntity
  8
0
100
AcDbLine
 62
7
  6
CONTINUOUS
 10
84.5307411678
 20
115.2554576537
 11
84.5307411678
 21
114.755476692
  0
LINE
  5
2BA
100
AcDbEntity
  8
0
100
AcDbLine
 62
7
  6
CONTINUOUS
 10
84.5307792426
 20
132.6763392152
 11
84.5307792426
 21
132.1764158779
  0
LINE
  5
2BB
100
AcDbEntity
  8
0
100
AcDbLine
 62
7
  6
CONTINUOUS
 10
84.5307792426
 20
127.0988359207
 11
84.5307792426
 21
126.5989125834
  0
LINE
  5
2BC
100
AcDbEntity
  8
0
100
AcDbLine
 62
7
  6
CONTINUOUS
 10
85.0307221294
 20
141.5198131834
 11
85.030720968
 21
133.1763591359
  0
LINE
  5
2BD
100
AcDbEntity
  8
0
100
AcDbLine
 62
7
  6
CONTINUOUS
 10
85.030720968
 20
126.0988926626
 11
85.0307221294
 21
115.7554386152
  0
LINE
  5
2BE
100
AcDbEntity
  8
0
100
AcDbLine
 62
7
  6
CONTINUOUS
 10
85.530703091
 20
115.7554386152
 11
85.530703091
 21
126.09891207
  0
LINE
  5
2BF
100
AcDbEntity
  8
0
100
AcDbLine
 62
7
  6
CONTINUOUS
 10
85.530703091
 20
133.1763397285
 11
85.530703091
 21
141.5198131834
  0
LINE
  5
2C0
100
AcDbEntity
  8
0
100
AcDbLine
 62
7
  6
CONTINUOUS
 10
85.552558338
 20
133.1326259051
 11
85.552558338
 21
126.1426258935
  0
LINE
  5
2C1
100
AcDbEntity
  8
0
100
AcDbLine
 62
7
  6
CONTINUOUS
 10
85.6485538837
 20
115.6375878224
 11
85.6485538837
 21
141.6376639762
  0
LINE
  5
2C2
100
AcDbEntity
  8
0
100
AcDbLine
 62
7
  6
CONTINUOUS
 10
84.2742644989
 20
159.0117867755
 11
84.2789129695
 21
186.1376258983
  0
LINE
  5
2C3
100
AcDbEntity
  8
0
100
AcDbLine
 62
7
  6
CONTINUOUS
 10
84.774221662
 20
159.0052419784
 11
84.7788701713
 21
186.1310735821
  0
LINE
  5
2C4
100
AcDbEntity
  8
0
100
AcDbLine
 62
7
  6
CONTINUOUS
 10
78.6485538837
 20
109.5376258993
 11
76.8485538837
 21
109.5376258993
  0
LINE
  5
2C5
100
AcDbEntity
  8
0
100
AcDbLine
 62
7
  6
CONTINUOUS
 10
71.4485538837
 20
109.5376258993
 11
69.6485538839
 21
109.5376258993
  0
LINE
  5
2C6
100
AcDbEntity
  8
0
100
AcDbLine
 62
7
  6
CONTINUOUS
 10
75.6485538837
 20
109.6876258993
 11
72.6485538837
 21
109.6876258993
  0
LINE
  5
2C7
100
AcDbEntity
  8
0
100
AcDbLine
 62
7
  6
CONTINUOUS
 10
76.8485538837
 20
110.9876258993
 11
71.4485538837
 21
110.9876258993
  0
LINE
  5
2C8
100
AcDbEntity
  8
0
100
AcDbLine
 62
7
  6
CONTINUOUS
 10
76.8485538837
 20
111.6876258993
 11
71.4485538837
 21
111.6876258993
  0
LINE
  5
2C9
100
AcDbEntity
  8
0
100
AcDbLine
 62
7
  6
CONTINUOUS
 10
76.8485538837
 20
111.9876258993
 11
71.4485538837
 21
111.9876258993
  0
LINE
  5
2CA
100
AcDbEntity
  8
0
100
AcDbLine
 62
7
  6
CONTINUOUS
 10
77.8485538837
 20
113.3876258993
 11
70.4485538837
 21
113.3876258993
  0
LINE
  5
2CB
100
AcDbEntity
  8
0
100
AcDbLine
 62
7
  6
CONTINUOUS
 10
63.6485158068
 20
114.6376258993
 11
68.1049877743
 21
114.6376258993
  0
LINE
  5
2CC
100
AcDbEntity
  8
0
100
AcDbLine
 62
7
  6
CONTINUOUS
 10
80.1921199932
 20
114.6376258993
 11
84.6485919607
 21
114.6376258993
  0
LINE
  5
2CD
100
AcDbEntity
  8
0
100
AcDbLine
 62
7
  6
CONTINUOUS
 10
63.7663665996
 20
114.755476692
 11
84.5307411678
 21
114.755476692
  0
LINE
  5
2CE
100
AcDbEntity
  8
0
100
AcDbLine
 62
7
  6
CONTINUOUS
 10
79.6485538837
 20
114.6855364035
 11
79.6921390317
 21
114.6419512555
  0
LINE
  5
2CF
100
AcDbEntity
  8
0
100
AcDbLine
 62
7
  6
CONTINUOUS
 10
91.6216242029
 20
151.6376258993
 11
91.6216242029
 21
149.1376258993
  0
LINE
  5
2D0
100
AcDbEntity
  8
0
100
AcDbLine
 62
7
  6
CONTINUOUS
 10
93.1216242029
 20
149.1376258993
 11
93.1216242029
 21
151.6376258993
  0
LINE
  5
2D1
100
AcDbEntity
  8
0
100
AcDbLine
 62
7
  6
CONTINUOUS
 10
93.3985538837
 20
149.1376258993
 11
93.3985538837
 21
150.8376258993
  0
LINE
  5
2D2
100
AcDbEntity
  8
0
100
AcDbLine
 62
7
  6
CONTINUOUS
 10
84.5307411678
 20
115.2554576537
 11
63.7663665996
 21
115.2554576537
  0
LINE
  5
2D3
100
AcDbEntity
  8
0
100
AcDbLine
 62
7
  6
CONTINUOUS
 10
85.530703091
 20
115.7554386152
 11
85.0307215487
 21
115.7554386152
  0
LINE
  5
2D4
100
AcDbEntity
  8
0
100
AcDbLine
 62
7
  6
CONTINUOUS
 10
63.2663862353
 20
115.7554386152
 11
62.7664046765
 21
115.7554386152
  0
LINE
  5
2D5
100
AcDbEntity
  8
0
100
AcDbLine
 62
7
  6
CONTINUOUS
 10
84.6485919607
 20
114.6376258993
 11
84.5307411678
 21
114.755476692
  0
LINE
  5
2D6
100
AcDbEntity
  8
0
100
AcDbLine
 62
7
  6
CONTINUOUS
 10
85.530703091
 20
115.7554386152
 11
85.6485538837
 21
115.6375878224
  0
LINE
  5
2D7
100
AcDbEntity
  8
0
100
AcDbLine
 62
7
  6
CONTINUOUS
 10
97.1488109018
 20
151.6376258993
 11
96.6840047659
 21
187.1441714047
  0
LINE
  5
2D8
100
AcDbEntity
  8
0
100
AcDbLine
 62
7
  6
CONTINUOUS
 10
96.1485538837
 20
151.1376258993
 11
96.1485538837
 21
151.6376258993
  0
LINE
  5
2D9
100
AcDbEntity
  8
0
100
AcDbLine
 62
7
  6
CONTINUOUS
 10
96.6840047684
 20
187.6376258993
 11
96.6840047684
 21
187.1441711343
  0
LINE
  5
2DA
100
AcDbEntity
  8
0
100
AcDbLine
 62
7
  6
CONTINUOUS
 10
97.1485538837
 20
149.1376258993
 11
97.1485538837
 21
57.6376258993
  0
LINE
  5
2DB
100
AcDbEntity
  8
0
100
AcDbLine
 62
7
  6
CONTINUOUS
 10
98.7868685434
 20
151.6376258993
 11
98.7868685434
 21
151.0591188607
  0
LINE
  5
2DC
100
AcDbEntity
  8
0
100
AcDbLine
 62
7
  6
CONTINUOUS
 10
98.8985538837
 20
149.1376258993
 11
98.8985538837
 21
150.8376258993
  0
LINE
  5
2DD
100
AcDbEntity
  8
0
100
AcDbLine
 62
7
  6
CONTINUOUS
 10
100.1485538837
 20
57.6376258993
 11
100.1485538837
 21
149.1376258993
  0
LINE
  5
2DE
100
AcDbEntity
  8
0
100
AcDbLine
 62
7
  6
CONTINUOUS
 10
100.2624600741
 20
149.1376258993
 11
100.2624600741
 21
151.6376258993
  0
LINE
  5
2DF
100
AcDbEntity
  8
0
100
AcDbLine
 62
7
  6
CONTINUOUS
 10
62.7664046765
 20
126.09891207
 11
63.2663862353
 21
126.09891207
  0
LINE
  5
2E0
100
AcDbEntity
  8
0
100
AcDbLine
 62
7
  6
CONTINUOUS
 10
85.0307215487
 20
126.09891207
 11
85.530703091
 21
126.09891207
  0
LINE
  5
2E1
100
AcDbEntity
  8
0
100
AcDbLine
 62
7
  6
CONTINUOUS
 10
63.7663098783
 20
126.5989130922
 11
65.1485538838
 21
126.5989120729
  0
LINE
  5
2E2
100
AcDbEntity
  8
0
100
AcDbLine
 62
7
  6
CONTINUOUS
 10
83.1485538837
 20
126.5989120729
 11
84.5307979355
 21
126.5989130938
  0
LINE
  5
2E3
100
AcDbEntity
  8
0
100
AcDbLine
 62
7
  6
CONTINUOUS
 10
84.5307792426
 20
127.0988359208
 11
83.1485538837
 21
127.0988359205
  0
LINE
  5
2E4
100
AcDbEntity
  8
0
100
AcDbLine
 62
7
  6
CONTINUOUS
 10
65.1485538837
 20
127.0988359205
 11
63.7663285248
 21
127.0988359208
  0
LINE
  5
2E5
100
AcDbEntity
  8
0
100
AcDbLine
 62
7
  6
CONTINUOUS
 10
63.744435203
 20
127.1426258993
 11
65.1485538837
 21
127.1426258993
  0
LINE
  5
2E6
100
AcDbEntity
  8
0
100
AcDbLine
 62
7
  6
CONTINUOUS
 10
83.1485538837
 20
127.1426258993
 11
84.5526725645
 21
127.1426258993
  0
LINE
  5
2E7
100
AcDbEntity
  8
0
100
AcDbLine
 62
7
  6
CONTINUOUS
 10
62.7664046765
 20
141.5198131834
 11
62.6485538837
 21
141.6376639762
  0
LINE
  5
2E8
100
AcDbEntity
  8
0
100
AcDbLine
 62
7
  6
CONTINUOUS
 10
63.6485158068
 20
142.6376258993
 11
63.7663665996
 21
142.5197751065
  0
LINE
  5
2E9
100
AcDbEntity
  8
0
100
AcDbLine
 62
7
  6
CONTINUOUS
 10
84.5307792426
 20
132.1764158777
 11
84.5526725645
 21
132.1326258993
  0
LINE
  5
2EA
100
AcDbEntity
  8
0
100
AcDbLine
 62
7
  6
CONTINUOUS
 10
85.552558338
 20
133.1326259051
 11
85.530703091
 21
133.1763397285
  0
LINE
  5
2EB
100
AcDbEntity
  8
0
100
AcDbLine
 62
7
  6
CONTINUOUS
 10
99.6837477443
 20
187.1441712149
 11
100.1485538837
 21
151.6376258993
  0
LINE
  5
2EC
100
AcDbEntity
  8
0
100
AcDbLine
 62
7
  6
CONTINUOUS
 10
105.2766692468
 20
187.1441634738
 11
105.2766692468
 21
184.1376258872
  0
LINE
  5
2ED
100
AcDbEntity
  8
0
100
AcDbLine
 62
7
  6
CONTINUOUS
 10
106.3985538837
 20
184.1376258983
 11
106.3985538837
 21
187.1376262308
  0
LINE
  5
2EE
100
AcDbEntity
  8
0
100
AcDbLine
 62
7
  6
CONTINUOUS
 10
106.8985538837
 20
184.1376258993
 11
106.8985538837
 21
186.8376258993
  0
LINE
  5
2EF
100
AcDbEntity
  8
0
100
AcDbLine
 62
7
  6
CONTINUOUS
 10
84.5526725645
 20
132.1326258993
 11
83.1485538837
 21
132.1326258993
  0
LINE
  5
2F0
100
AcDbEntity
  8
0
100
AcDbLine
 62
7
  6
CONTINUOUS
 10
65.1485538837
 20
132.1326258993
 11
63.744435203
 21
132.1326258993
  0
LINE
  5
2F1
100
AcDbEntity
  8
0
100
AcDbLine
 62
7
  6
CONTINUOUS
 10
63.7663285248
 20
132.1764158778
 11
65.1485538837
 21
132.176415878
  0
LINE
  5
2F2
100
AcDbEntity
  8
0
100
AcDbLine
 62
7
  6
CONTINUOUS
 10
83.1485538837
 20
132.176415878
 11
84.5307792426
 21
132.1764158777
  0
LINE
  5
2F3
100
AcDbEntity
  8
0
100
AcDbLine
 62
7
  6
CONTINUOUS
 10
84.5307979355
 20
132.6763387048
 11
83.1485538837
 21
132.6763397256
  0
LINE
  5
2F4
100
AcDbEntity
  8
0
100
AcDbLine
 62
7
  6
CONTINUOUS
 10
65.1485538837
 20
132.6763397256
 11
63.7663099062
 21
132.6763387197
  0
LINE
  5
2F5
100
AcDbEntity
  8
0
100
AcDbLine
 62
7
  6
CONTINUOUS
 10
85.530703091
 20
133.1763397285
 11
85.0307215487
 21
133.1763397285
  0
LINE
  5
2F6
100
AcDbEntity
  8
0
100
AcDbLine
 62
7
  6
CONTINUOUS
 10
63.2663862263
 20
133.1763397285
 11
62.7664046765
 21
133.1763397285
  0
LINE
  5
2F7
100
AcDbEntity
  8
0
100
AcDbLine
 62
7
  6
CONTINUOUS
 10
111.1486823919
 20
151.637626111
 11
110.7233411783
 21
184.1376258509
  0
LINE
  5
2F8
100
AcDbEntity
  8
0
100
AcDbLine
 62
7
  6
CONTINUOUS
 10
107.1485538837
 20
57.6376258993
 11
107.1485538838
 21
184.1376258993
  0
LINE
  5
2F9
100
AcDbEntity
  8
0
100
AcDbLine
 62
7
  6
CONTINUOUS
 10
109.1485538837
 20
57.6376258993
 11
109.1485538837
 21
47.1376258993
  0
LINE
  5
2FA
100
AcDbEntity
  8
0
100
AcDbLine
 62
7
  6
CONTINUOUS
 10
109.6485538837
 20
187.137625895
 11
109.6485538837
 21
187.6376258993
  0
LINE
  5
2FB
100
AcDbEntity
  8
0
100
AcDbLine
 62
7
  6
CONTINUOUS
 10
111.1486823919
 20
151.637626111
 11
111.1485538837
 21
57.6376258993
  0
LINE
  5
2FC
100
AcDbEntity
  8
0
100
AcDbLine
 62
7
  6
CONTINUOUS
 10
112.1837049076
 20
187.6376258993
 11
112.1837049076
 21
187.137625895
  0
LINE
  5
2FD
100
AcDbEntity
  8
0
100
AcDbLine
 62
7
  6
CONTINUOUS
 10
112.3985538837
 20
184.1376258993
 11
112.3985538837
 21
186.8376258993
  0
LINE
  5
2FE
100
AcDbEntity
  8
0
100
AcDbLine
 62
7
  6
CONTINUOUS
 10
114.1485538754
 20
151.637626538
 11
113.6837477513
 21
187.1441706817
  0
LINE
  5
2FF
100
AcDbEntity
  8
0
100
AcDbLine
 62
7
  6
CONTINUOUS
 10
114.1485538837
 20
49.6376258993
 11
114.1485538837
 21
151.637626538
  0
LINE
  5
300
100
AcDbEntity
  8
0
100
AcDbLine
 62
7
  6
CONTINUOUS
 10
62.7664046765
 20
141.5198131834
 11
63.2663862263
 21
141.5198131834
  0
LINE
  5
301
100
AcDbEntity
  8
0
100
AcDbLine
 62
7
  6
CONTINUOUS
 10
85.0307215487
 20
141.5198131834
 11
85.530703091
 21
141.5198131834
  0
LINE
  5
302
100
AcDbEntity
  8
0
100
AcDbLine
 62
7
  6
CONTINUOUS
 10
63.7663665996
 20
142.0197941449
 11
84.5307411678
 21
142.0197941449
  0
LINE
  5
303
100
AcDbEntity
  8
0
100
AcDbLine
 62
7
  6
CONTINUOUS
 10
84.5307411678
 20
142.5197751065
 11
63.7663665996
 21
142.5197751065
  0
LINE
  5
304
100
AcDbEntity
  8
0
100
AcDbLine
 62
7
  6
CONTINUOUS
 10
63.6485158068
 20
142.6376258993
 11
84.6485919607
 21
142.6376258993
  0
LINE
  5
305
100
AcDbEntity
  8
0
100
AcDbLine
 62
7
  6
CONTINUOUS
 10
83.6485538837
 20
44.1426258993
 11
84.1435538837
 21
44.6376258993
  0
LINE
  5
306
100
AcDbEntity
  8
0
100
AcDbLine
 62
7
  6
CONTINUOUS
 10
48.0346476934
 20
149.1376258993
 11
56.6754835646
 21
149.1376258993
  0
LINE
  5
307
100
AcDbEntity
  8
0
100
AcDbLine
 62
7
  6
CONTINUOUS
 10
91.6216242029
 20
149.1376258993
 11
100.1485538837
 21
149.1376258993
  0
LINE
  5
308
100
AcDbEntity
  8
0
100
AcDbLine
 62
7
  6
CONTINUOUS
 10
49.3985538837
 20
150.8376258993
 11
54.8985538837
 21
150.8376258993
  0
LINE
  5
309
100
AcDbEntity
  8
0
100
AcDbLine
 62
7
  6
CONTINUOUS
 10
93.3985538837
 20
150.8376258993
 11
98.8985538837
 21
150.8376258993
  0
LINE
  5
30A
100
AcDbEntity
  8
0
100
AcDbLine
 62
7
  6
CONTINUOUS
 10
49.6986008257
 20
151.1376258993
 11
54.5985069417
 21
151.1376258993
  0
LINE
  5
30B
100
AcDbEntity
  8
0
100
AcDbLine
 62
7
  6
CONTINUOUS
 10
93.6986008257
 20
151.1376258993
 11
98.5985069417
 21
151.1376258993
  0
LINE
  5
30C
100
AcDbEntity
  8
0
100
AcDbLine
 62
7
  6
CONTINUOUS
 10
34.1485538913
 20
151.6376264059
 11
48.0346476934
 21
151.6376258993
  0
LINE
  5
30D
100
AcDbEntity
  8
0
100
AcDbLine
 62
7
  6
CONTINUOUS
 10
48.1485538837
 20
151.6376258993
 11
114.1485538557
 21
151.6376280389
  0
LINE
  5
30E
100
AcDbEntity
  8
0
100
AcDbLine
 62
7
  6
CONTINUOUS
 10
82.7740503612
 20
157.5122579306
 11
82.6551420749
 21
157.6311662164
  0
LINE
  5
30F
100
AcDbEntity
  8
0
100
AcDbLine
 62
7
  6
CONTINUOUS
 10
84.1550135665
 20
159.1310377082
 11
84.2742644989
 21
159.0117867755
  0
LINE
  5
310
100
AcDbEntity
  8
0
100
AcDbLine
 62
7
  6
CONTINUOUS
 10
82.7740503612
 20
157.0079374091
 11
65.5230574063
 21
157.0079374091
  0
LINE
  5
311
100
AcDbEntity
  8
0
100
AcDbLine
 62
7
  6
CONTINUOUS
 10
82.7740503612
 20
157.5122579306
 11
65.5230574063
 21
157.5122579306
  0
LINE
  5
312
100
AcDbEntity
  8
0
100
AcDbLine
 62
7
  6
CONTINUOUS
 10
65.6419656926
 20
157.6311662165
 11
82.6551420749
 21
157.6311662164
  0
LINE
  5
313
100
AcDbEntity
  8
0
100
AcDbLine
 62
7
  6
CONTINUOUS
 10
82.6551420748
 20
158.1311233806
 11
65.6419656926
 21
158.1311233806
  0
LINE
  5
314
100
AcDbEntity
  8
0
100
AcDbLine
 62
7
  6
CONTINUOUS
 10
84.1550135665
 20
159.1310377082
 11
83.6550564024
 21
159.1310377082
  0
LINE
  5
315
100
AcDbEntity
  8
0
100
AcDbLine
 62
7
  6
CONTINUOUS
 10
64.642050483
 20
159.1310377082
 11
64.142094201
 21
159.1310377082
  0
LINE
  5
316
100
AcDbEntity
  8
0
100
AcDbLine
 62
7
  6
CONTINUOUS
 10
75.8735538837
 20
174.2226258993
 11
74.8735538837
 21
175.2226258993
  0
LINE
  5
317
100
AcDbEntity
  8
0
100
AcDbLine
 62
7
  6
CONTINUOUS
 10
71.7335538837
 20
178.3626258993
 11
70.7335538837
 21
179.3626258993
  0
LINE
  5
318
100
AcDbEntity
  8
0
100
AcDbLine
 62
7
  6
CONTINUOUS
 10
72.4235538837
 20
181.0526258993
 11
73.4235538837
 21
180.0526258993
  0
LINE
  5
319
100
AcDbEntity
  8
0
100
AcDbLine
 62
7
  6
CONTINUOUS
 10
108.6485538837
 20
46.6376258993
 11
109.1485538837
 21
47.1376258993
  0
LINE
  5
31A
100
AcDbEntity
  8
0
100
AcDbLine
 62
7
  6
CONTINUOUS
 10
76.8985538837
 20
14.6376258993
 11
77.1485538837
 21
14.8876258993
  0
LINE
  5
31B
100
AcDbEntity
  8
0
100
AcDbLine
 62
7
  6
CONTINUOUS
 10
83.6485538837
 20
15.1376258993
 11
83.1485538837
 21
14.6376258993
  0
LINE
  5
31C
100
AcDbEntity
  8
0
100
AcDbLine
 62
7
  6
CONTINUOUS
 10
66.1485538837
 20
169.6376258993
 11
82.1485538837
 21
169.6376258993
  0
LINE
  5
31D
100
AcDbEntity
  8
0
100
AcDbLine
 62
7
  6
CONTINUOUS
 10
67.1485538837
 20
170.6376258993
 11
81.1485538837
 21
170.6376258993
  0
LINE
  5
31E
100
AcDbEntity
  8
0
100
AcDbLine
 62
7
  6
CONTINUOUS
 10
68.2835538837
 20
171.7726258993
 11
71.7335538837
 21
171.7726258993
  0
LINE
  5
31F
100
AcDbEntity
  8
0
100
AcDbLine
 62
7
  6
CONTINUOUS
 10
72.4235538837
 20
171.7726258993
 11
75.8735538837
 21
171.7726258993
  0
LINE
  5
320
100
AcDbEntity
  8
0
100
AcDbLine
 62
7
  6
CONTINUOUS
 10
76.5635538837
 20
171.7726258993
 11
80.0135538837
 21
171.7726258993
  0
LINE
  5
321
100
AcDbEntity
  8
0
100
AcDbLine
 62
7
  6
CONTINUOUS
 10
80.0135538837
 20
175.2226258993
 11
76.5635538837
 21
175.2226258993
  0
LINE
  5
322
100
AcDbEntity
  8
0
100
AcDbLine
 62
7
  6
CONTINUOUS
 10
74.8735538837
 20
175.2226258993
 11
73.4235538837
 21
175.2226258993
  0
LINE
  5
323
100
AcDbEntity
  8
0
100
AcDbLine
 62
7
  6
CONTINUOUS
 10
71.7335538837
 20
175.2226258993
 11
68.2835538837
 21
175.2226258993
  0
LINE
  5
324
100
AcDbEntity
  8
0
100
AcDbLine
 62
7
  6
CONTINUOUS
 10
68.2835538837
 20
175.9126258993
 11
70.7335538837
 21
175.9126258993
  0
LINE
  5
325
100
AcDbEntity
  8
0
100
AcDbLine
 62
7
  6
CONTINUOUS
 10
72.4235538837
 20
175.9126258993
 11
75.8735538837
 21
175.9126258993
  0
LINE
  5
326
100
AcDbEntity
  8
0
100
AcDbLine
 62
7
  6
CONTINUOUS
 10
76.5635538837
 20
175.9126258993
 11
80.0135538837
 21
175.9126258993
  0
LINE
  5
327
100
AcDbEntity
  8
0
100
AcDbLine
 62
7
  6
CONTINUOUS
 10
80.0135538837
 20
179.3626258993
 11
76.5635538837
 21
179.3626258993
  0
LINE
  5
328
100
AcDbEntity
  8
0
100
AcDbLine
 62
7
  6
CONTINUOUS
 10
75.8735538837
 20
179.3626258993
 11
72.4235538837
 21
179.3626258993
  0
LINE
  5
329
100
AcDbEntity
  8
0
100
AcDbLine
 62
7
  6
CONTINUOUS
 10
70.7335538837
 20
179.3626258993
 11
68.2835538837
 21
179.3626258993
  0
LINE
  5
32A
100
AcDbEntity
  8
0
100
AcDbLine
 62
7
  6
CONTINUOUS
 10
68.2835538837
 20
180.0526258993
 11
71.7335538837
 21
180.0526258993
  0
LINE
  5
32B
100
AcDbEntity
  8
0
100
AcDbLine
 62
7
  6
CONTINUOUS
 10
73.4235538837
 20
180.0526258993
 11
74.8735538837
 21
180.0526258993
  0
LINE
  5
32C
100
AcDbEntity
  8
0
100
AcDbLine
 62
7
  6
CONTINUOUS
 10
76.5635538837
 20
180.0526258993
 11
80.0135538837
 21
180.0526258993
  0
LINE
  5
32D
100
AcDbEntity
  8
0
100
AcDbLine
 62
7
  6
CONTINUOUS
 10
66.8985538837
 20
183.1376258993
 11
67.1485538837
 21
183.1376258993
  0
LINE
  5
32E
100
AcDbEntity
  8
0
100
AcDbLine
 62
7
  6
CONTINUOUS
 10
80.0135538837
 20
183.5026258993
 11
76.5635538837
 21
183.5026258993
  0
LINE
  5
32F
100
AcDbEntity
  8
0
100
AcDbLine
 62
7
  6
CONTINUOUS
 10
75.8735538837
 20
183.5026258993
 11
72.4235538837
 21
183.5026258993
  0
LINE
  5
330
100
AcDbEntity
  8
0
100
AcDbLine
 62
7
  6
CONTINUOUS
 10
71.7335538837
 20
183.5026258993
 11
68.2835538837
 21
183.5026258993
  0
LINE
  5
331
100
AcDbEntity
  8
0
100
AcDbLine
 62
7
  6
CONTINUOUS
 10
67.1485538837
 20
183.6376258993
 11
66.8985538837
 21
183.6376258993
  0
LINE
  5
332
100
AcDbEntity
  8
0
100
AcDbLine
 62
7
  6
CONTINUOUS
 10
113.7231055785
 20
184.1376258993
 11
105.2766707142
 21
184.1376258993
  0
LINE
  5
333
100
AcDbEntity
  8
0
100
AcDbLine
 62
7
  6
CONTINUOUS
 10
43.0204379122
 20
184.1376258993
 11
34.5740021886
 21
184.1376258993
  0
LINE
  5
334
100
AcDbEntity
  8
0
100
AcDbLine
 62
7
  6
CONTINUOUS
 10
67.1485538837
 20
184.6376258993
 11
81.1485538837
 21
184.6376258993
  0
LINE
  5
335
100
AcDbEntity
  8
0
100
AcDbLine
 62
7
  6
CONTINUOUS
 10
72.6485538837
 20
184.7376258993
 11
75.6485538837
 21
184.7376258993
  0
LINE
  5
336
100
AcDbEntity
  8
0
100
AcDbLine
 62
7
  6
CONTINUOUS
 10
76.9485538837
 20
185.3376258993
 11
75.6485538837
 21
185.3376258993
  0
LINE
  5
337
100
AcDbEntity
  8
0
100
AcDbLine
 62
7
  6
CONTINUOUS
 10
72.6485538837
 20
185.3376258993
 11
71.3485538837
 21
185.3376258993
  0
LINE
  5
338
100
AcDbEntity
  8
0
100
AcDbLine
 62
7
  6
CONTINUOUS
 10
65.0591577027
 20
187.5197092522
 11
65.642136909
 21
187.6376258993
  0
LINE
  5
339
100
AcDbEntity
  8
0
100
AcDbLine
 62
7
  6
CONTINUOUS
 10
82.1485538837
 20
185.6376258993
 11
76.9485538837
 21
185.6376258993
  0
LINE
  5
33A
100
AcDbEntity
  8
0
100
AcDbLine
 62
7
  6
CONTINUOUS
 10
71.3485538837
 20
185.6376258993
 11
66.1485538837
 21
185.6376258993
  0
LINE
  5
33B
100
AcDbEntity
  8
0
100
AcDbLine
 62
7
  6
CONTINUOUS
 10
76.9485538837
 20
185.8376258993
 11
75.6485538837
 21
185.8376258993
  0
LINE
  5
33C
100
AcDbEntity
  8
0
100
AcDbLine
 62
7
  6
CONTINUOUS
 10
72.6485538837
 20
185.8376258993
 11
71.3485538837
 21
185.8376258993
  0
LINE
  5
33D
100
AcDbEntity
  8
0
100
AcDbLine
 62
7
  6
CONTINUOUS
 10
72.6485538837
 20
186.0376258993
 11
75.6485538837
 21
186.0376258993
  0
LINE
  5
33E
100
AcDbEntity
  8
0
100
AcDbLine
 62
7
  6
CONTINUOUS
 10
64.0181947979
 20
186.1376258981
 11
64.642050483
 21
186.1376258993
  0
LINE
  5
33F
100
AcDbEntity
  8
0
100
AcDbLine
 62
7
  6
CONTINUOUS
 10
83.6550564024
 20
186.1376258993
 11
84.2789129695
 21
186.1376258983
  0
LINE
  5
340
100
AcDbEntity
  8
0
100
AcDbLine
 62
7
  6
CONTINUOUS
 10
35.8985538837
 20
186.8376258993
 11
41.3985538837
 21
186.8376258993
  0
LINE
  5
341
100
AcDbEntity
  8
0
100
AcDbLine
 62
7
  6
CONTINUOUS
 10
106.8985538837
 20
186.8376258993
 11
112.3985538837
 21
186.8376258993
  0
LINE
  5
342
100
AcDbEntity
  8
0
100
AcDbLine
 62
7
  6
CONTINUOUS
 10
72.6485538837
 20
187.0376258993
 11
75.6485538837
 21
187.0376258993
  0
LINE
  5
343
100
AcDbEntity
  8
0
100
AcDbLine
 62
7
  6
CONTINUOUS
 10
36.1985831637
 20
187.1376258993
 11
41.8985538837
 21
187.1376258993
  0
LINE
  5
344
100
AcDbEntity
  8
0
100
AcDbLine
 62
7
  6
CONTINUOUS
 10
65.6421607145
 20
187.1376243908
 11
71.3485538837
 21
187.1376243917
  0
LINE
  5
345
100
AcDbEntity
  8
0
100
AcDbLine
 62
7
  6
CONTINUOUS
 10
76.9485538837
 20
187.1376243925
 11
82.6549472711
 21
187.1376243934
  0
LINE
  5
346
100
AcDbEntity
  8
0
100
AcDbLine
 62
7
  6
CONTINUOUS
 10
106.3985538837
 20
187.1376258993
 11
113.6837477517
 21
187.1441706521
  0
LINE
  5
347
100
AcDbEntity
  8
0
100
AcDbLine
 62
7
  6
CONTINUOUS
 10
43.0221084054
 20
187.1441706971
 11
48.6133600163
 21
187.1441706971
  0
LINE
  5
348
100
AcDbEntity
  8
0
100
AcDbLine
 62
7
  6
CONTINUOUS
 10
51.6131030004
 20
187.1441712695
 11
63.7936594361
 21
187.1441712606
  0
LINE
  5
349
100
AcDbEntity
  8
0
100
AcDbLine
 62
7
  6
CONTINUOUS
 10
84.5034472137
 20
187.1441708639
 11
96.6840047659
 21
187.1441714047
  0
LINE
  5
34A
100
AcDbEntity
  8
0
100
AcDbLine
 62
7
  6
CONTINUOUS
 10
99.6837477511
 20
187.1441706971
 11
105.2749986015
 21
187.1441706971
  0
LINE
  5
34B
100
AcDbEntity
  8
0
100
AcDbLine
 62
7
  6
CONTINUOUS
 10
35.1133154147
 20
187.6376258993
 11
71.3485538837
 21
187.6376258993
  0
LINE
  5
34C
100
AcDbEntity
  8
0
100
AcDbLine
 62
7
  6
CONTINUOUS
 10
76.9485538837
 20
187.6376258993
 11
113.1837923529
 21
187.6376258993
  0
LINE
  5
34D
100
AcDbEntity
  8
0
100
AcDbLine
 62
7
  6
CONTINUOUS
 10
71.3485538837
 20
188.0376258993
 11
76.9485538837
 21
188.0376258993
  0
LINE
  5
34E
100
AcDbEntity
  8
0
100
AcDbLine
 62
7
  6
CONTINUOUS
 10
71.3485538837
 20
188.5376258993
 11
76.9485538837
 21
188.5376258993
  0
LINE
  5
34F
100
AcDbEntity
  8
0
100
AcDbLine
 62
7
  6
CONTINUOUS
 10
36.1134028598
 20
187.1376258868
 11
34.6133600158
 21
187.1441706527
  0
LINE
  5
350
100
AcDbEntity
  8
0
100
AcDbLine
 62
7
  6
CONTINUOUS
 10
82.6549708589
 20
187.6376258993
 11
83.2379507731
 21
187.5197089534
  0
ARC
  5
351
100
AcDbEntity
  8
0
100
AcDbCircle
 62
7
  6
CONTINUOUS
 10
47.6485538837
 20
45.6376258993
 40
1.0
100
AcDbArc
 50
0.0
 51
90.0
  0
ARC
  5
352
100
AcDbEntity
  8
0
100
AcDbCircle
 62
7
  6
CONTINUOUS
 10
69.6485538837
 20
108.8876258993
 40
0.65
100
AcDbArc
 50
89.999999989
 51
180.0
  0
ARC
  5
353
100
AcDbEntity
  8
0
100
AcDbCircle
 62
7
  6
CONTINUOUS
 10
69.6485538837
 20
97.8876258993
 40
0.65
100
AcDbArc
 50
180.0
 51
270.0
  0
ARC
  5
354
100
AcDbEntity
  8
0
100
AcDbCircle
 62
7
  6
CONTINUOUS
 10
72.0485538837
 20
98.5876258993
 40
0.25
100
AcDbArc
 50
180.0
 51
360.0
  0
ARC
  5
355
100
AcDbEntity
  8
0
100
AcDbCircle
 62
7
  6
CONTINUOUS
 10
49.6985538837
 20
150.8376258993
 40
0.3
100
AcDbArc
 50
90.0
 51
180.0
  0
ARC
  5
356
100
AcDbEntity
  8
0
100
AcDbCircle
 62
7
  6
CONTINUOUS
 10
35.1133171801
 20
187.1376258993
 40
0.5
100
AcDbArc
 50
90.0002022359
 51
179.2500017834
  0
ARC
  5
357
100
AcDbEntity
  8
0
100
AcDbCircle
 62
7
  6
CONTINUOUS
 10
42.3985538837
 20
187.1376258993
 40
0.5
100
AcDbArc
 50
89.9998539273
 51
180.0
  0
ARC
  5
358
100
AcDbEntity
  8
0
100
AcDbCircle
 62
7
  6
CONTINUOUS
 10
49.1133171801
 20
187.1376258993
 40
0.5
100
AcDbArc
 50
89.9999523076
 51
179.2499598725
  0
ARC
  5
359
100
AcDbEntity
  8
0
100
AcDbCircle
 62
7
  6
CONTINUOUS
 10
36.1985538837
 20
186.8376258993
 40
0.3
100
AcDbArc
 50
90.0
 51
180.0
  0
ARC
  5
35A
100
AcDbEntity
  8
0
100
AcDbCircle
 62
7
  6
CONTINUOUS
 10
41.0985538837
 20
186.8376258993
 40
0.3
100
AcDbArc
 50
0.0
 51
90.0
  0
ARC
  5
35B
100
AcDbEntity
  8
0
100
AcDbCircle
 62
7
  6
CONTINUOUS
 10
65.1485538837
 20
129.6376258993
 40
3.0387138263
100
AcDbArc
 50
270.0000000005
 51
90.0000000006
  0
ARC
  5
35C
100
AcDbEntity
  8
0
100
AcDbCircle
 62
7
  6
CONTINUOUS
 10
65.1485538837
 20
129.6376258993
 40
2.5387899788
100
AcDbArc
 50
270.0
 51
90.0
  0
ARC
  5
35D
100
AcDbEntity
  8
0
100
AcDbCircle
 62
7
  6
CONTINUOUS
 10
65.1485538837
 20
129.6376258993
 40
2.495
100
AcDbArc
 50
270.0
 51
90.0
  0
CIRCLE
  5
35E
100
AcDbEntity
  8
0
100
AcDbCircle
 62
7
  6
CONTINUOUS
 10
65.1485538837
 20
129.6376258993
 40
2.3499999046
  0
CIRCLE
  5
35F
100
AcDbEntity
  8
0
100
AcDbCircle
 62
7
  6
CONTINUOUS
 10
65.1485538837
 20
129.6376258993
 40
2.0999999046
  0
ARC
  5
360
100
AcDbEntity
  8
0
100
AcDbCircle
 62
7
  6
CONTINUOUS
 10
63.7664046735
 20
115.755476689
 40
0.9999999979
100
AcDbArc
 50
180.002181479
 51
269.9978185201
  0
ARC
  5
361
100
AcDbEntity
  8
0
100
AcDbCircle
 62
7
  6
CONTINUOUS
 10
63.7664046735
 20
141.5197751096
 40
0.9999999979
100
AcDbArc
 50
90.002181479
 51
179.9978185201
  0
ARC
  5
362
100
AcDbEntity
  8
0
100
AcDbCircle
 62
7
  6
CONTINUOUS
 10
63.7664046648
 20
133.1764158658
 40
0.9999999916
100
AcDbArc
 50
180.0043623662
 51
269.9956374844
  0
ARC
  5
363
100
AcDbEntity
  8
0
100
AcDbCircle
 62
7
  6
CONTINUOUS
 10
63.7664046648
 20
126.0988359328
 40
0.9999999916
100
AcDbArc
 50
90.0043625152
 51
179.9956376321
  0
ARC
  5
364
100
AcDbEntity
  8
0
100
AcDbCircle
 62
7
  6
CONTINUOUS
 10
63.7663587345
 20
115.7554307501
 40
0.4999776366
100
AcDbArc
 50
179.9990986815
 51
270.0009013155
  0
ARC
  5
365
100
AcDbEntity
  8
0
100
AcDbCircle
 62
7
  6
CONTINUOUS
 10
63.7663587345
 20
141.5198210485
 40
0.4999776366
100
AcDbArc
 50
89.999098684
 51
180.0009013157
  0
ARC
  5
366
100
AcDbEntity
  8
0
100
AcDbCircle
 62
7
  6
CONTINUOUS
 10
63.7663437846
 20
133.176293934
 40
0.49996103
100
AcDbArc
 50
179.9925192541
 51
269.9961174854
  0
ARC
  5
367
100
AcDbEntity
  8
0
100
AcDbCircle
 62
7
  6
CONTINUOUS
 10
63.766343787
 20
126.098957867
 40
0.4999610218
100
AcDbArc
 50
90.003885982
 51
180.0074869163
  0
ARC
  5
368
100
AcDbEntity
  8
0
100
AcDbCircle
 62
7
  6
CONTINUOUS
 10
54.5985538837
 20
150.8376258993
 40
0.3
100
AcDbArc
 50
0.0
 51
90.0
  0
ARC
  5
369
100
AcDbEntity
  8
0
100
AcDbCircle
 62
7
  6
CONTINUOUS
 10
65.517951604
 20
186.1314026046
 40
1.9997232591
100
AcDbArc
 50
149.5720141776
 51
180.0092639925
  0
ARC
  5
36A
100
AcDbEntity
  8
0
100
AcDbCircle
 62
7
  6
CONTINUOUS
 10
65.5196421635
 20
186.1276006557
 40
1.5100258707
100
AcDbArc
 50
90.0598005198
 51
108.1959525901
  0
ARC
  5
36B
100
AcDbEntity
  8
0
100
AcDbCircle
 62
7
  6
CONTINUOUS
 10
65.6420955185
 20
186.1376138797
 40
1.4999990712
100
AcDbArc
 50
112.8689619694
 51
179.9995409112
  0
ARC
  5
36C
100
AcDbEntity
  8
0
100
AcDbCircle
 62
7
  6
CONTINUOUS
 10
65.5227713481
 20
159.0122098299
 40
1.4999395344
100
AcDbArc
 50
180.0161602259
 51
270.0109269717
  0
ARC
  5
36D
100
AcDbEntity
  8
0
100
AcDbCircle
 62
7
  6
CONTINUOUS
 10
65.6420336048
 20
159.1311056203
 40
1.4999394065
100
AcDbArc
 50
180.0025941738
 51
269.997405814
  0
ARC
  5
36E
100
AcDbEntity
  8
0
100
AcDbCircle
 62
7
  6
CONTINUOUS
 10
65.5176150251
 20
186.1384563418
 40
1.4990807377
100
AcDbArc
 50
108.2519118417
 51
180.0136354938
  0
ARC
  5
36F
100
AcDbEntity
  8
0
100
AcDbCircle
 62
7
  6
CONTINUOUS
 10
65.6420912936
 20
186.1375800795
 40
1.0000513903
100
AcDbArc
 50
89.9960226757
 51
179.9954590318
  0
ARC
  5
370
100
AcDbEntity
  8
0
100
AcDbCircle
 62
7
  6
CONTINUOUS
 10
65.6419302929
 20
159.1310023085
 40
0.9998906953
100
AcDbArc
 50
179.9979715247
 51
270.0020284756
  0
ARC
  5
371
100
AcDbEntity
  8
0
100
AcDbCircle
 62
7
  6
CONTINUOUS
 10
67.6485538837
 20
171.1376258993
 40
0.5
100
AcDbArc
 50
180.0
 51
270.0
  0
ARC
  5
372
100
AcDbEntity
  8
0
100
AcDbCircle
 62
7
  6
CONTINUOUS
 10
67.6485538837
 20
184.1376258993
 40
0.5
100
AcDbArc
 50
90.0
 51
180.0
  0
ARC
  5
373
100
AcDbEntity
  8
0
100
AcDbCircle
 62
7
  6
CONTINUOUS
 10
66.8985538837
 20
183.3876258993
 40
0.25
100
AcDbArc
 50
90.0
 51
270.0
  0
ARC
  5
374
100
AcDbEntity
  8
0
100
AcDbCircle
 62
7
  6
CONTINUOUS
 10
74.1485538837
 20
36.6376258993
 40
3.0
100
AcDbArc
 50
0.0
 51
180.0
  0
ARC
  5
375
100
AcDbEntity
  8
0
100
AcDbCircle
 62
7
  6
CONTINUOUS
 10
74.1485538837
 20
36.6376258993
 40
2.75
100
AcDbArc
 50
0.0
 51
180.0
  0
ARC
  5
376
100
AcDbEntity
  8
0
100
AcDbCircle
 62
7
  6
CONTINUOUS
 10
100.6485538837
 20
45.6376258993
 40
1.0
100
AcDbArc
 50
90.0
 51
180.0
  0
ARC
  5
377
100
AcDbEntity
  8
0
100
AcDbCircle
 62
7
  6
CONTINUOUS
 10
78.6485538837
 20
108.8876258993
 40
0.65
100
AcDbArc
 50
0.0
 51
90.0
  0
ARC
  5
378
100
AcDbEntity
  8
0
100
AcDbCircle
 62
7
  6
CONTINUOUS
 10
78.6485538837
 20
97.8876258993
 40
0.65
100
AcDbArc
 50
269.999999989
 51
360.0
  0
ARC
  5
379
100
AcDbEntity
  8
0
100
AcDbCircle
 62
7
  6
CONTINUOUS
 10
76.5235538837
 20
98.5876258993
 40
0.25
100
AcDbArc
 50
180.0
 51
360.0
  0
ARC
  5
37A
100
AcDbEntity
  8
0
100
AcDbCircle
 62
7
  6
CONTINUOUS
 10
75.9735538837
 20
98.5876258993
 40
0.25
100
AcDbArc
 50
180.0
 51
360.0
  0
ARC
  5
37B
100
AcDbEntity
  8
0
100
AcDbCircle
 62
7
  6
CONTINUOUS
 10
83.1485538837
 20
129.6376258993
 40
3.0387138263
100
AcDbArc
 50
90.0000000005
 51
270.0000000001
  0
ARC
  5
37C
100
AcDbEntity
  8
0
100
AcDbCircle
 62
7
  6
CONTINUOUS
 10
83.1485538837
 20
129.6376258993
 40
2.5387899788
100
AcDbArc
 50
90.0
 51
270.0
  0
ARC
  5
37D
100
AcDbEntity
  8
0
100
AcDbCircle
 62
7
  6
CONTINUOUS
 10
83.1485538837
 20
129.6376258993
 40
2.495
100
AcDbArc
 50
90.0
 51
269.9999999999
  0
CIRCLE
  5
37E
100
AcDbEntity
  8
0
100
AcDbCircle
 62
7
  6
CONTINUOUS
 10
83.1485538837
 20
129.6376258993
 40
2.3499999046
  0
CIRCLE
  5
37F
100
AcDbEntity
  8
0
100
AcDbCircle
 62
7
  6
CONTINUOUS
 10
83.1485538837
 20
129.6376258993
 40
2.0999999046
  0
ARC
  5
380
100
AcDbEntity
  8
0
100
AcDbCircle
 62
7
  6
CONTINUOUS
 10
84.530703094
 20
141.5197751096
 40
0.9999999979
100
AcDbArc
 50
0.002181479
 51
89.9978185203
  0
ARC
  5
381
100
AcDbEntity
  8
0
100
AcDbCircle
 62
7
  6
CONTINUOUS
 10
84.530703094
 20
115.755476689
 40
0.999999998
100
AcDbArc
 50
270.0021814792
 51
359.9978185201
  0
ARC
  5
382
100
AcDbEntity
  8
0
100
AcDbCircle
 62
7
  6
CONTINUOUS
 10
84.5307031027
 20
126.0988359328
 40
0.9999999916
100
AcDbArc
 50
0.0043623663
 51
89.9956374836
  0
ARC
  5
383
100
AcDbEntity
  8
0
100
AcDbCircle
 62
7
  6
CONTINUOUS
 10
84.5307031027
 20
133.1764158658
 40
0.9999999916
100
AcDbArc
 50
270.0043625154
 51
359.9956376316
  0
ARC
  5
384
100
AcDbEntity
  8
0
100
AcDbCircle
 62
7
  6
CONTINUOUS
 10
84.5307490329
 20
141.5198210485
 40
0.4999776366
100
AcDbArc
 50
359.9990986827
 51
90.0009013159
  0
ARC
  5
385
100
AcDbEntity
  8
0
100
AcDbCircle
 62
7
  6
CONTINUOUS
 10
84.5307490329
 20
115.7554307501
 40
0.4999776366
100
AcDbArc
 50
269.999098684
 51
0.0009013157
  0
ARC
  5
386
100
AcDbEntity
  8
0
100
AcDbCircle
 62
7
  6
CONTINUOUS
 10
84.5307639614
 20
133.1762939556
 40
0.4999610829
100
AcDbArc
 50
270.003893477
 51
0.0074696786
  0
ARC
  5
387
100
AcDbEntity
  8
0
100
AcDbCircle
 62
7
  6
CONTINUOUS
 10
84.5307639591
 20
126.0989578453
 40
0.4999610828
100
AcDbArc
 50
359.9925300369
 51
89.9961062502
  0
ARC
  5
388
100
AcDbEntity
  8
0
100
AcDbCircle
 62
7
  6
CONTINUOUS
 10
93.6985538837
 20
150.8376258993
 40
0.3
100
AcDbArc
 50
90.0
 51
180.0
  0
ARC
  5
389
100
AcDbEntity
  8
0
100
AcDbCircle
 62
7
  6
CONTINUOUS
 10
82.7791561651
 20
186.1314026039
 40
1.9997235206
100
AcDbArc
 50
359.990572868
 51
30.4279922746
  0
ARC
  5
38A
100
AcDbEntity
  8
0
100
AcDbCircle
 62
7
  6
CONTINUOUS
 10
82.7774655773
 20
186.1276005437
 40
1.5100259827
100
AcDbArc
 50
71.8039450739
 51
89.9401984798
  0
ARC
  5
38B
100
AcDbEntity
  8
0
100
AcDbCircle
 62
7
  6
CONTINUOUS
 10
82.6550120871
 20
186.1376137722
 40
1.4999990711
100
AcDbArc
 50
0.0004632182
 51
67.1310045638
  0
ARC
  5
38C
100
AcDbEntity
  8
0
100
AcDbCircle
 62
7
  6
CONTINUOUS
 10
82.7743364221
 20
159.0122098321
 40
1.4999395344
100
AcDbArc
 50
269.989072926
 51
359.983839679
  0
ARC
  5
38D
100
AcDbEntity
  8
0
100
AcDbCircle
 62
7
  6
CONTINUOUS
 10
82.6550741627
 20
159.1311056203
 40
1.4999394065
100
AcDbArc
 50
270.0025941824
 51
359.9974058224
  0
ARC
  5
38E
100
AcDbEntity
  8
0
100
AcDbCircle
 62
7
  6
CONTINUOUS
 10
82.7794926906
 20
186.1384563274
 40
1.4990807675
100
AcDbArc
 50
359.9863626324
 51
71.7479829972
  0
ARC
  5
38F
100
AcDbEntity
  8
0
100
AcDbCircle
 62
7
  6
CONTINUOUS
 10
82.655013499
 20
186.1375830527
 40
1.0000515702
100
AcDbArc
 50
0.0043945971
 51
90.0037943967
  0
ARC
  5
390
100
AcDbEntity
  8
0
100
AcDbCircle
 62
7
  6
CONTINUOUS
 10
82.6551774745
 20
159.1310023085
 40
0.9998906952
100
AcDbArc
 50
269.9979715237
 51
0.0020284758
  0
ARC
  5
391
100
AcDbEntity
  8
0
100
AcDbCircle
 62
7
  6
CONTINUOUS
 10
80.6485538837
 20
184.1376258993
 40
0.5
100
AcDbArc
 50
0.0
 51
90.0
  0
ARC
  5
392
100
AcDbEntity
  8
0
100
AcDbCircle
 62
7
  6
CONTINUOUS
 10
80.6485538837
 20
171.1376258993
 40
0.5
100
AcDbArc
 50
270.0
 51
360.0
  0
ARC
  5
393
100
AcDbEntity
  8
0
100
AcDbCircle
 62
7
  6
CONTINUOUS
 10
98.5985538837
 20
150.8376258993
 40
0.3
100
AcDbArc
 50
0.0
 51
90.0
  0
ARC
  5
394
100
AcDbEntity
  8
0
100
AcDbCircle
 62
7
  6
CONTINUOUS
 10
99.1837905873
 20
187.1376258993
 40
0.5
100
AcDbArc
 50
0.7500323861
 51
90.0000476919
  0
ARC
  5
395
100
AcDbEntity
  8
0
100
AcDbCircle
 62
7
  6
CONTINUOUS
 10
105.8985538837
 20
187.1376258993
 40
0.5
100
AcDbArc
 50
0.0000217859
 51
90.0001254193
  0
ARC
  5
396
100
AcDbEntity
  8
0
100
AcDbCircle
 62
7
  6
CONTINUOUS
 10
113.1837905873
 20
187.1376258993
 40
0.5
100
AcDbArc
 50
0.7499982167
 51
89.9997929594
  0
ARC
  5
397
100
AcDbEntity
  8
0
100
AcDbCircle
 62
7
  6
CONTINUOUS
 10
107.1985538837
 20
186.8376258993
 40
0.3
100
AcDbArc
 50
90.0
 51
180.0
  0
ARC
  5
398
100
AcDbEntity
  8
0
100
AcDbCircle
 62
7
  6
CONTINUOUS
 10
112.0985538837
 20
186.8376258993
 40
0.3
100
AcDbArc
 50
0.0
 51
90.0
  0
SPLINE
  5
399
100
AcDbEntity
  8
0
100
AcDbSpline
 62
7
  6
CONTINUOUS
 70
0
 71
3
 72
12
 73
8
 74
0
 42
0.0000001
 43
0.0000001
 44
0.0000000001
 40
0.0
 40
0.0
 40
0.0
 40
0.0
 40
0.2497377982
 40
0.4994146574
 40
0.7491359436
 40
0.8745748894
 40
1.0
 40
1.0
 40
1.0
 40
1.0
 10
84.774221662
 20
159.0052419784
 30
0.0
 10
84.7698837242
 20
158.7451734523
 30
0.0
 10
84.672727057
 20
158.2187719878
 30
0.0
 10
84.2240280328
 20
157.5561454863
 30
0.0
 10
83.6698299083
 20
157.1811943409
 30
0.0
 10
83.1664907055
 20
157.0336739464
 30
0.0
 10
82.9046733547
 20
157.009441382
 30
0.0
 10
82.7740503612
 20
157.0079374091
 30
0.0
  0
SPLINE
  5
39A
100
AcDbEntity
  8
0
100
AcDbSpline
 62
7
  6
CONTINUOUS
 70
0
 71
3
 72
13
 73
9
 74
0
 42
0.0000001
 43
0.0000001
 44
0.0000000001
 40
0.0
 40
0.0
 40
0.0
 40
0.0
 40
0.3461148624
 40
0.5151595285
 40
0.6676641128
 40
0.7946647567
 40
0.8910575659
 40
1.0
 40
1.0
 40
1.0
 40
1.0
 10
43.0221089211
 20
187.1441706784
 30
0.0
 10
43.0223149708
 20
187.204995059
 30
0.0
 10
43.0265456689
 20
187.2955844359
 30
0.0
 10
43.0417510438
 20
187.4120930736
 30
0.0
 10
43.0570606059
 20
187.4892199799
 30
0.0
 10
43.0766894485
 20
187.5533083402
 30
0.0
 10
43.0992036979
 20
187.6047450216
 30
0.0
 10
43.1284452707
 20
187.6376258786
 30
0.0
 10
43.1475903431
 20
187.6376258993
 30
0.0
  0
SPLINE
  5
39B
100
AcDbEntity
  8
0
100
AcDbSpline
 62
7
  6
CONTINUOUS
 70
0
 71
3
 72
10
 73
6
 74
0
 42
0.0000001
 43
0.0000001
 44
0.0000000001
 40
0.0
 40
0.0
 40
0.0
 40
0.0
 40
0.4456551793
 40
0.7081790642
 40
1.0
 40
1.0
 40
1.0
 40
1.0
 10
84.5034466727
 20
187.1441710872
 30
0.0
 10
84.316796843
 20
187.2090348587
 30
0.0
 10
84.0276912443
 20
187.3323461395
 30
0.0
 10
83.6151508465
 20
187.4949066509
 30
0.0
 10
83.3779868626
 20
187.5627150039
 30
0.0
 10
83.2512288526
 20
187.588683064
 30
0.0
  0
SPLINE
  5
39C
100
AcDbEntity
  8
0
100
AcDbSpline
 62
7
  6
CONTINUOUS
 70
0
 71
3
 72
9
 73
5
 74
0
 42
0.0000001
 43
0.0000001
 44
0.0000000001
 40
0.0
 40
0.0
 40
0.0
 40
0.0
 40
0.2455938601
 40
1.0
 40
1.0
 40
1.0
 40
1.0
 10
83.2512288526
 20
187.588683064
 30
0.0
 10
83.2131216085
 20
187.5964898385
 30
0.0
 10
83.0572739485
 20
187.6247836573
 30
0.0
 10
82.8985299954
 20
187.6376258489
 30
0.0
 10
82.7790424495
 20
187.6376258993
 30
0.0
  0
SPLINE
  5
39D
100
AcDbEntity
  8
0
100
AcDbSpline
 62
7
  6
CONTINUOUS
 70
0
 71
3
 72
16
 73
12
 74
0
 42
0.0000001
 43
0.0000001
 44
0.0000000001
 40
0.0
 40
0.0
 40
0.0
 40
0.0
 40
0.005368926
 40
0.0191654606
 40
0.0419297512
 40
0.0741554158
 40
0.1677956546
 40
0.2976691095
 40
0.4569508057
 40
0.6346527854
 40
1.0
 40
1.0
 40
1.0
 40
1.0
 10
84.2789129693
 20
186.1376258985
 30
0.0
 10
84.2795457855
 20
186.1369929806
 30
0.0
 10
84.28318352
 20
186.1371730953
 30
0.0
 10
84.2897389763
 20
186.1360996956
 30
0.0
 10
84.3014223928
 20
186.1358317325
 30
0.0
 10
84.3260413675
 20
186.1347566977
 30
0.0
 10
84.3687709612
 20
186.1339350464
 30
0.0
 10
84.4325253551
 20
186.1328834732
 30
0.0
 10
84.5103659341
 20
186.1321112672
 30
0.0
 10
84.6274357163
 20
186.1313063308
 30
0.0
 10
84.7179661454
 20
186.1310915369
 30
0.0
 10
84.7788701524
 20
186.1310811016
 30
0.0
  0
SPLINE
  5
39E
100
AcDbEntity
  8
0
100
AcDbSpline
 62
7
  6
CONTINUOUS
 70
0
 71
3
 72
13
 73
9
 74
0
 42
0.0000001
 43
0.0000001
 44
0.0000000001
 40
0.0
 40
0.0
 40
0.0
 40
0.0
 40
0.1089424341
 40
0.2053352434
 40
0.3323358872
 40
0.4848404715
 40
0.6538851376
 40
1.0
 40
1.0
 40
1.0
 40
1.0
 10
105.1495174244
 20
187.6376258993
 30
0.0
 10
105.1686624968
 20
187.6376258785
 30
0.0
 10
105.1979040696
 20
187.6047450217
 30
0.0
 10
105.220418319
 20
187.5533083402
 30
0.0
 10
105.2400471616
 20
187.48921998
 30
0.0
 10
105.2553567237
 20
187.4120930736
 30
0.0
 10
105.2705620986
 20
187.2955844359
 30
0.0
 10
105.2747927967
 20
187.204995059
 30
0.0
 10
105.2749988464
 20
187.1441706784
 30
0.0
  0
SPLINE
  5
39F
100
AcDbEntity
  8
0
100
AcDbSpline
 62
7
  6
CONTINUOUS
 70
0
 71
3
 72
9
 73
5
 74
0
 42
0.0000001
 43
0.0000001
 44
0.0000000001
 40
0.0
 40
0.0
 40
0.0
 40
0.0
 40
0.2534984339
 40
1.0
 40
1.0
 40
1.0
 40
1.0
 10
65.5180652873
 20
187.6376258993
 30
0.0
 10
65.4779120668
 20
187.6376258818
 30
0.0
 10
65.3195279994
 20
187.633405697
 30
0.0
 10
65.1617159592
 20
187.6124144914
 30
0.0
 10
65.0458785308
 20
187.5886842979
 30
0.0
  0
SPLINE
  5
3A0
100
AcDbEntity
  8
0
100
AcDbSpline
 62
7
  6
CONTINUOUS
 70
0
 71
3
 72
10
 73
6
 74
0
 42
0.0000001
 43
0.0000001
 44
0.0000000001
 40
0.0
 40
0.0
 40
0.0
 40
0.0
 40
0.2918204035
 40
0.5543443138
 40
1.0
 40
1.0
 40
1.0
 40
1.0
 10
65.0458785308
 20
187.5886842979
 30
0.0
 10
64.9191203791
 20
187.5627169097
 30
0.0
 10
64.6819557179
 20
187.4949102824
 30
0.0
 10
64.2694128343
 20
187.3323538165
 30
0.0
 10
63.9803052354
 20
187.2090452495
 30
0.0
 10
63.7936544648
 20
187.1441823845
 30
0.0
  0
SPLINE
  5
3A1
100
AcDbEntity
  8
0
100
AcDbSpline
 62
7
  6
CONTINUOUS
 70
0
 71
3
 72
16
 73
12
 74
0
 42
0.0000001
 43
0.0000001
 44
0.0000000001
 40
0.0
 40
0.0
 40
0.0
 40
0.0
 40
0.3653472182
 40
0.5430491971
 40
0.7023308916
 40
0.8322043448
 40
0.9258445827
 40
0.9580702473
 40
0.9808345382
 40
0.9946310733
 40
1.0
 40
1.0
 40
1.0
 40
1.0
 10
63.5182376352
 20
186.1310811016
 30
0.0
 10
63.5791416404
 20
186.131091537
 30
0.0
 10
63.6696720663
 20
186.1313063308
 30
0.0
 10
63.7867418439
 20
186.1321112673
 30
0.0
 10
63.864582419
 20
186.1328834733
 30
0.0
 10
63.9283368097
 20
186.1339350464
 30
0.0
 10
63.9710664012
 20
186.1347566978
 30
0.0
 10
63.9956853749
 20
186.1358317325
 30
0.0
 10
64.0073687909
 20
186.1360996958
 30
0.0
 10
64.0139242475
 20
186.1371730951
 30
0.0
 10
64.0175619816
 20
186.1369929807
 30
0.0
 10
64.0181947981
 20
186.1376258985
 30
0.0
  0
SPLINE
  5
3A2
100
AcDbEntity
  8
0
100
AcDbSpline
 62
7
  6
CONTINUOUS
 70
0
 71
3
 72
12
 73
8
 74
0
 42
0.0000001
 43
0.0000001
 44
0.0000000001
 40
0.0
 40
0.0
 40
0.0
 40
0.0
 40
0.125426528
 40
0.2508703124
 40
0.5005990863
 40
0.7502708041
 40
1.0
 40
1.0
 40
1.0
 40
1.0
 10
65.5230574063
 20
157.0079374091
 30
0.0
 10
65.3924330384
 20
157.0094179229
 30
0.0
 10
65.1306067805
 20
157.0336731268
 30
0.0
 10
64.6272720487
 20
157.1812105056
 30
0.0
 10
64.0729955265
 20
157.5561485126
 30
0.0
 10
63.6245921334
 20
158.2188162947
 30
0.0
 10
63.5268612337
 20
158.7451773508
 30
0.0
 10
63.5228861055
 20
159.0052419784
 30
0.0
  0
SPLINE
  5
3A3
100
AcDbEntity
  8
0
100
AcDbSpline
 62
7
  6
CONTINUOUS
 70
0
 71
3
 72
25
 73
21
 74
0
 42
0.0000001
 43
0.0000001
 44
0.0000000001
 40
0.0
 40
0.0
 40
0.0
 40
0.0
 40
0.1950930981
 40
0.3826848754
 40
0.555567894
 40
0.6343886541
 40
0.7070998569
 40
0.7730014177
 40
0.8314588219
 40
0.881909237
 40
0.923866938
 40
0.9415312588
 40
0.9569280013
 40
0.9700191808
 40
0.9807742303
 40
0.9891663569
 40
0.995176424
 40
0.997283103
 40
0.9987894049
 40
1.0
 40
1.0
 40
1.0
 40
1.0
 10
51.6131030105
 20
187.1441716128
 30
0.0
 10
51.4180254456
 20
187.1445970923
 30
0.0
 10
51.0353708585
 20
187.145351109
 30
0.0
 10
50.4798465103
 20
187.1462025121
 30
0.0
 10
50.040585107
 20
187.1466613088
 30
0.0
 10
49.7161952201
 20
187.1468482183
 30
0.0
 10
49.4987785227
 20
187.1468962853
 30
0.0
 10
49.3017234716
 20
187.1468568952
 30
0.0
 10
49.1269279475
 20
187.1467307187
 30
0.0
 10
48.9760732611
 20
187.1465208804
 30
0.0
 10
48.8660119598
 20
187.1462648474
 30
0.0
 10
48.7909954989
 20
187.1460117499
 30
0.0
 10
48.7448564924
 20
187.14580352
 30
0.0
 10
48.7055899166
 20
187.1456078352
 30
0.0
 10
48.6734306342
 20
187.1453085899
 30
0.0
 10
48.648081421
 20
187.1452236784
 30
0.0
 10
48.6319810914
 20
187.1446453318
 30
0.0
 10
48.6218146286
 20
187.1448981898
 30
0.0
 10
48.6179542895
 20
187.1439303116
 30
0.0
 10
48.6133768274
 20
187.1453820108
 30
0.0
 10
48.6133609844
 20
187.1441716128
 30
0.0
  0
SPLINE
  5
3A4
100
AcDbEntity
  8
0
100
AcDbSpline
 62
7
  6
CONTINUOUS
 70
0
 71
3
 72
25
 73
21
 74
0
 42
0.0000001
 43
0.0000001
 44
0.0000000001
 40
0.0
 40
0.0
 40
0.0
 40
0.0
 40
0.0012105951
 40
0.002716897
 40
0.004823576
 40
0.0108336431
 40
0.0192257697
 40
0.0299808191
 40
0.0430719986
 40
0.0584687411
 40
0.0761330618
 40
0.1180907628
 40
0.1685411779
 40
0.226998582
 40
0.2929001428
 40
0.3656113457
 40
0.4444321057
 40
0.6173151244
 40
0.8049069018
 40
1.0
 40
1.0
 40
1.0
 40
1.0
 10
99.6837467827
 20
187.144171638
 30
0.0
 10
99.68373094
 20
187.1453820359
 30
0.0
 10
99.6791534775
 20
187.1439303368
 30
0.0
 10
99.6752931387
 20
187.1448982149
 30
0.0
 10
99.6651266758
 20
187.1446453569
 30
0.0
 10
99.6490263464
 20
187.1452237035
 30
0.0
 10
99.6236771333
 20
187.145308615
 30
0.0
 10
99.5915178511
 20
187.1456078603
 30
0.0
 10
99.5522512754
 20
187.1458035451
 30
0.0
 10
99.506112269
 20
187.146011775
 30
0.0
 10
99.4310958083
 20
187.1462648724
 30
0.0
 10
99.3210345074
 20
187.1465209055
 30
0.0
 10
99.1701798212
 20
187.1467307438
 30
0.0
 10
98.9953842976
 20
187.1468569203
 30
0.0
 10
98.7983292469
 20
187.1468963104
 30
0.0
 10
98.5809125499
 20
187.1468482433
 30
0.0
 10
98.2565226635
 20
187.1466613339
 30
0.0
 10
97.8172612609
 20
187.1462025371
 30
0.0
 10
97.2617369134
 20
187.1453511341
 30
0.0
 10
96.8790823267
 20
187.1445971174
 30
0.0
 10
96.684004762
 20
187.144171638
 30
0.0
  0
SPLINE
  5
3A5
100
AcDbEntity
  8
0
100
AcDbSpline
 62
7
  6
CONTINUOUS
 70
0
 71
3
 72
21
 73
17
 74
0
 42
0.0000001
 43
0.0000001
 44
0.0000000001
 40
0.0
 40
0.0
 40
0.0
 40
0.0
 40
0.0011659533
 40
0.0045805181
 40
0.0102401049
 40
0.018128881
 40
0.0405738993
 40
0.0720042487
 40
0.1118441833
 40
0.1597190203
 40
0.2155725076
 40
0.2794958095
 40
0.4274776845
 40
0.6002842287
 40
0.79275195
 40
1.0
 40
1.0
 40
1.0
 40
1.0
 10
106.398552461
 20
187.1376265506
 30
0.0
 10
106.3985529292
 20
187.1380626001
 30
0.0
 10
106.3958638168
 20
187.1376578058
 30
0.0
 10
106.3929794582
 20
187.1384686012
 30
0.0
 10
106.3861135134
 20
187.1384037065
 30
0.0
 10
106.3729767381
 20
187.1389991579
 30
0.0
 10
106.3496458116
 20
187.1393136374
 30
0.0
 10
106.314714901
 20
187.1398980903
 30
0.0
 10
106.2701155802
 20
187.1403750331
 30
0.0
 10
106.2164407099
 20
187.140873368
 30
0.0
 10
106.153737992
 20
187.141341468
 30
0.0
 10
106.0536042149
 20
187.1419721649
 30
0.0
 10
105.9097278616
 20
187.1426597628
 30
0.0
 10
105.7177790496
 20
187.1433259337
 30
0.0
 10
105.5036643667
 20
187.1438457019
 30
0.0
 10
105.3541766105
 20
187.1440783522
 30
0.0
 10
105.2766688702
 20
187.1441693535
 30
0.0
  0
SPLINE
  5
3A6
100
AcDbEntity
  8
0
100
AcDbSpline
 62
7
  6
CONTINUOUS
 70
0
 71
3
 72
16
 73
12
 74
0
 42
0.0000001
 43
0.0000001
 44
0.0000000001
 40
0.0
 40
0.0
 40
0.0
 40
0.0
 40
0.3653472156
 40
0.543049194
 40
0.7023308903
 40
0.8322043454
 40
0.9258445844
 40
0.9580702494
 40
0.9808345399
 40
0.9946310741
 40
1.0
 40
1.0
 40
1.0
 40
1.0
 10
84.7742216822
 20
159.0052419784
 30
0.0
 10
84.713317675
 20
159.0052524137
 30
0.0
 10
84.6227872459
 20
159.0054672075
 30
0.0
 10
84.5057174638
 20
159.006272144
 30
0.0
 10
84.427876885
 20
159.00704435
 30
0.0
 10
84.364122491
 20
159.0080959232
 30
0.0
 10
84.3213928971
 20
159.0089175746
 30
0.0
 10
84.2967739223
 20
159.0099926093
 30
0.0
 10
84.2850905059
 20
159.0102605725
 30
0.0
 10
84.2785350496
 20
159.011333972
 30
0.0
 10
84.2748973153
 20
159.0111538574
 30
0.0
 10
84.2742644991
 20
159.0117867753
 30
0.0
  0
SPLINE
  5
3A7
100
AcDbEntity
  8
0
100
AcDbSpline
 62
7
  6
CONTINUOUS
 70
0
 71
3
 72
21
 73
17
 74
0
 42
0.0000001
 43
0.0000001
 44
0.0000000001
 40
0.0
 40
0.0
 40
0.0
 40
0.0
 40
0.2074865122
 40
0.4005327812
 40
0.5728347413
 40
0.721106488
 40
0.7847630475
 40
0.8404878553
 40
0.8883815887
 40
0.9283200752
 40
0.9595880554
 40
0.9819145324
 40
0.9897744928
 40
0.9954215413
 40
0.9988333992
 40
1.0
 40
1.0
 40
1.0
 40
1.0
 10
43.0221087555
 20
187.1441717704
 30
0.0
 10
42.9443963452
 20
187.1440809561
 30
0.0
 10
42.7943800999
 20
187.1438482201
 30
0.0
 10
42.5798297304
 20
187.1433279728
 30
0.0
 10
42.3874589666
 20
187.1426606221
 30
0.0
 10
42.2435488054
 20
187.1419728812
 30
0.0
 10
42.1433055224
 20
187.1413416365
 30
0.0
 10
42.0806505235
 20
187.1408737699
 30
0.0
 10
42.0268999789
 20
187.1403742962
 30
0.0
 10
41.98225108
 20
187.1398968736
 30
0.0
 10
41.9473358353
 20
187.1393123906
 30
0.0
 10
41.9240880327
 20
187.1389981169
 30
0.0
 10
41.9109894939
 20
187.1384040428
 30
0.0
 10
41.9041319907
 20
187.1384690532
 30
0.0
 10
41.9012465083
 20
187.1376576638
 30
0.0
 10
41.8985553071
 20
187.1380639889
 30
0.0
 10
41.8985553067
 20
187.1376270476
 30
0.0
  0
SPLINE
  5
3A8
100
AcDbEntity
  8
0
100
AcDbSpline
 62
7
  6
CONTINUOUS
 70
0
 71
3
 72
16
 73
12
 74
0
 42
0.0000001
 43
0.0000001
 44
0.0000000001
 40
0.0
 40
0.0
 40
0.0
 40
0.0
 40
0.0053689266
 40
0.0191654614
 40
0.0419297521
 40
0.0741554171
 40
0.1677956552
 40
0.2976691086
 40
0.4569508032
 40
0.6346527807
 40
1.0
 40
1.0
 40
1.0
 40
1.0
 10
64.0228432683
 20
159.0117867753
 30
0.0
 10
64.0222104518
 20
159.0111538575
 30
0.0
 10
64.0185727179
 20
159.0113339718
 30
0.0
 10
64.0120172612
 20
159.0102605726
 30
0.0
 10
64.0003338454
 20
159.0099926093
 30
0.0
 10
63.9757148715
 20
159.0089175747
 30
0.0
 10
63.9329852799
 20
159.0080959232
 30
0.0
 10
63.8692308892
 20
159.0070443501
 30
0.0
 10
63.7913903142
 20
159.0062721441
 30
0.0
 10
63.6743205367
 20
159.0054672076
 30
0.0
 10
63.5837901108
 20
159.0052524137
 30
0.0
 10
63.5228861055
 20
159.0052419784
 30
0.0
  0
ELLIPSE
  5
3A9
100
AcDbEntity
  8
0
100
AcDbEllipse
 62
7
  6
CONTINUOUS
 10
68.1049877743
 20
114.6419893332
 30
0.0
 11
0.5
 21
0.0
 31
0.0
 40
0.0087268678
 41
-1.5707963268
 42
-0.7897701172
  0
ELLIPSE
  5
3AA
100
AcDbEntity
  8
0
100
AcDbEllipse
 62
7
  6
CONTINUOUS
 10
74.1485538837
 20
114.6855364035
 30
0.0
 11
5.5
 21
0.0
 31
0.0
 40
0.0087268678
 41
6.2831853072
 42
9.4247779608
  0
ELLIPSE
  5
3AB
100
AcDbEntity
  8
0
100
AcDbEllipse
 62
7
  6
CONTINUOUS
 10
63.6485919621
 20
115.6376639777
 30
0.0
 11
-0.7071606311
 21
-0.7071606311
 31
0.0
 40
0.9999238505
 41
-0.7853600872
 42
0.7853600872
  0
ELLIPSE
  5
3AC
100
AcDbEntity
  8
0
100
AcDbEllipse
 62
7
  6
CONTINUOUS
 10
63.6485919621
 20
141.6375878209
 30
0.0
 11
0.7071606311
 21
-0.7071606311
 31
0.0
 40
0.9999238505
 41
2.3562325664
 42
3.9269527408
  0
ELLIPSE
  5
3AD
100
AcDbEntity
  8
0
100
AcDbEllipse
 62
7
  6
CONTINUOUS
 10
84.6485158053
 20
141.6375878209
 30
0.0
 11
-0.7071606311
 21
-0.7071606311
 31
0.0
 40
0.9999238505
 41
2.3562325664
 42
3.9269527408
  0
ELLIPSE
  5
3AE
100
AcDbEntity
  8
0
100
AcDbEllipse
 62
7
  6
CONTINUOUS
 10
84.6485158053
 20
115.6376639777
 30
0.0
 11
0.7071606311
 21
-0.7071606311
 31
0.0
 40
0.9999238505
 41
-0.7853600872
 42
0.7853600872
  0
ELLIPSE
  5
3AF
100
AcDbEntity
  8
0
100
AcDbEllipse
 62
7
  6
CONTINUOUS
 10
80.1921199932
 20
114.6419893332
 30
0.0
 11
0.5
 21
-0.0
 31
0.0
 40
0.0087268678
 41
-3.1328660073
 42
-1.5707963268
  0
ELLIPSE
  5
3B0
100
AcDbEntity
  8
0
100
AcDbEllipse
 62
7
  6
CONTINUOUS
 10
63.7445875078
 20
133.1327782273
 30
0.0
 11
0.4472714922
 21
0.8946111165
 31
0.0
 40
0.9998096356
 41
2.0344896259
 42
3.6051336537
  0
ELLIPSE
  5
3B1
100
AcDbEntity
  8
0
100
AcDbEllipse
 62
7
  6
CONTINUOUS
 10
63.7445875078
 20
126.1424735712
 30
0.0
 11
-0.4472714922
 21
0.8946111165
 31
0.0
 40
0.9998096356
 41
-0.4635410001
 42
1.1071030277
  0
ELLIPSE
  5
3B2
100
AcDbEntity
  8
0
100
AcDbEllipse
 62
7
  6
CONTINUOUS
 10
84.5525202596
 20
126.1424735712
 30
0.0
 11
0.4472714922
 21
0.8946111165
 31
0.0
 40
0.9998096356
 41
-1.1071030277
 42
0.4635410001
  0
ELLIPSE
  5
3B3
100
AcDbEntity
  8
0
100
AcDbEllipse
 62
7
  6
CONTINUOUS
 10
84.5525202597
 20
133.1327782273
 30
0.0
 11
-0.4472714922
 21
0.8946111165
 31
0.0
 40
0.9998096356
 41
2.6780516535
 42
4.2486956812
  0
ENDSEC
  0
SECTION
  2
OBJECTS
  0
DICTIONARY
  5
C
100
AcDbDictionary
280
0
281
1
  3
ACAD_GROUP
350
D
  3
ACAD_MLINESTYLE
350
17
  3
ACAD_LAYOUT
350
1A
  3
ACAD_PLOTSETTINGS
350
19
  3
ACAD_PLOTSTYLENAME
350
E
  0
DICTIONARY
  5
D
102
{ACAD_REACTORS
330
C
102
}
100
AcDbDictionary
280
0
281
1
  0
ACDBDICTIONARYWDFLT
  5
E
102
{ACAD_REACTORS
330
C
102
}
100
AcDbDictionary
281
1
  3
Normal
350
F
100
AcDbDictionaryWithDefault
340
F
  0
DICTIONARY
  5
17
102
{ACAD_REACTORS
330
C
102
}
100
AcDbDictionary
280
0
281
1
  3
Standard
350
18
  0
DICTIONARY
  5
19
102
{ACAD_REACTORS
330
C
102
}
100
AcDbDictionary
281
1
  0
DICTIONARY
  5
1A
102
{ACAD_REACTORS
330
C
102
}
100
AcDbDictionary
281
1
  3
Model
350
3B4
  3
Layout1
350
3B5
  0
ACDBPLACEHOLDER
  5
F
102
{ACAD_REACTORS
330
E
102
}
  0
MLINESTYLE
  5
18
102
{ACAD_REACTORS
330
17
102
}
100
AcDbMlineStyle
  2
STANDARD
 70
0
  3

 62
256
 51
90.0
 52
90.0
 71
2
 49
0.5
 62
256
  6
BYLAYER
 49
-0.5
 62
256
  6
BYLAYER
  0
LAYOUT
  5
3B4
102
{ACAD_REACTORS
330
1A
102
}
100
AcDbPlotSettings
  1

  2
none_device
  4

  6

 40
0.0
 41
0.0
 42
0.0
 43
0.0
 44
210.0
 45
297.0
 46
0.0
 47
0.0
 48
0.0
 49
0.0
140
0.0
141
0.0
142
1.0
143
1.0
 70
1024
 72
1
 73
0
 74
0
  7

 75
0
147
1.0
148
0.0
149
0.0
100
AcDbLayout
  1
Model
 70
0
 71
0
 10
0.0
 20
0.0
 11
210.0
 21
297.0
 12
0.0
 22
0.0
 32
0.0
 14
0.0
 24
0.0
 34
0.0
 15
0.0
 25
0.0
 35
0.0
146
0.0
 13
0.0
 23
0.0
 33
0.0
 16
1.0
 26
0.0
 36
0.0
 17
0.0
 27
1.0
 37
0.0
 76
0
330
210
345
0
346
0
  0
LAYOUT
  5
3B5
102
{ACAD_REACTORS
330
1A
102
}
100
AcDbPlotSettings
  1

  2
none_device
  4

  6

 40
0.0
 41
0.0
 42
0.0
 43
0.0
 44
210.0
 45
297.0
 46
0.0
 47
0.0
 48
0.0
 49
0.0
140
0.0
141
0.0
142
1.0
143
1.0
 70
0
 72
1
 73
0
 74
0
  7

 75
0
147
1.0
148
0.0
149
0.0
100
AcDbLayout
  1
Layout1
 70
0
 71
1
 10
0.0
 20
0.0
 11
210.0
 21
297.0
 12
0.0
 22
0.0
 32
0.0
 14
0.0
 24
0.0
 34
0.0
 15
0.0
 25
0.0
 35
0.0
146
0.0
 13
0.0
 23
0.0
 33
0.0
 16
1.0
 26
0.0
 36
0.0
 17
0.0
 27
1.0
 37
0.0
 76
0
330
211
345
0
346
0
  0
ENDSEC
  0
EOF
