999
DXF file: C:\Users\sesa63760\Dev\_Creo\CAD\MCADID0002358_3D-CAD\drw0001_1.dxf
999
Pro/ENGINEER 2019471 by Parametric Technology Corporation
  0
SECTION
  2
HEADER
  9
$ACADVER
  1
AC1024
  9
$DWGCODEPAGE
  3
ANSI_1252
  9
$EXTMAX
 10
46.9118816478
 20
66.3468040448
 30
0.0
  9
$EXTMIN
 10
0.0
 20
0.0
 30
0.0
  9
$LIMMIN
 10
0.0
 20
0.0
  9
$LIMMAX
 10
46.9118816478
 20
66.3468040448
  9
$VIEWCTR
 10
23.4559408239
 20
33.1734020224
  9
$VIEWSIZE
 40
66.3468040448
  9
$CLAYER
  8
0
  9
$LTSCALE
 40
4.3248287081
  9
$CELTYPE
  6
BYLAYER
  9
$DIMSCALE
 40
1.0
  9
$DIMASZ
 40
0.5584747815
  9
$DIMEXO
 40
1.0
  9
$DIMDLI
 40
2.9880634711
  9
$DIMEXE
 40
1.0
  9
$DIMCEN
 40
0.7076992431
  9
$DIMLFAC
 40
1.0
  9
$DIMBLK
  1
_FILLED
  9
$DIMALT
 70
0
  9
$DIMALTF
 40
0.0393700787
  9
$DIMTXT
 40
0.7818646941
  9
$DIMTOL
 70
1
  9
$DIMLIM
 70
0
  9
$DIMTFAC
 40
1.0
  9
$DIMTP
 40
0.01
  9
$DIMTM
 40
0.01
  9
$DIMGAP
 40
0.625
  9
$DIMDSEP
 70
46
  9
$AUNITS
 70
0
  9
$PDMODE
 70
3
  9
$PDSIZE
 40
0.3125
  9
$HANDSEED
  5
313
  9
$TILEMODE
 70
1
  9
$MEASUREMENT
 70
1
  9
$INSUNITS
 70
4
  0
ENDSEC
  0
SECTION
  2
CLASSES
  0
CLASS
  1
ACDBDICTIONARYWDFLT
  2
AcDbDictionaryWithDefault
  3
AutoCAD 2000
 90
0
 91
1
280
0
281
0
  0
CLASS
  1
ACDBPLACEHOLDER
  2
AcDbPlaceHolder
  3
AutoCAD 2000
 90
0
 91
1
280
0
281
0
  0
CLASS
  1
LAYOUT
  2
AcDbLayout
  3
AutoCAD 2000
 90
0
 91
0
280
0
281
0
  0
ENDSEC
  0
SECTION
  2
TABLES
  0
TABLE
  2
VPORT
  5
8
100
AcDbSymbolTable
 70
2
  0
VPORT
  5
1F4
100
AcDbSymbolTableRecord
100
AcDbViewportTableRecord
  2
*ACTIVE
 70
0
 10
0.0
 20
0.0
 11
1.0
 21
1.0
 12
23.4559408239
 22
33.1734020224
 13
0.0
 23
0.0
 14
1.0
 24
1.0
 15
0.0
 25
0.0
 16
0.0
 26
0.0
 36
1.0
 17
0.0
 27
0.0
 37
0.0
 40
66.3468040448
 41
0.7070707071
 42
50.0
 43
0.0
 44
0.0
 50
0.0
 51
0.0
 71
0
 72
100
 73
1
 74
1
 75
0
 76
0
 77
0
 78
0
  0
ENDTAB
  0
TABLE
  2
LTYPE
  5
5
100
AcDbSymbolTable
 70
6
  0
LTYPE
  5
14
100
AcDbSymbolTableRecord
100
AcDbLinetypeTableRecord
  2
BYBLOCK
 70
0
  3

 72
65
 73
0
 40
0.0
  0
LTYPE
  5
15
100
AcDbSymbolTableRecord
100
AcDbLinetypeTableRecord
  2
BYLAYER
 70
0
  3

 72
65
 73
0
 40
0.0
  0
LTYPE
  5
16
100
AcDbSymbolTableRecord
100
AcDbLinetypeTableRecord
  2
CONTINUOUS
 70
64
  3
Solid line
 72
65
 73
0
 40
0.0
  0
LTYPE
  5
1F5
100
AcDbSymbolTableRecord
100
AcDbLinetypeTableRecord
  2
CENTER
 70
64
  3
____ _ ____ _ ____ _ ____ _ ____ _ ____ _ ____
 72
65
 73
4
 40
0.6
 49
0.375
 74
0
 49
-0.075
 74
0
 49
0.075
 74
0
 49
-0.075
 74
0
  0
LTYPE
  5
1F6
100
AcDbSymbolTableRecord
100
AcDbLinetypeTableRecord
  2
HIDDEN
 70
64
  3
- - - - - - - - - - - - - - - - - - - -
 72
65
 73
2
 40
0.2
 49
0.1
 74
0
 49
-0.1
 74
0
  0
LTYPE
  5
1F7
100
AcDbSymbolTableRecord
100
AcDbLinetypeTableRecord
  2
PHANTOM
 70
64
  3
_____ _ _ _____ _ _ _____ _ _ _____
 72
65
 73
6
 40
0.8
 49
0.45
 74
0
 49
-0.05
 74
0
 49
0.1
 74
0
 49
-0.05
 74
0
 49
0.1
 74
0
 49
-0.05
 74
0
  0
LTYPE
  5
1F8
100
AcDbSymbolTableRecord
100
AcDbLinetypeTableRecord
  2
DOT
 70
64
  3
. . . . . . . . . . . . . . . . . . . .
 72
65
 73
2
 40
0.2
 49
0.1
 74
0
 49
-0.1
 74
0
  0
LTYPE
  5
1F9
100
AcDbSymbolTableRecord
100
AcDbLinetypeTableRecord
  2
DASHED
 70
64
  3
- - - - - - - - - - - - - - - - - - - -
 72
65
 73
2
 40
0.2
 49
0.1
 74
0
 49
-0.1
 74
0
  0
ENDTAB
  0
TABLE
  2
LAYER
  5
2
100
AcDbSymbolTable
 70
36
  0
LAYER
  5
10
100
AcDbSymbolTableRecord
100
AcDbLayerTableRecord
  2
0
 70
0
 62
7
  6
CONTINUOUS
370
-3
390
F
  0
LAYER
  5
1FA
100
AcDbSymbolTableRecord
100
AcDbLayerTableRecord
  2
DEFAULT_1
 70
0
 62
7
  6
CENTER
370
-3
390
F
  0
LAYER
  5
1FB
100
AcDbSymbolTableRecord
100
AcDbLayerTableRecord
  2
DEFAULT_2
 70
0
 62
8
  6
HIDDEN
370
-3
390
F
  0
LAYER
  5
1FC
100
AcDbSymbolTableRecord
100
AcDbLayerTableRecord
  2
DEFAULT_3
 70
0
 62
7
  6
PHANTOM
370
-3
390
F
  0
LAYER
  5
1FD
100
AcDbSymbolTableRecord
100
AcDbLayerTableRecord
  2
00_COMPONENTS
 70
0
 62
7
  6
CONTINUOUS
370
-3
390
F
  0
LAYER
  5
1FE
100
AcDbSymbolTableRecord
100
AcDbLayerTableRecord
  2
01_1_DEFAULT_DATUMS
 70
0
 62
7
  6
CONTINUOUS
370
-3
390
F
  0
LAYER
  5
1FF
100
AcDbSymbolTableRecord
100
AcDbLayerTableRecord
  2
01_PLANES
 70
0
 62
7
  6
CONTINUOUS
370
-3
390
F
  0
LAYER
  5
200
100
AcDbSymbolTableRecord
100
AcDbLayerTableRecord
  2
02_COORD_SYS
 70
0
 62
7
  6
CONTINUOUS
370
-3
390
F
  0
LAYER
  5
201
100
AcDbSymbolTableRecord
100
AcDbLayerTableRecord
  2
03_AXES
 70
0
 62
7
  6
CONTINUOUS
370
-3
390
F
  0
LAYER
  5
202
100
AcDbSymbolTableRecord
100
AcDbLayerTableRecord
  2
04_POINTS
 70
0
 62
7
  6
CONTINUOUS
370
-3
390
F
  0
LAYER
  5
203
100
AcDbSymbolTableRecord
100
AcDbLayerTableRecord
  2
05_CURVES
 70
0
 62
7
  6
CONTINUOUS
370
-3
390
F
  0
LAYER
  5
204
100
AcDbSymbolTableRecord
100
AcDbLayerTableRecord
  2
06_SURFS
 70
0
 62
7
  6
CONTINUOUS
370
-3
390
F
  0
LAYER
  5
205
100
AcDbSymbolTableRecord
100
AcDbLayerTableRecord
  2
07_COSMETICS
 70
0
 62
7
  6
CONTINUOUS
370
-3
390
F
  0
LAYER
  5
206
100
AcDbSymbolTableRecord
100
AcDbLayerTableRecord
  2
10_NOTES
 70
0
 62
7
  6
CONTINUOUS
370
-3
390
F
  0
LAYER
  5
207
100
AcDbSymbolTableRecord
100
AcDbLayerTableRecord
  2
11_NOTES_PUB
 70
0
 62
7
  6
CONTINUOUS
370
-3
390
F
  0
LAYER
  5
208
100
AcDbSymbolTableRecord
100
AcDbLayerTableRecord
  2
13_REF_GTOL
 70
0
 62
7
  6
CONTINUOUS
370
-3
390
F
  0
LAYER
  5
209
100
AcDbSymbolTableRecord
100
AcDbLayerTableRecord
  2
16_MISC
 70
0
 62
7
  6
CONTINUOUS
370
-3
390
F
  0
LAYER
  5
20A
100
AcDbSymbolTableRecord
100
AcDbLayerTableRecord
  2
17_NO_PRINT
 70
0
 62
7
  6
CONTINUOUS
370
-3
390
F
  0
LAYER
  5
20B
100
AcDbSymbolTableRecord
100
AcDbLayerTableRecord
  2
18_DATUM_CAMS_JOINTS
 70
0
 62
7
  6
CONTINUOUS
370
-3
390
F
  0
LAYER
  5
20C
100
AcDbSymbolTableRecord
100
AcDbLayerTableRecord
  2
19_DATUM_FUNCTIONAL
 70
0
 62
7
  6
CONTINUOUS
370
-3
390
F
  0
LAYER
  5
20D
100
AcDbSymbolTableRecord
100
AcDbLayerTableRecord
  2
20_DATUM_KINEMATIC_SCHEME
 70
0
 62
7
  6
CONTINUOUS
370
-3
390
F
  0
ENDTAB
  0
TABLE
  2
STYLE
  5
3
100
AcDbSymbolTable
 70
1
  0
STYLE
  5
11
100
AcDbSymbolTableRecord
100
AcDbTextStyleTableRecord
  2
STANDARD
 70
0
 40
0.0
 41
0.8
 50
0.0
 71
0
 42
0.2
  3
txt
  4

  0
STYLE
  5
20E
100
AcDbSymbolTableRecord
100
AcDbTextStyleTableRecord
  2
TEXTSTYLE_1
 70
0
 40
0.0
 41
0.8
 50
0.0
 71
0
 42
0.2
  3
gdt
  4

  0
ENDTAB
  0
TABLE
  2
VIEW
  5
6
100
AcDbSymbolTable
 70
0
  0
ENDTAB
  0
TABLE
  2
UCS
  5
7
100
AcDbSymbolTable
 70
0
  0
ENDTAB
  0
TABLE
  2
APPID
  5
9
100
AcDbSymbolTable
 70
1
  0
APPID
  5
20F
100
AcDbSymbolTableRecord
100
AcDbRegAppTableRecord
  2
ACAD
 70
0
  0
ENDTAB
  0
TABLE
  2
BLOCK_RECORD
  5
1
100
AcDbSymbolTable
 70
0
  0
BLOCK_RECORD
  5
210
100
AcDbSymbolTableRecord
100
AcDbBlockTableRecord
  2
*Model_Space
  0
BLOCK_RECORD
  5
211
100
AcDbSymbolTableRecord
100
AcDbBlockTableRecord
  2
*Paper_Space
  0
BLOCK_RECORD
  5
212
100
AcDbSymbolTableRecord
100
AcDbBlockTableRecord
  2
_FILLED
  0
ENDTAB
  0
TABLE
  2
DIMSTYLE
  5
A
100
AcDbSymbolTable
 70
1
100
AcDbDimStyleTable
 71
0
  0
DIMSTYLE
105
213
100
AcDbSymbolTableRecord
100
AcDbDimStyleTableRecord
  2
STANDARD
 70
0
  3

  4

 40
1.0
 41
0.5584747815
 42
1.0
 43
0.38
 44
1.0
 45
0.0
 46
0.0
 47
0.01
 48
0.01
140
0.7818646941
141
0.09
142
0.0
143
25.4
144
1.0
145
0.0
146
1.0
147
0.625
 71
1
 72
0
 73
0
 74
0
 75
0
 76
0
 77
1
 78
8
 79
2
170
0
171
1
172
0
173
0
174
0
175
0
176
0
177
0
178
0
270
2
179
2
271
2
272
2
273
2
274
2
275
0
280
0
281
0
282
0
283
1
284
8
285
0
286
0
287
3
288
0
340
11
278
46
341
212
342
212
343
212
344
212
  0
ENDTAB
  0
ENDSEC
  0
SECTION
  2
BLOCKS
  0
BLOCK
  5
20
100
AcDbEntity
  8
0
100
AcDbBlockBegin
  2
*Model_Space
 70
0
 10
0.0
 20
0.0
 30
0.0
  3
*Model_Space
  1

  0
ENDBLK
  5
21
100
AcDbEntity
  8
0
100
AcDbBlockEnd
  0
BLOCK
  5
1C
100
AcDbEntity
  8
0
100
AcDbBlockBegin
  2
*Paper_Space
 70
0
 10
0.0
 20
0.0
 30
0.0
  3
*Paper_Space
  1

  0
ENDBLK
  5
1D
100
AcDbEntity
  8
0
100
AcDbBlockEnd
  0
BLOCK
  5
214
100
AcDbEntity
  8
0
100
AcDbBlockBegin
  2
_FILLED
 70
64
 10
0.0
 20
0.0
  3
_FILLED
  1

  0
SOLID
  5
215
100
AcDbEntity
  8
0
  6
BYBLOCK
 62
0
100
AcDbTrace
 10
0.0
 20
0.0
 11
-1.0
 21
0.25
 12
-1.0
 22
-0.25
 13
-1.0
 23
-0.25
  0
ENDBLK
  5
216
100
AcDbEntity
  8
0
  6
BYBLOCK
 62
0
100
AcDbBlockEnd
  0
ENDSEC
  0
SECTION
  2
ENTITIES
  0
LINE
  5
217
100
AcDbEntity
  8
0
100
AcDbLine
 62
7
  6
CONTINUOUS
 10
6.0287546374
 20
55.5347115452
 11
5.6425409187
 21
55.2288521141
  0
LINE
  5
218
100
AcDbEntity
  8
0
100
AcDbLine
 62
7
  6
CONTINUOUS
 10
11.5370910024
 20
58.7149378514
 11
6.0287521251
 21
55.5347159011
  0
LINE
  5
219
100
AcDbEntity
  8
0
100
AcDbLine
 62
7
  6
CONTINUOUS
 10
8.1222646228
 20
55.5484900792
 11
13.5774583977
 21
58.6980288734
  0
LINE
  5
21A
100
AcDbEntity
  8
0
100
AcDbLine
 62
7
  6
CONTINUOUS
 10
13.9845221272
 20
58.5144000904
 11
14.580008575
 21
58.8582022991
  0
LINE
  5
21B
100
AcDbEntity
  8
0
100
AcDbLine
 62
7
  6
CONTINUOUS
 10
14.7327793363
 20
58.1768569718
 11
16.018622255
 21
58.9192342957
  0
LINE
  5
21C
100
AcDbEntity
  8
0
100
AcDbLine
 62
7
  6
CONTINUOUS
 10
7.96248054
 20
54.2627419878
 11
7.0628845276
 21
53.7433630882
  0
LINE
  5
21D
100
AcDbEntity
  8
0
100
AcDbLine
 62
7
  6
CONTINUOUS
 10
6.0869199311
 20
52.6525619258
 11
6.5076035782
 21
52.8954422929
  0
LINE
  5
21E
100
AcDbEntity
  8
0
100
AcDbLine
 62
7
  6
CONTINUOUS
 10
8.2617386497
 20
53.739943672
 11
8.6487011559
 21
53.9633552455
  0
LINE
  5
21F
100
AcDbEntity
  8
0
100
AcDbLine
 62
7
  6
CONTINUOUS
 10
20.1889140656
 20
57.4863243939
 11
18.3524486598
 21
56.4260469265
  0
LINE
  5
220
100
AcDbEntity
  8
0
100
AcDbLine
 62
7
  6
CONTINUOUS
 10
10.3274007597
 20
14.8782293486
 11
20.9329452561
 21
8.7552538989
  0
LINE
  5
221
100
AcDbEntity
  8
0
100
AcDbLine
 62
7
  6
CONTINUOUS
 10
23.7404876556
 20
7.4725677073
 11
7.105633708
 21
17.0764878421
  0
LWPOLYLINE
  5
222
100
AcDbEntity
  8
0
100
AcDbPolyline
 62
7
  6
CONTINUOUS
 90
10
 70
0
 10
15.4230606732
 20
13.8998727916
 10
13.3665842142
 20
15.5060351142
 10
11.5615032158
 20
17.7511982474
 10
10.2138564907
 20
20.3855350535
 10
9.5021275099
 20
23.065329641
 10
9.5046897997
 20
25.4670604011
 10
10.2161566898
 20
27.3129700976
 10
11.5560572032
 20
28.3857957613
 10
13.3576928189
 20
28.5501982427
 10
13.9135134029
 20
28.3430382275
  0
LINE
  5
223
100
AcDbEntity
  8
0
100
AcDbLine
 62
7
  6
CONTINUOUS
 10
5.4423234929
 20
20.4996966619
 11
5.4423234929
 21
54.7227152162
  0
LINE
  5
224
100
AcDbEntity
  8
0
100
AcDbLine
 62
7
  6
CONTINUOUS
 10
5.6425409187
 20
19.3004150682
 11
5.6425407904
 21
34.2531654604
  0
LINE
  5
225
100
AcDbEntity
  8
0
100
AcDbLine
 62
7
  6
CONTINUOUS
 10
5.6425407904
 20
40.2761635493
 11
5.6425409187
 21
55.2288521141
  0
LINE
  5
226
100
AcDbEntity
  8
0
100
AcDbLine
 62
7
  6
CONTINUOUS
 10
5.7352196297
 20
34.1917161661
 11
5.7352196297
 21
40.2142674443
  0
LINE
  5
227
100
AcDbEntity
  8
0
100
AcDbLine
 62
7
  6
CONTINUOUS
 10
6.0798488576
 20
40.0153000888
 11
6.0798488576
 21
33.9927488148
  0
LINE
  5
228
100
AcDbEntity
  8
0
100
AcDbLine
 62
7
  6
CONTINUOUS
 10
6.0869199311
 20
52.6525619258
 11
6.0869198227
 21
40.0196069995
  0
LINE
  5
229
100
AcDbEntity
  8
0
100
AcDbLine
 62
7
  6
CONTINUOUS
 10
6.0869198227
 20
33.9966089106
 11
6.0869199311
 21
21.3635921347
  0
LINE
  5
22A
100
AcDbEntity
  8
0
100
AcDbLine
 62
7
  6
CONTINUOUS
 10
6.2371855341
 20
33.6363084917
 11
6.2371855341
 21
39.5846429748
  0
LINE
  5
22B
100
AcDbEntity
  8
0
100
AcDbLine
 62
7
  6
CONTINUOUS
 10
6.2530218206
 20
39.5846429748
 11
6.2530218206
 21
33.609670492
  0
LINE
  5
22C
100
AcDbEntity
  8
0
100
AcDbLine
 62
7
  6
CONTINUOUS
 10
6.446513071
 20
21.1973361415
 11
6.446512966
 21
33.4274343293
  0
LINE
  5
22D
100
AcDbEntity
  8
0
100
AcDbLine
 62
7
  6
CONTINUOUS
 10
6.446512966
 20
40.1735066103
 11
6.446513071
 21
52.4036049193
  0
LINE
  5
22E
100
AcDbEntity
  8
0
100
AcDbLine
 62
7
  6
CONTINUOUS
 10
6.4562756812
 20
39.7979747908
 11
6.4618861776
 21
39.803124971
  0
LINE
  5
22F
100
AcDbEntity
  8
0
100
AcDbLine
 62
7
  6
CONTINUOUS
 10
6.2715343929
 20
39.677557373
 11
6.266564983
 21
39.6733112498
  0
LINE
  5
230
100
AcDbEntity
  8
0
100
AcDbLine
 62
7
  6
CONTINUOUS
 10
6.4562756812
 20
39.7979747908
 11
6.4498016302
 21
39.7937548977
  0
LINE
  5
231
100
AcDbEntity
  8
0
100
AcDbLine
 62
7
  6
CONTINUOUS
 10
6.4562756812
 20
39.7979747908
 11
6.4497486648
 21
39.7937837708
  0
LINE
  5
232
100
AcDbEntity
  8
0
100
AcDbLine
 62
7
  6
CONTINUOUS
 10
6.4638232816
 20
39.804315737
 11
6.4618861776
 21
39.803124971
  0
LINE
  5
233
100
AcDbEntity
  8
0
100
AcDbLine
 62
7
  6
CONTINUOUS
 10
6.0869198227
 20
40.0196069995
 11
6.0798488576
 21
40.0153000888
  0
LINE
  5
234
100
AcDbEntity
  8
0
100
AcDbLine
 62
7
  6
CONTINUOUS
 10
24.6417419321
 20
52.7087556455
 11
26.5529015919
 21
53.8121576032
  0
LINE
  5
235
100
AcDbEntity
  8
0
100
AcDbLine
 62
7
  6
CONTINUOUS
 10
30.2196315217
 20
51.0208774656
 11
30.059183329
 21
50.9683002026
  0
LINE
  5
236
100
AcDbEntity
  8
0
100
AcDbLine
 62
7
  6
CONTINUOUS
 10
6.632092455
 20
39.9014810583
 11
6.4638165196
 21
39.8043274817
  0
LINE
  5
237
100
AcDbEntity
  8
0
100
AcDbLine
 62
7
  6
CONTINUOUS
 10
6.5162254579
 20
39.7983672622
 11
6.662541567
 21
39.882842403
  0
LINE
  5
238
100
AcDbEntity
  8
0
100
AcDbLine
 62
7
  6
CONTINUOUS
 10
22.8302921398
 20
47.0571661893
 11
28.2853407208
 21
50.2066211563
  0
LINE
  5
239
100
AcDbEntity
  8
0
100
AcDbLine
 62
7
  6
CONTINUOUS
 10
30.7231934025
 20
50.4297382434
 11
29.0618132476
 21
49.4705456893
  0
LINE
  5
23A
100
AcDbEntity
  8
0
100
AcDbLine
 62
7
  6
CONTINUOUS
 10
22.5847896791
 20
45.4743010879
 11
22.8827147453
 21
45.6463071783
  0
LINE
  5
23B
100
AcDbEntity
  8
0
100
AcDbLine
 62
7
  6
CONTINUOUS
 10
13.6254696521
 20
28.5456760816
 11
13.6254696521
 21
33.9358600177
  0
LINE
  5
23C
100
AcDbEntity
  8
0
100
AcDbLine
 62
7
  6
CONTINUOUS
 10
14.7697236236
 20
33.2752396246
 11
14.7697236236
 21
27.8850556885
  0
LINE
  5
23D
100
AcDbEntity
  8
0
100
AcDbLine
 62
7
  6
CONTINUOUS
 10
6.0798488576
 20
33.9927488148
 11
6.0869198227
 21
33.9966089106
  0
LINE
  5
23E
100
AcDbEntity
  8
0
100
AcDbLine
 62
7
  6
CONTINUOUS
 10
12.8384479559
 20
28.9637135112
 11
15.5943004405
 21
27.3726573319
  0
LINE
  5
23F
100
AcDbEntity
  8
0
100
AcDbLine
 62
7
  6
CONTINUOUS
 10
14.7697236236
 20
27.8850556885
 11
13.6254696521
 21
28.5456760816
  0
LINE
  5
240
100
AcDbEntity
  8
0
100
AcDbLine
 62
7
  6
CONTINUOUS
 10
6.0798488576
 20
33.9927488148
 11
5.7352194708
 21
34.1917162579
  0
LINE
  5
241
100
AcDbEntity
  8
0
100
AcDbLine
 62
7
  6
CONTINUOUS
 10
25.0967598268
 20
23.0135786047
 11
24.7521303063
 21
23.2125459748
  0
LINE
  5
242
100
AcDbEntity
  8
0
100
AcDbLine
 62
7
  6
CONTINUOUS
 10
24.3796927877
 20
23.4275679308
 11
24.3740635253
 21
23.4308179123
  0
LINE
  5
243
100
AcDbEntity
  8
0
100
AcDbLine
 62
7
  6
CONTINUOUS
 10
24.2633171696
 20
23.3042993642
 11
24.2020123961
 21
23.3418255338
  0
LINE
  5
244
100
AcDbEntity
  8
0
100
AcDbLine
 62
7
  6
CONTINUOUS
 10
24.2633171696
 20
23.3042993642
 11
24.2020253767
 21
23.3422354841
  0
LWPOLYLINE
  5
245
100
AcDbEntity
  8
0
100
AcDbPolyline
 62
7
  6
CONTINUOUS
 90
10
 70
0
 10
16.7486417181
 20
26.7451007373
 10
17.4795370131
 20
26.1742522458
 10
19.2846180115
 20
23.9290891126
 10
20.6322647366
 20
21.2947523064
 10
21.3439937174
 20
18.614957719
 10
21.3414314276
 20
16.2132269589
 10
20.6299645376
 20
14.3673172624
 10
19.2900640241
 20
13.2944915987
 10
17.4884284084
 20
13.1300891173
 10
15.4230606732
 20
13.8998727916
  0
LINE
  5
246
100
AcDbEntity
  8
0
100
AcDbLine
 62
7
  6
CONTINUOUS
 10
24.3996082391
 20
42.0386150786
 11
24.7273608802
 21
42.2278420246
  0
LINE
  5
247
100
AcDbEntity
  8
0
100
AcDbLine
 62
7
  6
CONTINUOUS
 10
31.2674322692
 20
45.0317895529
 11
32.988794823
 21
46.0256127544
  0
LINE
  5
248
100
AcDbEntity
  8
0
100
AcDbLine
 62
7
  6
CONTINUOUS
 10
13.6254696521
 20
33.9358600177
 11
14.7697236236
 21
33.2752396246
  0
LINE
  5
249
100
AcDbEntity
  8
0
100
AcDbLine
 62
7
  6
CONTINUOUS
 10
16.0964328629
 20
32.6256202614
 11
12.3737570952
 21
34.7748594957
  0
LINE
  5
24A
100
AcDbEntity
  8
0
100
AcDbLine
 62
7
  6
CONTINUOUS
 10
24.2633171696
 20
29.7240335806
 11
24.3579648918
 21
29.7173354208
  0
LINE
  5
24B
100
AcDbEntity
  8
0
100
AcDbLine
 62
7
  6
CONTINUOUS
 10
24.3317249128
 20
29.5128981179
 11
24.1262251241
 21
29.6223776908
  0
LINE
  5
24C
100
AcDbEntity
  8
0
100
AcDbLine
 62
7
  6
CONTINUOUS
 10
23.7941415899
 20
29.9758381884
 11
24.2633171696
 21
29.7240335806
  0
LINE
  5
24D
100
AcDbEntity
  8
0
100
AcDbLine
 62
7
  6
CONTINUOUS
 10
23.7940602448
 20
29.9786287657
 11
24.2633171696
 21
29.7240335806
  0
LINE
  5
24E
100
AcDbEntity
  8
0
100
AcDbLine
 62
7
  6
CONTINUOUS
 10
24.1776584238
 20
29.3396857175
 11
23.3690069382
 21
29.8065503085
  0
LINE
  5
24F
100
AcDbEntity
  8
0
100
AcDbLine
 62
7
  6
CONTINUOUS
 10
7.0801858936
 20
39.2106927733
 11
6.2715343929
 21
39.677557373
  0
LINE
  5
250
100
AcDbEntity
  8
0
100
AcDbLine
 62
7
  6
CONTINUOUS
 10
5.7352194708
 20
40.2142675361
 11
6.0798488576
 21
40.0153000888
  0
LINE
  5
251
100
AcDbEntity
  8
0
100
AcDbLine
 62
7
  6
CONTINUOUS
 10
24.7521303063
 20
29.2350972488
 11
25.0967598268
 21
29.0361298829
  0
LINE
  5
252
100
AcDbEntity
  8
0
100
AcDbLine
 62
7
  6
CONTINUOUS
 10
25.2035798119
 20
28.9828478936
 11
24.7592012714
 21
29.2394041595
  0
LINE
  5
253
100
AcDbEntity
  8
0
100
AcDbLine
 62
7
  6
CONTINUOUS
 10
24.3845513513
 20
29.4557034984
 11
23.7188634678
 21
29.8400298825
  0
LINE
  5
254
100
AcDbEntity
  8
0
100
AcDbLine
 62
7
  6
CONTINUOUS
 10
7.1272575111
 20
39.418981343
 11
6.4618861776
 21
39.803124971
  0
LINE
  5
255
100
AcDbEntity
  8
0
100
AcDbLine
 62
7
  6
CONTINUOUS
 10
6.0869198227
 20
40.0196069995
 11
5.6425412822
 21
40.2761632654
  0
LINE
  5
256
100
AcDbEntity
  8
0
100
AcDbLine
 62
7
  6
CONTINUOUS
 10
6.582804046
 20
39.9316517139
 11
7.2071393478
 21
39.5494806167
  0
LINE
  5
257
100
AcDbEntity
  8
0
100
AcDbLine
 62
7
  6
CONTINUOUS
 10
6.582804046
 20
39.9316517139
 11
7.2070397756
 21
39.5461162714
  0
LINE
  5
258
100
AcDbEntity
  8
0
100
AcDbLine
 62
7
  6
CONTINUOUS
 10
24.0475621995
 20
29.3111927144
 11
24.0475621995
 21
23.3362202313
  0
LINE
  5
259
100
AcDbEntity
  8
0
100
AcDbLine
 62
7
  6
CONTINUOUS
 10
24.1704015383
 20
23.3269353671
 11
24.1704015383
 21
29.3340153511
  0
LINE
  5
25A
100
AcDbEntity
  8
0
100
AcDbLine
 62
7
  6
CONTINUOUS
 10
24.3962829138
 20
29.3858059398
 11
24.3962829138
 21
23.4726652379
  0
LINE
  5
25B
100
AcDbEntity
  8
0
100
AcDbLine
 62
7
  6
CONTINUOUS
 10
24.3996081342
 20
23.0624444885
 11
24.3996082391
 21
10.8323463007
  0
LINE
  5
25C
100
AcDbEntity
  8
0
100
AcDbLine
 62
7
  6
CONTINUOUS
 10
24.3996082391
 20
42.0386150786
 11
24.3996081342
 21
29.8085167696
  0
LINE
  5
25D
100
AcDbEntity
  8
0
100
AcDbLine
 62
7
  6
CONTINUOUS
 10
24.7521303063
 20
23.2125459748
 11
24.7521303063
 21
29.2350972488
  0
LINE
  5
25E
100
AcDbEntity
  8
0
100
AcDbLine
 62
7
  6
CONTINUOUS
 10
24.7592013798
 20
10.5833892947
 11
24.7592012714
 21
23.2164060706
  0
LINE
  5
25F
100
AcDbEntity
  8
0
100
AcDbLine
 62
7
  6
CONTINUOUS
 10
24.7592012714
 20
29.2394041595
 11
24.7592013798
 21
41.8723590858
  0
LINE
  5
260
100
AcDbEntity
  8
0
100
AcDbLine
 62
7
  6
CONTINUOUS
 10
25.096759643
 20
29.036129989
 11
25.096759643
 21
23.0135787108
  0
LINE
  5
261
100
AcDbEntity
  8
0
100
AcDbLine
 62
7
  6
CONTINUOUS
 10
25.2035803036
 20
22.9598495207
 11
25.2035804319
 21
8.0070991421
  0
LINE
  5
262
100
AcDbEntity
  8
0
100
AcDbLine
 62
7
  6
CONTINUOUS
 10
25.2035804319
 20
43.9355361817
 11
25.2035803036
 21
28.9828476097
  0
LINE
  5
263
100
AcDbEntity
  8
0
100
AcDbLine
 62
7
  6
CONTINUOUS
 10
24.3744389328
 20
29.4577903745
 11
24.3740635253
 21
23.4308179123
  0
LINE
  5
264
100
AcDbEntity
  8
0
100
AcDbLine
 62
7
  6
CONTINUOUS
 10
24.3579648918
 20
29.7173354208
 11
24.3996081342
 21
29.8093610055
  0
LINE
  5
265
100
AcDbEntity
  8
0
100
AcDbLine
 62
7
  6
CONTINUOUS
 10
6.4465130678
 20
21.5712020897
 11
6.0869199311
 21
21.3635921347
  0
LINE
  5
266
100
AcDbEntity
  8
0
100
AcDbLine
 62
7
  6
CONTINUOUS
 10
26.5047754615
 20
9.7875027998
 11
26.5047754615
 21
42.2550595673
  0
LINE
  5
267
100
AcDbEntity
  8
0
100
AcDbLine
 62
7
  6
CONTINUOUS
 10
24.1724211728
 20
29.3355934478
 11
24.1776584238
 21
29.3396857175
  0
LINE
  5
268
100
AcDbEntity
  8
0
100
AcDbLine
 62
7
  6
CONTINUOUS
 10
24.7521303063
 20
29.2350972488
 11
24.7592012714
 21
29.2394041595
  0
LINE
  5
269
100
AcDbEntity
  8
0
100
AcDbLine
 62
7
  6
CONTINUOUS
 10
24.759201278
 20
30.0161267287
 11
24.3996081342
 21
29.8085167696
  0
LINE
  5
26A
100
AcDbEntity
  8
0
100
AcDbLine
 62
7
  6
CONTINUOUS
 10
24.7592012774
 20
29.9489799391
 11
24.357968366
 21
29.7173293925
  0
LINE
  5
26B
100
AcDbEntity
  8
0
100
AcDbLine
 62
7
  6
CONTINUOUS
 10
24.3298956175
 20
29.513872671
 11
24.7592012758
 21
29.7617309289
  0
LINE
  5
26C
100
AcDbEntity
  8
0
100
AcDbLine
 62
7
  6
CONTINUOUS
 10
24.3962829138
 20
29.3858059398
 11
24.7592012744
 21
29.5953357022
  0
LINE
  5
26D
100
AcDbEntity
  8
0
100
AcDbLine
 62
7
  6
CONTINUOUS
 10
31.3612680461
 20
33.3340738334
 11
33.2350882016
 21
34.4159179469
  0
LINE
  5
26E
100
AcDbEntity
  8
0
100
AcDbLine
 62
7
  6
CONTINUOUS
 10
24.1776584238
 20
29.3396857175
 11
24.3758608977
 21
29.4523314921
  0
LINE
  5
26F
100
AcDbEntity
  8
0
100
AcDbLine
 62
7
  6
CONTINUOUS
 10
24.3845513513
 20
29.4557034984
 11
24.3758608977
 21
29.4523314921
  0
LINE
  5
270
100
AcDbEntity
  8
0
100
AcDbLine
 62
7
  6
CONTINUOUS
 10
8.175012333
 20
17.4072662392
 11
8.5117755903
 21
17.6016954359
  0
LINE
  5
271
100
AcDbEntity
  8
0
100
AcDbLine
 62
7
  6
CONTINUOUS
 10
31.3612680684
 20
44.3829055264
 11
31.3612680052
 21
13.1703872055
  0
LINE
  5
272
100
AcDbEntity
  8
0
100
AcDbLine
 62
7
  6
CONTINUOUS
 10
24.3834413069
 20
23.4294792447
 11
24.386596336
 21
23.4315247637
  0
LINE
  5
273
100
AcDbEntity
  8
0
100
AcDbLine
 62
7
  6
CONTINUOUS
 10
33.2350882016
 20
30.2392355437
 11
37.2313985334
 21
32.546492617
  0
LINE
  5
274
100
AcDbEntity
  8
0
100
AcDbLine
 62
7
  6
CONTINUOUS
 10
32.988794823
 20
46.0256127544
 11
33.2350882016
 21
34.4159179469
  0
LINE
  5
275
100
AcDbEntity
  8
0
100
AcDbLine
 62
7
  6
CONTINUOUS
 10
33.2350882016
 20
26.591115141
 11
33.2350882016
 21
34.4159179469
  0
LINE
  5
276
100
AcDbEntity
  8
0
100
AcDbLine
 62
7
  6
CONTINUOUS
 10
33.2350882016
 20
26.591115141
 11
32.9887948876
 21
15.2658094343
  0
LWPOLYLINE
  5
277
100
AcDbEntity
  8
0
100
AcDbPolyline
 62
7
  6
CONTINUOUS
 90
3
 70
0
 10
38.7205880748
 20
34.202501956
 10
37.437186208
 20
32.6754141713
 10
37.2312865252
 20
32.5466867935
  0
LINE
  5
278
100
AcDbEntity
  8
0
100
AcDbLine
 62
7
  6
CONTINUOUS
 10
41.0332808681
 20
36.1994686385
 11
39.8204147505
 21
34.920860475
  0
LINE
  5
279
100
AcDbEntity
  8
0
100
AcDbLine
 62
7
  6
CONTINUOUS
 10
39.6247680933
 20
34.7306058321
 11
39.8204147505
 21
34.920860475
  0
LINE
  5
27A
100
AcDbEntity
  8
0
100
AcDbLine
 62
7
  6
CONTINUOUS
 10
39.6247680933
 20
34.7306058321
 11
38.9695305935
 21
34.143597287
  0
LINE
  5
27B
100
AcDbEntity
  8
0
100
AcDbLine
 62
7
  6
CONTINUOUS
 10
24.7521303063
 20
23.6781125994
 11
24.3962829138
 21
23.4726652379
  0
LINE
  5
27C
100
AcDbEntity
  8
0
100
AcDbLine
 62
7
  6
CONTINUOUS
 10
24.7521303063
 20
23.5865140757
 11
24.2633171701
 21
23.3042993645
  0
LINE
  5
27D
100
AcDbEntity
  8
0
100
AcDbLine
 62
7
  6
CONTINUOUS
 10
24.3996081342
 20
23.0624444885
 11
24.7521303063
 21
23.2659720446
  0
LINE
  5
27E
100
AcDbEntity
  8
0
100
AcDbLine
 62
7
  6
CONTINUOUS
 10
31.3612680302
 20
25.5092710184
 11
33.2350882016
 21
26.591115141
  0
LINE
  5
27F
100
AcDbEntity
  8
0
100
AcDbLine
 62
7
  6
CONTINUOUS
 10
24.3796927877
 20
23.4275679308
 11
24.7521303063
 21
23.6423108606
  0
LINE
  5
280
100
AcDbEntity
  8
0
100
AcDbLine
 62
7
  6
CONTINUOUS
 10
24.3740635253
 20
23.4308179123
 11
24.1776584238
 21
23.3292285928
  0
LINE
  5
281
100
AcDbEntity
  8
0
100
AcDbLine
 62
7
  6
CONTINUOUS
 10
24.1776584238
 20
23.3292285928
 11
24.1724214716
 21
23.3275736799
  0
LINE
  5
282
100
AcDbEntity
  8
0
100
AcDbLine
 62
7
  6
CONTINUOUS
 10
7.1056337373
 20
55.7633835386
 11
23.7404876428
 21
46.159463428
  0
LINE
  5
283
100
AcDbEntity
  8
0
100
AcDbLine
 62
7
  6
CONTINUOUS
 10
18.3038464758
 20
50.9240667289
 11
13.9441414518
 21
53.4410866555
  0
LINE
  5
284
100
AcDbEntity
  8
0
100
AcDbLine
 62
7
  6
CONTINUOUS
 10
30.4822205883
 20
51.0951837619
 11
30.2196315217
 21
51.0208774656
  0
LINE
  5
285
100
AcDbEntity
  8
0
100
AcDbLine
 62
7
  6
CONTINUOUS
 10
32.1959629232
 20
51.5062436904
 11
30.4822205883
 21
51.0951837619
  0
LINE
  5
286
100
AcDbEntity
  8
0
100
AcDbLine
 62
7
  6
CONTINUOUS
 10
20.8478388287
 20
55.0548037541
 11
21.0149602899
 21
54.9583183162
  0
LWPOLYLINE
  5
287
100
AcDbEntity
  8
0
100
AcDbPolyline
 62
7
  6
CONTINUOUS
 90
8
 70
0
 10
32.1814213383
 20
49.5400359992
 10
33.355248919
 20
48.750190065
 10
35.5809120772
 20
46.5832115328
 10
37.4375503566
 20
43.8419450805
 10
38.7271957385
 20
40.8123665869
 10
39.2999934585
 20
37.8481284994
 10
39.2978931843
 20
36.490829564
 10
38.7205880748
 20
34.202501956
  0
LINE
  5
288
100
AcDbEntity
  8
0
100
AcDbLine
 62
7
  6
CONTINUOUS
 10
26.5529015919
 20
53.8121576032
 11
30.7231934025
 21
50.4297382434
  0
LINE
  5
289
100
AcDbEntity
  8
0
100
AcDbLine
 62
7
  6
CONTINUOUS
 10
24.8173666957
 20
7.7012396846
 11
25.2035804319
 21
8.0070991421
  0
LINE
  5
28A
100
AcDbEntity
  8
0
100
AcDbLine
 62
7
  6
CONTINUOUS
 10
24.7592013758
 20
11.0399562557
 11
24.3996082391
 21
10.8323463007
  0
LINE
  5
28B
100
AcDbEntity
  8
0
100
AcDbLine
 62
7
  6
CONTINUOUS
 10
32.9887948876
 20
15.2658094343
 11
31.3612680076
 21
14.3261619609
  0
LINE
  5
28C
100
AcDbEntity
  8
0
100
AcDbLine
 62
7
  6
CONTINUOUS
 10
22.6663045648
 20
9.0329971476
 11
23.3138204451
 21
9.4068383838
  0
LINE
  5
28D
100
AcDbEntity
  8
0
100
AcDbLine
 62
7
  6
CONTINUOUS
 10
23.7844135935
 20
9.487450891
 11
24.7080544762
 21
10.0207120201
  0
LINE
  5
28E
100
AcDbEntity
  8
0
100
AcDbLine
 62
7
  6
CONTINUOUS
 10
32.1618071026
 20
13.5387475183
 11
31.3431645868
 21
13.0661068627
  0
LINE
  5
28F
100
AcDbEntity
  8
0
100
AcDbLine
 62
7
  6
CONTINUOUS
 10
30.3257080896
 20
10.8814572814
 11
24.8173692123
 21
7.7012353312
  0
LINE
  5
290
100
AcDbEntity
  8
0
100
AcDbLine
 62
7
  6
CONTINUOUS
 10
16.018622255
 20
58.9192342957
 11
20.1889140656
 21
57.4863243939
  0
ARC
  5
291
100
AcDbEntity
  8
0
100
AcDbCircle
 62
7
  6
CONTINUOUS
 10
183.3818079172
 20
325.4435648983
 40
335.8197434057
100
AcDbArc
 50
238.3579329821
 51
239.9903707205
  0
ARC
  5
292
100
AcDbEntity
  8
0
100
AcDbCircle
 62
7
  6
CONTINUOUS
 10
176.5622116901
 20
312.990078363
 40
321.790846393
100
AcDbArc
 50
238.0998555864
 51
238.2281938808
  0
ARC
  5
293
100
AcDbEntity
  8
0
100
AcDbCircle
 62
7
  6
CONTINUOUS
 10
175.0575846834
 20
311.1033846618
 40
319.2386671484
100
AcDbArc
 50
239.9968519709
 51
241.717089549
  0
ARC
  5
294
100
AcDbEntity
  8
0
100
AcDbCircle
 62
7
  6
CONTINUOUS
 10
35.2838501811
 20
68.4942913618
 40
45.3842017504
100
AcDbArc
 50
230.2329212903
 51
230.628686035
  0
ARC
  5
295
100
AcDbEntity
  8
0
100
AcDbCircle
 62
7
  6
CONTINUOUS
 10
31.7053635233
 20
51.9505302305
 40
42.7945661572
100
AcDbArc
 50
236.5593054056
 51
240.0298300701
  0
ARC
  5
296
100
AcDbEntity
  8
0
100
AcDbCircle
 62
7
  6
CONTINUOUS
 10
35.6640419393
 20
34.2380269213
 40
29.4343061901
100
AcDbArc
 50
239.9685940404
 51
244.1502089003
  0
ARC
  5
297
100
AcDbEntity
  8
0
100
AcDbCircle
 62
7
  6
CONTINUOUS
 10
22.9246678248
 20
33.0977605071
 40
10.3169526951
100
AcDbArc
 50
0.0007567005
 51
0.5328042095
  0
ARC
  5
298
100
AcDbEntity
  8
0
100
AcDbCircle
 62
7
  6
CONTINUOUS
 10
23.048289368
 20
33.0978701008
 40
10.1933311511
100
AcDbArc
 50
359.7401758286
 51
0.0001498612
  0
ARC
  5
299
100
AcDbEntity
  8
0
100
AcDbCircle
 62
7
  6
CONTINUOUS
 10
9.8080994509
 20
34.5743002955
 40
6.2065713361
100
AcDbArc
 50
122.7582780115
 51
123.0693806614
  0
ARC
  5
29A
100
AcDbEntity
  8
0
100
AcDbCircle
 62
7
  6
CONTINUOUS
 10
36.7935064235
 20
36.567659324
 40
3.2574589607
100
AcDbArc
 50
300.0286294191
 51
311.9136298823
  0
ARC
  5
29B
100
AcDbEntity
  8
0
100
AcDbCircle
 62
7
  6
CONTINUOUS
 10
21.5567915433
 20
10.5588429789
 40
3.2025039083
100
AcDbArc
 50
0.0004860409
 51
0.4391607651
  0
ARC
  5
29C
100
AcDbEntity
  8
0
100
AcDbCircle
 62
7
  6
CONTINUOUS
 10
9.134077288
 20
21.2871776334
 40
3.0481153413
100
AcDbArc
 50
178.5634772127
 51
180.0025988082
  0
SPLINE
  5
29D
100
AcDbEntity
  8
0
100
AcDbSpline
 62
7
  6
CONTINUOUS
 70
0
 71
3
 72
9
 73
5
 74
0
 42
0.0000001
 43
0.0000001
 44
0.0000000001
 40
0.0
 40
0.0
 40
0.0
 40
0.0
 40
0.4997306123
 40
1.0
 40
1.0
 40
1.0
 40
1.0
 10
16.5214702889
 20
26.8606561452
 30
0.0
 10
16.365214152
 20
26.9425979937
 30
0.0
 10
16.0545780507
 20
27.1104817792
 30
0.0
 10
15.7472644748
 20
27.284345135
 30
0.0
 10
15.5942990467
 20
27.3726581366
 30
0.0
  0
SPLINE
  5
29E
100
AcDbEntity
  8
0
100
AcDbSpline
 62
7
  6
CONTINUOUS
 70
0
 71
3
 72
14
 73
10
 74
0
 42
0.0000001
 43
0.0000001
 44
0.0000000001
 40
0.0
 40
0.0
 40
0.0
 40
0.0
 40
0.1083237891
 40
0.2186427327
 40
0.3327799799
 40
0.4522225437
 40
0.5781191069
 40
0.7112646335
 40
1.0
 40
1.0
 40
1.0
 40
1.0
 10
7.0628884684
 20
53.7433562833
 30
0.0
 10
7.0146777273
 20
53.7155164583
 30
0.0
 10
6.9219484501
 20
53.6509522477
 30
0.0
 10
6.7991728996
 20
53.5308622199
 30
0.0
 10
6.6933336759
 20
53.3884626337
 30
0.0
 10
6.6053063535
 20
53.2253810527
 30
0.0
 10
6.5358432077
 20
53.0431393628
 30
0.0
 10
6.4668150513
 20
52.7697199752
 30
0.0
 10
6.4477290279
 20
52.5519918213
 30
0.0
 10
6.446513071
 20
52.4036049193
 30
0.0
  0
SPLINE
  5
29F
100
AcDbEntity
  8
0
100
AcDbSpline
 62
7
  6
CONTINUOUS
 70
0
 71
3
 72
9
 73
5
 74
0
 42
0.0000001
 43
0.0000001
 44
0.0000000001
 40
0.0
 40
0.0
 40
0.0
 40
0.0
 40
0.2643182229
 40
1.0
 40
1.0
 40
1.0
 40
1.0
 10
6.266564983
 20
39.6733112498
 30
0.0
 10
6.2639969764
 20
39.6711170155
 30
0.0
 10
6.2546293372
 20
39.6624515662
 30
0.0
 10
6.2465908373
 20
39.6520915794
 30
0.0
 10
6.2425669321
 20
39.6435948373
 30
0.0
  0
SPLINE
  5
2A0
100
AcDbEntity
  8
0
100
AcDbSpline
 62
7
  6
CONTINUOUS
 70
0
 71
3
 72
9
 73
5
 74
0
 42
0.0000001
 43
0.0000001
 44
0.0000000001
 40
0.0
 40
0.0
 40
0.0
 40
0.0
 40
0.2603904071
 40
1.0
 40
1.0
 40
1.0
 40
1.0
 10
6.2425669321
 20
39.6435948373
 30
0.0
 10
6.2416777799
 20
39.6417173337
 30
0.0
 10
6.238624617
 20
39.6343451564
 30
0.0
 10
6.2371437256
 20
39.626292478
 30
0.0
 10
6.2371607913
 20
39.6203918679
 30
0.0
  0
SPLINE
  5
2A1
100
AcDbEntity
  8
0
100
AcDbSpline
 62
7
  6
CONTINUOUS
 70
0
 71
3
 72
8
 73
4
 74
0
 42
0.0000001
 43
0.0000001
 44
0.0000000001
 40
0.0
 40
0.0
 40
0.0
 40
0.0
 40
1.0
 40
1.0
 40
1.0
 40
1.0
 10
6.4577270249
 20
39.8018400584
 30
0.0
 10
6.4546327831
 20
39.7997513099
 30
0.0
 10
6.4517487023
 20
39.7973010634
 30
0.0
 10
6.4492233357
 20
39.7945515679
 30
0.0
  0
SPLINE
  5
2A2
100
AcDbEntity
  8
0
100
AcDbSpline
 62
7
  6
CONTINUOUS
 70
0
 71
3
 72
9
 73
5
 74
0
 42
0.0000001
 43
0.0000001
 44
0.0000000001
 40
0.0
 40
0.0
 40
0.0
 40
0.0
 40
0.2419077847
 40
1.0
 40
1.0
 40
1.0
 40
1.0
 10
6.449425621
 20
33.4542662064
 30
0.0
 10
6.4490030533
 20
33.4521298212
 30
0.0
 10
6.4474596224
 20
33.4432587125
 30
0.0
 10
6.4467031799
 20
33.4342564043
 30
0.0
 10
6.446512966
 20
33.4274343293
 30
0.0
  0
SPLINE
  5
2A3
100
AcDbEntity
  8
0
100
AcDbSpline
 62
7
  6
CONTINUOUS
 70
0
 71
3
 72
9
 73
5
 74
0
 42
0.0000001
 43
0.0000001
 44
0.0000000001
 40
0.0
 40
0.0
 40
0.0
 40
0.0
 40
0.2993993698
 40
1.0
 40
1.0
 40
1.0
 40
1.0
 10
6.2530218206
 20
33.609670492
 30
0.0
 10
6.2506081802
 20
33.6116818334
 30
0.0
 10
6.2430412985
 20
33.6187769663
 30
0.0
 10
6.2371931982
 20
33.6289596731
 30
0.0
 10
6.2371606198
 20
33.636311569
 30
0.0
  0
SPLINE
  5
2A4
100
AcDbEntity
  8
0
100
AcDbSpline
 62
7
  6
CONTINUOUS
 70
0
 71
3
 72
9
 73
5
 74
0
 42
0.0000001
 43
0.0000001
 44
0.0000000001
 40
0.0
 40
0.0
 40
0.0
 40
0.0
 40
0.5137711331
 40
1.0
 40
1.0
 40
1.0
 40
1.0
 10
11.9885804428
 20
29.4776621134
 30
0.0
 10
11.00909174
 20
30.0946357268
 30
0.0
 10
9.1348888357
 20
31.3477975556
 30
0.0
 10
7.3415872934
 20
32.715017238
 30
0.0
 10
6.4946744188
 20
33.4099768117
 30
0.0
  0
SPLINE
  5
2A5
100
AcDbEntity
  8
0
100
AcDbSpline
 62
7
  6
CONTINUOUS
 70
0
 71
3
 72
9
 73
5
 74
0
 42
0.0000001
 43
0.0000001
 44
0.0000000001
 40
0.0
 40
0.0
 40
0.0
 40
0.0
 40
0.5095653821
 40
1.0
 40
1.0
 40
1.0
 40
1.0
 10
24.0475621995
 20
23.3362202313
 30
0.0
 10
22.7427838352
 20
23.8757940296
 30
0.0
 10
20.2048076625
 20
24.9903749206
 30
0.0
 10
17.7222446123
 20
26.2240140831
 30
0.0
 10
16.5216192732
 20
26.860570131
 30
0.0
  0
SPLINE
  5
2A6
100
AcDbEntity
  8
0
100
AcDbSpline
 62
7
  6
CONTINUOUS
 70
0
 71
3
 72
10
 73
6
 74
0
 42
0.0000001
 43
0.0000001
 44
0.0000000001
 40
0.0
 40
0.0
 40
0.0
 40
0.0
 40
0.4717318294
 40
0.7412382534
 40
1.0
 40
1.0
 40
1.0
 40
1.0
 10
24.1724214716
 20
23.3275736799
 30
0.0
 10
24.1533760509
 20
23.3215550948
 30
0.0
 10
24.1211210224
 20
23.3193055891
 30
0.0
 10
24.0792405022
 20
23.3255231821
 30
0.0
 10
24.0576885637
 20
23.3320371941
 30
0.0
 10
24.0475621995
 20
23.3362202313
 30
0.0
  0
SPLINE
  5
2A7
100
AcDbEntity
  8
0
100
AcDbSpline
 62
7
  6
CONTINUOUS
 70
0
 71
3
 72
25
 73
21
 74
0
 42
0.0000001
 43
0.0000001
 44
0.0000000001
 40
0.0
 40
0.0
 40
0.0
 40
0.0
 40
0.0216321683
 40
0.0438810297
 40
0.0906865739
 40
0.1154847306
 40
0.1412784971
 40
0.1959319507
 40
0.2546972154
 40
0.3173068185
 40
0.3832781197
 40
0.4519654065
 40
0.5226048743
 40
0.5943551293
 40
0.666332036
 40
0.7376427632
 40
0.807420822
 40
0.8748515607
 40
0.939245946
 40
1.0
 40
1.0
 40
1.0
 40
1.0
 10
41.0332685615
 20
36.1994858007
 30
0.0
 10
41.117652124
 20
36.2884452075
 30
0.0
 10
41.2787334401
 20
36.4787628212
 30
0.0
 10
41.567494437
 20
36.9049216288
 30
0.0
 10
41.7970331854
 20
37.3889616381
 30
0.0
 10
41.9683300209
 20
37.9141694133
 30
0.0
 10
42.1076958341
 20
38.4948335107
 30
0.0
 10
42.2047139575
 20
39.2806784068
 30
0.0
 10
42.2014437883
 20
40.28061044
 30
0.0
 10
42.0811700021
 20
41.3376260429
 30
0.0
 10
41.8462512017
 20
42.4324699224
 30
0.0
 10
41.5010434561
 20
43.54526184
 30
0.0
 10
41.0519234321
 20
44.6556150689
 30
0.0
 10
40.5071535961
 20
45.7431312431
 30
0.0
 10
39.8767637617
 20
46.7877903116
 30
0.0
 10
39.1723433857
 20
47.7703579794
 30
0.0
 10
38.4068596295
 20
48.672689712
 30
0.0
 10
37.5943299648
 20
49.4784010797
 30
0.0
 10
36.7496941992
 20
50.1724052232
 30
0.0
 10
36.1565912649
 20
50.5646945371
 30
0.0
 10
35.8583616311
 20
50.7368736012
 30
0.0
  0
SPLINE
  5
2A8
100
AcDbEntity
  8
0
100
AcDbSpline
 62
7
  6
CONTINUOUS
 70
0
 71
3
 72
9
 73
5
 74
0
 42
0.0000001
 43
0.0000001
 44
0.0000000001
 40
0.0
 40
0.0
 40
0.0
 40
0.0
 40
0.2428718599
 40
1.0
 40
1.0
 40
1.0
 40
1.0
 10
31.1413267687
 20
50.0525868534
 30
0.0
 10
31.228298317
 20
50.0171497887
 30
0.0
 10
31.58365272
 20
49.8645527521
 30
0.0
 10
31.9278760605
 20
49.686417122
 30
0.0
 10
32.1814213383
 20
49.5400359992
 30
0.0
  0
SPLINE
  5
2A9
100
AcDbEntity
  8
0
100
AcDbSpline
 62
7
  6
CONTINUOUS
 70
0
 71
3
 72
15
 73
11
 74
0
 42
0.0000001
 43
0.0000001
 44
0.0000000001
 40
0.0
 40
0.0
 40
0.0
 40
0.0
 40
0.119059371
 40
0.2449707894
 40
0.3753161479
 40
0.5074478223
 40
0.6385639043
 40
0.7659293162
 40
0.8870957377
 40
1.0
 40
1.0
 40
1.0
 40
1.0
 10
22.6670859496
 20
45.8312635411
 30
0.0
 10
22.8147701632
 20
45.7227064633
 30
0.0
 10
23.1032076012
 20
45.4778670457
 30
0.0
 10
23.49731406
 20
45.0538070591
 30
0.0
 10
23.8553702403
 20
44.5735462314
 30
0.0
 10
24.1662088639
 20
44.0521925778
 30
0.0
 10
24.4201180952
 20
43.5058978115
 30
0.0
 10
24.6092864474
 20
42.9516167422
 30
0.0
 10
24.7277127845
 20
42.4066633158
 30
0.0
 10
24.7582776858
 20
42.0461710486
 30
0.0
 10
24.7592013798
 20
41.8723590858
 30
0.0
  0
SPLINE
  5
2AA
100
AcDbEntity
  8
0
100
AcDbSpline
 62
7
  6
CONTINUOUS
 70
0
 71
3
 72
11
 73
7
 74
0
 42
0.0000001
 43
0.0000001
 44
0.0000000001
 40
0.0
 40
0.0
 40
0.0
 40
0.0
 40
0.237633857
 40
0.4836701382
 40
0.7378999934
 40
1.0
 40
1.0
 40
1.0
 40
1.0
 10
8.1797896517
 20
54.1986362656
 30
0.0
 10
9.4017565336
 20
53.6789347991
 30
0.0
 10
11.8544062173
 20
52.5384301156
 30
0.0
 10
15.4830357833
 20
50.5753772885
 30
0.0
 10
19.110936951
 20
48.3383252949
 30
0.0
 10
21.4840530018
 20
46.6946897629
 30
0.0
 10
22.6670859496
 20
45.8312635411
 30
0.0
  0
SPLINE
  5
2AB
100
AcDbEntity
  8
0
100
AcDbSpline
 62
7
  6
CONTINUOUS
 70
0
 71
3
 72
9
 73
5
 74
0
 42
0.0000001
 43
0.0000001
 44
0.0000000001
 40
0.0
 40
0.0
 40
0.0
 40
0.0
 40
0.4914570599
 40
1.0
 40
1.0
 40
1.0
 40
1.0
 10
13.5774583977
 20
58.6980288734
 30
0.0
 10
14.8036524654
 20
58.1757425585
 30
0.0
 10
17.2645628416
 20
57.0315438401
 30
0.0
 10
19.6525907176
 20
55.7428263552
 30
0.0
 10
20.8478388287
 20
55.0548037541
 30
0.0
  0
SPLINE
  5
2AC
100
AcDbEntity
  8
0
100
AcDbSpline
 62
7
  6
CONTINUOUS
 70
0
 71
3
 72
13
 73
9
 74
0
 42
0.0000001
 43
0.0000001
 44
0.0000000001
 40
0.0
 40
0.0
 40
0.0
 40
0.0
 40
0.1140472301
 40
0.2293005328
 40
0.3468925735
 40
0.467861508
 40
0.7230527145
 40
1.0
 40
1.0
 40
1.0
 40
1.0
 10
14.5800113469
 20
58.8581974999
 30
0.0
 10
14.6288655159
 20
58.886404476
 30
0.0
 10
14.7308328195
 20
58.9368913966
 30
0.0
 10
14.8933341446
 20
58.9932700383
 30
0.0
 10
15.0648422715
 20
59.0301978135
 30
0.0
 10
15.3084265464
 20
59.0536276098
 30
0.0
 10
15.633079554
 20
59.0307831388
 30
0.0
 10
15.8890633455
 20
58.963738336
 30
0.0
 10
16.018622255
 20
58.9192342957
 30
0.0
  0
SPLINE
  5
2AD
100
AcDbEntity
  8
0
100
AcDbSpline
 62
7
  6
CONTINUOUS
 70
0
 71
3
 72
15
 73
11
 74
0
 42
0.0000001
 43
0.0000001
 44
0.0000000001
 40
0.0
 40
0.0
 40
0.0
 40
0.0
 40
0.1485478885
 40
0.2895079271
 40
0.4227344567
 40
0.5486400939
 40
0.6679989199
 40
0.7819394056
 40
0.8919886269
 40
1.0
 40
1.0
 40
1.0
 40
1.0
 10
31.3612680052
 20
13.1703872055
 30
0.0
 10
31.3612679954
 20
13.0402037812
 30
0.0
 10
31.3507394853
 20
12.7863141204
 30
0.0
 10
31.3008094003
 20
12.41863273
 30
0.0
 10
31.2172997003
 20
12.0773468144
 30
0.0
 10
31.1009572729
 20
11.7658106498
 30
0.0
 10
30.9526551964
 20
11.4869980712
 30
0.0
 10
30.7735497207
 20
11.2437352605
 30
0.0
 10
30.5652932713
 20
11.038775
 30
0.0
 10
30.4076785361
 20
10.9287969293
 30
0.0
 10
30.3256997692
 20
10.8814717216
 30
0.0
  0
SPLINE
  5
2AE
100
AcDbEntity
  8
0
100
AcDbSpline
 62
7
  6
CONTINUOUS
 70
0
 71
3
 72
15
 73
11
 74
0
 42
0.0000001
 43
0.0000001
 44
0.0000000001
 40
0.0
 40
0.0
 40
0.0
 40
0.0
 40
0.1189642441
 40
0.2448668605
 40
0.3753016683
 40
0.5075472552
 40
0.6387623042
 40
0.7661732429
 40
0.8872665887
 40
1.0
 40
1.0
 40
1.0
 40
1.0
 10
28.2853407208
 20
50.2066211563
 30
0.0
 10
28.5031681419
 20
50.0478829974
 30
0.0
 10
28.9286775635
 20
49.6890599564
 30
0.0
 10
29.5098868593
 20
49.066104892
 30
0.0
 10
30.0378764587
 20
48.3595024891
 30
0.0
 10
30.4958160171
 20
47.5916921553
 30
0.0
 10
30.8692745268
 20
46.7869404671
 30
0.0
 10
31.1464380591
 20
45.9705861087
 30
0.0
 10
31.3185509383
 20
45.1685388357
 30
0.0
 10
31.3612680492
 20
44.6383190047
 30
0.0
 10
31.3612680684
 20
44.3829055264
 30
0.0
  0
SPLINE
  5
2AF
100
AcDbEntity
  8
0
100
AcDbSpline
 62
7
  6
CONTINUOUS
 70
0
 71
3
 72
9
 73
5
 74
0
 42
0.0000001
 43
0.0000001
 44
0.0000000001
 40
0.0
 40
0.0
 40
0.0
 40
0.0
 40
0.492509292
 40
1.0
 40
1.0
 40
1.0
 40
1.0
 10
21.0149602899
 20
54.9583183162
 30
0.0
 10
22.2493339026
 20
54.2435631625
 30
0.0
 10
24.7149908896
 20
52.7212240726
 30
0.0
 10
27.0975138176
 20
51.0722303254
 30
0.0
 10
28.2853407208
 20
50.2066211563
 30
0.0
  0
SPLINE
  5
2B0
100
AcDbEntity
  8
0
100
AcDbSpline
 62
7
  6
CONTINUOUS
 70
0
 71
3
 72
13
 73
9
 74
0
 42
0.0000001
 43
0.0000001
 44
0.0000000001
 40
0.0
 40
0.0
 40
0.0
 40
0.0
 40
0.1121907051
 40
0.2258333377
 40
0.3422698599
 40
0.4626993324
 40
0.7189838386
 40
1.0
 40
1.0
 40
1.0
 40
1.0
 10
6.7972690521
 20
54.2029788342
 30
0.0
 10
6.8436270339
 20
54.2297487384
 30
0.0
 10
6.9408934257
 20
54.2770927782
 30
0.0
 10
7.09669221
 20
54.3276488039
 30
0.0
 10
7.2617047481
 20
54.3577257875
 30
0.0
 10
7.4972120767
 20
54.3704650902
 30
0.0
 10
7.8112368045
 20
54.3311664222
 30
0.0
 10
8.0560544674
 20
54.2502998298
 30
0.0
 10
8.1797896517
 20
54.1986362656
 30
0.0
  0
SPLINE
  5
2B1
100
AcDbEntity
  8
0
100
AcDbSpline
 62
7
  6
CONTINUOUS
 70
0
 71
3
 72
11
 73
7
 74
0
 42
0.0000001
 43
0.0000001
 44
0.0000000001
 40
0.0
 40
0.0
 40
0.0
 40
0.0
 40
0.235648314
 40
0.474372798
 40
0.7254429597
 40
1.0
 40
1.0
 40
1.0
 40
1.0
 10
5.4422816047
 20
54.7226822089
 30
0.0
 10
5.4422808692
 20
54.7664192037
 30
0.0
 10
5.4497730653
 20
54.8546941373
 30
0.0
 10
5.4861382849
 20
54.9851655386
 30
0.0
 10
5.5500519757
 20
55.1127425467
 30
0.0
 10
5.6091962583
 20
55.1910336522
 30
0.0
 10
5.6429122193
 20
55.2292437201
 30
0.0
  0
SPLINE
  5
2B2
100
AcDbEntity
  8
0
100
AcDbSpline
 62
7
  6
CONTINUOUS
 70
0
 71
3
 72
14
 73
10
 74
0
 42
0.0000001
 43
0.0000001
 44
0.0000000001
 40
0.0
 40
0.0
 40
0.0
 40
0.0
 40
0.1119338021
 40
0.2253479449
 40
0.3416219446
 40
0.4619542974
 40
0.5873508604
 40
0.7186000684
 40
1.0
 40
1.0
 40
1.0
 40
1.0
 10
11.5370993228
 20
58.7149234112
 30
0.0
 10
11.6054281104
 20
58.7543686748
 30
0.0
 10
11.748849541
 20
58.8240828673
 30
0.0
 10
11.9787510441
 20
58.8981084648
 30
0.0
 10
12.2223435427
 20
58.9415351559
 30
0.0
 10
12.4778203829
 20
58.9541642019
 30
0.0
 10
12.7434988032
 20
58.9359912969
 30
0.0
 10
13.1174247337
 20
58.8695082606
 30
0.0
 10
13.3949761699
 20
58.7757555034
 30
0.0
 10
13.5774583977
 20
58.6980288734
 30
0.0
  0
SPLINE
  5
2B3
100
AcDbEntity
  8
0
100
AcDbSpline
 62
7
  6
CONTINUOUS
 70
0
 71
3
 72
9
 73
5
 74
0
 42
0.0000001
 43
0.0000001
 44
0.0000000001
 40
0.0
 40
0.0
 40
0.0
 40
0.0
 40
0.4996009212
 40
1.0
 40
1.0
 40
1.0
 40
1.0
 10
12.8384463654
 20
28.9637144295
 30
0.0
 10
12.6952227668
 20
29.0464023738
 30
0.0
 10
12.4100857159
 20
29.2145901004
 30
0.0
 10
12.128478164
 20
29.3886489307
 30
0.0
 10
11.9887294179
 20
29.4775761045
 30
0.0
  0
SPLINE
  5
2B4
100
AcDbEntity
  8
0
100
AcDbSpline
 62
7
  6
CONTINUOUS
 70
0
 71
3
 72
11
 73
7
 74
0
 42
0.0000001
 43
0.0000001
 44
0.0000000001
 40
0.0
 40
0.0
 40
0.0
 40
0.0
 40
0.2630024774
 40
0.5152753345
 40
0.7596611054
 40
1.0
 40
1.0
 40
1.0
 40
1.0
 10
23.7404876556
 20
7.4725677073
 30
0.0
 10
23.8381239636
 20
7.4657168561
 30
0.0
 10
24.0305472116
 20
7.4643193585
 30
0.0
 10
24.3117426274
 20
7.5018129817
 30
0.0
 10
24.5760818647
 20
7.5788413954
 30
0.0
 10
24.7399163831
 20
7.6565033397
 30
0.0
 10
24.8173640105
 20
7.7012443347
 30
0.0
  0
SPLINE
  5
2B5
100
AcDbEntity
  8
0
100
AcDbSpline
 62
7
  6
CONTINUOUS
 70
0
 71
3
 72
11
 73
7
 74
0
 42
0.0000001
 43
0.0000001
 44
0.0000000001
 40
0.0
 40
0.0
 40
0.0
 40
0.0
 40
0.2518387942
 40
0.504523018
 40
0.7549307502
 40
1.0
 40
1.0
 40
1.0
 40
1.0
 10
5.6425409187
 20
19.3004150682
 30
0.0
 10
5.7350700321
 20
19.0960412944
 30
0.0
 10
5.9368181386
 20
18.69381938
 30
0.0
 10
6.284394592
 20
18.1173259932
 30
0.0
 10
6.6725015061
 20
17.5746925725
 30
0.0
 10
6.9576425318
 20
17.2369853559
 30
0.0
 10
7.105633708
 20
17.0764878421
 30
0.0
  0
SPLINE
  5
2B6
100
AcDbEntity
  8
0
100
AcDbSpline
 62
7
  6
CONTINUOUS
 70
0
 71
3
 72
15
 73
11
 74
0
 42
0.0000001
 43
0.0000001
 44
0.0000000001
 40
0.0
 40
0.0
 40
0.0
 40
0.0
 40
0.1485103876
 40
0.2894945654
 40
0.4227483473
 40
0.5486515956
 40
0.6679959131
 40
0.7819388611
 40
0.8919880059
 40
1.0
 40
1.0
 40
1.0
 40
1.0
 10
24.7592954514
 20
10.5588701458
 30
0.0
 10
24.7592954522
 20
10.4710382973
 30
0.0
 10
24.7521737661
 20
10.2997104238
 30
0.0
 10
24.7184967649
 20
10.0515708032
 30
0.0
 10
24.6621344375
 20
9.8212266688
 30
0.0
 10
24.5836333912
 20
9.6109739537
 30
0.0
 10
24.4835190439
 20
9.4228460331
 30
0.0
 10
24.3626769122
 20
9.2586712665
 30
0.0
 10
24.2221257147
 20
9.1203589656
 30
0.0
 10
24.1157618674
 20
9.0461399323
 30
0.0
 10
24.0604427775
 20
9.0141947398
 30
0.0
  0
SPLINE
  5
2B7
100
AcDbEntity
  8
0
100
AcDbSpline
 62
7
  6
CONTINUOUS
 70
0
 71
3
 72
9
 73
5
 74
0
 42
0.0000001
 43
0.0000001
 44
0.0000000001
 40
0.0
 40
0.0
 40
0.0
 40
0.0
 40
0.7493869225
 40
1.0
 40
1.0
 40
1.0
 40
1.0
 10
6.4214577384
 20
39.7754718618
 30
0.0
 10
6.3839694658
 20
39.7510713675
 30
0.0
 10
6.3342301209
 20
39.7180732967
 30
0.0
 10
6.2841279646
 20
39.6856298801
 30
0.0
 10
6.2715343929
 20
39.677557373
 30
0.0
  0
SPLINE
  5
2B8
100
AcDbEntity
  8
0
100
AcDbSpline
 62
7
  6
CONTINUOUS
 70
0
 71
3
 72
11
 73
7
 74
0
 42
0.0000001
 43
0.0000001
 44
0.0000000001
 40
0.0
 40
0.0
 40
0.0
 40
0.0
 40
0.239713856
 40
0.4824658376
 40
0.7345062985
 40
1.0
 40
1.0
 40
1.0
 40
1.0
 10
23.739169118
 20
7.4726598518
 30
0.0
 10
23.6630067859
 20
7.4780039374
 30
0.0
 10
23.5103156817
 20
7.4994490263
 30
0.0
 10
23.283828307
 20
7.5596793289
 30
0.0
 10
23.0565162286
 20
7.6439399656
 30
0.0
 10
22.9062883174
 20
7.7120446865
 30
0.0
 10
22.8301469093
 20
7.7488274628
 30
0.0
  0
SPLINE
  5
2B9
100
AcDbEntity
  8
0
100
AcDbSpline
 62
7
  6
CONTINUOUS
 70
0
 71
3
 72
10
 73
6
 74
0
 42
0.0000001
 43
0.0000001
 44
0.0000000001
 40
0.0
 40
0.0
 40
0.0
 40
0.0
 40
0.2502211025
 40
0.5004160282
 40
1.0
 40
1.0
 40
1.0
 40
1.0
 10
5.6429119504
 20
19.2995953403
 30
0.0
 10
5.6071758302
 20
19.3950719127
 30
0.0
 10
5.5467273973
 20
19.5902877548
 30
0.0
 10
5.4645334401
 20
19.9897422621
 30
0.0
 10
5.4422798427
 20
20.296151815
 30
0.0
 10
5.4422816936
 20
20.4996927722
 30
0.0
  0
SPLINE
  5
2BA
100
AcDbEntity
  8
0
100
AcDbSpline
 62
7
  6
CONTINUOUS
 70
0
 71
3
 72
10
 73
6
 74
0
 42
0.0000001
 43
0.0000001
 44
0.0000000001
 40
0.0
 40
0.0
 40
0.0
 40
0.0
 40
0.4906643623
 40
0.7438180421
 40
1.0
 40
1.0
 40
1.0
 40
1.0
 10
8.1222645861
 20
16.2402351799
 30
0.0
 10
7.9426212213
 20
16.3591502314
 30
0.0
 10
7.6765810886
 20
16.5496852594
 30
0.0
 10
7.3424661436
 20
16.8349198385
 30
0.0
 10
7.1832017777
 20
16.9923643236
 30
0.0
 10
7.1069523461
 20
17.0750573908
 30
0.0
  0
SPLINE
  5
2BB
100
AcDbEntity
  8
0
100
AcDbSpline
 62
7
  6
CONTINUOUS
 70
0
 71
3
 72
15
 73
11
 74
0
 42
0.0000001
 43
0.0000001
 44
0.0000000001
 40
0.0
 40
0.0
 40
0.0
 40
0.0
 40
0.1474903775
 40
0.287652171
 40
0.4203884901
 40
0.5461372122
 40
0.6656956752
 40
0.7801839006
 40
0.8910381045
 40
1.0
 40
1.0
 40
1.0
 40
1.0
 10
32.9887948876
 20
15.2658094343
 30
0.0
 10
32.98601513
 20
15.1675538227
 30
0.0
 10
32.9726953354
 20
14.9760213236
 30
0.0
 10
32.9274704596
 20
14.699091549
 30
0.0
 10
32.857615756
 20
14.4422109256
 30
0.0
 10
32.7637589786
 20
14.2077279738
 30
0.0
 10
32.6464920813
 20
13.9977458583
 30
0.0
 10
32.5067953102
 20
13.8141440224
 30
0.0
 10
32.3457489325
 20
13.6589169285
 30
0.0
 10
32.224692479
 20
13.575062105
 30
0.0
 10
32.1618043307
 20
13.5387523175
 30
0.0
  0
SPLINE
  5
2BC
100
AcDbEntity
  8
0
100
AcDbSpline
 62
7
  6
CONTINUOUS
 70
0
 71
3
 72
15
 73
11
 74
0
 42
0.0000001
 43
0.0000001
 44
0.0000000001
 40
0.0
 40
0.0
 40
0.0
 40
0.0
 40
0.1208464438
 40
0.2474657933
 40
0.3776569235
 40
0.509074209
 40
0.6392679792
 40
0.7658593097
 40
0.8867128951
 40
1.0
 40
1.0
 40
1.0
 40
1.0
 10
30.7231934025
 20
50.4297382434
 30
0.0
 10
30.8823654382
 20
50.300622642
 30
0.0
 10
31.1921055992
 20
50.0157965922
 30
0.0
 10
31.6150276953
 20
49.5333674524
 30
0.0
 10
31.9981105209
 20
48.9965325343
 30
0.0
 10
32.3308298165
 20
48.4201618604
 30
0.0
 10
32.6040288008
 20
47.8199851673
 30
0.0
 10
32.8103050399
 20
47.2124054125
 30
0.0
 10
32.9438975463
 20
46.6141406963
 30
0.0
 10
32.9835330386
 20
46.2176751417
 30
0.0
 10
32.988794823
 20
46.0256127544
 30
0.0
  0
SPLINE
  5
2BD
100
AcDbEntity
  8
0
100
AcDbSpline
 62
7
  6
CONTINUOUS
 70
0
 71
3
 72
11
 73
7
 74
0
 42
0.0000001
 43
0.0000001
 44
0.0000000001
 40
0.0
 40
0.0
 40
0.0
 40
0.0
 40
0.2360547267
 40
0.4820220154
 40
0.7370288473
 40
1.0
 40
1.0
 40
1.0
 40
1.0
 10
23.3709078288
 20
56.3253410342
 30
0.0
 10
23.648011948
 20
56.1654001116
 30
0.0
 10
24.2008592182
 20
55.8158690765
 30
0.0
 10
25.005282647
 20
55.2222788935
 30
0.0
 10
25.7961365843
 20
54.5528220382
 30
0.0
 10
26.3030363682
 20
54.0663452661
 30
0.0
 10
26.5529015919
 20
53.8121576032
 30
0.0
  0
SPLINE
  5
2BE
100
AcDbEntity
  8
0
100
AcDbSpline
 62
7
  6
CONTINUOUS
 70
0
 71
3
 72
10
 73
6
 74
0
 42
0.0000001
 43
0.0000001
 44
0.0000000001
 40
0.0
 40
0.0
 40
0.0
 40
0.0
 40
0.4740642585
 40
0.7305887229
 40
1.0
 40
1.0
 40
1.0
 40
1.0
 10
20.1889140656
 20
57.4863243939
 30
0.0
 10
20.7218957642
 20
57.4131058554
 30
0.0
 10
21.5311471472
 20
57.1981131752
 30
0.0
 10
22.5773069434
 20
56.7570161724
 30
0.0
 10
23.1061459092
 20
56.4782376849
 30
0.0
 10
23.3709078288
 20
56.3253410342
 30
0.0
  0
SPLINE
  5
2BF
100
AcDbEntity
  8
0
100
AcDbSpline
 62
7
  6
CONTINUOUS
 70
0
 71
3
 72
11
 73
7
 74
0
 42
0.0000001
 43
0.0000001
 44
0.0000000001
 40
0.0
 40
0.0
 40
0.0
 40
0.0
 40
0.2372229192
 40
0.497850528
 40
0.759634752
 40
1.0
 40
1.0
 40
1.0
 40
1.0
 10
6.446512966
 20
40.1735066103
 30
0.0
 10
6.4471244178
 20
40.1508706807
 30
0.0
 10
6.4560679922
 20
40.1035250555
 30
0.0
 10
6.4852621639
 20
40.0366249471
 30
0.0
 10
6.5275711106
 20
39.9767766359
 30
0.0
 10
6.5636173838
 20
39.9442336646
 30
0.0
 10
6.582804046
 20
39.9316517139
 30
0.0
  0
SPLINE
  5
2C0
100
AcDbEntity
  8
0
100
AcDbSpline
 62
7
  6
CONTINUOUS
 70
0
 71
3
 72
14
 73
10
 74
0
 42
0.0000001
 43
0.0000001
 44
0.0000000001
 40
0.0
 40
0.0
 40
0.0
 40
0.0
 40
0.1441967998
 40
0.2827042719
 40
0.5419402671
 40
0.6633073331
 40
0.779658932
 40
0.8916198528
 40
1.0
 40
1.0
 40
1.0
 40
1.0
 10
35.8583616311
 20
50.7368736012
 30
0.0
 10
35.6989487092
 20
50.8289086125
 30
0.0
 10
35.3803234999
 20
50.999198785
 30
0.0
 10
34.748097506
 20
51.2808241929
 30
0.0
 10
34.1121143248
 20
51.4805681
 30
0.0
 10
33.4850868718
 20
51.582575276
 30
0.0
 10
33.0386053057
 20
51.6089485091
 30
0.0
 10
32.6084881794
 20
51.5866489558
 30
0.0
 10
32.3305063102
 20
51.5384961602
 30
0.0
 10
32.1959704109
 20
51.5062271504
 30
0.0
  0
SPLINE
  5
2C1
100
AcDbEntity
  8
0
100
AcDbSpline
 62
7
  6
CONTINUOUS
 70
0
 71
3
 72
8
 73
4
 74
0
 42
0.0000001
 43
0.0000001
 44
0.0000000001
 40
0.0
 40
0.0
 40
0.0
 40
0.0
 40
1.0
 40
1.0
 40
1.0
 40
1.0
 10
24.3756551715
 20
23.426221221
 30
0.0
 10
24.378371422
 20
23.4269594215
 30
0.0
 10
24.3810194088
 20
23.4280445478
 30
0.0
 10
24.3834569383
 20
23.4294521721
 30
0.0
  0
SPLINE
  5
2C2
100
AcDbEntity
  8
0
100
AcDbSpline
 62
7
  6
CONTINUOUS
 70
0
 71
3
 72
15
 73
11
 74
0
 42
0.0000001
 43
0.0000001
 44
0.0000000001
 40
0.0
 40
0.0
 40
0.0
 40
0.0
 40
0.1130044601
 40
0.2342115657
 40
0.361567407
 40
0.4926401837
 40
0.6247158275
 40
0.7550147856
 40
0.8809100089
 40
1.0
 40
1.0
 40
1.0
 40
1.0
 10
6.446513071
 20
21.1973361415
 30
0.0
 10
6.4477372993
 20
21.0465262755
 30
0.0
 10
6.4749463643
 20
20.7339004521
 30
0.0
 10
6.5783503393
 20
20.2614684268
 30
0.0
 10
6.7427865033
 20
19.7811368413
 30
0.0
 10
6.9630772872
 20
19.3077994165
 30
0.0
 10
7.2324953918
 20
18.8560384814
 30
0.0
 10
7.5426855639
 20
18.4397461466
 30
0.0
 10
7.8840449852
 20
18.0719209262
 30
0.0
 10
8.1338335401
 20
17.8593485445
 30
0.0
 10
8.2617386576
 20
17.765002887
 30
0.0
  0
SPLINE
  5
2C3
100
AcDbEntity
  8
0
100
AcDbSpline
 62
7
  6
CONTINUOUS
 70
0
 71
3
 72
13
 73
9
 74
0
 42
0.0000001
 43
0.0000001
 44
0.0000000001
 40
0.0
 40
0.0
 40
0.0
 40
0.0
 40
0.2810874258
 40
0.5373922925
 40
0.657812546
 40
0.774228649
 40
0.8878425408
 40
1.0
 40
1.0
 40
1.0
 40
1.0
 10
22.5847896757
 20
9.4921849059
 30
0.0
 10
22.6921417593
 20
9.4472215404
 30
0.0
 10
22.904550492
 20
9.3768044179
 30
0.0
 10
23.177060734
 20
9.3424387541
 30
0.0
 10
23.381434588
 20
9.3533427951
 30
0.0
 10
23.5246210387
 20
9.3793581354
 30
0.0
 10
23.6598044273
 20
9.4231709832
 30
0.0
 10
23.7441931041
 20
9.4642341905
 30
0.0
 10
23.784409655
 20
9.4874576922
 30
0.0
  0
SPLINE
  5
2C4
100
AcDbEntity
  8
0
100
AcDbSpline
 62
7
  6
CONTINUOUS
 70
0
 71
3
 72
11
 73
7
 74
0
 42
0.0000001
 43
0.0000001
 44
0.0000000001
 40
0.0
 40
0.0
 40
0.0
 40
0.0
 40
0.262058797
 40
0.516273526
 40
0.7623231464
 40
1.0
 40
1.0
 40
1.0
 40
1.0
 10
8.2617386576
 20
17.765002887
 30
0.0
 10
9.4314540608
 20
16.9118933065
 30
0.0
 10
11.7778100887
 20
15.2876878149
 30
0.0
 10
15.3645381112
 20
13.0764456698
 30
0.0
 10
18.951983477
 20
11.1351587878
 30
0.0
 10
21.3767048081
 20
10.0066516413
 30
0.0
 10
22.5847896757
 20
9.4921849059
 30
0.0
  0
SPLINE
  5
2C5
100
AcDbEntity
  8
0
100
AcDbSpline
 62
7
  6
CONTINUOUS
 70
0
 71
3
 72
26
 73
22
 74
0
 42
0.0000001
 43
0.0000001
 44
0.0000000001
 40
0.0
 40
0.0
 40
0.0
 40
0.0
 40
0.2830880139
 40
0.417783019
 40
0.4831789028
 40
0.5471984968
 40
0.6097850168
 40
0.6708730765
 40
0.7303811853
 40
0.7881712642
 40
0.8163616609
 40
0.8440336243
 40
0.8711364919
 40
0.8975970157
 40
0.9233245649
 40
0.9359076018
 40
0.9483309073
 40
0.960632462
 40
0.9730650993
 40
0.9860543383
 40
1.0
 40
1.0
 40
1.0
 40
1.0
 10
25.2026360895
 20
43.9376219693
 30
0.0
 10
25.3001915924
 20
43.756127584
 30
0.0
 10
25.4557223068
 20
43.4944394412
 30
0.0
 10
25.6471283154
 20
43.1994042348
 30
0.0
 10
25.7541459877
 20
43.0397014972
 30
0.0
 10
25.8331229294
 20
42.9244017457
 30
0.0
 10
25.911503119
 20
42.8125018059
 30
0.0
 10
25.9893302899
 20
42.704234406
 30
0.0
 10
26.0666749273
 20
42.5999359311
 30
0.0
 10
26.1316398421
 20
42.5162858694
 30
0.0
 10
26.1841520242
 20
42.4523578268
 30
0.0
 10
26.2236222044
 20
42.4066445717
 30
0.0
 10
26.2637692932
 20
42.3632096029
 30
0.0
 10
26.3050112726
 20
42.3228017474
 30
0.0
 10
26.3412404557
 20
42.2924718639
 30
0.0
 10
26.3718384154
 20
42.2717417309
 30
0.0
 10
26.3955237663
 20
42.258371701
 30
0.0
 10
26.4206981606
 20
42.2481732219
 30
0.0
 10
26.4478590808
 20
42.242884722
 30
0.0
 10
26.476790151
 20
42.2441380837
 30
0.0
 10
26.4956888215
 20
42.250487717
 30
0.0
 10
26.5047564085
 20
42.2550500104
 30
0.0
  0
SPLINE
  5
2C6
100
AcDbEntity
  8
0
100
AcDbSpline
 62
7
  6
CONTINUOUS
 70
0
 71
3
 72
9
 73
5
 74
0
 42
0.0000001
 43
0.0000001
 44
0.0000000001
 40
0.0
 40
0.0
 40
0.0
 40
0.0
 40
0.239093611
 40
1.0
 40
1.0
 40
1.0
 40
1.0
 10
22.8301469459
 20
47.057082362
 30
0.0
 10
22.9095244304
 20
46.9933324009
 30
0.0
 10
23.2316604682
 20
46.7142310349
 30
0.0
 10
23.5195354121
 20
46.3990881771
 30
0.0
 10
23.7391693838
 20
46.160893451
 30
0.0
  0
SPLINE
  5
2C7
100
AcDbEntity
  8
0
100
AcDbSpline
 62
7
  6
CONTINUOUS
 70
0
 71
3
 72
11
 73
7
 74
0
 42
0.0000001
 43
0.0000001
 44
0.0000000001
 40
0.0
 40
0.0
 40
0.0
 40
0.0
 40
0.2899711572
 40
0.5491101729
 40
0.7822862622
 40
1.0
 40
1.0
 40
1.0
 40
1.0
 10
6.5149041171
 20
39.7991890392
 30
0.0
 10
6.510464527
 20
39.8018639247
 30
0.0
 10
6.5015118204
 20
39.8060888068
 30
0.0
 10
6.4877957814
 20
39.8093209479
 30
0.0
 10
6.474935466
 20
39.809094914
 30
0.0
 10
6.4671809623
 20
39.8062831628
 30
0.0
 10
6.4638138539
 20
39.8043320463
 30
0.0
  0
SPLINE
  5
2C8
100
AcDbEntity
  8
0
100
AcDbSpline
 62
7
  6
CONTINUOUS
 70
0
 71
3
 72
24
 73
20
 74
0
 42
0.0000001
 43
0.0000001
 44
0.0000000001
 40
0.0
 40
0.0
 40
0.0
 40
0.0
 40
0.0216331425
 40
0.0438830529
 40
0.0906906258
 40
0.1412436668
 40
0.1958988809
 40
0.2546667656
 40
0.3172794448
 40
0.3832534518
 40
0.451943145
 40
0.5225854037
 40
0.5943387222
 40
0.6663187095
 40
0.7376320034
 40
0.807412766
 40
0.8748476532
 40
0.9392412918
 40
1.0
 40
1.0
 40
1.0
 40
1.0
 10
39.820409631
 20
34.9208676148
 30
0.0
 10
39.9095828114
 20
35.0148632435
 30
0.0
 10
40.0797652089
 20
35.2159863286
 30
0.0
 10
40.3849283145
 20
35.666324443
 30
0.0
 10
40.6938294879
 20
36.3178760139
 30
0.0
 10
40.9374713143
 20
37.1989067642
 30
0.0
 10
41.0582655511
 20
38.1766193178
 30
0.0
 10
41.0548000957
 20
39.2333304213
 30
0.0
 10
40.92769159
 20
40.350227803
 30
0.0
 10
40.679447441
 20
41.5071319173
 30
0.0
 10
40.3146879825
 20
42.6829930839
 30
0.0
 10
39.8401234451
 20
43.8562818574
 30
0.0
 10
39.2644795988
 20
45.0054390375
 30
0.0
 10
38.5983460226
 20
46.1092983666
 30
0.0
 10
37.8539995151
 20
47.1475517592
 30
0.0
 10
37.0451355524
 20
48.1010385385
 30
0.0
 10
36.1865552971
 20
48.9523994558
 30
0.0
 10
35.2940586437
 20
49.6857542281
 30
0.0
 10
34.6673385057
 20
50.100263437
 30
0.0
 10
34.3521945382
 20
50.2822077754
 30
0.0
  0
LINE
  5
2C9
100
AcDbEntity
  8
0
100
AcDbLine
 62
7
  6
CONTINUOUS
 10
24.1262251241
 20
29.6223776908
 11
23.7188634678
 21
29.8400298825
  0
SPLINE
  5
2CA
100
AcDbEntity
  8
0
100
AcDbSpline
 62
7
  6
CONTINUOUS
 70
0
 71
3
 72
13
 73
9
 74
0
 42
0.0000001
 43
0.0000001
 44
0.0000000001
 40
0.0
 40
0.0
 40
0.0
 40
0.0
 40
0.111758832
 40
0.2250286891
 40
0.341201296
 40
0.4615123863
 40
0.7180616292
 40
1.0
 40
1.0
 40
1.0
 40
1.0
 10
24.0604427775
 20
9.0141947398
 30
0.0
 10
24.0138215717
 20
8.9872723267
 30
0.0
 10
23.9158830377
 20
8.9397896882
 30
0.0
 10
23.7588289617
 20
8.8896348571
 30
0.0
 10
23.5923613383
 20
8.8605481119
 30
0.0
 10
23.3545258885
 20
8.8499594635
 30
0.0
 10
23.0374247754
 20
8.8935934159
 30
0.0
 10
22.7908707704
 20
8.9788769593
 30
0.0
 10
22.6663045614
 20
9.0329971456
 30
0.0
  0
SPLINE
  5
2CB
100
AcDbEntity
  8
0
100
AcDbSpline
 62
7
  6
CONTINUOUS
 70
0
 71
3
 72
10
 73
6
 74
0
 42
0.0000001
 43
0.0000001
 44
0.0000000001
 40
0.0
 40
0.0
 40
0.0
 40
0.0
 40
0.524581062
 40
0.77227745
 40
1.0
 40
1.0
 40
1.0
 40
1.0
 10
24.3845513513
 20
29.4557034984
 30
0.0
 10
24.3779810414
 20
29.4677860311
 30
0.0
 10
24.3661024172
 20
29.4845330273
 30
0.0
 10
24.3471476896
 20
29.5026869428
 30
0.0
 10
24.3369714273
 20
29.5100485778
 30
0.0
 10
24.3317249128
 20
29.5128981179
 30
0.0
  0
SPLINE
  5
2CC
100
AcDbEntity
  8
0
100
AcDbSpline
 62
7
  6
CONTINUOUS
 70
0
 71
3
 72
9
 73
5
 74
0
 42
0.0000001
 43
0.0000001
 44
0.0000000001
 40
0.0
 40
0.0
 40
0.0
 40
0.0
 40
0.4896466046
 40
1.0
 40
1.0
 40
1.0
 40
1.0
 10
6.2371607913
 20
39.6203918679
 30
0.0
 10
6.2371796366
 20
39.6138759124
 30
0.0
 10
6.2400814709
 20
39.6004283307
 30
0.0
 10
6.2481387998
 20
39.5893632617
 30
0.0
 10
6.2530218206
 20
39.5846429748
 30
0.0
  0
SPLINE
  5
2CD
100
AcDbEntity
  8
0
100
AcDbSpline
 62
7
  6
CONTINUOUS
 70
0
 71
3
 72
27
 73
23
 74
0
 42
0.0000001
 43
0.0000001
 44
0.0000000001
 40
0.0
 40
0.0
 40
0.0
 40
0.0
 40
0.134035382
 40
0.2666919588
 40
0.3323973138
 40
0.3976111865
 40
0.46225952
 40
0.5262486405
 40
0.5894580899
 40
0.6517292376
 40
0.7128485125
 40
0.7725245369
 40
0.8017131313
 40
0.8303937308
 40
0.8585168084
 40
0.8860644831
 40
0.9131247988
 40
0.9400947245
 40
0.9539050128
 40
0.9682455047
 40
0.9834812387
 40
1.0
 40
1.0
 40
1.0
 40
1.0
 10
18.3038464758
 20
50.9240667289
 30
0.0
 10
18.4726515375
 20
51.0807192975
 30
0.0
 10
18.8060101018
 20
51.3951386752
 30
0.0
 10
19.2135921732
 20
51.7952733736
 30
0.0
 10
19.5304405533
 20
52.1188563654
 30
0.0
 10
19.7618410328
 20
52.3625172849
 30
0.0
 10
19.9868294926
 20
52.6081343619
 30
0.0
 10
20.2041928079
 20
52.8559752346
 30
0.0
 10
20.4123063259
 20
53.1063623127
 30
0.0
 10
20.6089303356
 20
53.3597007789
 30
0.0
 10
20.7907804172
 20
53.6164784796
 30
0.0
 10
20.9270099785
 20
53.8355385898
 30
0.0
 10
21.0219603859
 20
54.0138777372
 30
0.0
 10
21.0839488977
 20
54.1481039868
 30
0.0
 10
21.1350156425
 20
54.2839122308
 30
0.0
 10
21.171890567
 20
54.4215172517
 30
0.0
 10
21.1896323873
 20
54.5610973415
 30
0.0
 10
21.1813347094
 20
54.6786093534
 30
0.0
 10
21.1550444946
 20
54.7699522344
 30
0.0
 10
21.1229449909
 20
54.8376465126
 30
0.0
 10
21.0765525644
 20
54.9023599633
 30
0.0
 10
21.0369605971
 20
54.9403948613
 30
0.0
 10
21.0149562225
 20
54.9583206645
 30
0.0
  0
SPLINE
  5
2CE
100
AcDbEntity
  8
0
100
AcDbSpline
 62
7
  6
CONTINUOUS
 70
0
 71
3
 72
39
 73
35
 74
0
 42
0.0000001
 43
0.0000001
 44
0.0000000001
 40
0.0
 40
0.0
 40
0.0
 40
0.0
 40
0.0015900489
 40
0.0030856847
 40
0.0045959663
 40
0.0060919272
 40
0.0075955756
 40
0.0091296697
 40
0.0123163764
 40
0.0156036222
 40
0.0189322937
 40
0.025727758
 40
0.0326807822
 40
0.0397531232
 40
0.0469010818
 40
0.0541035097
 40
0.0686480207
 40
0.0833478921
 40
0.1130841596
 40
0.1431208755
 40
0.1733937894
 40
0.2038566877
 40
0.2344692114
 40
0.2652208593
 40
0.2961006064
 40
0.3582093442
 40
0.4207391553
 40
0.4836492471
 40
0.5469278534
 40
0.6105711503
 40
0.6745752448
 40
0.7389378696
 40
0.8687397549
 40
1.0
 40
1.0
 40
1.0
 40
1.0
 10
18.3022589788
 20
50.9225698724
 30
0.0
 10
18.2999360976
 20
50.9204141405
 30
0.0
 10
18.2963306523
 20
50.9150678379
 30
0.0
 10
18.2951469338
 20
50.9058014045
 30
0.0
 10
18.2960309779
 20
50.8968535016
 30
0.0
 10
18.2978601443
 20
50.888034901
 30
0.0
 10
18.3006752955
 20
50.8794317228
 30
0.0
 10
18.3055749682
 20
50.868020522
 30
0.0
 10
18.313426056
 20
50.8540841288
 30
0.0
 10
18.3241513473
 20
50.8377522066
 30
0.0
 10
18.3395464423
 20
50.815894238
 30
0.0
 10
18.3605855373
 20
50.7891117068
 30
0.0
 10
18.3877632523
 20
50.7577388603
 30
0.0
 10
18.4165323255
 20
50.7268580455
 30
0.0
 10
18.4462193928
 20
50.6961694516
 30
0.0
 10
18.4868183269
 20
50.6553230027
 30
0.0
 10
18.5389665704
 20
50.6047450569
 30
0.0
 10
18.6248368179
 20
50.5244592185
 30
0.0
 10
18.7352652674
 20
50.4252634339
 30
0.0
 10
18.8702079271
 20
50.3069443926
 30
0.0
 10
19.0074162229
 20
50.1890244765
 30
0.0
 10
19.146273889
 20
50.0712724353
 30
0.0
 10
19.2862706837
 20
49.9533903287
 30
0.0
 10
19.4273153254
 20
49.8354646139
 30
0.0
 10
19.6169258951
 20
49.6777621166
 30
0.0
 10
19.8558362357
 20
49.4802887152
 30
0.0
 10
20.1445256898
 20
49.2428405056
 30
0.0
 10
20.4352578165
 20
49.0042056754
 30
0.0
 10
20.727932458
 20
48.7644398051
 30
0.0
 10
21.0225210831
 20
48.5235698924
 30
0.0
 10
21.3190020044
 20
48.2816013636
 30
0.0
 10
21.7179435158
 20
47.9566355518
 30
0.0
 10
22.2214739598
 20
47.5478228396
 30
0.0
 10
22.6263206105
 20
47.2209805621
 30
0.0
 10
22.8302921398
 20
47.0571661893
 30
0.0
  0
SPLINE
  5
2CF
100
AcDbEntity
  8
0
100
AcDbSpline
 62
7
  6
CONTINUOUS
 70
0
 71
3
 72
9
 73
5
 74
0
 42
0.0000001
 43
0.0000001
 44
0.0000000001
 40
0.0
 40
0.0
 40
0.0
 40
0.0
 40
0.4773925827
 40
1.0
 40
1.0
 40
1.0
 40
1.0
 10
7.1068830513
 20
55.7632962435
 30
0.0
 10
7.2720583939
 20
55.7517112541
 30
0.0
 10
7.6169173263
 20
55.7063311601
 30
0.0
 10
7.9525221262
 20
55.6120824797
 30
0.0
 10
8.1222646228
 20
55.5484900792
 30
0.0
  0
SPLINE
  5
2D0
100
AcDbEntity
  8
0
100
AcDbSpline
 62
7
  6
CONTINUOUS
 70
0
 71
3
 72
21
 73
17
 74
0
 42
0.0000001
 43
0.0000001
 44
0.0000000001
 40
0.0
 40
0.0
 40
0.0
 40
0.0
 40
0.1203910367
 40
0.2415615448
 40
0.3636963743
 40
0.4870632967
 40
0.6120736096
 40
0.675393367
 40
0.7394045723
 40
0.8042507228
 40
0.8370321621
 40
0.8700530182
 40
0.9032627889
 40
0.9364773328
 40
0.9691590822
 40
1.0
 40
1.0
 40
1.0
 40
1.0
 10
13.9441414518
 20
53.4410866555
 30
0.0
 10
14.2136404807
 20
53.5414800627
 30
0.0
 10
14.7554596132
 20
53.7400471769
 30
0.0
 10
15.5749607913
 20
54.0286278529
 30
0.0
 10
16.4057250576
 20
54.3063614063
 30
0.0
 10
17.2508602331
 20
54.5695012708
 30
0.0
 10
17.9679690429
 20
54.7705575076
 30
0.0
 10
18.5534011868
 20
54.9144472262
 30
0.0
 10
19.0022074661
 20
55.0113274
 30
0.0
 10
19.3826472109
 20
55.0782890341
 30
0.0
 10
19.6920902183
 20
55.119259626
 30
0.0
 10
19.9276092175
 20
55.1417484734
 30
0.0
 10
20.1650055093
 20
55.1530287867
 30
0.0
 10
20.4019851468
 20
55.1486748842
 30
0.0
 10
20.6319408961
 20
55.1223569569
 30
0.0
 10
20.7796464786
 20
55.0826754103
 30
0.0
 10
20.8478428961
 20
55.0548014058
 30
0.0
  0
SPLINE
  5
2D1
100
AcDbEntity
  8
0
100
AcDbSpline
 62
7
  6
CONTINUOUS
 70
0
 71
3
 72
36
 73
32
 74
0
 42
0.0000001
 43
0.0000001
 44
0.0000000001
 40
0.0
 40
0.0
 40
0.0
 40
0.0
 40
0.1189762574
 40
0.2395279698
 40
0.3003583913
 40
0.361545568
 40
0.4230832041
 40
0.4849670221
 40
0.5471927005
 40
0.6097644501
 40
0.6727165441
 40
0.7043493179
 40
0.7360964317
 40
0.7679671613
 40
0.7999698009
 40
0.8321413117
 40
0.8645223397
 40
0.880804539
 40
0.8971676008
 40
0.913637925
 40
0.9302426394
 40
0.9470123434
 40
0.9554831427
 40
0.9640518709
 40
0.972741582
 40
0.9771396158
 40
0.981589861
 40
0.9860867797
 40
0.9906428674
 40
0.9954062297
 40
1.0
 40
1.0
 40
1.0
 40
1.0
 10
8.1224098293
 20
55.5485739137
 30
0.0
 10
8.3525778288
 20
55.462343628
 30
0.0
 10
8.8160512576
 20
55.2889805086
 30
0.0
 10
9.3969865354
 20
55.0709445843
 30
0.0
 10
9.8659347581
 20
54.8942878075
 30
0.0
 10
10.2206704038
 20
54.7602824045
 30
0.0
 10
10.5773144782
 20
54.6251713432
 30
0.0
 10
10.9358411058
 20
54.4889741117
 30
0.0
 10
11.2962410313
 20
54.3516927099
 30
0.0
 10
11.6585867249
 20
54.2133201728
 30
0.0
 10
11.9619215435
 20
54.0975775598
 30
0.0
 10
12.2058668398
 20
54.004816144
 30
0.0
 10
12.3898759913
 20
53.9350913734
 30
0.0
 10
12.5747281853
 20
53.865436004
 30
0.0
 10
12.7605261152
 20
53.7958044245
 30
0.0
 10
12.9475992508
 20
53.7265745741
 30
0.0
 10
13.1045774686
 20
53.6696042128
 30
0.0
 10
13.2311300024
 20
53.6245392521
 30
0.0
 10
13.3269187413
 20
53.5910696759
 30
0.0
 10
13.4236325191
 20
53.5582366529
 30
0.0
 10
13.5215285646
 20
53.5262931553
 30
0.0
 10
13.6040944522
 20
53.5006656557
 30
0.0
 10
13.6711293329
 20
53.4810400994
 30
0.0
 10
13.7224493111
 20
53.4671826237
 30
0.0
 10
13.7659403309
 20
53.4566517415
 30
0.0
 10
13.801363668
 20
53.4490389554
 30
0.0
 10
13.8284093993
 20
53.4436712505
 30
0.0
 10
13.8559276846
 20
53.4390910165
 30
0.0
 10
13.8843759874
 20
53.4361348989
 30
0.0
 10
13.9129861043
 20
53.435178607
 30
0.0
 10
13.9326930252
 20
53.4368358284
 30
0.0
 10
13.9415862197
 20
53.440148599
 30
0.0
  0
SPLINE
  5
2D2
100
AcDbEntity
  8
0
100
AcDbSpline
 62
7
  6
CONTINUOUS
 70
0
 71
3
 72
27
 73
23
 74
0
 42
0.0000001
 43
0.0000001
 44
0.0000000001
 40
0.0
 40
0.0
 40
0.0
 40
0.0
 40
0.1242378151
 40
0.2484714806
 40
0.3727171979
 40
0.497005094
 40
0.5591769055
 40
0.621372069
 40
0.6836100472
 40
0.7459227151
 40
0.8083394442
 40
0.8396154503
 40
0.8709645774
 40
0.9024124694
 40
0.9340149849
 40
0.9499345954
 40
0.9659761422
 40
0.9740840134
 40
0.9822799485
 40
0.9864228919
 40
0.9907322708
 40
1.0
 40
1.0
 40
1.0
 40
1.0
 10
15.5942990467
 20
27.3726581366
 30
0.0
 10
15.5589831698
 20
27.3930473914
 30
0.0
 10
15.4884357364
 20
27.4339694187
 30
0.0
 10
15.3828635615
 20
27.4957860428
 30
0.0
 10
15.2775385486
 20
27.5580552286
 30
0.0
 10
15.1899855222
 20
27.6103554343
 30
0.0
 10
15.1200823333
 20
27.6524848797
 30
0.0
 10
15.0677111889
 20
27.6842472308
 30
0.0
 10
15.0154027807
 20
27.716201694
 30
0.0
 10
14.9631653426
 20
27.7484108528
 30
0.0
 10
14.9197082536
 20
27.7754959405
 30
0.0
 10
14.8849987748
 20
27.797399965
 30
0.0
 10
14.8589683461
 20
27.8140096669
 30
0.0
 10
14.8329632536
 20
27.8308563679
 30
0.0
 10
14.8113208215
 20
27.8451236329
 30
0.0
 10
14.7940924223
 20
27.8568914935
 30
0.0
 10
14.7833000305
 20
27.864409936
 30
0.0
 10
14.7747618269
 20
27.8707228155
 30
0.0
 10
14.7694816883
 20
27.8748646258
 30
0.0
 10
14.7650081714
 20
27.8780138782
 30
0.0
 10
14.7608894735
 20
27.8821873025
 30
0.0
 10
14.7589264301
 20
27.8863109374
 30
0.0
 10
14.7578523812
 20
27.8891570021
 30
0.0
  0
SPLINE
  5
2D3
100
AcDbEntity
  8
0
100
AcDbSpline
 62
7
  6
CONTINUOUS
 70
0
 71
3
 72
11
 73
7
 74
0
 42
0.0000001
 43
0.0000001
 44
0.0000000001
 40
0.0
 40
0.0
 40
0.0
 40
0.0
 40
0.241665749
 40
0.4994419338
 40
0.75658082
 40
1.0
 40
1.0
 40
1.0
 40
1.0
 10
24.0475621995
 20
29.3111927144
 30
0.0
 10
24.057652146
 20
29.3078880637
 30
0.0
 10
24.0796386044
 20
29.304393998
 30
0.0
 10
24.1130394207
 20
29.3070807261
 30
0.0
 10
24.1450420713
 20
29.317411551
 30
0.0
 10
24.1639943048
 20
29.3290088155
 30
0.0
 10
24.1724211728
 20
29.3355934478
 30
0.0
  0
SPLINE
  5
2D4
100
AcDbEntity
  8
0
100
AcDbSpline
 62
7
  6
CONTINUOUS
 70
0
 71
3
 72
11
 73
7
 74
0
 42
0.0000001
 43
0.0000001
 44
0.0000000001
 40
0.0
 40
0.0
 40
0.0
 40
0.0
 40
0.2232076304
 40
0.4629546717
 40
0.7216907679
 40
1.0
 40
1.0
 40
1.0
 40
1.0
 10
30.1523342888
 20
50.9060493406
 30
0.0
 10
30.42004253
 20
50.9320311364
 30
0.0
 10
30.9819390959
 20
50.9275490596
 30
0.0
 10
31.8402079274
 20
50.7662698755
 30
0.0
 10
32.7261937415
 20
50.4548984562
 30
0.0
 10
33.3051940855
 20
50.1617473924
 30
0.0
 10
33.5956292445
 20
49.9940683685
 30
0.0
  0
SPLINE
  5
2D5
100
AcDbEntity
  8
0
100
AcDbSpline
 62
7
  6
CONTINUOUS
 70
0
 71
3
 72
9
 73
5
 74
0
 42
0.0000001
 43
0.0000001
 44
0.0000000001
 40
0.0
 40
0.0
 40
0.0
 40
0.0
 40
0.2441854302
 40
1.0
 40
1.0
 40
1.0
 40
1.0
 10
16.0964328629
 20
32.6256202614
 30
0.0
 10
16.7194281912
 20
32.3029627956
 30
0.0
 10
19.2991317384
 20
31.0367780693
 30
0.0
 10
21.9842502023
 20
29.9883882685
 30
0.0
 10
24.0475621995
 20
29.3111927144
 30
0.0
  0
SPLINE
  5
2D6
100
AcDbEntity
  8
0
100
AcDbSpline
 62
7
  6
CONTINUOUS
 70
0
 71
3
 72
15
 73
11
 74
0
 42
0.0000001
 43
0.0000001
 44
0.0000000001
 40
0.0
 40
0.0
 40
0.0
 40
0.0
 40
0.1179779394
 40
0.2433546969
 40
0.373637183
 40
0.506051039
 40
0.6376354881
 40
0.7654873334
 40
0.8870041797
 40
1.0
 40
1.0
 40
1.0
 40
1.0
 10
8.1750123417
 20
17.4072662442
 30
0.0
 10
8.0280686823
 20
17.5095936152
 30
0.0
 10
7.7404031582
 20
17.7433544426
 30
0.0
 10
7.3468897405
 20
18.1533461536
 30
0.0
 10
6.9884037102
 20
18.6221845825
 30
0.0
 10
6.6767282364
 20
19.1343233897
 30
0.0
 10
6.4221255856
 20
19.6730411839
 30
0.0
 10
6.2328535164
 20
20.2207101717
 30
0.0
 10
6.1152412703
 20
20.7592964101
 30
0.0
 10
6.0859619513
 20
21.1155386827
 30
0.0
 10
6.0859619498
 20
21.2870393777
 30
0.0
  0
SPLINE
  5
2D7
100
AcDbEntity
  8
0
100
AcDbSpline
 62
7
  6
CONTINUOUS
 70
0
 71
3
 72
11
 73
7
 74
0
 42
0.0000001
 43
0.0000001
 44
0.0000000001
 40
0.0
 40
0.0
 40
0.0
 40
0.0
 40
0.2377088643
 40
0.4837687496
 40
0.7379723882
 40
1.0
 40
1.0
 40
1.0
 40
1.0
 10
22.6663045614
 20
9.0329971456
 30
0.0
 10
21.4440133733
 20
9.5543235026
 30
0.0
 10
18.9908461612
 20
10.6974455606
 30
0.0
 10
15.3612677816
 20
12.662904554
 30
0.0
 10
11.7324700617
 20
14.9008105724
 30
0.0
 10
9.3585004565
 20
16.5441853418
 30
0.0
 10
8.1750123417
 20
17.4072662442
 30
0.0
  0
SPLINE
  5
2D8
100
AcDbEntity
  8
0
100
AcDbSpline
 62
7
  6
CONTINUOUS
 70
0
 71
3
 72
24
 73
20
 74
0
 42
0.0000001
 43
0.0000001
 44
0.0000000001
 40
0.0
 40
0.0
 40
0.0
 40
0.0
 40
0.0163374229
 40
0.034054669
 40
0.0521885715
 40
0.0704382439
 40
0.1067577589
 40
0.1426412367
 40
0.1780697347
 40
0.2130488389
 40
0.281900601
 40
0.3495099208
 40
0.4159382938
 40
0.4812047342
 40
0.545286276
 40
0.6695644001
 40
0.787832893
 40
0.8986421523
 40
1.0
 40
1.0
 40
1.0
 40
1.0
 10
26.5047767302
 20
9.7875036025
 30
0.0
 10
26.4945860276
 20
9.7810674313
 30
0.0
 10
26.4746597422
 20
9.765578315
 30
0.0
 10
26.4470341172
 20
9.7387080629
 30
0.0
 10
26.4206515216
 20
9.7087118386
 30
0.0
 10
26.3876145839
 20
9.6664352781
 30
0.0
 10
26.3493297626
 20
9.6117370863
 30
0.0
 10
26.3060144919
 20
9.5451821598
 30
0.0
 10
26.2644670825
 20
9.4786718502
 30
0.0
 10
26.2112021842
 20
9.3908175021
 30
0.0
 10
26.1463009471
 20
9.2822578183
 30
0.0
 10
26.0687526558
 20
9.1542282385
 30
0.0
 10
25.9913087854
 20
9.0292344058
 30
0.0
 10
25.9135056901
 20
8.9075382827
 30
0.0
 10
25.8100887249
 20
8.7515927067
 30
0.0
 10
25.6799413424
 20
8.566488668
 30
0.0
 10
25.5210956413
 20
8.3596733685
 30
0.0
 10
25.3636332413
 20
8.1734473231
 30
0.0
 10
25.2562270216
 20
8.0594401272
 30
0.0
 10
25.2032091447
 20
8.0067075438
 30
0.0
  0
SPLINE
  5
2D9
100
AcDbEntity
  8
0
100
AcDbSpline
 62
7
  6
CONTINUOUS
 70
0
 71
3
 72
9
 73
5
 74
0
 42
0.0000001
 43
0.0000001
 44
0.0000000001
 40
0.0
 40
0.0
 40
0.0
 40
0.0
 40
0.4916495601
 40
1.0
 40
1.0
 40
1.0
 40
1.0
 10
6.2530218206
 20
39.5846429748
 30
0.0
 10
7.1721368257
 20
38.6976975915
 30
0.0
 10
9.1387152513
 20
36.9922512459
 30
0.0
 10
11.2625572002
 20
35.4885815244
 30
0.0
 10
12.3737570952
 20
34.7748594957
 30
0.0
  0
SPLINE
  5
2DA
100
AcDbEntity
  8
0
100
AcDbSpline
 62
7
  6
CONTINUOUS
 70
0
 71
3
 72
17
 73
13
 74
0
 42
0.0000001
 43
0.0000001
 44
0.0000000001
 40
0.0
 40
0.0
 40
0.0
 40
0.0
 40
0.055832229
 40
0.1142208212
 40
0.2373715644
 40
0.3669994131
 40
0.5000010808
 40
0.633002598
 40
0.7626300073
 40
0.8857800581
 40
0.9441682286
 40
1.0
 40
1.0
 40
1.0
 40
1.0
 10
11.9065902209
 20
44.1079817108
 30
0.0
 10
11.9065902209
 20
43.9826550288
 30
0.0
 10
11.917762814
 20
43.7261645386
 30
0.0
 10
11.9818313333
 20
43.1967943939
 30
0.0
 10
12.1406245421
 20
42.5142293959
 30
0.0
 10
12.44025605
 20
41.6997010865
 30
0.0
 10
12.8413505492
 20
40.9052199558
 30
0.0
 10
13.3288471367
 20
40.160624496
 30
0.0
 10
13.8844352605
 20
39.4938769603
 30
0.0
 10
14.3961578085
 20
39.0150811108
 30
0.0
 10
14.8225712388
 20
38.6949165281
 30
0.0
 10
15.0391118101
 20
38.5569985439
 30
0.0
 10
15.1476476247
 20
38.4943367798
 30
0.0
  0
SPLINE
  5
2DB
100
AcDbEntity
  8
0
100
AcDbSpline
 62
7
  6
CONTINUOUS
 70
0
 71
3
 72
23
 73
19
 74
0
 42
0.0000001
 43
0.0000001
 44
0.0000000001
 40
0.0
 40
0.0
 40
0.0
 40
0.0
 40
0.0742621366
 40
0.1447486562
 40
0.2113682811
 40
0.2743197451
 40
0.3339950298
 40
0.3909671252
 40
0.4459917389
 40
0.4999980315
 40
0.5540044151
 40
0.6090292934
 40
0.666001804
 40
0.7256776218
 40
0.7886297016
 40
0.8552499907
 40
0.9257371919
 40
1.0
 40
1.0
 40
1.0
 40
1.0
 10
15.1476476247
 20
38.4943367798
 30
0.0
 10
15.2509818132
 20
38.4346781078
 30
0.0
 10
15.4573646586
 20
38.3266850072
 30
0.0
 10
15.7721401593
 20
38.1977812218
 30
0.0
 10
16.0813764417
 20
38.1076547457
 30
0.0
 10
16.3820229648
 20
38.0572017821
 30
0.0
 10
16.6713383277
 20
38.0471984919
 30
0.0
 10
16.9465408542
 20
38.0778270863
 30
0.0
 10
17.2047501046
 20
38.1492992876
 30
0.0
 10
17.4431617336
 20
38.2608741295
 30
0.0
 10
17.658990786
 20
38.4115628499
 30
0.0
 10
17.8499885623
 20
38.5994479094
 30
0.0
 10
18.0141112655
 20
38.8224711036
 30
0.0
 10
18.1501020932
 20
39.0780320156
 30
0.0
 10
18.2567280458
 20
39.3636305124
 30
0.0
 10
18.3332906262
 20
39.6765043667
 30
0.0
 10
18.3790407271
 20
40.0135635965
 30
0.0
 10
18.3887050284
 20
40.2462951981
 30
0.0
 10
18.3887050284
 20
40.3656156453
 30
0.0
  0
SPLINE
  5
2DC
100
AcDbEntity
  8
0
100
AcDbSpline
 62
7
  6
CONTINUOUS
 70
0
 71
3
 72
34
 73
30
 74
0
 42
0.0000001
 43
0.0000001
 44
0.0000000001
 40
0.0
 40
0.0
 40
0.0
 40
0.0
 40
0.1223966521
 40
0.2450429113
 40
0.3064788622
 40
0.3680037339
 40
0.4296310952
 40
0.4913783744
 40
0.5532686275
 40
0.6153334402
 40
0.6776181601
 40
0.7088633159
 40
0.7401922903
 40
0.7716211381
 40
0.8031718478
 40
0.8348758749
 40
0.8667811532
 40
0.8828323021
 40
0.8989677629
 40
0.9152088875
 40
0.9315878225
 40
0.9481569742
 40
0.9565402671
 40
0.9650132533
 40
0.9736056113
 40
0.9823636006
 40
0.9913382659
 40
0.9958554566
 40
1.0
 40
1.0
 40
1.0
 40
1.0
 10
26.5047754615
 20
9.7875027998
 30
0.0
 10
26.7096101935
 20
9.9168717427
 30
0.0
 10
27.11931654
 20
10.176477156
 30
0.0
 10
27.6305792697
 20
10.5029992829
 30
0.0
 10
28.0394121153
 20
10.766046849
 30
0.0
 10
28.3461659972
 20
10.9645302788
 30
0.0
 10
28.6528496345
 20
11.1642539765
 30
0.0
 10
28.959448254
 20
11.3654299204
 30
0.0
 10
29.2659425404
 20
11.5683383702
 30
0.0
 10
29.5723054324
 20
11.7733648776
 30
0.0
 10
29.8271844976
 20
11.9462502052
 30
0.0
 10
30.0308586021
 20
12.086235894
 30
0.0
 10
30.1836907575
 20
12.1923644541
 30
0.0
 10
30.3364086932
 20
12.2997130779
 30
0.0
 10
30.4889804661
 20
12.4085539742
 30
0.0
 10
30.6413585786
 20
12.5192790829
 30
0.0
 10
30.7678563729
 20
12.6134177868
 30
0.0
 10
30.868720881
 20
12.6903626298
 30
0.0
 10
30.9443627601
 20
12.7492443536
 30
0.0
 10
31.0197865587
 20
12.8094530028
 30
0.0
 10
31.0948975437
 20
12.8714118477
 30
0.0
 10
31.1568477405
 20
12.9248619592
 30
0.0
 10
31.2058259618
 20
12.9693489764
 30
0.0
 10
31.2423360021
 20
13.004056481
 30
0.0
 10
31.2782806744
 20
13.0404306237
 30
0.0
 10
31.3130602593
 20
13.0792088629
 30
0.0
 10
31.3398451345
 20
13.1144588978
 30
0.0
 10
31.3564052234
 20
13.1451652026
 30
0.0
 10
31.3612607487
 20
13.1621361357
 30
0.0
 10
31.3612608201
 20
13.1703396982
 30
0.0
  0
SPLINE
  5
2DD
100
AcDbEntity
  8
0
100
AcDbSpline
 62
7
  6
CONTINUOUS
 70
0
 71
3
 72
34
 73
30
 74
0
 42
0.0000001
 43
0.0000001
 44
0.0000000001
 40
0.0
 40
0.0
 40
0.0
 40
0.0
 40
0.0325389713
 40
0.0665677874
 40
0.1383399251
 40
0.2138869138
 40
0.291400161
 40
0.3689133206
 40
0.4444600531
 40
0.4809385848
 40
0.5162715066
 40
0.5502840916
 40
0.5828388816
 40
0.6138342387
 40
0.6432225234
 40
0.6710094504
 40
0.6972743868
 40
0.722169611
 40
0.7459352227
 40
0.7688891328
 40
0.7914186327
 40
0.8139480289
 40
0.8369022437
 40
0.8606689548
 40
0.8855633822
 40
0.9118245383
 40
0.9396159311
 40
0.9690204479
 40
1.0
 40
1.0
 40
1.0
 40
1.0
 10
18.3887050284
 20
40.3656156453
 30
0.0
 10
18.3887050284
 20
40.4909423296
 30
0.0
 10
18.3775323989
 20
40.7474328459
 30
0.0
 10
18.3134640157
 20
41.2768028173
 30
0.0
 10
18.1546699409
 20
41.9593692482
 30
0.0
 10
17.8550421698
 20
42.7738912472
 30
0.0
 10
17.4539333368
 20
43.5683966208
 30
0.0
 10
16.9664900184
 20
44.3129019754
 30
0.0
 10
16.497955233
 20
44.8752579557
 30
0.0
 10
16.0948356679
 20
45.2752684397
 30
0.0
 10
15.7869015222
 20
45.5428041767
 30
0.0
 10
15.4727648777
 20
45.778675716
 30
0.0
 10
15.155465623
 20
45.9807468932
 30
0.0
 10
14.8379007991
 20
46.1469572798
 30
0.0
 10
14.5231063686
 20
46.2758290872
 30
0.0
 10
14.2139304248
 20
46.3659161828
 30
0.0
 10
13.9132847317
 20
46.4163981098
 30
0.0
 10
13.6239524847
 20
46.4264092666
 30
0.0
 10
13.3487516988
 20
46.3957679103
 30
0.0
 10
13.0905473862
 20
46.3242946738
 30
0.0
 10
12.8521337178
 20
46.2127242074
 30
0.0
 10
12.6363035404
 20
46.0620353473
 30
0.0
 10
12.4453068092
 20
45.8741492013
 30
0.0
 10
12.28118428
 20
45.6511260902
 30
0.0
 10
12.1451930934
 20
45.3955653757
 30
0.0
 10
12.0385671235
 20
45.1099668697
 30
0.0
 10
11.9620046425
 20
44.7970929893
 30
0.0
 10
11.9162545371
 20
44.4600337572
 30
0.0
 10
11.9065902209
 20
44.2273021559
 30
0.0
 10
11.9065902209
 20
44.1079817108
 30
0.0
  0
SPLINE
  5
2DE
100
AcDbEntity
  8
0
100
AcDbSpline
 62
7
  6
CONTINUOUS
 70
0
 71
3
 72
23
 73
19
 74
0
 42
0.0000001
 43
0.0000001
 44
0.0000000001
 40
0.0
 40
0.0
 40
0.0
 40
0.0
 40
0.0742391488
 40
0.1447471664
 40
0.2113720743
 40
0.2743221502
 40
0.3339980683
 40
0.3909702698
 40
0.445994853
 40
0.5000019776
 40
0.5540090108
 40
0.6090333294
 40
0.6660051151
 40
0.7256805007
 40
0.788629961
 40
0.8552541922
 40
0.9257614998
 40
1.0
 40
1.0
 40
1.0
 40
1.0
 10
11.3735737386
 20
44.345326747
 30
0.0
 10
11.3738320337
 20
44.4819812639
 30
0.0
 10
11.3850062744
 20
44.7485741612
 30
0.0
 10
11.4369990887
 20
45.1347841769
 30
0.0
 10
11.524677356
 20
45.4932930122
 30
0.0
 10
11.6469520592
 20
45.8204462182
 30
0.0
 10
11.8027568019
 20
46.1132123022
 30
0.0
 10
11.9907563465
 20
46.3687351297
 30
0.0
 10
12.2095725734
 20
46.5839850324
 30
0.0
 10
12.4568413979
 20
46.7566137311
 30
0.0
 10
12.7299730463
 20
46.8844470306
 30
0.0
 10
13.0257897528
 20
46.9663291261
 30
0.0
 10
13.3410758321
 20
47.001386711
 30
0.0
 10
13.672518446
 20
46.9899409579
 30
0.0
 10
14.0169764393
 20
46.9322635336
 30
0.0
 10
14.3712913071
 20
46.8289469138
 30
0.0
 10
14.7317539217
 20
46.6808752187
 30
0.0
 10
14.9682163196
 20
46.5572594666
 30
0.0
 10
15.0866912602
 20
46.489157441
 30
0.0
  0
SPLINE
  5
2DF
100
AcDbEntity
  8
0
100
AcDbSpline
 62
7
  6
CONTINUOUS
 70
0
 71
3
 72
19
 73
15
 74
0
 42
0.0000001
 43
0.0000001
 44
0.0000000001
 40
0.0
 40
0.0
 40
0.0
 40
0.0
 40
0.0558447519
 40
0.1142031423
 40
0.1748222347
 40
0.2374058214
 40
0.3670157096
 40
0.4999989387
 40
0.6329823154
 40
0.7625926346
 40
0.8251765262
 40
0.8857959914
 40
0.9441548159
 40
1.0
 40
1.0
 40
1.0
 40
1.0
 10
15.0866912602
 20
46.489157441
 30
0.0
 10
15.2109450265
 20
46.4171083122
 30
0.0
 10
15.4589704131
 20
46.2590812063
 30
0.0
 10
15.8190815723
 20
45.9891914352
 30
0.0
 10
16.1719067881
 20
45.6826870684
 30
0.0
 10
16.6336329152
 20
45.2243105929
 30
0.0
 10
17.1704588138
 20
44.5801071137
 30
0.0
 10
17.7288865713
 20
43.7271206811
 30
0.0
 10
18.1883854232
 20
42.8170160382
 30
0.0
 10
18.4778740096
 20
42.0300088577
 30
0.0
 10
18.6439811024
 20
41.4009523054
 30
0.0
 10
18.7330128105
 20
40.9421423513
 30
0.0
 10
18.7866928839
 20
40.4953293665
 30
0.0
 10
18.7995383698
 20
40.2015174036
 30
0.0
 10
18.7998090054
 20
40.0578848115
 30
0.0
  0
SPLINE
  5
2E0
100
AcDbEntity
  8
0
100
AcDbSpline
 62
7
  6
CONTINUOUS
 70
0
 71
3
 72
23
 73
19
 74
0
 42
0.0000001
 43
0.0000001
 44
0.0000000001
 40
0.0
 40
0.0
 40
0.0
 40
0.0
 40
0.0742391488
 40
0.1447471664
 40
0.2113720743
 40
0.2743221502
 40
0.3339980683
 40
0.3909702698
 40
0.445994853
 40
0.5000019776
 40
0.5540090108
 40
0.6090333294
 40
0.6660051151
 40
0.7256805007
 40
0.788629961
 40
0.8552541922
 40
0.9257614998
 40
1.0
 40
1.0
 40
1.0
 40
1.0
 10
18.7998090054
 20
40.0578848115
 30
0.0
 10
18.7995507103
 20
39.9212302946
 30
0.0
 10
18.7883764697
 20
39.6546373973
 30
0.0
 10
18.7363836553
 20
39.2684273816
 30
0.0
 10
18.6487053881
 20
38.9099185463
 30
0.0
 10
18.5264306849
 20
38.5827653403
 30
0.0
 10
18.3706259421
 20
38.2899992563
 30
0.0
 10
18.1826263975
 20
38.0344764288
 30
0.0
 10
17.9638101707
 20
37.8192265261
 30
0.0
 10
17.7165413461
 20
37.6465978274
 30
0.0
 10
17.4434096978
 20
37.5187645279
 30
0.0
 10
17.1475929913
 20
37.4368824324
 30
0.0
 10
16.832306912
 20
37.4018248475
 30
0.0
 10
16.5008642981
 20
37.4132706006
 30
0.0
 10
16.1564063048
 20
37.4709480249
 30
0.0
 10
15.802091437
 20
37.5742646447
 30
0.0
 10
15.4416288224
 20
37.7223363398
 30
0.0
 10
15.2051664244
 20
37.8459520919
 30
0.0
 10
15.0866914839
 20
37.9140541175
 30
0.0
  0
SPLINE
  5
2E1
100
AcDbEntity
  8
0
100
AcDbSpline
 62
7
  6
CONTINUOUS
 70
0
 71
3
 72
19
 73
15
 74
0
 42
0.0000001
 43
0.0000001
 44
0.0000000001
 40
0.0
 40
0.0
 40
0.0
 40
0.0
 40
0.0558447519
 40
0.1142031423
 40
0.1748222347
 40
0.2374058214
 40
0.3670157096
 40
0.4999989387
 40
0.6329823154
 40
0.7625926346
 40
0.8251765262
 40
0.8857959914
 40
0.9441548159
 40
1.0
 40
1.0
 40
1.0
 40
1.0
 10
15.0866914839
 20
37.9140541175
 30
0.0
 10
14.9624377175
 20
37.9861032463
 30
0.0
 10
14.714412331
 20
38.1441303522
 30
0.0
 10
14.3543011717
 20
38.4140201233
 30
0.0
 10
14.0014759559
 20
38.72052449
 30
0.0
 10
13.5397498289
 20
39.1789009656
 30
0.0
 10
13.0029239303
 20
39.8231044448
 30
0.0
 10
12.4444961728
 20
40.6760908774
 30
0.0
 10
11.9849973209
 20
41.5861955203
 30
0.0
 10
11.6955087345
 20
42.3732027008
 30
0.0
 10
11.5294016416
 20
43.0022592531
 30
0.0
 10
11.4403699335
 20
43.4610692072
 30
0.0
 10
11.3866898601
 20
43.907882192
 30
0.0
 10
11.3738443742
 20
44.2016941549
 30
0.0
 10
11.3735737386
 20
44.345326747
 30
0.0
  0
SPLINE
  5
2E2
100
AcDbEntity
  8
0
100
AcDbSpline
 62
7
  6
CONTINUOUS
 70
0
 71
3
 72
19
 73
15
 74
0
 42
0.0000001
 43
0.0000001
 44
0.0000000001
 40
0.0
 40
0.0
 40
0.0
 40
0.0
 40
0.1229916287
 40
0.2464553395
 40
0.370383624
 40
0.4947837913
 40
0.5571302825
 40
0.6195767643
 40
0.6822115398
 40
0.7451248806
 40
0.8081835558
 40
0.8710895494
 40
0.934279942
 40
1.0
 40
1.0
 40
1.0
 40
1.0
 10
12.3737860391
 20
34.7748427853
 30
0.0
 10
12.4253088798
 20
34.7405909289
 30
0.0
 10
12.5285482813
 20
34.6719496661
 30
0.0
 10
12.6837496044
 20
34.5688659579
 30
0.0
 10
12.8395999931
 20
34.46547891
 30
0.0
 10
12.9697934257
 20
34.3790307691
 30
0.0
 10
13.0743423412
 20
34.3098720826
 30
0.0
 10
13.1530563363
 20
34.2579747499
 30
0.0
 10
13.2318899513
 20
34.2057398397
 30
0.0
 10
13.3105790035
 20
34.1527349726
 30
0.0
 10
13.3892634688
 20
34.0994778102
 30
0.0
 10
13.4689132204
 20
34.0474134075
 30
0.0
 10
13.550337157
 20
33.995641522
 30
0.0
 10
13.6022459708
 20
33.9564992088
 30
0.0
 10
13.6272269253
 20
33.9348454786
 30
0.0
  0
SPLINE
  5
2E3
100
AcDbEntity
  8
0
100
AcDbSpline
 62
7
  6
CONTINUOUS
 70
0
 71
3
 72
23
 73
19
 74
0
 42
0.0000001
 43
0.0000001
 44
0.0000000001
 40
0.0
 40
0.0
 40
0.0
 40
0.0
 40
0.0742623836
 40
0.1447494043
 40
0.211369259
 40
0.2743205812
 40
0.3339956346
 40
0.3909675313
 40
0.4459919519
 40
0.4999980492
 40
0.5540042371
 40
0.6090289209
 40
0.6660012305
 40
0.7256768155
 40
0.7886287493
 40
0.8552492583
 40
0.925736949
 40
1.0
 40
1.0
 40
1.0
 40
1.0
 10
15.0866914871
 20
37.7924927348
 30
0.0
 10
15.2084329374
 20
37.7222068657
 30
0.0
 10
15.4515802695
 20
37.5949770453
 30
0.0
 10
15.8224285919
 20
37.4431118331
 30
0.0
 10
16.1867504771
 20
37.3369322854
 30
0.0
 10
16.540951104
 20
37.2774944616
 30
0.0
 10
16.8818010231
 20
37.2657113619
 30
0.0
 10
17.2060237879
 20
37.3017975065
 30
0.0
 10
17.5102264068
 20
37.3860014218
 30
0.0
 10
17.7911047695
 20
37.5174512511
 30
0.0
 10
18.0453788077
 20
37.6949807692
 30
0.0
 10
18.2703985935
 20
37.9163323689
 30
0.0
 10
18.4637571115
 20
38.179080475
 30
0.0
 10
18.6239731525
 20
38.4801623863
 30
0.0
 10
18.7495943413
 20
38.8166333056
 30
0.0
 10
18.8397966616
 20
39.1852399207
 30
0.0
 10
18.893697323
 20
39.5823409739
 30
0.0
 10
18.905083943
 20
39.8565302891
 30
0.0
 10
18.9050839384
 20
39.9971056756
 30
0.0
  0
SPLINE
  5
2E4
100
AcDbEntity
  8
0
100
AcDbSpline
 62
7
  6
CONTINUOUS
 70
0
 71
3
 72
36
 73
32
 74
0
 42
0.0000001
 43
0.0000001
 44
0.0000000001
 40
0.0
 40
0.0
 40
0.0
 40
0.0
 40
0.0325365368
 40
0.0665628401
 40
0.1018977492
 40
0.1383698374
 40
0.175793069
 40
0.2139453491
 40
0.2914516111
 40
0.3689597378
 40
0.4445014897
 40
0.4809774254
 40
0.5163077188
 40
0.5503176302
 40
0.5828697575
 40
0.6138625454
 40
0.6432483634
 40
0.671032997
 40
0.6972957727
 40
0.7221890161
 40
0.7459528061
 40
0.768905087
 40
0.791432844
 40
0.8139601712
 40
0.8369123249
 40
0.860677284
 40
0.8855700131
 40
0.9118296227
 40
0.9396196268
 40
0.9690225697
 40
1.0
 40
1.0
 40
1.0
 40
1.0
 10
18.9050839384
 20
39.9971056756
 30
0.0
 10
18.9050839336
 20
40.1447567071
 30
0.0
 10
18.8919153945
 20
40.4469264712
 30
0.0
 10
18.8363410551
 20
40.9063822038
 30
0.0
 10
18.744761144
 20
41.3782360047
 30
0.0
 10
18.6182345365
 20
41.857850816
 30
0.0
 10
18.4578690837
 20
42.3407210506
 30
0.0
 10
18.1998122515
 20
42.9860573742
 30
0.0
 10
17.8037694195
 20
43.7704324351
 30
0.0
 10
17.2295361511
 20
44.6475111009
 30
0.0
 10
16.6775275066
 20
45.3100550801
 30
0.0
 10
16.2025983207
 20
45.7813196771
 30
0.0
 10
15.839811501
 20
46.0965112772
 30
0.0
 10
15.4697191305
 20
46.3743973372
 30
0.0
 10
15.0959015679
 20
46.6124612519
 30
0.0
 10
14.7217725336
 20
46.8082777022
 30
0.0
 10
14.3509071135
 20
46.9601040561
 30
0.0
 10
13.9866613652
 20
47.0662391682
 30
0.0
 10
13.6324644953
 20
47.1257140914
 30
0.0
 10
13.2915955045
 20
47.1375120395
 30
0.0
 10
12.9673734423
 20
47.1014148443
 30
0.0
 10
12.6631748486
 20
47.0172124988
 30
0.0
 10
12.3822925089
 20
46.8857728213
 30
0.0
 10
12.1280155779
 20
46.7082494543
 30
0.0
 10
11.9029978618
 20
46.4868985228
 30
0.0
 10
11.7096372152
 20
46.2241519321
 30
0.0
 10
11.5494144402
 20
45.923069153
 30
0.0
 10
11.4237910692
 20
45.5865924355
 30
0.0
 10
11.3335865752
 20
45.2179794051
 30
0.0
 10
11.2796859052
 20
44.8208732626
 30
0.0
 10
11.2682988065
 20
44.5466816777
 30
0.0
 10
11.2682988057
 20
44.4061058829
 30
0.0
  0
SPLINE
  5
2E5
100
AcDbEntity
  8
0
100
AcDbSpline
 62
7
  6
CONTINUOUS
 70
0
 71
3
 72
19
 73
15
 74
0
 42
0.0000001
 43
0.0000001
 44
0.0000000001
 40
0.0
 40
0.0
 40
0.0
 40
0.0
 40
0.0558248102
 40
0.1142059005
 40
0.174831835
 40
0.2374084148
 40
0.3670182158
 40
0.5000010962
 40
0.6329838235
 40
0.7625931791
 40
0.8251694371
 40
0.8857949894
 40
0.9441756499
 40
1.0
 40
1.0
 40
1.0
 40
1.0
 10
11.2682988057
 20
44.4061058829
 30
0.0
 10
11.2682988047
 20
44.25845406
 30
0.0
 10
11.2814680857
 20
43.9562815249
 30
0.0
 10
11.3370442435
 20
43.4968264462
 30
0.0
 10
11.4286210739
 20
43.0249602594
 30
0.0
 10
11.5993246591
 20
42.3780375546
 30
0.0
 10
11.897073714
 20
41.5687521175
 30
0.0
 10
12.3695771461
 20
40.6328348286
 30
0.0
 10
12.9438571487
 20
39.7556799484
 30
0.0
 10
13.4958463509
 20
39.0931837693
 30
0.0
 10
13.9707468234
 20
38.6218938553
 30
0.0
 10
14.3336064412
 20
38.3066573795
 30
0.0
 10
14.703717639
 20
38.0288044088
 30
0.0
 10
14.9588215883
 20
37.8663167851
 30
0.0
 10
15.0866914871
 20
37.7924927348
 30
0.0
  0
SPLINE
  5
2E6
100
AcDbEntity
  8
0
100
AcDbSpline
 62
7
  6
CONTINUOUS
 70
0
 71
3
 72
19
 73
15
 74
0
 42
0.0000001
 43
0.0000001
 44
0.0000000001
 40
0.0
 40
0.0
 40
0.0
 40
0.0
 40
0.0558341462
 40
0.1142086479
 40
0.174826854
 40
0.2374064231
 40
0.3670181203
 40
0.50000108
 40
0.6329838894
 40
0.7625951472
 40
0.8251743989
 40
0.8857922313
 40
0.9441663114
 40
1.0
 40
1.0
 40
1.0
 40
1.0
 10
10.2289027546
 20
45.1448733275
 30
0.0
 10
10.2289027546
 20
44.9523529468
 30
0.0
 10
10.2460455135
 20
44.5584107619
 30
0.0
 10
10.3185311621
 20
43.9594570165
 30
0.0
 10
10.4378984282
 20
43.3443396449
 30
0.0
 10
10.6604542165
 20
42.5009845348
 30
0.0
 10
11.0486040573
 20
41.4459264149
 30
0.0
 10
11.6646055628
 20
40.2258056286
 30
0.0
 10
12.4132650032
 20
39.0822770966
 30
0.0
 10
13.1328997722
 20
38.2186065688
 30
0.0
 10
13.7519898436
 20
37.6041965913
 30
0.0
 10
14.2250134227
 20
37.1932685893
 30
0.0
 10
14.7074791517
 20
36.8310236738
 30
0.0
 10
15.0400710781
 20
36.6192111404
 30
0.0
 10
15.206798195
 20
36.5229533723
 30
0.0
  0
SPLINE
  5
2E7
100
AcDbEntity
  8
0
100
AcDbSpline
 62
7
  6
CONTINUOUS
 70
0
 71
3
 72
23
 73
19
 74
0
 42
0.0000001
 43
0.0000001
 44
0.0000000001
 40
0.0
 40
0.0
 40
0.0
 40
0.0
 40
0.0742765413
 40
0.1447529373
 40
0.2113639819
 40
0.2743172952
 40
0.3339975135
 40
0.3909670013
 40
0.445991675
 40
0.4999980315
 40
0.5540044791
 40
0.6090294174
 40
0.6659993202
 40
0.7256800717
 40
0.7886340008
 40
0.8552457095
 40
0.9257227871
 40
1.0
 40
1.0
 40
1.0
 40
1.0
 10
15.206798195
 20
36.5229533723
 30
0.0
 10
15.3655387389
 20
36.4313065498
 30
0.0
 10
15.682517138
 20
36.2654107923
 30
0.0
 10
16.1659828934
 20
36.0674731313
 30
0.0
 10
16.6408922747
 20
35.92904317
 30
0.0
 10
17.1026507631
 20
35.8516047504
 30
0.0
 10
17.5470186309
 20
35.8361368213
 30
0.0
 10
17.9696893758
 20
35.8832904386
 30
0.0
 10
18.3662951959
 20
35.9929570034
 30
0.0
 10
18.7324174249
 20
36.1644320205
 30
0.0
 10
19.063975026
 20
36.3957742876
 30
0.0
 10
19.3572464503
 20
36.6844199966
 30
0.0
 10
19.6094123698
 20
37.0268946448
 30
0.0
 10
19.8181949238
 20
37.4194698615
 30
0.0
 10
19.9820047533
 20
37.8580905474
 30
0.0
 10
20.0995698324
 20
38.3385954745
 30
0.0
 10
20.1698779896
 20
38.8562637018
 30
0.0
 10
20.1846936354
 20
39.213726404
 30
0.0
 10
20.1846936354
 20
39.3970248162
 30
0.0
  0
SPLINE
  5
2E8
100
AcDbEntity
  8
0
100
AcDbSpline
 62
7
  6
CONTINUOUS
 70
0
 71
3
 72
19
 73
15
 74
0
 42
0.0000001
 43
0.0000001
 44
0.0000000001
 40
0.0
 40
0.0
 40
0.0
 40
0.0
 40
0.0558341462
 40
0.1142086479
 40
0.174826854
 40
0.2374064231
 40
0.3670181203
 40
0.50000108
 40
0.6329838894
 40
0.7625951472
 40
0.8251743989
 40
0.8857922313
 40
0.9441663114
 40
1.0
 40
1.0
 40
1.0
 40
1.0
 10
20.1846936354
 20
39.3970248162
 30
0.0
 10
20.1846936354
 20
39.589545197
 30
0.0
 10
20.1675508765
 20
39.9834873818
 30
0.0
 10
20.0950652279
 20
40.5824411272
 30
0.0
 10
19.9756979618
 20
41.1975584989
 30
0.0
 10
19.7531421735
 20
42.040913609
 30
0.0
 10
19.3649923327
 20
43.0959717289
 30
0.0
 10
18.7489908272
 20
44.3160925151
 30
0.0
 10
18.0003313867
 20
45.4596210471
 30
0.0
 10
17.2806966178
 20
46.3232915749
 30
0.0
 10
16.6616065463
 20
46.9377015525
 30
0.0
 10
16.1885829673
 20
47.3486295544
 30
0.0
 10
15.7061172383
 20
47.71087447
 30
0.0
 10
15.3735253118
 20
47.9226870033
 30
0.0
 10
15.206798195
 20
48.0189447715
 30
0.0
  0
SPLINE
  5
2E9
100
AcDbEntity
  8
0
100
AcDbSpline
 62
7
  6
CONTINUOUS
 70
0
 71
3
 72
23
 73
19
 74
0
 42
0.0000001
 43
0.0000001
 44
0.0000000001
 40
0.0
 40
0.0
 40
0.0
 40
0.0
 40
0.0742765413
 40
0.1447529373
 40
0.2113639819
 40
0.2743172952
 40
0.3339975135
 40
0.3909670013
 40
0.445991675
 40
0.4999980315
 40
0.5540044791
 40
0.6090294174
 40
0.6659993202
 40
0.7256800717
 40
0.7886340008
 40
0.8552457095
 40
0.9257227871
 40
1.0
 40
1.0
 40
1.0
 40
1.0
 10
15.206798195
 20
48.0189447715
 30
0.0
 10
15.048057651
 20
48.1105915939
 30
0.0
 10
14.731079252
 20
48.2764873514
 30
0.0
 10
14.2476134965
 20
48.4744250124
 30
0.0
 10
13.7727041153
 20
48.6128549738
 30
0.0
 10
13.3109456268
 20
48.6902933934
 30
0.0
 10
12.8665777591
 20
48.7057613224
 30
0.0
 10
12.4439070142
 20
48.6586077052
 30
0.0
 10
12.0473011941
 20
48.5489411404
 30
0.0
 10
11.6811789651
 20
48.3774661233
 30
0.0
 10
11.349621364
 20
48.1461238561
 30
0.0
 10
11.0563499397
 20
47.8574781472
 30
0.0
 10
10.8041840201
 20
47.515003499
 30
0.0
 10
10.5954014662
 20
47.1224282822
 30
0.0
 10
10.4315916366
 20
46.6838075964
 30
0.0
 10
10.3140265575
 20
46.2033026693
 30
0.0
 10
10.2437184004
 20
45.6856344419
 30
0.0
 10
10.2289027546
 20
45.3281717398
 30
0.0
 10
10.2289027546
 20
45.1448733275
 30
0.0
  0
SPLINE
  5
2EA
100
AcDbEntity
  8
0
100
AcDbSpline
 62
7
  6
CONTINUOUS
 70
0
 71
3
 72
19
 73
15
 74
0
 42
0.0000001
 43
0.0000001
 44
0.0000000001
 40
0.0
 40
0.0
 40
0.0
 40
0.0
 40
0.058766057
 40
0.1209806034
 40
0.1833189948
 40
0.2451350292
 40
0.3070681505
 40
0.369410608
 40
0.4320005969
 40
0.4946731093
 40
0.6202691495
 40
0.7463708358
 40
0.8729514828
 40
1.0
 40
1.0
 40
1.0
 40
1.0
 10
14.7679670187
 20
33.2762537779
 30
0.0
 10
14.7957595538
 20
33.2680362841
 30
0.0
 10
14.8510758089
 20
33.244940515
 30
0.0
 10
14.931202883
 20
33.2031687155
 30
0.0
 10
15.0133077599
 20
33.1618162702
 30
0.0
 10
15.0959810151
 20
33.1219769882
 30
0.0
 10
15.178547605
 20
33.0819050505
 30
0.0
 10
15.261101756
 20
33.0409428436
 30
0.0
 10
15.3438713231
 20
32.9995966991
 30
0.0
 10
15.4546261971
 20
32.9444669385
 30
0.0
 10
15.5935259933
 20
32.875589686
 30
0.0
 10
15.760581287
 20
32.7925465598
 30
0.0
 10
15.9282877678
 20
32.7092042217
 30
0.0
 10
16.0403021117
 20
32.6535385896
 30
0.0
 10
16.0964039188
 20
32.6256369719
 30
0.0
  0
SPLINE
  5
2EB
100
AcDbEntity
  8
0
100
AcDbSpline
 62
7
  6
CONTINUOUS
 70
0
 71
3
 72
35
 73
31
 74
0
 42
0.0000001
 43
0.0000001
 44
0.0000000001
 40
0.0
 40
0.0
 40
0.0
 40
0.0
 40
0.0325428889
 40
0.0665664771
 40
0.1018980237
 40
0.1383728915
 40
0.2139172469
 40
0.291426837
 40
0.3689380522
 40
0.4444824538
 40
0.4809600837
 40
0.5162914689
 40
0.5503029948
 40
0.5828562581
 40
0.6138506269
 40
0.6432373354
 40
0.6710236297
 40
0.6972869313
 40
0.7221818432
 40
0.7459459599
 40
0.7688994253
 40
0.7914280685
 40
0.813956439
 40
0.8369092596
 40
0.8606734951
 40
0.8855687474
 40
0.9118295352
 40
0.9396163681
 40
0.9690157563
 40
1.0
 40
1.0
 40
1.0
 40
1.0
 10
15.4230605541
 20
35.4555365351
 30
0.0
 10
15.2217506634
 20
35.5717602253
 30
0.0
 10
14.8201717326
 20
35.8275070214
 30
0.0
 10
14.2376313595
 20
36.2648907221
 30
0.0
 10
13.6664897684
 20
36.7610564708
 30
0.0
 10
12.9189859216
 20
37.502911243
 30
0.0
 10
12.0500824075
 20
38.5457266205
 30
0.0
 10
11.1461283361
 20
39.9264566335
 30
0.0
 10
10.4023627464
 20
41.3996704729
 30
0.0
 10
9.9336722049
 20
42.6735893867
 30
0.0
 10
9.6649788769
 20
43.6919041462
 30
0.0
 10
9.5208758725
 20
44.4345305873
 30
0.0
 10
9.4333017995
 20
45.157741653
 30
0.0
 10
9.4030098711
 20
45.854698839
 30
0.0
 10
9.4304916472
 20
46.5188283617
 30
0.0
 10
9.5154452799
 20
47.1438822297
 30
0.0
 10
9.6573782785
 20
47.7239701217
 30
0.0
 10
9.8551365855
 20
48.2535957342
 30
0.0
 10
10.1072395112
 20
48.7276037348
 30
0.0
 10
10.4117120333
 20
49.1411037759
 30
0.0
 10
10.7658062211
 20
49.4896263041
 30
0.0
 10
11.166137082
 20
49.7689563507
 30
0.0
 10
11.6081980114
 20
49.9759994608
 30
0.0
 10
12.0870619004
 20
50.1084185905
 30
0.0
 10
12.5973992666
 20
50.1653501541
 30
0.0
 10
13.1339382478
 20
50.1466830456
 30
0.0
 10
13.691480294
 20
50.0531831762
 30
0.0
 10
14.2649053214
 20
49.8860411295
 30
0.0
 10
14.8486601949
 20
49.647042855
 30
0.0
 10
15.2313925413
 20
49.4467355935
 30
0.0
 10
15.4230606732
 20
49.3360784494
 30
0.0
  0
SPLINE
  5
2EC
100
AcDbEntity
  8
0
100
AcDbSpline
 62
7
  6
CONTINUOUS
 70
0
 71
3
 72
35
 73
31
 74
0
 42
0.0000001
 43
0.0000001
 44
0.0000000001
 40
0.0
 40
0.0
 40
0.0
 40
0.0
 40
0.0325428889
 40
0.0665664771
 40
0.1018980237
 40
0.1383728915
 40
0.2139172469
 40
0.291426837
 40
0.3689380522
 40
0.4444824538
 40
0.4809600837
 40
0.5162914689
 40
0.5503029948
 40
0.5828562581
 40
0.6138506269
 40
0.6432373354
 40
0.6710236297
 40
0.6972869313
 40
0.7221818432
 40
0.7459459599
 40
0.7688994253
 40
0.7914280685
 40
0.813956439
 40
0.8369092596
 40
0.8606734951
 40
0.8855687474
 40
0.9118295352
 40
0.9396163681
 40
0.9690157563
 40
1.0
 40
1.0
 40
1.0
 40
1.0
 10
15.4230606732
 20
49.3360784494
 30
0.0
 10
15.6243705639
 20
49.2198547591
 30
0.0
 10
16.0259494947
 20
48.9641079631
 30
0.0
 10
16.6084898679
 20
48.5267242623
 30
0.0
 10
17.1796314589
 20
48.0305585136
 30
0.0
 10
17.9271353057
 20
47.2887037414
 30
0.0
 10
18.7960388198
 20
46.2458883639
 30
0.0
 10
19.6999928912
 20
44.8651583509
 30
0.0
 10
20.4437584809
 20
43.3919445115
 30
0.0
 10
20.9124490224
 20
42.1180255978
 30
0.0
 10
21.1811423504
 20
41.0997108382
 30
0.0
 10
21.3252453548
 20
40.3570843971
 30
0.0
 10
21.4128194278
 20
39.6338733314
 30
0.0
 10
21.4431113562
 20
38.9369161455
 30
0.0
 10
21.4156295801
 20
38.2727866227
 30
0.0
 10
21.3306759474
 20
37.6477327548
 30
0.0
 10
21.1887429488
 20
37.0676448627
 30
0.0
 10
20.9909846418
 20
36.5380192502
 30
0.0
 10
20.7388817161
 20
36.0640112496
 30
0.0
 10
20.434409194
 20
35.6505112085
 30
0.0
 10
20.0803150062
 20
35.3019886804
 30
0.0
 10
19.6799841454
 20
35.0226586337
 30
0.0
 10
19.2379232159
 20
34.8156155237
 30
0.0
 10
18.7590593269
 20
34.683196394
 30
0.0
 10
18.2487219607
 20
34.6262648303
 30
0.0
 10
17.7121829795
 20
34.6449319388
 30
0.0
 10
17.1546409333
 20
34.7384318083
 30
0.0
 10
16.5812159059
 20
34.905573855
 30
0.0
 10
15.9974610324
 20
35.1445721295
 30
0.0
 10
15.614728686
 20
35.3448793909
 30
0.0
 10
15.4230605541
 20
35.4555365351
 30
0.0
  0
SPLINE
  5
2ED
100
AcDbEntity
  8
0
100
AcDbSpline
 62
7
  6
CONTINUOUS
 70
0
 71
3
 72
14
 73
10
 74
0
 42
0.0000001
 43
0.0000001
 44
0.0000000001
 40
0.0
 40
0.0
 40
0.0
 40
0.0
 40
0.1082285603
 40
0.2184667459
 40
0.3325497385
 40
0.4519717917
 40
0.5778843182
 40
0.7110809707
 40
1.0
 40
1.0
 40
1.0
 40
1.0
 10
23.784409655
 20
9.4874576922
 30
0.0
 10
23.8327254336
 20
9.5153581845
 30
0.0
 10
23.9256445412
 20
9.5801043965
 30
0.0
 10
24.0485904944
 20
9.7006092779
 30
0.0
 10
24.1544791343
 20
9.8435538521
 30
0.0
 10
24.242430332
 20
10.0072895577
 30
0.0
 10
24.3116868336
 20
10.1902762546
 30
0.0
 10
24.3802579598
 20
10.4648354408
 30
0.0
 10
24.3988080473
 20
10.6834077137
 30
0.0
 10
24.3996082391
 20
10.8323463007
 30
0.0
  0
SPLINE
  5
2EE
100
AcDbEntity
  8
0
100
AcDbSpline
 62
7
  6
CONTINUOUS
 70
0
 71
3
 72
15
 73
11
 74
0
 42
0.0000001
 43
0.0000001
 44
0.0000000001
 40
0.0
 40
0.0
 40
0.0
 40
0.0
 40
0.1482894381
 40
0.2890943036
 40
0.4222342176
 40
0.5481022189
 40
0.6674920196
 40
0.7815538149
 40
0.8917793721
 40
1.0
 40
1.0
 40
1.0
 40
1.0
 10
6.0869199311
 20
52.6525619258
 30
0.0
 10
6.0874628448
 20
52.7407343245
 30
0.0
 10
6.09565747
 20
52.9127002241
 30
0.0
 10
6.1309392945
 20
53.1616693781
 30
0.0
 10
6.1888475492
 20
53.3927429756
 30
0.0
 10
6.2688290366
 20
53.6036601556
 30
0.0
 10
6.3703563423
 20
53.7924136789
 30
0.0
 10
6.4925405022
 20
53.957202571
 30
0.0
 10
6.6343719174
 20
54.096137849
 30
0.0
 10
6.7415439829
 20
54.1707998069
 30
0.0
 10
6.7972690521
 20
54.2029788342
 30
0.0
  0
SPLINE
  5
2EF
100
AcDbEntity
  8
0
100
AcDbSpline
 62
7
  6
CONTINUOUS
 70
0
 71
3
 72
11
 73
7
 74
0
 42
0.0000001
 43
0.0000001
 44
0.0000000001
 40
0.0
 40
0.0
 40
0.0
 40
0.0
 40
0.2630017611
 40
0.5152751193
 40
0.7596609531
 40
1.0
 40
1.0
 40
1.0
 40
1.0
 10
7.1056337373
 20
55.7633835386
 30
0.0
 10
7.0079975115
 20
55.7702315081
 30
0.0
 10
6.8155747868
 20
55.771628066
 30
0.0
 10
6.5343787913
 20
55.7341391778
 30
0.0
 10
6.2700391092
 20
55.6571107174
 30
0.0
 10
6.1062049374
 20
55.5794479939
 30
0.0
 10
6.0287573538
 20
55.5347068412
 30
0.0
  0
SPLINE
  5
2F0
100
AcDbEntity
  8
0
100
AcDbSpline
 62
7
  6
CONTINUOUS
 70
0
 71
3
 72
15
 73
11
 74
0
 42
0.0000001
 43
0.0000001
 44
0.0000000001
 40
0.0
 40
0.0
 40
0.0
 40
0.0
 40
0.1128991989
 40
0.2340568337
 40
0.3614120918
 40
0.4925194415
 40
0.6246467576
 40
0.75499486
 40
0.8809182474
 40
1.0
 40
1.0
 40
1.0
 40
1.0
 10
24.3996082391
 20
42.0386150786
 30
0.0
 10
24.3988029636
 20
42.1894297194
 30
0.0
 10
24.3722876102
 20
42.5022195306
 30
0.0
 10
24.2695662868
 20
42.9750656628
 30
0.0
 10
24.1054875904
 20
43.4560137554
 30
0.0
 10
23.8852518634
 20
43.9300546349
 30
0.0
 10
23.6156282686
 20
44.3824898035
 30
0.0
 10
23.3050330872
 20
44.7993157181
 30
0.0
 10
22.9631443303
 20
45.1674321512
 30
0.0
 10
22.7129161998
 20
45.3800212018
 30
0.0
 10
22.5847896757
 20
45.4743010859
 30
0.0
  0
SPLINE
  5
2F1
100
AcDbEntity
  8
0
100
AcDbSpline
 62
7
  6
CONTINUOUS
 70
0
 71
3
 72
11
 73
7
 74
0
 42
0.0000001
 43
0.0000001
 44
0.0000000001
 40
0.0
 40
0.0
 40
0.0
 40
0.0
 40
0.2620643759
 40
0.5162805192
 40
0.7623280278
 40
1.0
 40
1.0
 40
1.0
 40
1.0
 10
22.5847896757
 20
45.4743010859
 30
0.0
 10
21.4150173019
 20
46.3268560825
 30
0.0
 10
19.0685787067
 20
47.9499331308
 30
0.0
 10
15.4817955031
 20
50.1594124231
 30
0.0
 10
11.8943954505
 20
52.098877634
 30
0.0
 10
9.4697606002
 20
53.226119372
 30
0.0
 10
8.2617386576
 20
53.7399436766
 30
0.0
  0
SPLINE
  5
2F2
100
AcDbEntity
  8
0
100
AcDbSpline
 62
7
  6
CONTINUOUS
 70
0
 71
3
 72
13
 73
9
 74
0
 42
0.0000001
 43
0.0000001
 44
0.0000000001
 40
0.0
 40
0.0
 40
0.0
 40
0.0
 40
0.2809903645
 40
0.5372667568
 40
0.6576996557
 40
0.7741438523
 40
0.887797113
 40
1.0
 40
1.0
 40
1.0
 40
1.0
 10
8.2617386576
 20
53.7399436766
 30
0.0
 10
8.1544367688
 20
53.7846941639
 30
0.0
 10
7.9421360814
 20
53.854726162
 30
0.0
 10
7.6698409532
 20
53.8887057444
 30
0.0
 10
7.4656298144
 20
53.8776036685
 30
0.0
 10
7.3225409741
 20
53.8514920503
 30
0.0
 10
7.1874385632
 20
53.8076328586
 30
0.0
 10
7.1030908088
 20
53.7665715689
 30
0.0
 10
7.0628884684
 20
53.7433562833
 30
0.0
  0
SPLINE
  5
2F3
100
AcDbEntity
  8
0
100
AcDbSpline
 62
7
  6
CONTINUOUS
 70
0
 71
3
 72
10
 73
6
 74
0
 42
0.0000001
 43
0.0000001
 44
0.0000000001
 40
0.0
 40
0.0
 40
0.0
 40
0.0
 40
0.5043314998
 40
0.7548366743
 40
1.0
 40
1.0
 40
1.0
 40
1.0
 10
25.2035804319
 20
43.9355361817
 30
0.0
 10
25.0182856671
 20
44.344626357
 30
0.0
 10
24.6920166325
 20
44.9364723342
 30
0.0
 10
24.1736481306
 20
45.6612132776
 30
0.0
 10
23.8884786643
 20
45.9989660557
 30
0.0
 10
23.7404876428
 20
46.159463428
 30
0.0
  0
SPLINE
  5
2F4
100
AcDbEntity
  8
0
100
AcDbSpline
 62
7
  6
CONTINUOUS
 70
0
 71
3
 72
17
 73
13
 74
0
 42
0.0000001
 43
0.0000001
 44
0.0000000001
 40
0.0
 40
0.0
 40
0.0
 40
0.0
 40
0.055832229
 40
0.1142208212
 40
0.2373715644
 40
0.3669994131
 40
0.5000010808
 40
0.633002598
 40
0.7626300073
 40
0.8857800581
 40
0.9441682286
 40
1.0
 40
1.0
 40
1.0
 40
1.0
 10
11.9065902209
 20
22.5523178985
 30
0.0
 10
11.9065902209
 20
22.4269912166
 30
0.0
 10
11.917762814
 20
22.1705007263
 30
0.0
 10
11.9818313333
 20
21.6411305816
 30
0.0
 10
12.1406245421
 20
20.9585655837
 30
0.0
 10
12.44025605
 20
20.1440372743
 30
0.0
 10
12.8413505492
 20
19.3495561436
 30
0.0
 10
13.3288471367
 20
18.6049606838
 30
0.0
 10
13.8844352605
 20
17.938213148
 30
0.0
 10
14.3961578085
 20
17.4594172985
 30
0.0
 10
14.8225712388
 20
17.1392527159
 30
0.0
 10
15.0391118101
 20
17.0013347317
 30
0.0
 10
15.1476476247
 20
16.9386729675
 30
0.0
  0
SPLINE
  5
2F5
100
AcDbEntity
  8
0
100
AcDbSpline
 62
7
  6
CONTINUOUS
 70
0
 71
3
 72
23
 73
19
 74
0
 42
0.0000001
 43
0.0000001
 44
0.0000000001
 40
0.0
 40
0.0
 40
0.0
 40
0.0
 40
0.0742621366
 40
0.1447486562
 40
0.2113682811
 40
0.2743197451
 40
0.3339950298
 40
0.3909671252
 40
0.4459917389
 40
0.4999980315
 40
0.5540044151
 40
0.6090292934
 40
0.666001804
 40
0.7256776218
 40
0.7886297016
 40
0.8552499907
 40
0.9257371919
 40
1.0
 40
1.0
 40
1.0
 40
1.0
 10
15.1476476247
 20
16.9386729675
 30
0.0
 10
15.2509818132
 20
16.8790142956
 30
0.0
 10
15.4573646586
 20
16.7710211949
 30
0.0
 10
15.7721401593
 20
16.6421174095
 30
0.0
 10
16.0813764417
 20
16.5519909335
 30
0.0
 10
16.3820229648
 20
16.5015379699
 30
0.0
 10
16.6713383277
 20
16.4915346796
 30
0.0
 10
16.9465408542
 20
16.5221632741
 30
0.0
 10
17.2047501046
 20
16.5936354754
 30
0.0
 10
17.4431617336
 20
16.7052103173
 30
0.0
 10
17.658990786
 20
16.8558990377
 30
0.0
 10
17.8499885623
 20
17.0437840972
 30
0.0
 10
18.0141112655
 20
17.2668072913
 30
0.0
 10
18.1501020932
 20
17.5223682034
 30
0.0
 10
18.2567280458
 20
17.8079667001
 30
0.0
 10
18.3332906262
 20
18.1208405545
 30
0.0
 10
18.3790407271
 20
18.4578997843
 30
0.0
 10
18.3887050284
 20
18.6906313858
 30
0.0
 10
18.3887050284
 20
18.8099518331
 30
0.0
  0
SPLINE
  5
2F6
100
AcDbEntity
  8
0
100
AcDbSpline
 62
7
  6
CONTINUOUS
 70
0
 71
3
 72
34
 73
30
 74
0
 42
0.0000001
 43
0.0000001
 44
0.0000000001
 40
0.0
 40
0.0
 40
0.0
 40
0.0
 40
0.0325389713
 40
0.0665677874
 40
0.1383399251
 40
0.2138869138
 40
0.291400161
 40
0.3689133206
 40
0.4444600531
 40
0.4809385848
 40
0.5162715066
 40
0.5502840916
 40
0.5828388816
 40
0.6138342387
 40
0.6432225234
 40
0.6710094504
 40
0.6972743868
 40
0.722169611
 40
0.7459352227
 40
0.7688891328
 40
0.7914186327
 40
0.8139480289
 40
0.8369022437
 40
0.8606689548
 40
0.8855633822
 40
0.9118245383
 40
0.9396159311
 40
0.9690204479
 40
1.0
 40
1.0
 40
1.0
 40
1.0
 10
18.3887050284
 20
18.8099518331
 30
0.0
 10
18.3887050284
 20
18.9352785174
 30
0.0
 10
18.3775323989
 20
19.1917690337
 30
0.0
 10
18.3134640157
 20
19.7211390051
 30
0.0
 10
18.1546699409
 20
20.403705436
 30
0.0
 10
17.8550421698
 20
21.218227435
 30
0.0
 10
17.4539333368
 20
22.0127328085
 30
0.0
 10
16.9664900184
 20
22.7572381631
 30
0.0
 10
16.497955233
 20
23.3195941435
 30
0.0
 10
16.0948356679
 20
23.7196046275
 30
0.0
 10
15.7869015222
 20
23.9871403645
 30
0.0
 10
15.4727648777
 20
24.2230119038
 30
0.0
 10
15.155465623
 20
24.4250830809
 30
0.0
 10
14.8379007991
 20
24.5912934675
 30
0.0
 10
14.5231063686
 20
24.7201652749
 30
0.0
 10
14.2139304248
 20
24.8102523706
 30
0.0
 10
13.9132847317
 20
24.8607342976
 30
0.0
 10
13.6239524847
 20
24.8707454543
 30
0.0
 10
13.3487516988
 20
24.8401040981
 30
0.0
 10
13.0905473862
 20
24.7686308616
 30
0.0
 10
12.8521337178
 20
24.6570603952
 30
0.0
 10
12.6363035404
 20
24.5063715351
 30
0.0
 10
12.4453068092
 20
24.3184853891
 30
0.0
 10
12.28118428
 20
24.095462278
 30
0.0
 10
12.1451930934
 20
23.8399015635
 30
0.0
 10
12.0385671235
 20
23.5543030575
 30
0.0
 10
11.9620046425
 20
23.2414291771
 30
0.0
 10
11.9162545371
 20
22.904369945
 30
0.0
 10
11.9065902209
 20
22.6716383437
 30
0.0
 10
11.9065902209
 20
22.5523178985
 30
0.0
  0
SPLINE
  5
2F7
100
AcDbEntity
  8
0
100
AcDbSpline
 62
7
  6
CONTINUOUS
 70
0
 71
3
 72
23
 73
19
 74
0
 42
0.0000001
 43
0.0000001
 44
0.0000000001
 40
0.0
 40
0.0
 40
0.0
 40
0.0
 40
0.0742391488
 40
0.1447471664
 40
0.2113720743
 40
0.2743221502
 40
0.3339980683
 40
0.3909702698
 40
0.445994853
 40
0.5000019776
 40
0.5540090108
 40
0.6090333294
 40
0.6660051151
 40
0.7256805007
 40
0.788629961
 40
0.8552541922
 40
0.9257614998
 40
1.0
 40
1.0
 40
1.0
 40
1.0
 10
11.3735737386
 20
22.7896629348
 30
0.0
 10
11.3738320337
 20
22.9263174516
 30
0.0
 10
11.3850062744
 20
23.192910349
 30
0.0
 10
11.4369990887
 20
23.5791203647
 30
0.0
 10
11.524677356
 20
23.9376292
 30
0.0
 10
11.6469520592
 20
24.2647824059
 30
0.0
 10
11.8027568019
 20
24.55754849
 30
0.0
 10
11.9907563465
 20
24.8130713175
 30
0.0
 10
12.2095725734
 20
25.0283212201
 30
0.0
 10
12.4568413979
 20
25.2009499189
 30
0.0
 10
12.7299730463
 20
25.3287832183
 30
0.0
 10
13.0257897528
 20
25.4106653139
 30
0.0
 10
13.3410758321
 20
25.4457228987
 30
0.0
 10
13.672518446
 20
25.4342771457
 30
0.0
 10
14.0169764393
 20
25.3765997214
 30
0.0
 10
14.3712913071
 20
25.2732831016
 30
0.0
 10
14.7317539217
 20
25.1252114064
 30
0.0
 10
14.9682163196
 20
25.0015956544
 30
0.0
 10
15.0866912602
 20
24.9334936288
 30
0.0
  0
SPLINE
  5
2F8
100
AcDbEntity
  8
0
100
AcDbSpline
 62
7
  6
CONTINUOUS
 70
0
 71
3
 72
19
 73
15
 74
0
 42
0.0000001
 43
0.0000001
 44
0.0000000001
 40
0.0
 40
0.0
 40
0.0
 40
0.0
 40
0.0558447519
 40
0.1142031423
 40
0.1748222347
 40
0.2374058214
 40
0.3670157096
 40
0.4999989387
 40
0.6329823154
 40
0.7625926346
 40
0.8251765262
 40
0.8857959914
 40
0.9441548159
 40
1.0
 40
1.0
 40
1.0
 40
1.0
 10
15.0866912602
 20
24.9334936288
 30
0.0
 10
15.2109450265
 20
24.8614445
 30
0.0
 10
15.4589704131
 20
24.7034173941
 30
0.0
 10
15.8190815723
 20
24.433527623
 30
0.0
 10
16.1719067881
 20
24.1270232562
 30
0.0
 10
16.6336329152
 20
23.6686467807
 30
0.0
 10
17.1704588138
 20
23.0244433015
 30
0.0
 10
17.7288865713
 20
22.1714568689
 30
0.0
 10
18.1883854232
 20
21.2613522259
 30
0.0
 10
18.4778740096
 20
20.4743450455
 30
0.0
 10
18.6439811024
 20
19.8452884932
 30
0.0
 10
18.7330128105
 20
19.3864785391
 30
0.0
 10
18.7866928839
 20
18.9396655542
 30
0.0
 10
18.7995383698
 20
18.6458535914
 30
0.0
 10
18.7998090054
 20
18.5022209993
 30
0.0
  0
SPLINE
  5
2F9
100
AcDbEntity
  8
0
100
AcDbSpline
 62
7
  6
CONTINUOUS
 70
0
 71
3
 72
23
 73
19
 74
0
 42
0.0000001
 43
0.0000001
 44
0.0000000001
 40
0.0
 40
0.0
 40
0.0
 40
0.0
 40
0.0742391488
 40
0.1447471664
 40
0.2113720743
 40
0.2743221502
 40
0.3339980683
 40
0.3909702698
 40
0.445994853
 40
0.5000019776
 40
0.5540090108
 40
0.6090333294
 40
0.6660051151
 40
0.7256805007
 40
0.788629961
 40
0.8552541922
 40
0.9257614998
 40
1.0
 40
1.0
 40
1.0
 40
1.0
 10
18.7998090054
 20
18.5022209993
 30
0.0
 10
18.7995507103
 20
18.3655664824
 30
0.0
 10
18.7883764697
 20
18.098973585
 30
0.0
 10
18.7363836553
 20
17.7127635694
 30
0.0
 10
18.6487053881
 20
17.3542547341
 30
0.0
 10
18.5264306849
 20
17.0271015281
 30
0.0
 10
18.3706259421
 20
16.7343354441
 30
0.0
 10
18.1826263975
 20
16.4788126166
 30
0.0
 10
17.9638101707
 20
16.2635627139
 30
0.0
 10
17.7165413461
 20
16.0909340152
 30
0.0
 10
17.4434096978
 20
15.9631007157
 30
0.0
 10
17.1475929913
 20
15.8812186201
 30
0.0
 10
16.832306912
 20
15.8461610353
 30
0.0
 10
16.5008642981
 20
15.8576067884
 30
0.0
 10
16.1564063048
 20
15.9152842126
 30
0.0
 10
15.802091437
 20
16.0186008324
 30
0.0
 10
15.4416288224
 20
16.1666725276
 30
0.0
 10
15.2051664244
 20
16.2902882797
 30
0.0
 10
15.0866914839
 20
16.3583903053
 30
0.0
  0
SPLINE
  5
2FA
100
AcDbEntity
  8
0
100
AcDbSpline
 62
7
  6
CONTINUOUS
 70
0
 71
3
 72
19
 73
15
 74
0
 42
0.0000001
 43
0.0000001
 44
0.0000000001
 40
0.0
 40
0.0
 40
0.0
 40
0.0
 40
0.0558447519
 40
0.1142031423
 40
0.1748222347
 40
0.2374058214
 40
0.3670157096
 40
0.4999989387
 40
0.6329823154
 40
0.7625926346
 40
0.8251765262
 40
0.8857959914
 40
0.9441548159
 40
1.0
 40
1.0
 40
1.0
 40
1.0
 10
15.0866914839
 20
16.3583903053
 30
0.0
 10
14.9624377175
 20
16.4304394341
 30
0.0
 10
14.714412331
 20
16.58846654
 30
0.0
 10
14.3543011717
 20
16.8583563111
 30
0.0
 10
14.0014759559
 20
17.1648606778
 30
0.0
 10
13.5397498289
 20
17.6232371534
 30
0.0
 10
13.0029239303
 20
18.2674406326
 30
0.0
 10
12.4444961728
 20
19.1204270652
 30
0.0
 10
11.9849973209
 20
20.0305317081
 30
0.0
 10
11.6955087345
 20
20.8175388886
 30
0.0
 10
11.5294016416
 20
21.4465954409
 30
0.0
 10
11.4403699335
 20
21.905405395
 30
0.0
 10
11.3866898601
 20
22.3522183798
 30
0.0
 10
11.3738443742
 20
22.6460303427
 30
0.0
 10
11.3735737386
 20
22.7896629348
 30
0.0
  0
SPLINE
  5
2FB
100
AcDbEntity
  8
0
100
AcDbSpline
 62
7
  6
CONTINUOUS
 70
0
 71
3
 72
23
 73
19
 74
0
 42
0.0000001
 43
0.0000001
 44
0.0000000001
 40
0.0
 40
0.0
 40
0.0
 40
0.0
 40
0.0742623836
 40
0.1447494043
 40
0.211369259
 40
0.2743205812
 40
0.3339956346
 40
0.3909675313
 40
0.4459919519
 40
0.4999980492
 40
0.5540042371
 40
0.6090289209
 40
0.6660012305
 40
0.7256768155
 40
0.7886287493
 40
0.8552492583
 40
0.925736949
 40
1.0
 40
1.0
 40
1.0
 40
1.0
 10
15.0866914871
 20
16.2368289225
 30
0.0
 10
15.2084329374
 20
16.1665430535
 30
0.0
 10
15.4515802695
 20
16.039313233
 30
0.0
 10
15.8224285919
 20
15.8874480209
 30
0.0
 10
16.1867504771
 20
15.7812684732
 30
0.0
 10
16.540951104
 20
15.7218306494
 30
0.0
 10
16.8818010231
 20
15.7100475496
 30
0.0
 10
17.2060237879
 20
15.7461336943
 30
0.0
 10
17.5102264068
 20
15.8303376096
 30
0.0
 10
17.7911047695
 20
15.9617874389
 30
0.0
 10
18.0453788077
 20
16.139316957
 30
0.0
 10
18.2703985935
 20
16.3606685567
 30
0.0
 10
18.4637571115
 20
16.6234166628
 30
0.0
 10
18.6239731525
 20
16.9244985741
 30
0.0
 10
18.7495943413
 20
17.2609694934
 30
0.0
 10
18.8397966616
 20
17.6295761085
 30
0.0
 10
18.893697323
 20
18.0266771616
 30
0.0
 10
18.905083943
 20
18.3008664769
 30
0.0
 10
18.9050839384
 20
18.4414418634
 30
0.0
  0
SPLINE
  5
2FC
100
AcDbEntity
  8
0
100
AcDbSpline
 62
7
  6
CONTINUOUS
 70
0
 71
3
 72
31
 73
27
 74
0
 42
0.0000001
 43
0.0000001
 44
0.0000000001
 40
0.0
 40
0.0
 40
0.0
 40
0.0
 40
0.0058031558
 40
0.0089750217
 40
0.0127231757
 40
0.0201149885
 40
0.0275191132
 40
0.035074303
 40
0.0426507321
 40
0.057926699
 40
0.073311897
 40
0.0887661271
 40
0.1197952252
 40
0.1509438533
 40
0.1821805059
 40
0.2134786606
 40
0.2448150581
 40
0.307572131
 40
0.3704169469
 40
0.433311204
 40
0.4962315965
 40
0.5591746168
 40
0.6221349423
 40
0.7480846006
 40
0.874045693
 40
1.0
 40
1.0
 40
1.0
 40
1.0
 10
13.6371024073
 20
28.536207663
 30
0.0
 10
13.6360140424
 20
28.5348257194
 30
0.0
 10
13.6337100293
 20
28.5326209598
 30
0.0
 10
13.6297132905
 20
28.5333967625
 30
0.0
 10
13.6258001246
 20
28.5351774083
 30
0.0
 10
13.620496457
 20
28.5371114299
 30
0.0
 10
13.61423121
 20
28.5396751289
 30
0.0
 10
13.6079975847
 20
28.5424748143
 30
0.0
 10
13.5995934611
 20
28.546258331
 30
0.0
 10
13.5891086772
 20
28.5512018962
 30
0.0
 10
13.5765321066
 20
28.5573034876
 30
0.0
 10
13.5597263266
 20
28.5656266568
 30
0.0
 10
13.538720128
 20
28.576233567
 30
0.0
 10
13.513541664
 20
28.5891892375
 30
0.0
 10
13.4883651113
 20
28.6023256825
 30
0.0
 10
13.4631952594
 20
28.6155973268
 30
0.0
 10
13.4296299807
 20
28.6334314653
 30
0.0
 10
13.3877126435
 20
28.6559259203
 30
0.0
 10
13.3374877204
 20
28.6831682908
 30
0.0
 10
13.287314699
 20
28.7106093674
 30
0.0
 10
13.2371978419
 20
28.7382145996
 30
0.0
 10
13.1871414849
 20
28.7659706955
 30
0.0
 10
13.1204729087
 20
28.8031653208
 30
0.0
 10
13.0372929624
 20
28.8499712336
 30
0.0
 10
12.9377254414
 20
28.9065893925
 30
0.0
 10
12.8715110231
 20
28.9446250574
 30
0.0
 10
12.8384463654
 20
28.9637144295
 30
0.0
  0
SPLINE
  5
2FD
100
AcDbEntity
  8
0
100
AcDbSpline
 62
7
  6
CONTINUOUS
 70
0
 71
3
 72
36
 73
32
 74
0
 42
0.0000001
 43
0.0000001
 44
0.0000000001
 40
0.0
 40
0.0
 40
0.0
 40
0.0
 40
0.0325365368
 40
0.0665628401
 40
0.1018977492
 40
0.1383698374
 40
0.175793069
 40
0.2139453491
 40
0.2914516111
 40
0.3689597378
 40
0.4445014897
 40
0.4809774254
 40
0.5163077188
 40
0.5503176302
 40
0.5828697575
 40
0.6138625454
 40
0.6432483634
 40
0.671032997
 40
0.6972957727
 40
0.7221890161
 40
0.7459528061
 40
0.768905087
 40
0.791432844
 40
0.8139601712
 40
0.8369123249
 40
0.860677284
 40
0.8855700131
 40
0.9118296227
 40
0.9396196268
 40
0.9690225697
 40
1.0
 40
1.0
 40
1.0
 40
1.0
 10
18.9050839384
 20
18.4414418634
 30
0.0
 10
18.9050839336
 20
18.5890928949
 30
0.0
 10
18.8919153945
 20
18.891262659
 30
0.0
 10
18.8363410551
 20
19.3507183916
 30
0.0
 10
18.744761144
 20
19.8225721925
 30
0.0
 10
18.6182345365
 20
20.3021870038
 30
0.0
 10
18.4578690837
 20
20.7850572384
 30
0.0
 10
18.1998122515
 20
21.430393562
 30
0.0
 10
17.8037694195
 20
22.2147686228
 30
0.0
 10
17.2295361511
 20
23.0918472886
 30
0.0
 10
16.6775275066
 20
23.7543912679
 30
0.0
 10
16.2025983207
 20
24.2256558649
 30
0.0
 10
15.839811501
 20
24.540847465
 30
0.0
 10
15.4697191305
 20
24.818733525
 30
0.0
 10
15.0959015679
 20
25.0567974397
 30
0.0
 10
14.7217725336
 20
25.25261389
 30
0.0
 10
14.3509071135
 20
25.4044402439
 30
0.0
 10
13.9866613652
 20
25.510575356
 30
0.0
 10
13.6324644953
 20
25.5700502792
 30
0.0
 10
13.2915955045
 20
25.5818482273
 30
0.0
 10
12.9673734423
 20
25.5457510321
 30
0.0
 10
12.6631748486
 20
25.4615486866
 30
0.0
 10
12.3822925089
 20
25.3301090091
 30
0.0
 10
12.1280155779
 20
25.1525856421
 30
0.0
 10
11.9029978618
 20
24.9312347106
 30
0.0
 10
11.7096372152
 20
24.6684881199
 30
0.0
 10
11.5494144402
 20
24.3674053408
 30
0.0
 10
11.4237910692
 20
24.0309286233
 30
0.0
 10
11.3335865752
 20
23.6623155929
 30
0.0
 10
11.2796859052
 20
23.2652094504
 30
0.0
 10
11.2682988065
 20
22.9910178655
 30
0.0
 10
11.2682988057
 20
22.8504420706
 30
0.0
  0
SPLINE
  5
2FE
100
AcDbEntity
  8
0
100
AcDbSpline
 62
7
  6
CONTINUOUS
 70
0
 71
3
 72
19
 73
15
 74
0
 42
0.0000001
 43
0.0000001
 44
0.0000000001
 40
0.0
 40
0.0
 40
0.0
 40
0.0
 40
0.0558248102
 40
0.1142059005
 40
0.174831835
 40
0.2374084148
 40
0.3670182158
 40
0.5000010962
 40
0.6329838235
 40
0.7625931791
 40
0.8251694371
 40
0.8857949894
 40
0.9441756499
 40
1.0
 40
1.0
 40
1.0
 40
1.0
 10
11.2682988057
 20
22.8504420706
 30
0.0
 10
11.2682988047
 20
22.7027902477
 30
0.0
 10
11.2814680857
 20
22.4006177126
 30
0.0
 10
11.3370442435
 20
21.941162634
 30
0.0
 10
11.4286210739
 20
21.4692964472
 30
0.0
 10
11.5993246591
 20
20.8223737424
 30
0.0
 10
11.897073714
 20
20.0130883053
 30
0.0
 10
12.3695771461
 20
19.0771710164
 30
0.0
 10
12.9438571487
 20
18.2000161362
 30
0.0
 10
13.4958463509
 20
17.5375199571
 30
0.0
 10
13.9707468234
 20
17.0662300431
 30
0.0
 10
14.3336064412
 20
16.7509935672
 30
0.0
 10
14.703717639
 20
16.4731405966
 30
0.0
 10
14.9588215883
 20
16.3106529729
 30
0.0
 10
15.0866914871
 20
16.2368289225
 30
0.0
  0
SPLINE
  5
2FF
100
AcDbEntity
  8
0
100
AcDbSpline
 62
7
  6
CONTINUOUS
 70
0
 71
3
 72
19
 73
15
 74
0
 42
0.0000001
 43
0.0000001
 44
0.0000000001
 40
0.0
 40
0.0
 40
0.0
 40
0.0
 40
0.0558341462
 40
0.1142086479
 40
0.174826854
 40
0.2374064231
 40
0.3670181203
 40
0.50000108
 40
0.6329838894
 40
0.7625951472
 40
0.8251743989
 40
0.8857922313
 40
0.9441663114
 40
1.0
 40
1.0
 40
1.0
 40
1.0
 10
10.2289027546
 20
23.5892095153
 30
0.0
 10
10.2289027546
 20
23.3966891346
 30
0.0
 10
10.2460455135
 20
23.0027469497
 30
0.0
 10
10.3185311621
 20
22.4037932043
 30
0.0
 10
10.4378984282
 20
21.7886758327
 30
0.0
 10
10.6604542165
 20
20.9453207226
 30
0.0
 10
11.0486040573
 20
19.8902626027
 30
0.0
 10
11.6646055628
 20
18.6701418164
 30
0.0
 10
12.4132650032
 20
17.5266132844
 30
0.0
 10
13.1328997722
 20
16.6629427566
 30
0.0
 10
13.7519898436
 20
16.048532779
 30
0.0
 10
14.2250134227
 20
15.6376047771
 30
0.0
 10
14.7074791517
 20
15.2753598615
 30
0.0
 10
15.0400710781
 20
15.0635473282
 30
0.0
 10
15.206798195
 20
14.96728956
 30
0.0
  0
SPLINE
  5
300
100
AcDbEntity
  8
0
100
AcDbSpline
 62
7
  6
CONTINUOUS
 70
0
 71
3
 72
23
 73
19
 74
0
 42
0.0000001
 43
0.0000001
 44
0.0000000001
 40
0.0
 40
0.0
 40
0.0
 40
0.0
 40
0.0742765413
 40
0.1447529373
 40
0.2113639819
 40
0.2743172952
 40
0.3339975135
 40
0.3909670013
 40
0.445991675
 40
0.4999980315
 40
0.5540044791
 40
0.6090294174
 40
0.6659993202
 40
0.7256800717
 40
0.7886340008
 40
0.8552457095
 40
0.9257227871
 40
1.0
 40
1.0
 40
1.0
 40
1.0
 10
15.206798195
 20
14.96728956
 30
0.0
 10
15.3655387389
 20
14.8756427376
 30
0.0
 10
15.682517138
 20
14.7097469801
 30
0.0
 10
16.1659828934
 20
14.5118093191
 30
0.0
 10
16.6408922747
 20
14.3733793578
 30
0.0
 10
17.1026507631
 20
14.2959409381
 30
0.0
 10
17.5470186309
 20
14.2804730091
 30
0.0
 10
17.9696893758
 20
14.3276266263
 30
0.0
 10
18.3662951959
 20
14.4372931912
 30
0.0
 10
18.7324174249
 20
14.6087682083
 30
0.0
 10
19.063975026
 20
14.8401104754
 30
0.0
 10
19.3572464503
 20
15.1287561844
 30
0.0
 10
19.6094123698
 20
15.4712308326
 30
0.0
 10
19.8181949238
 20
15.8638060493
 30
0.0
 10
19.9820047533
 20
16.3024267352
 30
0.0
 10
20.0995698324
 20
16.7829316623
 30
0.0
 10
20.1698779896
 20
17.3005998896
 30
0.0
 10
20.1846936354
 20
17.6580625918
 30
0.0
 10
20.1846936354
 20
17.841361004
 30
0.0
  0
SPLINE
  5
301
100
AcDbEntity
  8
0
100
AcDbSpline
 62
7
  6
CONTINUOUS
 70
0
 71
3
 72
14
 73
10
 74
0
 42
0.0000001
 43
0.0000001
 44
0.0000000001
 40
0.0
 40
0.0
 40
0.0
 40
0.0
 40
0.1442087326
 40
0.2827125559
 40
0.5419363813
 40
0.6633066947
 40
0.7796612925
 40
0.8916195039
 40
1.0
 40
1.0
 40
1.0
 40
1.0
 10
34.3521945382
 20
50.2822077754
 30
0.0
 10
34.1837323953
 20
50.3794672386
 30
0.0
 10
33.8470416102
 20
50.559421328
 30
0.0
 10
33.1789840771
 20
50.8570000321
 30
0.0
 10
32.5069694537
 20
51.0680628242
 30
0.0
 10
31.8444093882
 20
51.1758268633
 30
0.0
 10
31.37261831
 20
51.203739991
 30
0.0
 10
30.9181243208
 20
51.1801241692
 30
0.0
 10
30.6243877539
 20
51.1292668079
 30
0.0
 10
30.4822246588
 20
51.0951747701
 30
0.0
  0
SPLINE
  5
302
100
AcDbEntity
  8
0
100
AcDbSpline
 62
7
  6
CONTINUOUS
 70
0
 71
3
 72
26
 73
22
 74
0
 42
0.0000001
 43
0.0000001
 44
0.0000000001
 40
0.0
 40
0.0
 40
0.0
 40
0.0
 40
0.0612258985
 40
0.1261804632
 40
0.1942372884
 40
0.2646552949
 40
0.336573028
 40
0.4090749895
 40
0.4812203235
 40
0.552082586
 40
0.6207872001
 40
0.686551316
 40
0.748727838
 40
0.8068563115
 40
0.8607235704
 40
0.8860987769
 40
0.910480832
 40
0.9339441291
 40
0.956592865
 40
0.9785588453
 40
1.0
 40
1.0
 40
1.0
 40
1.0
 10
33.5956292445
 20
49.9940683685
 30
0.0
 10
33.9242344935
 20
49.8043523315
 30
0.0
 10
34.5775370649
 20
49.3709665745
 30
0.0
 10
35.5064142945
 20
48.6024210497
 30
0.0
 10
36.3983968569
 20
47.7089521938
 30
0.0
 10
37.2363334988
 20
46.7079396637
 30
0.0
 10
38.0042071779
 20
45.6184398429
 30
0.0
 10
38.6872634455
 20
44.4614529006
 30
0.0
 10
39.2723507397
 20
43.2592111343
 30
0.0
 10
39.7482200494
 20
42.0348389745
 30
0.0
 10
40.1057333075
 20
40.8118197411
 30
0.0
 10
40.3380203046
 20
39.6135354528
 30
0.0
 10
40.4405326697
 20
38.4626408277
 30
0.0
 10
40.4110805115
 20
37.3810072891
 30
0.0
 10
40.2737243476
 20
36.5373735109
 30
0.0
 10
40.0948027686
 20
35.9199152798
 30
0.0
 10
39.9314659026
 20
35.4959000685
 30
0.0
 10
39.7369942795
 20
35.1039445101
 30
0.0
 10
39.5122552114
 20
34.7459762796
 30
0.0
 10
39.2583589225
 20
34.4238507323
 30
0.0
 10
39.0684903278
 20
34.2322782446
 30
0.0
 10
38.9695202746
 20
34.1436125835
 30
0.0
  0
SPLINE
  5
303
100
AcDbEntity
  8
0
100
AcDbSpline
 62
7
  6
CONTINUOUS
 70
0
 71
3
 72
19
 73
15
 74
0
 42
0.0000001
 43
0.0000001
 44
0.0000000001
 40
0.0
 40
0.0
 40
0.0
 40
0.0
 40
0.0558341462
 40
0.1142086479
 40
0.174826854
 40
0.2374064231
 40
0.3670181203
 40
0.50000108
 40
0.6329838894
 40
0.7625951472
 40
0.8251743989
 40
0.8857922313
 40
0.9441663114
 40
1.0
 40
1.0
 40
1.0
 40
1.0
 10
20.1846936354
 20
17.841361004
 30
0.0
 10
20.1846936354
 20
18.0338813847
 30
0.0
 10
20.1675508765
 20
18.4278235696
 30
0.0
 10
20.0950652279
 20
19.026777315
 30
0.0
 10
19.9756979618
 20
19.6418946866
 30
0.0
 10
19.7531421735
 20
20.4852497967
 30
0.0
 10
19.3649923327
 20
21.5403079166
 30
0.0
 10
18.7489908272
 20
22.7604287029
 30
0.0
 10
18.0003313867
 20
23.9039572349
 30
0.0
 10
17.2806966178
 20
24.7676277627
 30
0.0
 10
16.6616065463
 20
25.3820377403
 30
0.0
 10
16.1885829673
 20
25.7929657422
 30
0.0
 10
15.7061172383
 20
26.1552106578
 30
0.0
 10
15.3735253118
 20
26.3670231911
 30
0.0
 10
15.206798195
 20
26.4632809593
 30
0.0
  0
SPLINE
  5
304
100
AcDbEntity
  8
0
100
AcDbSpline
 62
7
  6
CONTINUOUS
 70
0
 71
3
 72
23
 73
19
 74
0
 42
0.0000001
 43
0.0000001
 44
0.0000000001
 40
0.0
 40
0.0
 40
0.0
 40
0.0
 40
0.0742765413
 40
0.1447529373
 40
0.2113639819
 40
0.2743172952
 40
0.3339975135
 40
0.3909670013
 40
0.445991675
 40
0.4999980315
 40
0.5540044791
 40
0.6090294174
 40
0.6659993202
 40
0.7256800717
 40
0.7886340008
 40
0.8552457095
 40
0.9257227871
 40
1.0
 40
1.0
 40
1.0
 40
1.0
 10
15.206798195
 20
26.4632809593
 30
0.0
 10
15.048057651
 20
26.5549277817
 30
0.0
 10
14.731079252
 20
26.7208235392
 30
0.0
 10
14.2476134965
 20
26.9187612002
 30
0.0
 10
13.7727041153
 20
27.0571911616
 30
0.0
 10
13.3109456268
 20
27.1346295812
 30
0.0
 10
12.8665777591
 20
27.1500975102
 30
0.0
 10
12.4439070142
 20
27.102943893
 30
0.0
 10
12.0473011941
 20
26.9932773281
 30
0.0
 10
11.6811789651
 20
26.8218023111
 30
0.0
 10
11.349621364
 20
26.5904600439
 30
0.0
 10
11.0563499397
 20
26.3018143349
 30
0.0
 10
10.8041840201
 20
25.9593396867
 30
0.0
 10
10.5954014662
 20
25.56676447
 30
0.0
 10
10.4315916366
 20
25.1281437842
 30
0.0
 10
10.3140265575
 20
24.647638857
 30
0.0
 10
10.2437184004
 20
24.1299706297
 30
0.0
 10
10.2289027546
 20
23.7725079276
 30
0.0
 10
10.2289027546
 20
23.5892095153
 30
0.0
  0
SPLINE
  5
305
100
AcDbEntity
  8
0
100
AcDbSpline
 62
7
  6
CONTINUOUS
 70
0
 71
3
 72
9
 73
5
 74
0
 42
0.0000001
 43
0.0000001
 44
0.0000000001
 40
0.0
 40
0.0
 40
0.0
 40
0.0
 40
0.2321250009
 40
1.0
 40
1.0
 40
1.0
 40
1.0
 10
24.3798543117
 20
23.4274746771
 30
0.0
 10
24.3816653406
 20
23.4288328545
 30
0.0
 10
24.3887485254
 20
23.4356577632
 30
0.0
 10
24.3927149432
 20
23.4451274743
 30
0.0
 10
24.394501347
 20
23.4523997477
 30
0.0
  0
SPLINE
  5
306
100
AcDbEntity
  8
0
100
AcDbSpline
 62
7
  6
CONTINUOUS
 70
0
 71
3
 72
9
 73
5
 74
0
 42
0.0000001
 43
0.0000001
 44
0.0000000001
 40
0.0
 40
0.0
 40
0.0
 40
0.0
 40
0.2371326641
 40
1.0
 40
1.0
 40
1.0
 40
1.0
 10
24.394501347
 20
23.4523997477
 30
0.0
 10
24.3948161544
 20
23.4536812974
 30
0.0
 10
24.3959896993
 20
23.4591213473
 30
0.0
 10
24.3964274143
 20
23.4647283238
 30
0.0
 10
24.3962829138
 20
23.468971239
 30
0.0
  0
SPLINE
  5
307
100
AcDbEntity
  8
0
100
AcDbSpline
 62
7
  6
CONTINUOUS
 70
0
 71
3
 72
9
 73
5
 74
0
 42
0.0000001
 43
0.0000001
 44
0.0000000001
 40
0.0
 40
0.0
 40
0.0
 40
0.0
 40
0.4744877066
 40
1.0
 40
1.0
 40
1.0
 40
1.0
 10
24.3962829138
 20
29.3850589568
 30
0.0
 10
24.3961845627
 20
29.3971641118
 30
0.0
 10
24.3916970608
 20
29.4227295978
 30
0.0
 10
24.3808439136
 20
29.4460118784
 30
0.0
 10
24.3744389328
 20
29.4577903745
 30
0.0
  0
SPLINE
  5
308
100
AcDbEntity
  8
0
100
AcDbSpline
 62
7
  6
CONTINUOUS
 70
0
 71
3
 72
11
 73
7
 74
0
 42
0.0000001
 43
0.0000001
 44
0.0000000001
 40
0.0
 40
0.0
 40
0.0
 40
0.0
 40
0.2360469841
 40
0.4974534314
 40
0.7602396917
 40
1.0
 40
1.0
 40
1.0
 40
1.0
 10
24.3996081342
 20
23.0616002527
 30
0.0
 10
24.3995061398
 20
23.0842543994
 30
0.0
 10
24.3913829477
 20
23.1320317066
 30
0.0
 10
24.3622685965
 20
23.1995272744
 30
0.0
 10
24.3195293895
 20
23.2597258093
 30
0.0
 10
24.2828292262
 20
23.2921020417
 30
0.0
 10
24.2633171696
 20
23.3042993642
 30
0.0
  0
ELLIPSE
  5
309
100
AcDbEntity
  8
0
100
AcDbEllipse
 62
7
  6
CONTINUOUS
 10
25.8038632176
 20
23.3995919389
 30
0.0
 11
0.9999163136
 21
-0.0229562587
 31
0.0
 40
0.5614199498
 41
-2.3433018602
 42
-2.2017637471
  0
ELLIPSE
  5
30A
100
AcDbEntity
  8
0
100
AcDbEllipse
 62
7
  6
CONTINUOUS
 10
6.4423228616
 20
34.577729592
 30
0.0
 11
0.9999163136
 21
-0.0229562587
 31
0.0
 40
0.5614199498
 41
-2.4848399734
 42
-2.3433018602
  0
ELLIPSE
  5
30B
100
AcDbEntity
  8
0
100
AcDbEllipse
 62
7
  6
CONTINUOUS
 10
-377.3016018506
 20
-187.4748620006
 30
0.0
 11
408.6591131341
 21
231.873141428
 31
0.0
 40
0.0075571445
 41
-0.0042878965
 42
0.1500330246
  0
ELLIPSE
  5
30C
100
AcDbEntity
  8
0
100
AcDbEllipse
 62
7
  6
CONTINUOUS
 10
1114.1758971313
 20
932.3061971316
 30
0.0
 11
1112.566302525
 21
887.4038405467
 31
0.0
 40
0.1727490071
 41
-3.1096122353
 42
-3.0382136853
  0
ELLIPSE
  5
30D
100
AcDbEntity
  8
0
100
AcDbEllipse
 62
7
  6
CONTINUOUS
 10
8308.506634959
 20
5085.9301914642
 30
0.0
 11
8300.8358331364
 21
5052.500455402
 31
0.0
 40
0.0237915238
 41
3.1182395534
 42
3.1189034397
  0
ELLIPSE
  5
30E
100
AcDbEntity
  8
0
100
AcDbEllipse
 62
7
  6
CONTINUOUS
 10
6.4423228616
 20
40.6449628029
 30
0.0
 11
0.9998939333
 21
0.0244878907
 31
0.0
 40
0.592987056
 41
-2.5122499617
 42
-2.3707118486
  0
ELLIPSE
  5
30F
100
AcDbEntity
  8
0
100
AcDbEllipse
 62
7
  6
CONTINUOUS
 10
8308.506634959
 20
5085.9301914642
 30
0.0
 11
8300.8358331364
 21
5052.5004554019
 31
0.0
 40
0.0237915238
 41
-3.0928833175
 42
-3.0922194312
  0
ELLIPSE
  5
310
100
AcDbEntity
  8
0
100
AcDbEllipse
 62
7
  6
CONTINUOUS
 10
25.8038632176
 20
29.4668251497
 30
0.0
 11
0.9998939333
 21
0.0244878907
 31
0.0
 40
0.592987056
 41
-2.3707118486
 42
-2.2291737354
  0
ENDSEC
  0
SECTION
  2
OBJECTS
  0
DICTIONARY
  5
C
100
AcDbDictionary
280
0
281
1
  3
ACAD_GROUP
350
D
  3
ACAD_MLINESTYLE
350
17
  3
ACAD_LAYOUT
350
1A
  3
ACAD_PLOTSETTINGS
350
19
  3
ACAD_PLOTSTYLENAME
350
E
  0
DICTIONARY
  5
D
102
{ACAD_REACTORS
330
C
102
}
100
AcDbDictionary
280
0
281
1
  0
ACDBDICTIONARYWDFLT
  5
E
102
{ACAD_REACTORS
330
C
102
}
100
AcDbDictionary
281
1
  3
Normal
350
F
100
AcDbDictionaryWithDefault
340
F
  0
DICTIONARY
  5
17
102
{ACAD_REACTORS
330
C
102
}
100
AcDbDictionary
280
0
281
1
  3
Standard
350
18
  0
DICTIONARY
  5
19
102
{ACAD_REACTORS
330
C
102
}
100
AcDbDictionary
281
1
  0
DICTIONARY
  5
1A
102
{ACAD_REACTORS
330
C
102
}
100
AcDbDictionary
281
1
  3
Model
350
311
  3
Layout1
350
312
  0
ACDBPLACEHOLDER
  5
F
102
{ACAD_REACTORS
330
E
102
}
  0
MLINESTYLE
  5
18
102
{ACAD_REACTORS
330
17
102
}
100
AcDbMlineStyle
  2
STANDARD
 70
0
  3

 62
256
 51
90.0
 52
90.0
 71
2
 49
0.5
 62
256
  6
BYLAYER
 49
-0.5
 62
256
  6
BYLAYER
  0
LAYOUT
  5
311
102
{ACAD_REACTORS
330
1A
102
}
100
AcDbPlotSettings
  1

  2
none_device
  4

  6

 40
0.0
 41
0.0
 42
0.0
 43
0.0
 44
210.0
 45
297.0
 46
0.0
 47
0.0
 48
0.0
 49
0.0
140
0.0
141
0.0
142
1.0
143
1.0
 70
1024
 72
1
 73
0
 74
0
  7

 75
0
147
1.0
148
0.0
149
0.0
100
AcDbLayout
  1
Model
 70
0
 71
0
 10
0.0
 20
0.0
 11
210.0
 21
297.0
 12
0.0
 22
0.0
 32
0.0
 14
0.0
 24
0.0
 34
0.0
 15
0.0
 25
0.0
 35
0.0
146
0.0
 13
0.0
 23
0.0
 33
0.0
 16
1.0
 26
0.0
 36
0.0
 17
0.0
 27
1.0
 37
0.0
 76
0
330
210
345
0
346
0
  0
LAYOUT
  5
312
102
{ACAD_REACTORS
330
1A
102
}
100
AcDbPlotSettings
  1

  2
none_device
  4

  6

 40
0.0
 41
0.0
 42
0.0
 43
0.0
 44
210.0
 45
297.0
 46
0.0
 47
0.0
 48
0.0
 49
0.0
140
0.0
141
0.0
142
1.0
143
1.0
 70
0
 72
1
 73
0
 74
0
  7

 75
0
147
1.0
148
0.0
149
0.0
100
AcDbLayout
  1
Layout1
 70
0
 71
1
 10
0.0
 20
0.0
 11
210.0
 21
297.0
 12
0.0
 22
0.0
 32
0.0
 14
0.0
 24
0.0
 34
0.0
 15
0.0
 25
0.0
 35
0.0
146
0.0
 13
0.0
 23
0.0
 33
0.0
 16
1.0
 26
0.0
 36
0.0
 17
0.0
 27
1.0
 37
0.0
 76
0
330
211
345
0
346
0
  0
ENDSEC
  0
EOF
