999
DXF file: C:\Users\sesa63760\Dev\_Creo\CAD\MCADID0000253_3D-CAD\drw0001_1.dxf
999
Pro/ENGINEER 2019471 by Parametric Technology Corporation
  0
SECTION
  2
HEADER
  9
$ACADVER
  1
AC1024
  9
$DWGCODEPAGE
  3
ANSI_1252
  9
$EXTMAX
 10
416.9482329512
 20
589.6839294596
 30
0.0
  9
$EXTMIN
 10
0.0
 20
0.0
 30
0.0
  9
$LIMMIN
 10
0.0
 20
0.0
  9
$LIMMAX
 10
416.9482329512
 20
589.6839294596
  9
$VIEWCTR
 10
208.4741164756
 20
294.8419647298
  9
$VIEWSIZE
 40
589.6839294596
  9
$CLAYER
  8
0
  9
$LTSCALE
 40
38.4386561426
  9
$CELTYPE
  6
BYLAYER
  9
$DIMSCALE
 40
1.0
  9
$DIMASZ
 40
4.9636694399
  9
$DIMEXO
 40
1.0
  9
$DIMDLI
 40
26.5576169712
  9
$DIMEXE
 40
1.0
  9
$DIMCEN
 40
6.2899619142
  9
$DIMLFAC
 40
1.0
  9
$DIMBLK
  1
_FILLED
  9
$DIMALT
 70
0
  9
$DIMALTF
 40
0.0393700787
  9
$DIMTXT
 40
6.9491372159
  9
$DIMTOL
 70
1
  9
$DIMLIM
 70
0
  9
$DIMTFAC
 40
1.0
  9
$DIMTP
 40
0.01
  9
$DIMTM
 40
0.01
  9
$DIMGAP
 40
0.625
  9
$DIMDSEP
 70
46
  9
$AUNITS
 70
0
  9
$PDMODE
 70
3
  9
$PDSIZE
 40
0.3125
  9
$HANDSEED
  5
2EF
  9
$TILEMODE
 70
1
  9
$MEASUREMENT
 70
1
  9
$INSUNITS
 70
4
  0
ENDSEC
  0
SECTION
  2
CLASSES
  0
CLASS
  1
ACDBDICTIONARYWDFLT
  2
AcDbDictionaryWithDefault
  3
AutoCAD 2000
 90
0
 91
1
280
0
281
0
  0
CLASS
  1
ACDBPLACEHOLDER
  2
AcDbPlaceHolder
  3
AutoCAD 2000
 90
0
 91
1
280
0
281
0
  0
CLASS
  1
LAYOUT
  2
AcDbLayout
  3
AutoCAD 2000
 90
0
 91
0
280
0
281
0
  0
ENDSEC
  0
SECTION
  2
TABLES
  0
TABLE
  2
VPORT
  5
8
100
AcDbSymbolTable
 70
2
  0
VPORT
  5
1F4
100
AcDbSymbolTableRecord
100
AcDbViewportTableRecord
  2
*ACTIVE
 70
0
 10
0.0
 20
0.0
 11
1.0
 21
1.0
 12
208.4741164756
 22
294.8419647298
 13
0.0
 23
0.0
 14
1.0
 24
1.0
 15
0.0
 25
0.0
 16
0.0
 26
0.0
 36
1.0
 17
0.0
 27
0.0
 37
0.0
 40
589.6839294596
 41
0.7070707071
 42
50.0
 43
0.0
 44
0.0
 50
0.0
 51
0.0
 71
0
 72
100
 73
1
 74
1
 75
0
 76
0
 77
0
 78
0
  0
ENDTAB
  0
TABLE
  2
LTYPE
  5
5
100
AcDbSymbolTable
 70
6
  0
LTYPE
  5
14
100
AcDbSymbolTableRecord
100
AcDbLinetypeTableRecord
  2
BYBLOCK
 70
0
  3

 72
65
 73
0
 40
0.0
  0
LTYPE
  5
15
100
AcDbSymbolTableRecord
100
AcDbLinetypeTableRecord
  2
BYLAYER
 70
0
  3

 72
65
 73
0
 40
0.0
  0
LTYPE
  5
16
100
AcDbSymbolTableRecord
100
AcDbLinetypeTableRecord
  2
CONTINUOUS
 70
64
  3
Solid line
 72
65
 73
0
 40
0.0
  0
LTYPE
  5
1F5
100
AcDbSymbolTableRecord
100
AcDbLinetypeTableRecord
  2
CENTER
 70
64
  3
____ _ ____ _ ____ _ ____ _ ____ _ ____ _ ____
 72
65
 73
4
 40
0.6
 49
0.375
 74
0
 49
-0.075
 74
0
 49
0.075
 74
0
 49
-0.075
 74
0
  0
LTYPE
  5
1F6
100
AcDbSymbolTableRecord
100
AcDbLinetypeTableRecord
  2
HIDDEN
 70
64
  3
- - - - - - - - - - - - - - - - - - - -
 72
65
 73
2
 40
0.2
 49
0.1
 74
0
 49
-0.1
 74
0
  0
LTYPE
  5
1F7
100
AcDbSymbolTableRecord
100
AcDbLinetypeTableRecord
  2
PHANTOM
 70
64
  3
_____ _ _ _____ _ _ _____ _ _ _____
 72
65
 73
6
 40
0.8
 49
0.45
 74
0
 49
-0.05
 74
0
 49
0.1
 74
0
 49
-0.05
 74
0
 49
0.1
 74
0
 49
-0.05
 74
0
  0
LTYPE
  5
1F8
100
AcDbSymbolTableRecord
100
AcDbLinetypeTableRecord
  2
DOT
 70
64
  3
. . . . . . . . . . . . . . . . . . . .
 72
65
 73
2
 40
0.2
 49
0.1
 74
0
 49
-0.1
 74
0
  0
LTYPE
  5
1F9
100
AcDbSymbolTableRecord
100
AcDbLinetypeTableRecord
  2
DASHED
 70
64
  3
- - - - - - - - - - - - - - - - - - - -
 72
65
 73
2
 40
0.2
 49
0.1
 74
0
 49
-0.1
 74
0
  0
ENDTAB
  0
TABLE
  2
LAYER
  5
2
100
AcDbSymbolTable
 70
36
  0
LAYER
  5
10
100
AcDbSymbolTableRecord
100
AcDbLayerTableRecord
  2
0
 70
0
 62
7
  6
CONTINUOUS
370
-3
390
F
  0
LAYER
  5
1FA
100
AcDbSymbolTableRecord
100
AcDbLayerTableRecord
  2
DEFAULT_1
 70
0
 62
7
  6
CENTER
370
-3
390
F
  0
LAYER
  5
1FB
100
AcDbSymbolTableRecord
100
AcDbLayerTableRecord
  2
DEFAULT_2
 70
0
 62
8
  6
HIDDEN
370
-3
390
F
  0
LAYER
  5
1FC
100
AcDbSymbolTableRecord
100
AcDbLayerTableRecord
  2
DEFAULT_3
 70
0
 62
7
  6
PHANTOM
370
-3
390
F
  0
LAYER
  5
1FD
100
AcDbSymbolTableRecord
100
AcDbLayerTableRecord
  2
00_COMPONENTS
 70
0
 62
7
  6
CONTINUOUS
370
-3
390
F
  0
LAYER
  5
1FE
100
AcDbSymbolTableRecord
100
AcDbLayerTableRecord
  2
01_1_DEFAULT_DATUMS
 70
0
 62
7
  6
CONTINUOUS
370
-3
390
F
  0
LAYER
  5
1FF
100
AcDbSymbolTableRecord
100
AcDbLayerTableRecord
  2
01_PLANES
 70
0
 62
7
  6
CONTINUOUS
370
-3
390
F
  0
LAYER
  5
200
100
AcDbSymbolTableRecord
100
AcDbLayerTableRecord
  2
02_COORD_SYS
 70
0
 62
7
  6
CONTINUOUS
370
-3
390
F
  0
LAYER
  5
201
100
AcDbSymbolTableRecord
100
AcDbLayerTableRecord
  2
03_AXES
 70
0
 62
7
  6
CONTINUOUS
370
-3
390
F
  0
LAYER
  5
202
100
AcDbSymbolTableRecord
100
AcDbLayerTableRecord
  2
04_POINTS
 70
0
 62
7
  6
CONTINUOUS
370
-3
390
F
  0
LAYER
  5
203
100
AcDbSymbolTableRecord
100
AcDbLayerTableRecord
  2
05_CURVES
 70
0
 62
7
  6
CONTINUOUS
370
-3
390
F
  0
LAYER
  5
204
100
AcDbSymbolTableRecord
100
AcDbLayerTableRecord
  2
06_SURFS
 70
0
 62
7
  6
CONTINUOUS
370
-3
390
F
  0
LAYER
  5
205
100
AcDbSymbolTableRecord
100
AcDbLayerTableRecord
  2
07_COSMETICS
 70
0
 62
7
  6
CONTINUOUS
370
-3
390
F
  0
LAYER
  5
206
100
AcDbSymbolTableRecord
100
AcDbLayerTableRecord
  2
10_NOTES
 70
0
 62
7
  6
CONTINUOUS
370
-3
390
F
  0
LAYER
  5
207
100
AcDbSymbolTableRecord
100
AcDbLayerTableRecord
  2
11_NOTES_PUB
 70
0
 62
7
  6
CONTINUOUS
370
-3
390
F
  0
LAYER
  5
208
100
AcDbSymbolTableRecord
100
AcDbLayerTableRecord
  2
13_REF_GTOL
 70
0
 62
7
  6
CONTINUOUS
370
-3
390
F
  0
LAYER
  5
209
100
AcDbSymbolTableRecord
100
AcDbLayerTableRecord
  2
16_MISC
 70
0
 62
7
  6
CONTINUOUS
370
-3
390
F
  0
LAYER
  5
20A
100
AcDbSymbolTableRecord
100
AcDbLayerTableRecord
  2
17_NO_PRINT
 70
0
 62
7
  6
CONTINUOUS
370
-3
390
F
  0
LAYER
  5
20B
100
AcDbSymbolTableRecord
100
AcDbLayerTableRecord
  2
18_DATUM_CAMS_JOINTS
 70
0
 62
7
  6
CONTINUOUS
370
-3
390
F
  0
LAYER
  5
20C
100
AcDbSymbolTableRecord
100
AcDbLayerTableRecord
  2
19_DATUM_FUNCTIONAL
 70
0
 62
7
  6
CONTINUOUS
370
-3
390
F
  0
LAYER
  5
20D
100
AcDbSymbolTableRecord
100
AcDbLayerTableRecord
  2
20_DATUM_KINEMATIC_SCHEME
 70
0
 62
7
  6
CONTINUOUS
370
-3
390
F
  0
ENDTAB
  0
TABLE
  2
STYLE
  5
3
100
AcDbSymbolTable
 70
1
  0
STYLE
  5
11
100
AcDbSymbolTableRecord
100
AcDbTextStyleTableRecord
  2
STANDARD
 70
0
 40
0.0
 41
0.8
 50
0.0
 71
0
 42
0.2
  3
txt
  4

  0
STYLE
  5
20E
100
AcDbSymbolTableRecord
100
AcDbTextStyleTableRecord
  2
TEXTSTYLE_1
 70
0
 40
0.0
 41
0.8
 50
0.0
 71
0
 42
0.2
  3
gdt
  4

  0
ENDTAB
  0
TABLE
  2
VIEW
  5
6
100
AcDbSymbolTable
 70
0
  0
ENDTAB
  0
TABLE
  2
UCS
  5
7
100
AcDbSymbolTable
 70
0
  0
ENDTAB
  0
TABLE
  2
APPID
  5
9
100
AcDbSymbolTable
 70
1
  0
APPID
  5
20F
100
AcDbSymbolTableRecord
100
AcDbRegAppTableRecord
  2
ACAD
 70
0
  0
ENDTAB
  0
TABLE
  2
BLOCK_RECORD
  5
1
100
AcDbSymbolTable
 70
0
  0
BLOCK_RECORD
  5
210
100
AcDbSymbolTableRecord
100
AcDbBlockTableRecord
  2
*Model_Space
  0
BLOCK_RECORD
  5
211
100
AcDbSymbolTableRecord
100
AcDbBlockTableRecord
  2
*Paper_Space
  0
BLOCK_RECORD
  5
212
100
AcDbSymbolTableRecord
100
AcDbBlockTableRecord
  2
_FILLED
  0
ENDTAB
  0
TABLE
  2
DIMSTYLE
  5
A
100
AcDbSymbolTable
 70
1
100
AcDbDimStyleTable
 71
0
  0
DIMSTYLE
105
213
100
AcDbSymbolTableRecord
100
AcDbDimStyleTableRecord
  2
STANDARD
 70
0
  3

  4

 40
1.0
 41
4.9636694399
 42
1.0
 43
0.38
 44
1.0
 45
0.0
 46
0.0
 47
0.01
 48
0.01
140
6.9491372159
141
0.09
142
0.0
143
25.4
144
1.0
145
0.0
146
1.0
147
0.625
 71
1
 72
0
 73
0
 74
0
 75
0
 76
0
 77
1
 78
8
 79
2
170
0
171
1
172
0
173
0
174
0
175
0
176
0
177
0
178
0
270
2
179
2
271
2
272
2
273
2
274
2
275
0
280
0
281
0
282
0
283
1
284
8
285
0
286
0
287
3
288
0
340
11
278
46
341
212
342
212
343
212
344
212
  0
ENDTAB
  0
ENDSEC
  0
SECTION
  2
BLOCKS
  0
BLOCK
  5
20
100
AcDbEntity
  8
0
100
AcDbBlockBegin
  2
*Model_Space
 70
0
 10
0.0
 20
0.0
 30
0.0
  3
*Model_Space
  1

  0
ENDBLK
  5
21
100
AcDbEntity
  8
0
100
AcDbBlockEnd
  0
BLOCK
  5
1C
100
AcDbEntity
  8
0
100
AcDbBlockBegin
  2
*Paper_Space
 70
0
 10
0.0
 20
0.0
 30
0.0
  3
*Paper_Space
  1

  0
ENDBLK
  5
1D
100
AcDbEntity
  8
0
100
AcDbBlockEnd
  0
BLOCK
  5
214
100
AcDbEntity
  8
0
100
AcDbBlockBegin
  2
_FILLED
 70
64
 10
0.0
 20
0.0
  3
_FILLED
  1

  0
SOLID
  5
215
100
AcDbEntity
  8
0
  6
BYBLOCK
 62
0
100
AcDbTrace
 10
0.0
 20
0.0
 11
-1.0
 21
0.25
 12
-1.0
 22
-0.25
 13
-1.0
 23
-0.25
  0
ENDBLK
  5
216
100
AcDbEntity
  8
0
  6
BYBLOCK
 62
0
100
AcDbBlockEnd
  0
ENDSEC
  0
SECTION
  2
ENTITIES
  0
LINE
  5
217
100
AcDbEntity
  8
0
100
AcDbLine
 62
7
  6
CONTINUOUS
 10
48.3707921257
 20
249.7723995117
 11
48.3707921257
 21
315.092592882
  0
LINE
  5
218
100
AcDbEntity
  8
0
100
AcDbLine
 62
7
  6
CONTINUOUS
 10
63.007841556
 20
239.325109162
 11
64.6048483461
 21
224.395994645
  0
LINE
  5
219
100
AcDbEntity
  8
0
100
AcDbLine
 62
7
  6
CONTINUOUS
 10
63.007841556
 20
239.325109162
 11
63.007841556
 21
241.3218862591
  0
LINE
  5
21A
100
AcDbEntity
  8
0
100
AcDbLine
 62
7
  6
CONTINUOUS
 10
63.007841556
 20
323.5432468672
 11
63.007841556
 21
329.9936159625
  0
LINE
  5
21B
100
AcDbEntity
  8
0
100
AcDbLine
 62
7
  6
CONTINUOUS
 10
65.8362569049
 20
331.8715433031
 11
65.8362569049
 21
331.626592578
  0
LINE
  5
21C
100
AcDbEntity
  8
0
100
AcDbLine
 62
7
  6
CONTINUOUS
 10
69.3718055306
 20
329.8303395305
 11
69.3718055306
 21
329.5853888054
  0
LINE
  5
21D
100
AcDbEntity
  8
0
100
AcDbLine
 62
7
  6
CONTINUOUS
 10
155.3034887172
 20
172.0322948368
 11
64.6048483461
 21
224.395994645
  0
LINE
  5
21E
100
AcDbEntity
  8
0
100
AcDbLine
 62
7
  6
CONTINUOUS
 10
102.8177875912
 20
353.2227125506
 11
111.6565855563
 21
368.5320446881
  0
LINE
  5
21F
100
AcDbEntity
  8
0
100
AcDbLine
 62
7
  6
CONTINUOUS
 10
102.1111312369
 20
218.7461021681
 11
48.3707921257
 21
249.7723995117
  0
LINE
  5
220
100
AcDbEntity
  8
0
100
AcDbLine
 62
7
  6
CONTINUOUS
 10
96.9491083631
 20
298.6405608413
 11
96.9491083631
 21
303.9476906502
  0
LINE
  5
221
100
AcDbEntity
  8
0
100
AcDbLine
 62
7
  6
CONTINUOUS
 10
102.1111312369
 20
284.0662955385
 11
102.1111312369
 21
218.7461021681
  0
LINE
  5
222
100
AcDbEntity
  8
0
100
AcDbLine
 62
7
  6
CONTINUOUS
 10
115.1921341821
 20
366.4908409155
 11
106.3533362169
 21
351.181508778
  0
LINE
  5
223
100
AcDbEntity
  8
0
100
AcDbLine
 62
7
  6
CONTINUOUS
 10
117.3134633575
 20
365.266118652
 11
108.4746653923
 21
349.9567865144
  0
LINE
  5
224
100
AcDbEntity
  8
0
100
AcDbLine
 62
7
  6
CONTINUOUS
 10
157.6819743206
 20
395.1046566636
 11
111.6565855563
 21
368.5320446881
  0
LINE
  5
225
100
AcDbEntity
  8
0
100
AcDbLine
 62
7
  6
CONTINUOUS
 10
161.2175229463
 20
393.063452891
 11
115.1921341821
 21
366.4908409155
  0
LINE
  5
226
100
AcDbEntity
  8
0
100
AcDbLine
 62
7
  6
CONTINUOUS
 10
163.3388521218
 20
391.8387306275
 11
161.1667929331
 21
390.5846991557
  0
LINE
  5
227
100
AcDbEntity
  8
0
100
AcDbLine
 62
7
  6
CONTINUOUS
 10
122.066451552
 20
368.0102412853
 11
117.3134633575
 21
365.266118652
  0
LINE
  5
228
100
AcDbEntity
  8
0
100
AcDbLine
 62
7
  6
CONTINUOUS
 10
112.1520057253
 20
289.8633625235
 11
112.1520057253
 21
224.5431691531
  0
LINE
  5
229
100
AcDbEntity
  8
0
100
AcDbLine
 62
7
  6
CONTINUOUS
 10
125.1587773411
 20
368.0163525562
 11
161.1631836757
 21
388.8033821637
  0
LINE
  5
22A
100
AcDbEntity
  8
0
100
AcDbLine
 62
7
  6
CONTINUOUS
 10
102.8177875912
 20
353.2227125506
 11
65.8362569049
 21
331.8715433031
  0
LINE
  5
22B
100
AcDbEntity
  8
0
100
AcDbLine
 62
7
  6
CONTINUOUS
 10
63.007841556
 20
329.9936159625
 11
65.8362569049
 21
331.626592578
  0
LINE
  5
22C
100
AcDbEntity
  8
0
100
AcDbLine
 62
7
  6
CONTINUOUS
 10
166.4642951933
 20
387.5262539911
 11
167.5815192561
 21
388.1712797542
  0
LINE
  5
22D
100
AcDbEntity
  8
0
100
AcDbLine
 62
7
  6
CONTINUOUS
 10
106.3533362169
 20
351.181508778
 11
69.3718055306
 21
329.8303395305
  0
LINE
  5
22E
100
AcDbEntity
  8
0
100
AcDbLine
 62
7
  6
CONTINUOUS
 10
207.9641281849
 20
409.8461061457
 11
203.862925929
 21
407.4782900532
  0
LINE
  5
22F
100
AcDbEntity
  8
0
100
AcDbLine
 62
7
  6
CONTINUOUS
 10
166.6933977495
 20
385.6105838102
 11
130.6889914149
 21
364.8235542027
  0
LINE
  5
230
100
AcDbEntity
  8
0
100
AcDbLine
 62
7
  6
CONTINUOUS
 10
74.3215500549
 20
330.2385938825
 11
108.4746653923
 21
349.9567865144
  0
LINE
  5
231
100
AcDbEntity
  8
0
100
AcDbLine
 62
7
  6
CONTINUOUS
 10
48.3707921257
 20
315.092592882
 11
63.007841556
 21
323.5432468672
  0
LINE
  5
232
100
AcDbEntity
  8
0
100
AcDbLine
 62
7
  6
CONTINUOUS
 10
171.4044820315
 20
385.9641410989
 11
131.1869165876
 21
362.7446574653
  0
LINE
  5
233
100
AcDbEntity
  8
0
100
AcDbLine
 62
7
  6
CONTINUOUS
 10
211.4996768106
 20
407.8049023731
 11
207.3984745548
 21
405.4370862806
  0
LINE
  5
234
100
AcDbEntity
  8
0
100
AcDbLine
 62
7
  6
CONTINUOUS
 10
77.8571597768
 20
328.1973548368
 11
122.066451552
 21
353.7214489855
  0
LINE
  5
235
100
AcDbEntity
  8
0
100
AcDbLine
 62
7
  6
CONTINUOUS
 10
171.4044820315
 20
382.2066041307
 11
209.5198037302
 21
404.212364017
  0
LINE
  5
236
100
AcDbEntity
  8
0
100
AcDbLine
 62
7
  6
CONTINUOUS
 10
122.066451552
 20
368.0102412853
 11
122.066451552
 21
353.7214489855
  0
LINE
  5
237
100
AcDbEntity
  8
0
100
AcDbLine
 62
7
  6
CONTINUOUS
 10
131.1869165876
 20
348.4558651655
 11
131.1869165876
 21
362.7446574653
  0
LINE
  5
238
100
AcDbEntity
  8
0
100
AcDbLine
 62
7
  6
CONTINUOUS
 10
131.1869165876
 20
348.4558651655
 11
171.4044820315
 21
371.6753487991
  0
LINE
  5
239
100
AcDbEntity
  8
0
100
AcDbLine
 62
7
  6
CONTINUOUS
 10
236.6347376929
 20
406.8704741113
 11
238.0869435968
 21
407.4881348849
  0
LINE
  5
23A
100
AcDbEntity
  8
0
100
AcDbLine
 62
7
  6
CONTINUOUS
 10
240.2083139878
 20
401.3004803401
 11
243.7058349444
 21
402.7880665661
  0
LINE
  5
23B
100
AcDbEntity
  8
0
100
AcDbLine
 62
7
  6
CONTINUOUS
 10
133.7188140707
 20
285.0870284248
 11
133.7188140707
 21
274.8832892399
  0
LINE
  5
23C
100
AcDbEntity
  8
0
100
AcDbLine
 62
7
  6
CONTINUOUS
 10
134.0723689333
 20
275.1429775117
 11
134.0723689333
 21
305.9486704095
  0
LINE
  5
23D
100
AcDbEntity
  8
0
100
AcDbLine
 62
7
  6
CONTINUOUS
 10
139.0160637553
 20
277.0619144274
 11
139.0160637553
 21
299.4272433768
  0
LINE
  5
23E
100
AcDbEntity
  8
0
100
AcDbLine
 62
7
  6
CONTINUOUS
 10
92.2114496529
 20
316.6441631595
 11
95.0398650017
 21
318.277139775
  0
LINE
  5
23F
100
AcDbEntity
  8
0
100
AcDbLine
 62
7
  6
CONTINUOUS
 10
234.3392932596
 20
398.4562050715
 11
231.0159052247
 21
396.5374575483
  0
LINE
  5
240
100
AcDbEntity
  8
0
100
AcDbLine
 62
7
  6
CONTINUOUS
 10
89.8780111116
 20
314.4804672907
 11
92.7064264605
 21
316.1134439062
  0
LINE
  5
241
100
AcDbEntity
  8
0
100
AcDbLine
 62
7
  6
CONTINUOUS
 10
257.8480294473
 20
394.6232514757
 11
254.3505084907
 21
393.1356652497
  0
LINE
  5
242
100
AcDbEntity
  8
0
100
AcDbLine
 62
7
  6
CONTINUOUS
 10
266.3713326027
 20
391.1585047041
 11
264.9191266988
 21
390.5408439305
  0
LINE
  5
243
100
AcDbEntity
  8
0
100
AcDbLine
 62
7
  6
CONTINUOUS
 10
101.0503447689
 20
303.9477512837
 11
89.8780111116
 21
314.4804672907
  0
LINE
  5
244
100
AcDbEntity
  8
0
100
AcDbLine
 62
7
  6
CONTINUOUS
 10
92.7064264605
 20
316.1134439062
 11
103.8787601178
 21
305.5807278992
  0
LINE
  5
245
100
AcDbEntity
  8
0
100
AcDbLine
 62
7
  6
CONTINUOUS
 10
156.699880138
 20
248.3855845313
 11
155.1914876905
 21
262.4863158023
  0
LINE
  5
246
100
AcDbEntity
  8
0
100
AcDbLine
 62
7
  6
CONTINUOUS
 10
156.699880138
 20
280.6374300079
 11
155.3034887172
 21
293.6911549891
  0
LINE
  5
247
100
AcDbEntity
  8
0
100
AcDbLine
 62
7
  6
CONTINUOUS
 10
152.1635442597
 20
291.8367136892
 11
153.1451583318
 21
282.4206701024
  0
LINE
  5
248
100
AcDbEntity
  8
0
100
AcDbLine
 62
7
  6
CONTINUOUS
 10
153.1451583318
 20
282.4206701024
 11
153.1451583318
 21
268.9046624119
  0
LINE
  5
249
100
AcDbEntity
  8
0
100
AcDbLine
 62
7
  6
CONTINUOUS
 10
156.699880138
 20
248.3855845313
 11
156.699880138
 21
183.4736423695
  0
LINE
  5
24A
100
AcDbEntity
  8
0
100
AcDbLine
 62
7
  6
CONTINUOUS
 10
156.699880138
 20
262.079273367
 11
156.699880138
 21
280.6374300079
  0
LINE
  5
24B
100
AcDbEntity
  8
0
100
AcDbLine
 62
7
  6
CONTINUOUS
 10
96.9491083631
 20
303.9476906502
 11
92.3529334212
 21
301.29410365
  0
LINE
  5
24C
100
AcDbEntity
  8
0
100
AcDbLine
 62
7
  6
CONTINUOUS
 10
103.5252052552
 20
306.0297990015
 11
106.3536206041
 21
307.662775617
  0
LINE
  5
24D
100
AcDbEntity
  8
0
100
AcDbLine
 62
7
  6
CONTINUOUS
 10
101.0503447689
 20
303.9477512837
 11
103.8787601178
 21
305.5807278992
  0
LINE
  5
24E
100
AcDbEntity
  8
0
100
AcDbLine
 62
7
  6
CONTINUOUS
 10
295.6130513391
 20
414.1918357817
 11
304.0982973857
 21
419.0907656282
  0
LINE
  5
24F
100
AcDbEntity
  8
0
100
AcDbLine
 62
7
  6
CONTINUOUS
 10
252.5827526722
 20
384.4944701446
 11
255.5519701418
 21
386.2088492938
  0
LINE
  5
250
100
AcDbEntity
  8
0
100
AcDbLine
 62
7
  6
CONTINUOUS
 10
48.3707921257
 20
315.092592882
 11
102.1111312369
 21
284.0662955385
  0
LINE
  5
251
100
AcDbEntity
  8
0
100
AcDbLine
 62
7
  6
CONTINUOUS
 10
133.7188140707
 20
274.8832892399
 11
155.1914876905
 21
262.4863158023
  0
LINE
  5
252
100
AcDbEntity
  8
0
100
AcDbLine
 62
7
  6
CONTINUOUS
 10
134.0723689333
 20
275.1429775117
 11
156.699880138
 21
262.079273367
  0
LINE
  5
253
100
AcDbEntity
  8
0
100
AcDbLine
 62
7
  6
CONTINUOUS
 10
58.4116666141
 20
320.889659867
 11
112.1520057253
 21
289.8633625235
  0
LINE
  5
254
100
AcDbEntity
  8
0
100
AcDbLine
 62
7
  6
CONTINUOUS
 10
103.5252052552
 20
306.0297990015
 11
92.2114496529
 21
316.6441631595
  0
LINE
  5
255
100
AcDbEntity
  8
0
100
AcDbLine
 62
7
  6
CONTINUOUS
 10
95.0398650017
 20
318.277139775
 11
106.3536206041
 21
307.662775617
  0
LINE
  5
256
100
AcDbEntity
  8
0
100
AcDbLine
 62
7
  6
CONTINUOUS
 10
161.1631836757
 20
382.4177322847
 11
161.1631836757
 21
388.8033821637
  0
LINE
  5
257
100
AcDbEntity
  8
0
100
AcDbLine
 62
7
  6
CONTINUOUS
 10
171.4044820315
 20
371.6753487991
 11
171.4044820315
 21
385.9641410989
  0
LINE
  5
258
100
AcDbEntity
  8
0
100
AcDbLine
 62
7
  6
CONTINUOUS
 10
155.3034887172
 20
172.0322948368
 11
156.699880138
 21
183.4736423695
  0
LINE
  5
259
100
AcDbEntity
  8
0
100
AcDbLine
 62
7
  6
CONTINUOUS
 10
259.3002942305
 20
380.2078273675
 11
262.6236822654
 21
382.1265748907
  0
LINE
  5
25A
100
AcDbEntity
  8
0
100
AcDbLine
 62
7
  6
CONTINUOUS
 10
266.3713326027
 20
383.2693269516
 11
307.772131265
 21
407.1719465245
  0
LINE
  5
25B
100
AcDbEntity
  8
0
100
AcDbLine
 62
7
  6
CONTINUOUS
 10
134.0723689333
 20
305.9486704095
 11
279.0286555621
 21
389.6387219532
  0
LINE
  5
25C
100
AcDbEntity
  8
0
100
AcDbLine
 62
7
  6
CONTINUOUS
 10
102.1111312369
 20
284.0662955385
 11
112.1520057253
 21
289.8633625235
  0
LINE
  5
25D
100
AcDbEntity
  8
0
100
AcDbLine
 62
7
  6
CONTINUOUS
 10
231.2991789338
 20
357.5915745707
 11
193.1155717243
 21
335.5463902616
  0
LINE
  5
25E
100
AcDbEntity
  8
0
100
AcDbLine
 62
7
  6
CONTINUOUS
 10
153.1451583318
 20
268.9046624119
 11
139.0160637553
 21
277.0619144274
  0
LINE
  5
25F
100
AcDbEntity
  8
0
100
AcDbLine
 62
7
  6
CONTINUOUS
 10
96.9491083631
 20
303.9476906502
 11
63.007841556
 21
323.5432468672
  0
LINE
  5
260
100
AcDbEntity
  8
0
100
AcDbLine
 62
7
  6
CONTINUOUS
 10
101.0503447689
 20
303.9477512837
 11
133.7188140707
 21
285.0870284248
  0
LINE
  5
261
100
AcDbEntity
  8
0
100
AcDbLine
 62
7
  6
CONTINUOUS
 10
103.8787601178
 20
305.5807278992
 11
134.0723689333
 21
288.1488340838
  0
LINE
  5
262
100
AcDbEntity
  8
0
100
AcDbLine
 62
7
  6
CONTINUOUS
 10
103.5252052552
 20
306.0297990015
 11
134.0723689333
 21
288.393784809
  0
LINE
  5
263
100
AcDbEntity
  8
0
100
AcDbLine
 62
7
  6
CONTINUOUS
 10
63.007841556
 20
329.9936159625
 11
89.8780111116
 21
314.4804672907
  0
LINE
  5
264
100
AcDbEntity
  8
0
100
AcDbLine
 62
7
  6
CONTINUOUS
 10
65.8362569049
 20
331.626592578
 11
92.7064264605
 21
316.1134439062
  0
LINE
  5
265
100
AcDbEntity
  8
0
100
AcDbLine
 62
7
  6
CONTINUOUS
 10
65.8362569049
 20
331.8715433031
 11
92.2114496529
 21
316.6441631595
  0
LINE
  5
266
100
AcDbEntity
  8
0
100
AcDbLine
 62
7
  6
CONTINUOUS
 10
133.7188140707
 20
285.0870284248
 11
134.0723689333
 21
285.2911522015
  0
LINE
  5
267
100
AcDbEntity
  8
0
100
AcDbLine
 62
7
  6
CONTINUOUS
 10
207.6113210898
 20
327.177454794
 11
245.7949282993
 21
349.222639103
  0
LINE
  5
268
100
AcDbEntity
  8
0
100
AcDbLine
 62
7
  6
CONTINUOUS
 10
155.3034887172
 20
293.6911549891
 11
300.2597753461
 21
377.3812065328
  0
LINE
  5
269
100
AcDbEntity
  8
0
100
AcDbLine
 62
7
  6
CONTINUOUS
 10
74.3215500549
 20
330.2385938825
 11
95.0398650017
 21
318.277139775
  0
LINE
  5
26A
100
AcDbEntity
  8
0
100
AcDbLine
 62
7
  6
CONTINUOUS
 10
139.0160637553
 20
299.4272433768
 11
152.1635442597
 21
291.8367136892
  0
LINE
  5
26B
100
AcDbEntity
  8
0
100
AcDbLine
 62
7
  6
CONTINUOUS
 10
134.0723689333
 20
305.9486704095
 11
155.3034887172
 21
293.6911549891
  0
LINE
  5
26C
100
AcDbEntity
  8
0
100
AcDbLine
 62
7
  6
CONTINUOUS
 10
199.1261103708
 20
272.7424024373
 11
197.857965367
 21
284.5972562196
  0
LINE
  5
26D
100
AcDbEntity
  8
0
100
AcDbLine
 62
7
  6
CONTINUOUS
 10
197.8718943439
 20
284.6048768963
 11
199.1261103708
 21
272.8802337636
  0
LINE
  5
26E
100
AcDbEntity
  8
0
100
AcDbLine
 62
7
  6
CONTINUOUS
 10
199.1261103708
 20
272.8802337636
 11
199.1261103708
 21
207.9682916018
  0
LINE
  5
26F
100
AcDbEntity
  8
0
100
AcDbLine
 62
7
  6
CONTINUOUS
 10
133.7188140707
 20
274.8832892399
 11
134.0964289937
 21
275.1013040159
  0
LINE
  5
270
100
AcDbEntity
  8
0
100
AcDbLine
 62
7
  6
CONTINUOUS
 10
152.8699666499
 20
285.0604212482
 11
139.0160637553
 21
277.0619144274
  0
LINE
  5
271
100
AcDbEntity
  8
0
100
AcDbLine
 62
7
  6
CONTINUOUS
 10
156.699880138
 20
280.6374300079
 11
301.6561667668
 21
364.3274815516
  0
LINE
  5
272
100
AcDbEntity
  8
0
100
AcDbLine
 62
7
  6
CONTINUOUS
 10
199.1261103708
 20
207.9682916018
 11
197.7297189501
 21
196.5269440691
  0
LINE
  5
273
100
AcDbEntity
  8
0
100
AcDbLine
 62
7
  6
CONTINUOUS
 10
238.5184778864
 20
396.1403323904
 11
240.2083139878
 21
401.3004803401
  0
LINE
  5
274
100
AcDbEntity
  8
0
100
AcDbLine
 62
7
  6
CONTINUOUS
 10
301.6561667668
 20
351.1407156629
 11
353.239286592
 21
380.9220660089
  0
LINE
  5
275
100
AcDbEntity
  8
0
100
AcDbLine
 62
7
  6
CONTINUOUS
 10
155.1914876905
 20
262.4863158023
 11
155.5931635054
 21
262.7182220578
  0
LINE
  5
276
100
AcDbEntity
  8
0
100
AcDbLine
 62
7
  6
CONTINUOUS
 10
102.8177875912
 20
353.2227125506
 11
108.4746653923
 21
349.9567865144
  0
LINE
  5
277
100
AcDbEntity
  8
0
100
AcDbLine
 62
7
  6
CONTINUOUS
 10
254.3505084907
 20
393.1356652497
 11
252.6606723894
 21
387.9755173
  0
LINE
  5
278
100
AcDbEntity
  8
0
100
AcDbLine
 62
7
  6
CONTINUOUS
 10
255.6943931107
 20
317.650098134
 11
301.6561667668
 21
346.9680462858
  0
LINE
  5
279
100
AcDbEntity
  8
0
100
AcDbLine
 62
7
  6
CONTINUOUS
 10
255.6943931107
 20
317.6494570107
 11
209.085081897
 21
290.7397192641
  0
LINE
  5
27A
100
AcDbEntity
  8
0
100
AcDbLine
 62
7
  6
CONTINUOUS
 10
264.0025633678
 20
317.7540544855
 11
254.9332225124
 21
312.5178993569
  0
LINE
  5
27B
100
AcDbEntity
  8
0
100
AcDbLine
 62
7
  6
CONTINUOUS
 10
365.3983665179
 20
373.9021767517
 11
373.8836125644
 21
378.8011065982
  0
LINE
  5
27C
100
AcDbEntity
  8
0
100
AcDbLine
 62
7
  6
CONTINUOUS
 10
264.3166909781
 20
314.8175315507
 11
353.4045164264
 21
366.2521045318
  0
LINE
  5
27D
100
AcDbEntity
  8
0
100
AcDbLine
 62
7
  6
CONTINUOUS
 10
102.1111312369
 20
218.7461021681
 11
112.1520057253
 21
224.5431691531
  0
LINE
  5
27E
100
AcDbEntity
  8
0
100
AcDbLine
 62
7
  6
CONTINUOUS
 10
156.699880138
 20
248.3855845313
 11
199.1261103708
 21
272.8802337636
  0
LINE
  5
27F
100
AcDbEntity
  8
0
100
AcDbLine
 62
7
  6
CONTINUOUS
 10
199.1261103708
 20
272.7424024373
 11
255.6944173479
 21
305.401934747
  0
LINE
  5
280
100
AcDbEntity
  8
0
100
AcDbLine
 62
7
  6
CONTINUOUS
 10
156.699880138
 20
262.079273367
 11
209.085081897
 21
290.7397192642
  0
LINE
  5
281
100
AcDbEntity
  8
0
100
AcDbLine
 62
7
  6
CONTINUOUS
 10
122.066451552
 20
353.7214489855
 11
131.1869165876
 21
348.4558651655
  0
LINE
  5
282
100
AcDbEntity
  8
0
100
AcDbLine
 62
7
  6
CONTINUOUS
 10
111.6565855563
 20
368.5320446881
 11
117.3134633575
 21
365.266118652
  0
LINE
  5
283
100
AcDbEntity
  8
0
100
AcDbLine
 62
7
  6
CONTINUOUS
 10
231.2991789338
 20
357.5915745707
 11
231.2991789338
 21
340.8535642614
  0
LINE
  5
284
100
AcDbEntity
  8
0
100
AcDbLine
 62
7
  6
CONTINUOUS
 10
232.3537702676
 20
341.4624292174
 11
232.3537702676
 21
353.3154716879
  0
LINE
  5
285
100
AcDbEntity
  8
0
100
AcDbLine
 62
7
  6
CONTINUOUS
 10
236.5299210478
 20
402.1856600265
 11
236.6347376929
 21
406.8704741113
  0
LINE
  5
286
100
AcDbEntity
  8
0
100
AcDbLine
 62
7
  6
CONTINUOUS
 10
238.4405581693
 20
392.659285235
 11
238.5184778864
 21
396.1403323904
  0
LINE
  5
287
100
AcDbEntity
  8
0
100
AcDbLine
 62
7
  6
CONTINUOUS
 10
265.16340854
 20
306.9022593528
 11
255.6944173479
 21
301.4353673721
  0
LINE
  5
288
100
AcDbEntity
  8
0
100
AcDbLine
 62
7
  6
CONTINUOUS
 10
364.0004011436
 20
360.1347060321
 11
265.2145723021
 21
303.1010216035
  0
LINE
  5
289
100
AcDbEntity
  8
0
100
AcDbLine
 62
7
  6
CONTINUOUS
 10
131.1869165876
 20
362.7446574653
 11
122.066451552
 21
368.0102412853
  0
LINE
  5
28A
100
AcDbEntity
  8
0
100
AcDbLine
 62
7
  6
CONTINUOUS
 10
130.6889914149
 20
364.8235542027
 11
125.1587773411
 21
368.0163525562
  0
LINE
  5
28B
100
AcDbEntity
  8
0
100
AcDbLine
 62
7
  6
CONTINUOUS
 10
193.1155717243
 20
335.5463902616
 11
207.6113210898
 21
327.177454794
  0
LINE
  5
28C
100
AcDbEntity
  8
0
100
AcDbLine
 62
7
  6
CONTINUOUS
 10
252.6606723894
 20
387.9755173
 11
252.5827526722
 21
384.4944701446
  0
LINE
  5
28D
100
AcDbEntity
  8
0
100
AcDbLine
 62
7
  6
CONTINUOUS
 10
265.5543124341
 20
283.2318350197
 11
365.821636551
 21
341.1208560387
  0
LINE
  5
28E
100
AcDbEntity
  8
0
100
AcDbLine
 62
7
  6
CONTINUOUS
 10
272.9254269105
 20
307.5528590134
 11
264.5782995579
 21
312.3719662146
  0
LINE
  5
28F
100
AcDbEntity
  8
0
100
AcDbLine
 62
7
  6
CONTINUOUS
 10
254.4605032705
 20
316.9370746316
 11
255.6944173479
 21
305.401934747
  0
LINE
  5
290
100
AcDbEntity
  8
0
100
AcDbLine
 62
7
  6
CONTINUOUS
 10
264.0025633678
 20
317.7540544855
 11
265.16340854
 21
306.9022593529
  0
LINE
  5
291
100
AcDbEntity
  8
0
100
AcDbLine
 62
7
  6
CONTINUOUS
 10
265.16340854
 20
306.9022593529
 11
265.5938710689
 21
274.9208266652
  0
LINE
  5
292
100
AcDbEntity
  8
0
100
AcDbLine
 62
7
  6
CONTINUOUS
 10
262.2377062848
 20
321.8239256676
 11
262.2693073792
 21
319.0182166511
  0
LINE
  5
293
100
AcDbEntity
  8
0
100
AcDbLine
 62
7
  6
CONTINUOUS
 10
265.5938710689
 20
274.9208266652
 11
265.5543124341
 21
283.2318350193
  0
LINE
  5
294
100
AcDbEntity
  8
0
100
AcDbLine
 62
7
  6
CONTINUOUS
 10
255.6944173479
 20
305.401934747
 11
255.6944173479
 21
240.6278239115
  0
LINE
  5
295
100
AcDbEntity
  8
0
100
AcDbLine
 62
7
  6
CONTINUOUS
 10
266.3713326027
 20
391.1585047041
 11
266.3713326027
 21
382.3310567562
  0
LINE
  5
296
100
AcDbEntity
  8
0
100
AcDbLine
 62
7
  6
CONTINUOUS
 10
265.5543124341
 20
266.6554956545
 11
265.5938710689
 21
274.9208266652
  0
LINE
  5
297
100
AcDbEntity
  8
0
100
AcDbLine
 62
7
  6
CONTINUOUS
 10
265.5938710689
 20
274.9208266652
 11
265.16340854
 21
243.4364380469
  0
LINE
  5
298
100
AcDbEntity
  8
0
100
AcDbLine
 62
7
  6
CONTINUOUS
 10
257.7432128022
 20
389.9384373909
 11
257.8480294473
 21
394.6232514757
  0
LINE
  5
299
100
AcDbEntity
  8
0
100
AcDbLine
 62
7
  6
CONTINUOUS
 10
264.9191266988
 20
390.5408439305
 11
264.8143100537
 21
385.8560298457
  0
LINE
  5
29A
100
AcDbEntity
  8
0
100
AcDbLine
 62
7
  6
CONTINUOUS
 10
255.6944173479
 20
240.6278239115
 11
254.2980259272
 21
229.1864763788
  0
LINE
  5
29B
100
AcDbEntity
  8
0
100
AcDbLine
 62
7
  6
CONTINUOUS
 10
255.6944173479
 20
269.205408511
 11
374.3464412324
 21
337.7087775307
  0
LINE
  5
29C
100
AcDbEntity
  8
0
100
AcDbLine
 62
7
  6
CONTINUOUS
 10
365.821636551
 20
324.5445166734
 11
265.5543124341
 21
266.6554956544
  0
LINE
  5
29D
100
AcDbEntity
  8
0
100
AcDbLine
 62
7
  6
CONTINUOUS
 10
161.1631836757
 20
388.8033821637
 11
166.6933977495
 21
385.6105838102
  0
LINE
  5
29E
100
AcDbEntity
  8
0
100
AcDbLine
 62
7
  6
CONTINUOUS
 10
260.2024575625
 20
320.5256877675
 11
264.0025633678
 21
317.7540544855
  0
LINE
  5
29F
100
AcDbEntity
  8
0
100
AcDbLine
 62
7
  6
CONTINUOUS
 10
274.7466623179
 20
288.5390090199
 11
274.7862209527
 21
280.2280006658
  0
LINE
  5
2A0
100
AcDbEntity
  8
0
100
AcDbLine
 62
7
  6
CONTINUOUS
 10
274.7862209527
 20
280.2280006658
 11
274.7466623178
 21
271.9626696548
  0
LINE
  5
2A1
100
AcDbEntity
  8
0
100
AcDbLine
 62
7
  6
CONTINUOUS
 10
265.16340854
 20
243.4364380469
 11
264.2892199746
 21
236.2737650045
  0
LINE
  5
2A2
100
AcDbEntity
  8
0
100
AcDbLine
 62
7
  6
CONTINUOUS
 10
265.2617216052
 20
250.6271376823
 11
364.0004011436
 21
307.6336006106
  0
LINE
  5
2A3
100
AcDbEntity
  8
0
100
AcDbLine
 62
7
  6
CONTINUOUS
 10
353.2618634793
 20
301.2502484688
 11
265.2591929018
 21
250.4421862046
  0
LINE
  5
2A4
100
AcDbEntity
  8
0
100
AcDbLine
 62
7
  6
CONTINUOUS
 10
156.699880138
 20
183.4736423695
 11
255.6944173479
 21
240.6278239115
  0
LINE
  5
2A5
100
AcDbEntity
  8
0
100
AcDbLine
 62
7
  6
CONTINUOUS
 10
161.1667929331
 20
390.5846991557
 11
166.4642951933
 21
387.5262539911
  0
LINE
  5
2A6
100
AcDbEntity
  8
0
100
AcDbLine
 62
7
  6
CONTINUOUS
 10
167.5815192561
 20
388.1712797542
 11
171.4044820315
 21
385.9641410989
  0
LINE
  5
2A7
100
AcDbEntity
  8
0
100
AcDbLine
 62
7
  6
CONTINUOUS
 10
157.6819743206
 20
395.1046566636
 11
163.3388521218
 21
391.8387306275
  0
LINE
  5
2A8
100
AcDbEntity
  8
0
100
AcDbLine
 62
7
  6
CONTINUOUS
 10
232.3537702676
 20
353.3154716879
 11
242.6189529085
 21
347.3889998015
  0
LINE
  5
2A9
100
AcDbEntity
  8
0
100
AcDbLine
 62
7
  6
CONTINUOUS
 10
245.7949282993
 20
349.222639103
 11
231.2991789338
 21
357.5915745707
  0
LINE
  5
2AA
100
AcDbEntity
  8
0
100
AcDbLine
 62
7
  6
CONTINUOUS
 10
295.6130513391
 20
414.1918357817
 11
295.4517717858
 21
400.0588261223
  0
LINE
  5
2AB
100
AcDbEntity
  8
0
100
AcDbLine
 62
7
  6
CONTINUOUS
 10
265.16340854
 20
243.4364380469
 11
255.3453862587
 21
237.7680340757
  0
LINE
  5
2AC
100
AcDbEntity
  8
0
100
AcDbLine
 62
7
  6
CONTINUOUS
 10
264.2892199746
 20
236.2737650045
 11
254.4711976933
 21
230.6053610332
  0
LINE
  5
2AD
100
AcDbEntity
  8
0
100
AcDbLine
 62
7
  6
CONTINUOUS
 10
155.3034887172
 20
172.0322948368
 11
254.2980259272
 21
229.1864763788
  0
LINE
  5
2AE
100
AcDbEntity
  8
0
100
AcDbLine
 62
7
  6
CONTINUOUS
 10
365.3983665179
 20
292.2519350387
 11
373.8836125644
 21
297.1508648852
  0
LINE
  5
2AF
100
AcDbEntity
  8
0
100
AcDbLine
 62
7
  6
CONTINUOUS
 10
365.3983665179
 20
292.2519350387
 11
351.5371850422
 21
300.2545108526
  0
LINE
  5
2B0
100
AcDbEntity
  8
0
100
AcDbLine
 62
7
  6
CONTINUOUS
 10
300.2597753461
 20
377.3812065328
 11
301.6561667668
 21
364.3274815516
  0
LINE
  5
2B1
100
AcDbEntity
  8
0
100
AcDbLine
 62
7
  6
CONTINUOUS
 10
301.6561667668
 20
364.3274815516
 11
301.6561667668
 21
346.9680462858
  0
LINE
  5
2B2
100
AcDbEntity
  8
0
100
AcDbLine
 62
7
  6
CONTINUOUS
 10
203.862925929
 20
407.4782900532
 11
209.5198037302
 21
404.212364017
  0
LINE
  5
2B3
100
AcDbEntity
  8
0
100
AcDbLine
 62
7
  6
CONTINUOUS
 10
260.9970459803
 20
379.2282294494
 11
259.3002942305
 21
380.2078273675
  0
LINE
  5
2B4
100
AcDbEntity
  8
0
100
AcDbLine
 62
7
  6
CONTINUOUS
 10
207.9641281849
 20
409.8461061457
 11
231.0159052247
 21
396.5374575483
  0
LINE
  5
2B5
100
AcDbEntity
  8
0
100
AcDbLine
 62
7
  6
CONTINUOUS
 10
209.5198037302
 20
404.212364017
 11
163.3388521218
 21
391.8387306275
  0
LINE
  5
2B6
100
AcDbEntity
  8
0
100
AcDbLine
 62
7
  6
CONTINUOUS
 10
207.3984745548
 20
405.4370862806
 11
161.2175229463
 21
393.063452891
  0
LINE
  5
2B7
100
AcDbEntity
  8
0
100
AcDbLine
 62
7
  6
CONTINUOUS
 10
157.6819743206
 20
395.1046566636
 11
203.862925929
 21
407.4782900532
  0
LINE
  5
2B8
100
AcDbEntity
  8
0
100
AcDbLine
 62
7
  6
CONTINUOUS
 10
238.4405569123
 20
392.6592845472
 11
252.5827514152
 21
384.4944694568
  0
LINE
  5
2B9
100
AcDbEntity
  8
0
100
AcDbLine
 62
7
  6
CONTINUOUS
 10
234.3392932596
 20
398.4562050715
 11
238.5163359739
 21
396.0446428928
  0
LINE
  5
2BA
100
AcDbEntity
  8
0
100
AcDbLine
 62
7
  6
CONTINUOUS
 10
255.552585014
 20
386.2089824359
 11
262.6236822654
 21
382.1265748907
  0
LINE
  5
2BB
100
AcDbEntity
  8
0
100
AcDbLine
 62
7
  6
CONTINUOUS
 10
238.5184778864
 20
396.1403323904
 11
252.6606723893
 21
387.9755173
  0
LINE
  5
2BC
100
AcDbEntity
  8
0
100
AcDbLine
 62
7
  6
CONTINUOUS
 10
264.8143100536
 20
385.8560298458
 11
257.7432128022
 21
389.938437391
  0
LINE
  5
2BD
100
AcDbEntity
  8
0
100
AcDbLine
 62
7
  6
CONTINUOUS
 10
239.8672228734
 20
400.2589115081
 11
236.5299210478
 21
402.1856600267
  0
LINE
  5
2BE
100
AcDbEntity
  8
0
100
AcDbLine
 62
7
  6
CONTINUOUS
 10
240.2083139878
 20
401.3004803401
 11
254.3505084907
 21
393.1356652497
  0
LINE
  5
2BF
100
AcDbEntity
  8
0
100
AcDbLine
 62
7
  6
CONTINUOUS
 10
243.7058349443
 20
402.7880665661
 11
236.6347376928
 21
406.8704741113
  0
LINE
  5
2C0
100
AcDbEntity
  8
0
100
AcDbLine
 62
7
  6
CONTINUOUS
 10
257.8480294473
 20
394.6232514757
 11
264.9191266988
 21
390.5408439305
  0
LINE
  5
2C1
100
AcDbEntity
  8
0
100
AcDbLine
 62
7
  6
CONTINUOUS
 10
238.0869435968
 20
407.4881348849
 11
266.3713326027
 21
391.1585047041
  0
LINE
  5
2C2
100
AcDbEntity
  8
0
100
AcDbLine
 62
7
  6
CONTINUOUS
 10
279.0286555621
 20
389.6387219532
 11
300.2597753461
 21
377.3812065328
  0
LINE
  5
2C3
100
AcDbEntity
  8
0
100
AcDbLine
 62
7
  6
CONTINUOUS
 10
353.4045164264
 20
366.2521045318
 11
364.0004011436
 21
360.1347060321
  0
LINE
  5
2C4
100
AcDbEntity
  8
0
100
AcDbLine
 62
7
  6
CONTINUOUS
 10
353.239286592
 20
380.9220660089
 11
353.4045164264
 21
366.2521045318
  0
LINE
  5
2C5
100
AcDbEntity
  8
0
100
AcDbLine
 62
7
  6
CONTINUOUS
 10
353.2639712894
 20
301.4349569451
 11
353.2618634793
 21
301.2502484688
  0
LINE
  5
2C6
100
AcDbEntity
  8
0
100
AcDbLine
 62
7
  6
CONTINUOUS
 10
295.6130513391
 20
414.1918357817
 11
307.772131265
 21
407.1719465245
  0
LINE
  5
2C7
100
AcDbEntity
  8
0
100
AcDbLine
 62
7
  6
CONTINUOUS
 10
353.239286592
 20
380.9220660089
 11
365.3983665179
 21
373.9021767517
  0
LINE
  5
2C8
100
AcDbEntity
  8
0
100
AcDbLine
 62
7
  6
CONTINUOUS
 10
365.7232722428
 20
345.0553617461
 11
365.3983665179
 21
373.9021767517
  0
LINE
  5
2C9
100
AcDbEntity
  8
0
100
AcDbLine
 62
7
  6
CONTINUOUS
 10
373.8836125644
 20
378.8011065982
 11
374.3464412324
 21
337.7087775306
  0
LINE
  5
2CA
100
AcDbEntity
  8
0
100
AcDbLine
 62
7
  6
CONTINUOUS
 10
365.821636551
 20
341.1208560384
 11
365.8611951858
 21
332.8098476842
  0
LINE
  5
2CB
100
AcDbEntity
  8
0
100
AcDbLine
 62
7
  6
CONTINUOUS
 10
365.8611951858
 20
332.8098476842
 11
365.821636551
 21
324.5445166738
  0
LINE
  5
2CC
100
AcDbEntity
  8
0
100
AcDbLine
 62
7
  6
CONTINUOUS
 10
365.3983665179
 20
292.2519350387
 11
365.7232722428
 21
320.723589716
  0
LINE
  5
2CD
100
AcDbEntity
  8
0
100
AcDbLine
 62
7
  6
CONTINUOUS
 10
374.3464412324
 20
337.7087775306
 11
373.8836125644
 21
297.1508648852
  0
LINE
  5
2CE
100
AcDbEntity
  8
0
100
AcDbLine
 62
7
  6
CONTINUOUS
 10
304.0982973857
 20
419.0907656282
 11
373.8836125644
 21
378.8011065982
  0
ARC
  5
2CF
100
AcDbEntity
  8
0
100
AcDbCircle
 62
7
  6
CONTINUOUS
 10
364.9708474184
 20
370.5720545542
 40
9.0218034373
100
AcDbArc
 50
0.0015222227
 51
0.741497348
  0
ARC
  5
2D0
100
AcDbEntity
  8
0
100
AcDbCircle
 62
7
  6
CONTINUOUS
 10
365.1591789253
 20
370.5721470488
 40
8.8334719284
100
AcDbArc
 50
359.3511895655
 51
0.0009547366
  0
SPLINE
  5
2D1
100
AcDbEntity
  8
0
100
AcDbSpline
 62
7
  6
CONTINUOUS
 70
0
 71
3
 72
9
 73
5
 74
0
 42
0.0000001
 43
0.0000001
 44
0.0000000001
 40
0.0
 40
0.0
 40
0.0
 40
0.0
 40
0.2615810237
 40
1.0
 40
1.0
 40
1.0
 40
1.0
 10
274.7466623178
 20
271.9626696548
 30
0.0
 10
274.7395567329
 20
270.4780377449
 30
0.0
 10
274.5772445785
 20
264.8050968118
 30
0.0
 10
273.8525337974
 20
259.1389498994
 30
0.0
 10
272.9254269105
 20
255.051753592
 30
0.0
  0
SPLINE
  5
2D2
100
AcDbEntity
  8
0
100
AcDbSpline
 62
7
  6
CONTINUOUS
 70
0
 71
3
 72
9
 73
5
 74
0
 42
0.0000001
 43
0.0000001
 44
0.0000000001
 40
0.0
 40
0.0
 40
0.0
 40
0.0
 40
0.2590229323
 40
1.0
 40
1.0
 40
1.0
 40
1.0
 10
272.9254269105
 20
307.5528590134
 30
0.0
 10
273.2173943237
 20
305.9285790104
 30
0.0
 10
274.221994869
 20
299.6370647252
 30
0.0
 10
274.7241916836
 20
293.2599411156
 30
0.0
 10
274.7466623179
 20
288.5390090199
 30
0.0
  0
SPLINE
  5
2D3
100
AcDbEntity
  8
0
100
AcDbSpline
 62
7
  6
CONTINUOUS
 70
0
 71
3
 72
9
 73
5
 74
0
 42
0.0000001
 43
0.0000001
 44
0.0000000001
 40
0.0
 40
0.0
 40
0.0
 40
0.0
 40
0.2472614202
 40
1.0
 40
1.0
 40
1.0
 40
1.0
 10
265.4187343838
 20
262.1111833542
 30
0.0
 10
265.4395622915
 20
262.4853379624
 30
0.0
 10
265.513859077
 20
263.9990732017
 30
0.0
 10
265.5488525071
 20
265.5147054357
 30
0.0
 10
265.5543124341
 20
266.6554956545
 30
0.0
  0
SPLINE
  5
2D4
100
AcDbEntity
  8
0
100
AcDbSpline
 62
7
  6
CONTINUOUS
 70
0
 71
3
 72
9
 73
5
 74
0
 42
0.0000001
 43
0.0000001
 44
0.0000000001
 40
0.0
 40
0.0
 40
0.0
 40
0.0
 40
0.2474370574
 40
1.0
 40
1.0
 40
1.0
 40
1.0
 10
265.5543124341
 20
283.2318350193
 30
0.0
 10
265.5524661131
 20
283.6197348779
 30
0.0
 10
265.5354034065
 20
285.1873486565
 30
0.0
 10
265.4803583056
 20
286.7545219908
 30
0.0
 10
265.4187343839
 20
287.9326958258
 30
0.0
  0
SPLINE
  5
2D5
100
AcDbEntity
  8
0
100
AcDbSpline
 62
7
  6
CONTINUOUS
 70
0
 71
3
 72
9
 73
5
 74
0
 42
0.0000001
 43
0.0000001
 44
0.0000000001
 40
0.0
 40
0.0
 40
0.0
 40
0.0
 40
0.4804510655
 40
1.0
 40
1.0
 40
1.0
 40
1.0
 10
336.2169091194
 20
400.8873363704
 30
0.0
 10
338.0250781468
 20
400.1737442473
 30
0.0
 10
341.6678931282
 20
398.3742236116
 30
0.0
 10
345.0313053781
 20
396.1054243085
 30
0.0
 10
346.7051521981
 20
394.8338311122
 30
0.0
  0
SPLINE
  5
2D6
100
AcDbEntity
  8
0
100
AcDbSpline
 62
7
  6
CONTINUOUS
 70
0
 71
3
 72
9
 73
5
 74
0
 42
0.0000001
 43
0.0000001
 44
0.0000000001
 40
0.0
 40
0.0
 40
0.0
 40
0.0
 40
0.2569778331
 40
1.0
 40
1.0
 40
1.0
 40
1.0
 10
374.6145441793
 20
346.661706982
 30
0.0
 10
374.6869460326
 20
346.1078525935
 30
0.0
 10
374.9362263554
 20
343.9485738194
 30
0.0
 10
375.0535303498
 20
341.7732658978
 30
0.0
 10
375.0535303498
 20
340.1582339555
 30
0.0
  0
SPLINE
  5
2D7
100
AcDbEntity
  8
0
100
AcDbSpline
 62
7
  6
CONTINUOUS
 70
0
 71
3
 72
10
 73
6
 74
0
 42
0.0000001
 43
0.0000001
 44
0.0000000001
 40
0.0
 40
0.0
 40
0.0
 40
0.0
 40
0.521089853
 40
0.7715113179
 40
1.0
 40
1.0
 40
1.0
 40
1.0
 10
360.7738623076
 20
305.7782296389
 30
0.0
 10
361.2820418343
 20
305.166387066
 30
0.0
 10
361.8951584887
 20
304.1308203981
 30
0.0
 10
362.3491746371
 20
302.6693091256
 30
0.0
 10
362.4378223891
 20
301.937161761
 30
0.0
 10
362.4378223891
 20
301.5884104065
 30
0.0
  0
SPLINE
  5
2D8
100
AcDbEntity
  8
0
100
AcDbSpline
 62
7
  6
CONTINUOUS
 70
0
 71
3
 72
13
 73
9
 74
0
 42
0.0000001
 43
0.0000001
 44
0.0000000001
 40
0.0
 40
0.0
 40
0.0
 40
0.0
 40
0.0928367915
 40
0.19123637
 40
0.2992859675
 40
0.4190480797
 40
0.6925308638
 40
1.0
 40
1.0
 40
1.0
 40
1.0
 10
299.5056069806
 20
406.9153838723
 30
0.0
 10
299.6411211651
 20
406.9936362099
 30
0.0
 10
299.9480297565
 20
407.1105676677
 30
0.0
 10
300.4574094326
 20
407.1441319952
 30
0.0
 10
301.0027178379
 20
407.0432649167
 30
0.0
 10
301.7897864232
 20
406.7237399239
 30
0.0
 10
302.7530364319
 20
406.0109016689
 30
0.0
 10
303.3894040338
 20
405.2564968787
 30
0.0
 10
303.6827887523
 20
404.8292657609
 30
0.0
  0
SPLINE
  5
2D9
100
AcDbEntity
  8
0
100
AcDbSpline
 62
7
  6
CONTINUOUS
 70
0
 71
3
 72
11
 73
7
 74
0
 42
0.0000001
 43
0.0000001
 44
0.0000000001
 40
0.0
 40
0.0
 40
0.0
 40
0.0
 40
0.2897016594
 40
0.5490895814
 40
0.7822189142
 40
1.0
 40
1.0
 40
1.0
 40
1.0
 10
362.4378223891
 20
301.5884104065
 30
0.0
 10
362.4378223891
 20
301.3604045597
 30
0.0
 10
362.403253592
 20
300.9267835369
 30
0.0
 10
362.2276514666
 20
300.3310065827
 30
0.0
 10
361.9319742654
 20
299.8475676956
 30
0.0
 10
361.65424286
 20
299.6140986376
 30
0.0
 10
361.5058108764
 20
299.5283869482
 30
0.0
  0
SPLINE
  5
2DA
100
AcDbEntity
  8
0
100
AcDbSpline
 62
7
  6
CONTINUOUS
 70
0
 71
3
 72
15
 73
11
 74
0
 42
0.0000001
 43
0.0000001
 44
0.0000000001
 40
0.0
 40
0.0
 40
0.0
 40
0.0
 40
0.0869313433
 40
0.1864011611
 40
0.3037885282
 40
0.4375986154
 40
0.5820965189
 40
0.729420053
 40
0.8711665023
 40
1.0
 40
1.0
 40
1.0
 40
1.0
 10
357.0058463755
 20
373.7183561963
 30
0.0
 10
357.2306115919
 20
373.8481463262
 30
0.0
 10
357.7953535699
 20
373.9932287069
 30
0.0
 10
358.7043221617
 20
373.8111947923
 30
0.0
 10
359.6329536485
 20
373.3039474296
 30
0.0
 10
360.5234091518
 20
372.5154670561
 30
0.0
 10
361.3095768491
 20
371.509113635
 30
0.0
 10
361.9285502151
 20
370.3651120474
 30
0.0
 10
362.3302187613
 20
369.1776063789
 30
0.0
 10
362.4378223891
 20
368.3688189955
 30
0.0
 10
362.4378223891
 20
367.9841659473
 30
0.0
  0
SPLINE
  5
2DB
100
AcDbEntity
  8
0
100
AcDbSpline
 62
7
  6
CONTINUOUS
 70
0
 71
3
 72
9
 73
5
 74
0
 42
0.0000001
 43
0.0000001
 44
0.0000000001
 40
0.0
 40
0.0
 40
0.0
 40
0.0
 40
0.2533092615
 40
1.0
 40
1.0
 40
1.0
 40
1.0
 10
375.0535303498
 20
340.1582339555
 30
0.0
 10
375.0535303498
 20
339.9320368137
 30
0.0
 10
375.046738994
 20
339.0390858409
 30
0.0
 10
375.0124922624
 20
338.1463088074
 30
0.0
 10
374.9704027086
 20
337.4808674101
 30
0.0
  0
SPLINE
  5
2DC
100
AcDbEntity
  8
0
100
AcDbSpline
 62
7
  6
CONTINUOUS
 70
0
 71
3
 72
9
 73
5
 74
0
 42
0.0000001
 43
0.0000001
 44
0.0000000001
 40
0.0
 40
0.0
 40
0.0
 40
0.0
 40
0.2539785295
 40
1.0
 40
1.0
 40
1.0
 40
1.0
 10
374.9704027086
 20
337.4808674101
 30
0.0
 10
374.9552049329
 20
337.2405885709
 30
0.0
 10
374.8868743184
 20
336.2950937553
 30
0.0
 10
374.7840900116
 20
335.3520212972
 30
0.0
 10
374.6864105196
 20
334.6516084937
 30
0.0
  0
SPLINE
  5
2DD
100
AcDbEntity
  8
0
100
AcDbSpline
 62
7
  6
CONTINUOUS
 70
0
 71
3
 72
11
 73
7
 74
0
 42
0.0000001
 43
0.0000001
 44
0.0000000001
 40
0.0
 40
0.0
 40
0.0
 40
0.0
 40
0.2897016594
 40
0.5490895814
 40
0.7822189142
 40
1.0
 40
1.0
 40
1.0
 40
1.0
 10
362.4378223891
 20
367.9841659473
 30
0.0
 10
362.4378223891
 20
367.7561601006
 30
0.0
 10
362.403253592
 20
367.3225390778
 30
0.0
 10
362.2276514666
 20
366.7267621236
 30
0.0
 10
361.9319742654
 20
366.2433232364
 30
0.0
 10
361.65424286
 20
366.0098541785
 30
0.0
 10
361.5058108764
 20
365.924142489
 30
0.0
  0
SPLINE
  5
2DE
100
AcDbEntity
  8
0
100
AcDbSpline
 62
7
  6
CONTINUOUS
 70
0
 71
3
 72
9
 73
5
 74
0
 42
0.0000001
 43
0.0000001
 44
0.0000000001
 40
0.0
 40
0.0
 40
0.0
 40
0.0
 40
0.2521620571
 40
1.0
 40
1.0
 40
1.0
 40
1.0
 10
365.7232722428
 20
345.0553617461
 30
0.0
 10
365.7380782418
 20
344.724866541
 30
0.0
 10
365.7904057571
 20
343.4139438046
 30
0.0
 10
365.8169666147
 20
342.101978857
 30
0.0
 10
365.821636551
 20
341.1208560384
 30
0.0
  0
SPLINE
  5
2DF
100
AcDbEntity
  8
0
100
AcDbSpline
 62
7
  6
CONTINUOUS
 70
0
 71
3
 72
9
 73
5
 74
0
 42
0.0000001
 43
0.0000001
 44
0.0000000001
 40
0.0
 40
0.0
 40
0.0
 40
0.0
 40
0.252294666
 40
1.0
 40
1.0
 40
1.0
 40
1.0
 10
365.821636551
 20
324.5445166738
 30
0.0
 10
365.8200980645
 20
324.223067259
 30
0.0
 10
365.8074261522
 20
322.9490061046
 30
0.0
 10
365.7682290938
 20
321.6751929451
 30
0.0
 10
365.7232722428
 20
320.7235897161
 30
0.0
  0
SPLINE
  5
2E0
100
AcDbEntity
  8
0
100
AcDbSpline
 62
7
  6
CONTINUOUS
 70
0
 71
3
 72
13
 73
9
 74
0
 42
0.0000001
 43
0.0000001
 44
0.0000000001
 40
0.0
 40
0.0
 40
0.0
 40
0.0
 40
0.0879956454
 40
0.1844393956
 40
0.2943760036
 40
0.4188996139
 40
0.7015264355
 40
1.0
 40
1.0
 40
1.0
 40
1.0
 10
361.5058108764
 20
299.5283869482
 30
0.0
 10
361.3295361111
 20
299.4265975119
 30
0.0
 10
360.9111180171
 20
299.2909174917
 30
0.0
 10
360.2198024266
 20
299.3325441446
 30
0.0
 10
359.491532006
 20
299.5923508167
 30
0.0
 10
358.4718291835
 20
300.2308266533
 30
0.0
 10
357.3412821276
 20
301.4442773638
 30
0.0
 10
356.6970072902
 20
302.643145791
 30
0.0
 10
356.4579205753
 20
303.290862849
 30
0.0
  0
SPLINE
  5
2E1
100
AcDbEntity
  8
0
100
AcDbSpline
 62
7
  6
CONTINUOUS
 70
0
 71
3
 72
9
 73
5
 74
0
 42
0.0000001
 43
0.0000001
 44
0.0000000001
 40
0.0
 40
0.0
 40
0.0
 40
0.0
 40
0.5247224499
 40
1.0
 40
1.0
 40
1.0
 40
1.0
 10
299.2240295722
 20
402.2539703781
 30
0.0
 10
299.020689977
 20
402.6797042016
 30
0.0
 10
298.705927551
 20
403.5281402243
 30
0.0
 10
298.5735954679
 20
404.4280174029
 30
0.0
 10
298.5735954679
 20
404.855360414
 30
0.0
  0
SPLINE
  5
2E2
100
AcDbEntity
  8
0
100
AcDbSpline
 62
7
  6
CONTINUOUS
 70
0
 71
3
 72
9
 73
5
 74
0
 42
0.0000001
 43
0.0000001
 44
0.0000000001
 40
0.0
 40
0.0
 40
0.0
 40
0.0
 40
0.2408937201
 40
1.0
 40
1.0
 40
1.0
 40
1.0
 10
274.7466623178
 20
288.5390090199
 30
0.0
 10
274.7393568045
 20
290.0738492029
 30
0.0
 10
274.55454521
 20
296.4442206476
 30
0.0
 10
273.7811109799
 20
302.7924972063
 30
0.0
 10
272.9254269105
 20
307.5528590134
 30
0.0
  0
SPLINE
  5
2E3
100
AcDbEntity
  8
0
100
AcDbSpline
 62
7
  6
CONTINUOUS
 70
0
 71
3
 72
9
 73
5
 74
0
 42
0.0000001
 43
0.0000001
 44
0.0000000001
 40
0.0
 40
0.0
 40
0.0
 40
0.0
 40
0.2387486996
 40
1.0
 40
1.0
 40
1.0
 40
1.0
 10
272.9254269105
 20
255.051753592
 30
0.0
 10
273.225203285
 20
256.3733324826
 30
0.0
 10
274.3073807809
 20
261.9477942106
 30
0.0
 10
274.725982292
 20
267.6418112653
 30
0.0
 10
274.7466623178
 20
271.9626696548
 30
0.0
  0
SPLINE
  5
2E4
100
AcDbEntity
  8
0
100
AcDbSpline
 62
7
  6
CONTINUOUS
 70
0
 71
3
 72
11
 73
7
 74
0
 42
0.0000001
 43
0.0000001
 44
0.0000000001
 40
0.0
 40
0.0
 40
0.0
 40
0.0
 40
0.2897016594
 40
0.5490895814
 40
0.7822189142
 40
1.0
 40
1.0
 40
1.0
 40
1.0
 10
298.5735954679
 20
404.855360414
 30
0.0
 10
298.5735954679
 20
405.0833662608
 30
0.0
 10
298.608164265
 20
405.5169872836
 30
0.0
 10
298.7837663904
 20
406.1127642377
 30
0.0
 10
299.0794435916
 20
406.5962031249
 30
0.0
 10
299.357174997
 20
406.8296721829
 30
0.0
 10
299.5056069806
 20
406.9153838723
 30
0.0
  0
SPLINE
  5
2E5
100
AcDbEntity
  8
0
100
AcDbSpline
 62
7
  6
CONTINUOUS
 70
0
 71
3
 72
9
 73
5
 74
0
 42
0.0000001
 43
0.0000001
 44
0.0000000001
 40
0.0
 40
0.0
 40
0.0
 40
0.0
 40
0.2514762818
 40
1.0
 40
1.0
 40
1.0
 40
1.0
 10
365.7232722428
 20
320.723589716
 30
0.0
 10
365.7139399402
 20
320.5260525422
 30
0.0
 10
365.6741452227
 20
319.7406718522
 30
0.0
 10
365.6235546687
 20
318.9558354969
 30
0.0
 10
365.5794321339
 20
318.3688627236
 30
0.0
  0
SPLINE
  5
2E6
100
AcDbEntity
  8
0
100
AcDbSpline
 62
7
  6
CONTINUOUS
 70
0
 71
3
 72
9
 73
5
 74
0
 42
0.0000001
 43
0.0000001
 44
0.0000000001
 40
0.0
 40
0.0
 40
0.0
 40
0.0
 40
0.2577070791
 40
1.0
 40
1.0
 40
1.0
 40
1.0
 10
365.5794321339
 20
318.3688627236
 30
0.0
 10
365.5095280342
 20
317.4389115447
 30
0.0
 10
365.1773919757
 20
313.835421697
 30
0.0
 10
364.5946140491
 20
310.2532174287
 30
0.0
 10
364.0004011436
 20
307.6336006106
 30
0.0
  0
SPLINE
  5
2E7
100
AcDbEntity
  8
0
100
AcDbSpline
 62
7
  6
CONTINUOUS
 70
0
 71
3
 72
9
 73
5
 74
0
 42
0.0000001
 43
0.0000001
 44
0.0000000001
 40
0.0
 40
0.0
 40
0.0
 40
0.0
 40
0.256863542
 40
1.0
 40
1.0
 40
1.0
 40
1.0
 10
364.0004011436
 20
360.1347060321
 30
0.0
 10
364.2303994103
 20
358.8551742474
 30
0.0
 10
365.0491622011
 20
353.8605800475
 30
0.0
 10
365.5549429951
 20
348.8127582606
 30
0.0
 10
365.7232722428
 20
345.0553617461
 30
0.0
  0
SPLINE
  5
2E8
100
AcDbEntity
  8
0
100
AcDbSpline
 62
7
  6
CONTINUOUS
 70
0
 71
3
 72
11
 73
7
 74
0
 42
0.0000001
 43
0.0000001
 44
0.0000000001
 40
0.0
 40
0.0
 40
0.0
 40
0.0
 40
0.2897016594
 40
0.5490895814
 40
0.7822189142
 40
1.0
 40
1.0
 40
1.0
 40
1.0
 10
356.0738348628
 20
371.658332738
 30
0.0
 10
356.0738348628
 20
371.8863385848
 30
0.0
 10
356.1084036598
 20
372.3199596076
 30
0.0
 10
356.2840057853
 20
372.9157365618
 30
0.0
 10
356.5796829865
 20
373.3991754489
 30
0.0
 10
356.8574143918
 20
373.6326445069
 30
0.0
 10
357.0058463755
 20
373.7183561963
 30
0.0
  0
SPLINE
  5
2E9
100
AcDbEntity
  8
0
100
AcDbSpline
 62
7
  6
CONTINUOUS
 70
0
 71
3
 72
15
 73
11
 74
0
 42
0.0000001
 43
0.0000001
 44
0.0000000001
 40
0.0
 40
0.0
 40
0.0
 40
0.0
 40
0.0869313433
 40
0.1864011611
 40
0.3037885282
 40
0.4375986154
 40
0.5820965189
 40
0.729420053
 40
0.8711665023
 40
1.0
 40
1.0
 40
1.0
 40
1.0
 10
361.5058108764
 20
365.924142489
 30
0.0
 10
361.2810456599
 20
365.7943523592
 30
0.0
 10
360.7163036819
 20
365.6492699785
 30
0.0
 10
359.8073350902
 20
365.8313038931
 30
0.0
 10
358.8787036034
 20
366.3385512557
 30
0.0
 10
357.9882481
 20
367.1270316292
 30
0.0
 10
357.2020804028
 20
368.1333850504
 30
0.0
 10
356.5831070367
 20
369.277386638
 30
0.0
 10
356.1814384905
 20
370.4648923065
 30
0.0
 10
356.0738348628
 20
371.2736796899
 30
0.0
 10
356.0738348628
 20
371.658332738
 30
0.0
  0
SPLINE
  5
2EA
100
AcDbEntity
  8
0
100
AcDbSpline
 62
7
  6
CONTINUOUS
 70
0
 71
3
 72
11
 73
7
 74
0
 42
0.0000001
 43
0.0000001
 44
0.0000000001
 40
0.0
 40
0.0
 40
0.0
 40
0.0
 40
0.2364802725
 40
0.4983629818
 40
0.761137492
 40
1.0
 40
1.0
 40
1.0
 40
1.0
 10
234.3386782871
 20
398.4560718535
 30
0.0
 10
234.6443470851
 20
398.6325720737
 30
0.0
 10
235.2239835517
 20
399.1173980238
 30
0.0
 10
235.9049075464
 20
400.036992011
 30
0.0
 10
236.3778116809
 20
401.0828569732
 30
0.0
 10
236.5219463091
 20
401.8292264824
 30
0.0
 10
236.5299210478
 20
402.1856600265
 30
0.0
  0
SPLINE
  5
2EB
100
AcDbEntity
  8
0
100
AcDbSpline
 62
7
  6
CONTINUOUS
 70
0
 71
3
 72
11
 73
7
 74
0
 42
0.0000001
 43
0.0000001
 44
0.0000000001
 40
0.0
 40
0.0
 40
0.0
 40
0.0
 40
0.2364802737
 40
0.4983629837
 40
0.7611374929
 40
1.0
 40
1.0
 40
1.0
 40
1.0
 10
255.5519701418
 20
386.2088492938
 30
0.0
 10
255.8576389328
 20
386.3853495101
 30
0.0
 10
256.4372753747
 20
386.8701754637
 30
0.0
 10
257.1181993336
 20
387.7897694372
 30
0.0
 10
257.5911034442
 20
388.8356343726
 30
0.0
 10
257.7352380637
 20
389.5820038582
 30
0.0
 10
257.7432128022
 20
389.9384373909
 30
0.0
  0
SPLINE
  5
2EC
100
AcDbEntity
  8
0
100
AcDbSpline
 62
7
  6
CONTINUOUS
 70
0
 71
3
 72
11
 73
7
 74
0
 42
0.0000001
 43
0.0000001
 44
0.0000000001
 40
0.0
 40
0.0
 40
0.0
 40
0.0
 40
0.2388627391
 40
0.5016373327
 40
0.7635199577
 40
1.0
 40
1.0
 40
1.0
 40
1.0
 10
264.8143100537
 20
385.8560298457
 30
0.0
 10
264.8063353071
 20
385.4995959494
 30
0.0
 10
264.6622004677
 20
384.7532259594
 30
0.0
 10
264.1892959338
 20
383.707360775
 30
0.0
 10
263.5083719092
 20
382.787767206
 30
0.0
 10
262.9287357189
 20
382.302941678
 30
0.0
 10
262.6230672122
 20
382.126441626
 30
0.0
  0
ENDSEC
  0
SECTION
  2
OBJECTS
  0
DICTIONARY
  5
C
100
AcDbDictionary
280
0
281
1
  3
ACAD_GROUP
350
D
  3
ACAD_MLINESTYLE
350
17
  3
ACAD_LAYOUT
350
1A
  3
ACAD_PLOTSETTINGS
350
19
  3
ACAD_PLOTSTYLENAME
350
E
  0
DICTIONARY
  5
D
102
{ACAD_REACTORS
330
C
102
}
100
AcDbDictionary
280
0
281
1
  0
ACDBDICTIONARYWDFLT
  5
E
102
{ACAD_REACTORS
330
C
102
}
100
AcDbDictionary
281
1
  3
Normal
350
F
100
AcDbDictionaryWithDefault
340
F
  0
DICTIONARY
  5
17
102
{ACAD_REACTORS
330
C
102
}
100
AcDbDictionary
280
0
281
1
  3
Standard
350
18
  0
DICTIONARY
  5
19
102
{ACAD_REACTORS
330
C
102
}
100
AcDbDictionary
281
1
  0
DICTIONARY
  5
1A
102
{ACAD_REACTORS
330
C
102
}
100
AcDbDictionary
281
1
  3
Model
350
2ED
  3
Layout1
350
2EE
  0
ACDBPLACEHOLDER
  5
F
102
{ACAD_REACTORS
330
E
102
}
  0
MLINESTYLE
  5
18
102
{ACAD_REACTORS
330
17
102
}
100
AcDbMlineStyle
  2
STANDARD
 70
0
  3

 62
256
 51
90.0
 52
90.0
 71
2
 49
0.5
 62
256
  6
BYLAYER
 49
-0.5
 62
256
  6
BYLAYER
  0
LAYOUT
  5
2ED
102
{ACAD_REACTORS
330
1A
102
}
100
AcDbPlotSettings
  1

  2
none_device
  4

  6

 40
0.0
 41
0.0
 42
0.0
 43
0.0
 44
210.0
 45
297.0
 46
0.0
 47
0.0
 48
0.0
 49
0.0
140
0.0
141
0.0
142
1.0
143
1.0
 70
1024
 72
1
 73
0
 74
0
  7

 75
0
147
1.0
148
0.0
149
0.0
100
AcDbLayout
  1
Model
 70
0
 71
0
 10
0.0
 20
0.0
 11
210.0
 21
297.0
 12
0.0
 22
0.0
 32
0.0
 14
0.0
 24
0.0
 34
0.0
 15
0.0
 25
0.0
 35
0.0
146
0.0
 13
0.0
 23
0.0
 33
0.0
 16
1.0
 26
0.0
 36
0.0
 17
0.0
 27
1.0
 37
0.0
 76
0
330
210
345
0
346
0
  0
LAYOUT
  5
2EE
102
{ACAD_REACTORS
330
1A
102
}
100
AcDbPlotSettings
  1

  2
none_device
  4

  6

 40
0.0
 41
0.0
 42
0.0
 43
0.0
 44
210.0
 45
297.0
 46
0.0
 47
0.0
 48
0.0
 49
0.0
140
0.0
141
0.0
142
1.0
143
1.0
 70
0
 72
1
 73
0
 74
0
  7

 75
0
147
1.0
148
0.0
149
0.0
100
AcDbLayout
  1
Layout1
 70
0
 71
1
 10
0.0
 20
0.0
 11
210.0
 21
297.0
 12
0.0
 22
0.0
 32
0.0
 14
0.0
 24
0.0
 34
0.0
 15
0.0
 25
0.0
 35
0.0
146
0.0
 13
0.0
 23
0.0
 33
0.0
 16
1.0
 26
0.0
 36
0.0
 17
0.0
 27
1.0
 37
0.0
 76
0
330
211
345
0
346
0
  0
ENDSEC
  0
EOF
