999
DXF file: C:\Users\sesa63760\Dev\_Creo\CAD\MCADID0004562_3D-CAD\drw0001_1.dxf
999
Pro/ENGINEER 2019471 by Parametric Technology Corporation
  0
SECTION
  2
HEADER
  9
$ACADVER
  1
AC1024
  9
$DWGCODEPAGE
  3
ANSI_1252
  9
$EXTMAX
 10
129.6620091008
 20
183.3791271568
 30
0.0
  9
$EXTMIN
 10
0.0
 20
0.0
 30
0.0
  9
$LIMMIN
 10
0.0
 20
0.0
  9
$LIMMAX
 10
129.6620091008
 20
183.3791271568
  9
$VIEWCTR
 10
64.8310045504
 20
91.6895635784
  9
$VIEWSIZE
 40
183.3791271568
  9
$CLAYER
  8
0
  9
$LTSCALE
 40
11.9536023628
  9
$CELTYPE
  6
BYLAYER
  9
$DIMSCALE
 40
1.0
  9
$DIMASZ
 40
1.5435953464
  9
$DIMEXO
 40
1.0
  9
$DIMDLI
 40
8.2588525416
  9
$DIMEXE
 40
1.0
  9
$DIMCEN
 40
1.956044023
  9
$DIMLFAC
 40
1.0
  9
$DIMBLK
  1
_FILLED
  9
$DIMALT
 70
0
  9
$DIMALTF
 40
0.0393700787
  9
$DIMTXT
 40
2.161033485
  9
$DIMTOL
 70
1
  9
$DIMLIM
 70
0
  9
$DIMTFAC
 40
1.0
  9
$DIMTP
 40
0.01
  9
$DIMTM
 40
0.01
  9
$DIMGAP
 40
0.625
  9
$DIMDSEP
 70
46
  9
$AUNITS
 70
0
  9
$PDMODE
 70
3
  9
$PDSIZE
 40
0.3125
  9
$HANDSEED
  5
4C8
  9
$TILEMODE
 70
1
  9
$MEASUREMENT
 70
1
  9
$INSUNITS
 70
4
  0
ENDSEC
  0
SECTION
  2
CLASSES
  0
CLASS
  1
ACDBDICTIONARYWDFLT
  2
AcDbDictionaryWithDefault
  3
AutoCAD 2000
 90
0
 91
1
280
0
281
0
  0
CLASS
  1
ACDBPLACEHOLDER
  2
AcDbPlaceHolder
  3
AutoCAD 2000
 90
0
 91
1
280
0
281
0
  0
CLASS
  1
LAYOUT
  2
AcDbLayout
  3
AutoCAD 2000
 90
0
 91
0
280
0
281
0
  0
ENDSEC
  0
SECTION
  2
TABLES
  0
TABLE
  2
VPORT
  5
8
100
AcDbSymbolTable
 70
2
  0
VPORT
  5
1F4
100
AcDbSymbolTableRecord
100
AcDbViewportTableRecord
  2
*ACTIVE
 70
0
 10
0.0
 20
0.0
 11
1.0
 21
1.0
 12
64.8310045504
 22
91.6895635784
 13
0.0
 23
0.0
 14
1.0
 24
1.0
 15
0.0
 25
0.0
 16
0.0
 26
0.0
 36
1.0
 17
0.0
 27
0.0
 37
0.0
 40
183.3791271568
 41
0.7070707071
 42
50.0
 43
0.0
 44
0.0
 50
0.0
 51
0.0
 71
0
 72
100
 73
1
 74
1
 75
0
 76
0
 77
0
 78
0
  0
ENDTAB
  0
TABLE
  2
LTYPE
  5
5
100
AcDbSymbolTable
 70
6
  0
LTYPE
  5
14
100
AcDbSymbolTableRecord
100
AcDbLinetypeTableRecord
  2
BYBLOCK
 70
0
  3

 72
65
 73
0
 40
0.0
  0
LTYPE
  5
15
100
AcDbSymbolTableRecord
100
AcDbLinetypeTableRecord
  2
BYLAYER
 70
0
  3

 72
65
 73
0
 40
0.0
  0
LTYPE
  5
16
100
AcDbSymbolTableRecord
100
AcDbLinetypeTableRecord
  2
CONTINUOUS
 70
64
  3
Solid line
 72
65
 73
0
 40
0.0
  0
LTYPE
  5
1F5
100
AcDbSymbolTableRecord
100
AcDbLinetypeTableRecord
  2
CENTER
 70
64
  3
____ _ ____ _ ____ _ ____ _ ____ _ ____ _ ____
 72
65
 73
4
 40
0.6
 49
0.375
 74
0
 49
-0.075
 74
0
 49
0.075
 74
0
 49
-0.075
 74
0
  0
LTYPE
  5
1F6
100
AcDbSymbolTableRecord
100
AcDbLinetypeTableRecord
  2
HIDDEN
 70
64
  3
- - - - - - - - - - - - - - - - - - - -
 72
65
 73
2
 40
0.2
 49
0.1
 74
0
 49
-0.1
 74
0
  0
LTYPE
  5
1F7
100
AcDbSymbolTableRecord
100
AcDbLinetypeTableRecord
  2
PHANTOM
 70
64
  3
_____ _ _ _____ _ _ _____ _ _ _____
 72
65
 73
6
 40
0.8
 49
0.45
 74
0
 49
-0.05
 74
0
 49
0.1
 74
0
 49
-0.05
 74
0
 49
0.1
 74
0
 49
-0.05
 74
0
  0
LTYPE
  5
1F8
100
AcDbSymbolTableRecord
100
AcDbLinetypeTableRecord
  2
DOT
 70
64
  3
. . . . . . . . . . . . . . . . . . . .
 72
65
 73
2
 40
0.2
 49
0.1
 74
0
 49
-0.1
 74
0
  0
LTYPE
  5
1F9
100
AcDbSymbolTableRecord
100
AcDbLinetypeTableRecord
  2
DASHED
 70
64
  3
- - - - - - - - - - - - - - - - - - - -
 72
65
 73
2
 40
0.2
 49
0.1
 74
0
 49
-0.1
 74
0
  0
ENDTAB
  0
TABLE
  2
LAYER
  5
2
100
AcDbSymbolTable
 70
36
  0
LAYER
  5
10
100
AcDbSymbolTableRecord
100
AcDbLayerTableRecord
  2
0
 70
0
 62
7
  6
CONTINUOUS
370
-3
390
F
  0
LAYER
  5
1FA
100
AcDbSymbolTableRecord
100
AcDbLayerTableRecord
  2
DEFAULT_1
 70
0
 62
7
  6
CENTER
370
-3
390
F
  0
LAYER
  5
1FB
100
AcDbSymbolTableRecord
100
AcDbLayerTableRecord
  2
DEFAULT_2
 70
0
 62
7
  6
HIDDEN
370
-3
390
F
  0
LAYER
  5
1FC
100
AcDbSymbolTableRecord
100
AcDbLayerTableRecord
  2
DEFAULT_3
 70
0
 62
7
  6
PHANTOM
370
-3
390
F
  0
LAYER
  5
1FD
100
AcDbSymbolTableRecord
100
AcDbLayerTableRecord
  2
00_COMPONENTS
 70
0
 62
7
  6
CONTINUOUS
370
-3
390
F
  0
LAYER
  5
1FE
100
AcDbSymbolTableRecord
100
AcDbLayerTableRecord
  2
01_1_DEFAULT_DATUMS
 70
0
 62
7
  6
CONTINUOUS
370
-3
390
F
  0
LAYER
  5
1FF
100
AcDbSymbolTableRecord
100
AcDbLayerTableRecord
  2
01_PLANES
 70
0
 62
7
  6
CONTINUOUS
370
-3
390
F
  0
LAYER
  5
200
100
AcDbSymbolTableRecord
100
AcDbLayerTableRecord
  2
02_COORD_SYS
 70
0
 62
7
  6
CONTINUOUS
370
-3
390
F
  0
LAYER
  5
201
100
AcDbSymbolTableRecord
100
AcDbLayerTableRecord
  2
03_AXES
 70
0
 62
7
  6
CONTINUOUS
370
-3
390
F
  0
LAYER
  5
202
100
AcDbSymbolTableRecord
100
AcDbLayerTableRecord
  2
04_POINTS
 70
0
 62
7
  6
CONTINUOUS
370
-3
390
F
  0
LAYER
  5
203
100
AcDbSymbolTableRecord
100
AcDbLayerTableRecord
  2
05_CURVES
 70
0
 62
7
  6
CONTINUOUS
370
-3
390
F
  0
LAYER
  5
204
100
AcDbSymbolTableRecord
100
AcDbLayerTableRecord
  2
06_SURFS
 70
0
 62
7
  6
CONTINUOUS
370
-3
390
F
  0
LAYER
  5
205
100
AcDbSymbolTableRecord
100
AcDbLayerTableRecord
  2
07_COSMETICS
 70
0
 62
7
  6
CONTINUOUS
370
-3
390
F
  0
LAYER
  5
206
100
AcDbSymbolTableRecord
100
AcDbLayerTableRecord
  2
10_NOTES
 70
0
 62
7
  6
CONTINUOUS
370
-3
390
F
  0
LAYER
  5
207
100
AcDbSymbolTableRecord
100
AcDbLayerTableRecord
  2
11_NOTES_PUB
 70
0
 62
7
  6
CONTINUOUS
370
-3
390
F
  0
LAYER
  5
208
100
AcDbSymbolTableRecord
100
AcDbLayerTableRecord
  2
13_REF_GTOL
 70
0
 62
7
  6
CONTINUOUS
370
-3
390
F
  0
LAYER
  5
209
100
AcDbSymbolTableRecord
100
AcDbLayerTableRecord
  2
16_MISC
 70
0
 62
7
  6
CONTINUOUS
370
-3
390
F
  0
LAYER
  5
20A
100
AcDbSymbolTableRecord
100
AcDbLayerTableRecord
  2
17_NO_PRINT
 70
0
 62
7
  6
CONTINUOUS
370
-3
390
F
  0
LAYER
  5
20B
100
AcDbSymbolTableRecord
100
AcDbLayerTableRecord
  2
18_DATUM_CAMS_JOINTS
 70
0
 62
7
  6
CONTINUOUS
370
-3
390
F
  0
LAYER
  5
20C
100
AcDbSymbolTableRecord
100
AcDbLayerTableRecord
  2
19_DATUM_FUNCTIONAL
 70
0
 62
7
  6
CONTINUOUS
370
-3
390
F
  0
LAYER
  5
20D
100
AcDbSymbolTableRecord
100
AcDbLayerTableRecord
  2
20_DATUM_KINEMATIC_SCHEME
 70
0
 62
7
  6
CONTINUOUS
370
-3
390
F
  0
LAYER
  5
20E
100
AcDbSymbolTableRecord
100
AcDbLayerTableRecord
  2
INTFCLR_4786
 70
0
 62
7
  6
CONTINUOUS
370
-3
390
F
  0
LAYER
  5
20F
100
AcDbSymbolTableRecord
100
AcDbLayerTableRecord
  2
INTFCLR_4789
 70
0
 62
7
  6
CONTINUOUS
370
-3
390
F
  0
LAYER
  5
210
100
AcDbSymbolTableRecord
100
AcDbLayerTableRecord
  2
INTFCLR_4792
 70
0
 62
7
  6
CONTINUOUS
370
-3
390
F
  0
LAYER
  5
211
100
AcDbSymbolTableRecord
100
AcDbLayerTableRecord
  2
INTFCLR_4795
 70
0
 62
7
  6
CONTINUOUS
370
-3
390
F
  0
LAYER
  5
212
100
AcDbSymbolTableRecord
100
AcDbLayerTableRecord
  2
INTFCLR_4798
 70
0
 62
7
  6
CONTINUOUS
370
-3
390
F
  0
ENDTAB
  0
TABLE
  2
STYLE
  5
3
100
AcDbSymbolTable
 70
1
  0
STYLE
  5
11
100
AcDbSymbolTableRecord
100
AcDbTextStyleTableRecord
  2
STANDARD
 70
0
 40
0.0
 41
1.0
 50
0.0
 71
0
 42
0.2
  3
ARIAL.TTF
  4

  0
STYLE
  5
213
100
AcDbSymbolTableRecord
100
AcDbTextStyleTableRecord
  2
TEXTSTYLE_1
 70
0
 40
0.0
 41
0.8
 50
0.0
 71
0
 42
0.2
  3
gdt
  4

  0
ENDTAB
  0
TABLE
  2
VIEW
  5
6
100
AcDbSymbolTable
 70
0
  0
ENDTAB
  0
TABLE
  2
UCS
  5
7
100
AcDbSymbolTable
 70
0
  0
ENDTAB
  0
TABLE
  2
APPID
  5
9
100
AcDbSymbolTable
 70
1
  0
APPID
  5
214
100
AcDbSymbolTableRecord
100
AcDbRegAppTableRecord
  2
ACAD
 70
0
  0
ENDTAB
  0
TABLE
  2
BLOCK_RECORD
  5
1
100
AcDbSymbolTable
 70
0
  0
BLOCK_RECORD
  5
215
100
AcDbSymbolTableRecord
100
AcDbBlockTableRecord
  2
*Model_Space
  0
BLOCK_RECORD
  5
216
100
AcDbSymbolTableRecord
100
AcDbBlockTableRecord
  2
*Paper_Space
  0
BLOCK_RECORD
  5
217
100
AcDbSymbolTableRecord
100
AcDbBlockTableRecord
  2
_FILLED
  0
ENDTAB
  0
TABLE
  2
DIMSTYLE
  5
A
100
AcDbSymbolTable
 70
1
100
AcDbDimStyleTable
 71
0
  0
DIMSTYLE
105
218
100
AcDbSymbolTableRecord
100
AcDbDimStyleTableRecord
  2
STANDARD
 70
0
  3

  4

 40
1.0
 41
1.5435953464
 42
1.0
 43
0.38
 44
1.0
 45
0.0
 46
0.0
 47
0.01
 48
0.01
140
2.161033485
141
0.09
142
0.0
143
25.4
144
1.0
145
0.0
146
1.0
147
0.625
 71
1
 72
0
 73
0
 74
0
 75
0
 76
0
 77
1
 78
8
 79
2
170
0
171
1
172
0
173
0
174
0
175
0
176
0
177
0
178
0
270
2
179
2
271
2
272
2
273
2
274
2
275
0
280
0
281
0
282
0
283
1
284
8
285
0
286
0
287
3
288
0
340
11
278
46
341
217
342
217
343
217
344
217
  0
ENDTAB
  0
ENDSEC
  0
SECTION
  2
BLOCKS
  0
BLOCK
  5
20
100
AcDbEntity
  8
0
100
AcDbBlockBegin
  2
*Model_Space
 70
0
 10
0.0
 20
0.0
 30
0.0
  3
*Model_Space
  1

  0
ENDBLK
  5
21
100
AcDbEntity
  8
0
100
AcDbBlockEnd
  0
BLOCK
  5
1C
100
AcDbEntity
  8
0
100
AcDbBlockBegin
  2
*Paper_Space
 70
0
 10
0.0
 20
0.0
 30
0.0
  3
*Paper_Space
  1

  0
ENDBLK
  5
1D
100
AcDbEntity
  8
0
100
AcDbBlockEnd
  0
BLOCK
  5
219
100
AcDbEntity
  8
0
100
AcDbBlockBegin
  2
_FILLED
 70
64
 10
0.0
 20
0.0
  3
_FILLED
  1

  0
SOLID
  5
21A
100
AcDbEntity
  8
0
  6
BYBLOCK
 62
0
100
AcDbTrace
 10
0.0
 20
0.0
 11
-1.0
 21
0.25
 12
-1.0
 22
-0.25
 13
-1.0
 23
-0.25
  0
ENDBLK
  5
21B
100
AcDbEntity
  8
0
  6
BYBLOCK
 62
0
100
AcDbBlockEnd
  0
ENDSEC
  0
SECTION
  2
ENTITIES
  0
LINE
  5
21C
100
AcDbEntity
  8
0
100
AcDbLine
 62
7
  6
BYLAYER
 10
15.4029299211
 20
115.9783653518
 11
15.402930184
 21
115.9529684188
  0
LINE
  5
21D
100
AcDbEntity
  8
0
100
AcDbLine
 62
7
  6
BYLAYER
 10
19.418846176
 20
123.0977403963
 11
19.4277387377
 21
123.1036120377
  0
LINE
  5
21E
100
AcDbEntity
  8
0
100
AcDbLine
 62
7
  6
BYLAYER
 10
19.4188560054
 20
123.1011039639
 11
19.4277520495
 21
123.1063724199
  0
LINE
  5
21F
100
AcDbEntity
  8
0
100
AcDbLine
 62
7
  6
BYLAYER
 10
19.4170347659
 20
123.1004837648
 11
19.4262795764
 21
123.1058219278
  0
LINE
  5
220
100
AcDbEntity
  8
0
100
AcDbLine
 62
7
  6
BYLAYER
 10
19.4837912846
 20
123.1390023334
 11
19.4643794298
 21
123.1277972919
  0
LINE
  5
221
100
AcDbEntity
  8
0
100
AcDbLine
 62
7
  6
BYLAYER
 10
19.426279587
 20
123.1058336431
 11
19.4838912269
 21
123.139081276
  0
LINE
  5
222
100
AcDbEntity
  8
0
100
AcDbLine
 62
7
  6
BYLAYER
 10
15.4358855703
 20
115.3546274328
 11
15.4029301872
 21
115.9526569859
  0
LINE
  5
223
100
AcDbEntity
  8
0
100
AcDbLine
 62
7
  6
BYLAYER
 10
15.4360168122
 20
115.3538501022
 11
15.4377956762
 21
115.3385148854
  0
LINE
  5
224
100
AcDbEntity
  8
0
100
AcDbLine
 62
7
  6
BYLAYER
 10
36.5148647633
 20
117.8951858909
 11
36.5315214375
 21
117.9159071439
  0
LINE
  5
225
100
AcDbEntity
  8
0
100
AcDbLine
 62
7
  6
BYLAYER
 10
36.4916296476
 20
117.9474500078
 11
36.509380171
 21
117.9660486893
  0
LWPOLYLINE
  5
226
100
AcDbEntity
  8
0
100
AcDbPolyline
 62
7
  6
BYLAYER
 90
6
 70
0
 10
40.2226508594
 20
95.1324912406
 10
40.2226508594
 20
99.3959408354
 10
41.4854623843
 20
104.1313531806
 10
43.8587717271
 20
108.76756766
 10
47.0563227547
 20
112.7453883843
 10
50.6924436224
 20
115.5850314676
  0
LWPOLYLINE
  5
227
100
AcDbEntity
  8
0
100
AcDbPolyline
 62
7
  6
BYLAYER
 90
4
 70
0
 10
40.311039575
 20
99.3449107411
 10
40.311039575
 20
95.0814611462
 10
41.5738510999
 20
91.8042092447
 10
42.0231757825
 20
91.3874672105
  0
LWPOLYLINE
  5
228
100
AcDbEntity
  8
0
100
AcDbPolyline
 62
7
  6
BYLAYER
 90
5
 70
0
 10
50.7506833301
 20
115.5104563854
 10
47.1447114703
 20
112.69435829
 10
43.9471604427
 20
108.7165375657
 10
41.5738510999
 20
104.0803230862
 10
40.311039575
 20
99.3449107411
  0
LINE
  5
229
100
AcDbEntity
  8
0
100
AcDbLine
 62
7
  6
BYLAYER
 10
90.572719294
 20
55.3549537743
 11
61.0791726581
 21
72.3826756453
  0
LINE
  5
22A
100
AcDbEntity
  8
0
100
AcDbLine
 62
7
  6
BYLAYER
 10
89.5267244382
 20
58.8915215121
 11
92.1112925786
 21
57.3993541578
  0
LWPOLYLINE
  5
22B
100
AcDbEntity
  8
0
100
AcDbPolyline
 62
7
  6
BYLAYER
 90
3
 70
0
 10
42.0077449554
 20
91.3708299363
 10
41.4854623843
 20
91.855239339
 10
40.2226508594
 20
95.1324912406
  0
LINE
  5
22C
100
AcDbEntity
  8
0
100
AcDbLine
 62
7
  6
BYLAYER
 10
94.19296815
 20
60.9635249129
 11
94.1750075629
 21
60.9738942281
  0
LWPOLYLINE
  5
22D
100
AcDbEntity
  8
0
100
AcDbPolyline
 62
7
  6
BYLAYER
 90
6
 70
0
 10
67.7166023748
 20
105.7206355183
 10
64.1090797971
 20
102.9033263836
 10
60.910165091
 20
98.9238092146
 10
58.535843589
 20
94.2856175015
 10
57.2724935054
 20
89.5481856171
 10
57.2724935054
 20
87.4788725735
  0
LINE
  5
22E
100
AcDbEntity
  8
0
100
AcDbLine
 62
7
  6
BYLAYER
 10
31.3068785323
 20
98.2947952516
 11
24.1623698231
 21
102.4195859629
  0
LINE
  5
22F
100
AcDbEntity
  8
0
100
AcDbLine
 62
7
  6
BYLAYER
 10
20.4856173385
 20
104.8367589491
 11
23.3214485499
 21
103.1995280749
  0
LWPOLYLINE
  5
230
100
AcDbEntity
  8
0
100
AcDbPolyline
 62
7
  6
BYLAYER
 90
5
 70
0
 10
58.4229755573
 20
91.1850237558
 10
59.1545645985
 20
93.9284068413
 10
61.5288861005
 20
98.5665985544
 10
64.7278008066
 20
102.5461157234
 10
65.3849347549
 20
103.0593070993
  0
LINE
  5
231
100
AcDbEntity
  8
0
100
AcDbLine
 62
7
  6
BYLAYER
 10
18.0635847916
 20
117.6242799074
 11
17.9088063864
 21
117.7136392397
  0
LINE
  5
232
100
AcDbEntity
  8
0
100
AcDbLine
 62
7
  6
BYLAYER
 10
17.9073448947
 20
117.7140304334
 11
17.3394844087
 21
117.8743198504
  0
LWPOLYLINE
  5
233
100
AcDbEntity
  8
0
100
AcDbPolyline
 62
7
  6
BYLAYER
 90
3
 70
0
 10
71.1529096959
 20
108.1596326003
 10
69.2630937924
 20
108.3284449124
 10
65.6254222069
 20
106.9689027698
  0
LWPOLYLINE
  5
234
100
AcDbEntity
  8
0
100
AcDbPolyline
 62
7
  6
BYLAYER
 90
4
 70
0
 10
21.7249449494
 20
123.5998685706
 10
21.6341812147
 20
123.6312753871
 10
20.3380993513
 20
123.5211503915
 10
19.4837912846
 20
123.1390023334
  0
LINE
  5
235
100
AcDbEntity
  8
0
100
AcDbLine
 62
7
  6
BYLAYER
 10
34.2653835329
 20
128.7045540636
 11
37.0818740215
 21
127.0784893083
  0
LINE
  5
236
100
AcDbEntity
  8
0
100
AcDbLine
 62
7
  6
BYLAYER
 10
45.3957836952
 20
122.5730068812
 11
38.1971316909
 21
126.7290565312
  0
LINE
  5
237
100
AcDbEntity
  8
0
100
AcDbLine
 62
7
  6
BYLAYER
 10
109.1152149595
 20
86.8101992668
 11
109.0972543725
 21
86.8205685819
  0
LINE
  5
238
100
AcDbEntity
  8
0
100
AcDbLine
 62
7
  6
BYLAYER
 10
67.3960491927
 20
110.9532207235
 11
67.4197042371
 21
110.9511076803
  0
LINE
  5
239
100
AcDbEntity
  8
0
100
AcDbLine
 62
7
  6
BYLAYER
 10
67.3990670023
 20
110.9591373803
 11
67.4197042371
 21
110.9511076803
  0
LINE
  5
23A
100
AcDbEntity
  8
0
100
AcDbLine
 62
7
  6
BYLAYER
 10
108.2069419398
 20
92.1005785936
 11
111.1609693568
 21
90.3951086521
  0
LINE
  5
23B
100
AcDbEntity
  8
0
100
AcDbLine
 62
7
  6
BYLAYER
 10
112.1621392503
 20
92.7497720092
 11
82.6685926144
 21
109.7774938802
  0
ARC
  5
23C
100
AcDbEntity
  8
0
100
AcDbCircle
 62
7
  6
BYLAYER
 10
57.0887195636
 20
88.0675891669
 40
5.0399942348
100
AcDbArc
 50
240.007663666
 51
246.1232936469
  0
ARC
  5
23D
100
AcDbEntity
  8
0
100
AcDbCircle
 62
7
  6
BYLAYER
 10
56.3815251177
 20
88.4758966385
 40
5.0399438203
100
AcDbArc
 50
239.9969600517
 51
246.1212572142
  0
ARC
  5
23E
100
AcDbEntity
  8
0
100
AcDbCircle
 62
7
  6
BYLAYER
 10
43.6604993566
 20
95.8251360631
 40
5.0378674323
100
AcDbArc
 50
240.0076734276
 51
246.1261292021
  0
ARC
  5
23F
100
AcDbEntity
  8
0
100
AcDbCircle
 62
7
  6
BYLAYER
 10
44.3676090817
 20
95.4168953086
 40
5.0378674323
100
AcDbArc
 50
240.0076734276
 51
246.1261292021
  0
ARC
  5
240
100
AcDbEntity
  8
0
100
AcDbCircle
 62
7
  6
BYLAYER
 10
45.0747188069
 20
95.008654554
 40
5.0378674323
100
AcDbArc
 50
240.0076734276
 51
246.1261292021
  0
ARC
  5
241
100
AcDbEntity
  8
0
100
AcDbCircle
 62
7
  6
BYLAYER
 10
45.781828532
 20
94.6004137995
 40
5.0378674323
100
AcDbArc
 50
240.0076734276
 51
246.1261292021
  0
ARC
  5
242
100
AcDbEntity
  8
0
100
AcDbCircle
 62
7
  6
BYLAYER
 10
46.4889382572
 20
94.192173045
 40
5.0378674323
100
AcDbArc
 50
240.0076734276
 51
246.1261292021
  0
ARC
  5
243
100
AcDbEntity
  8
0
100
AcDbCircle
 62
7
  6
BYLAYER
 10
47.1960479823
 20
93.7839322905
 40
5.0378674323
100
AcDbArc
 50
240.0076734276
 51
246.1261292021
  0
ARC
  5
244
100
AcDbEntity
  8
0
100
AcDbCircle
 62
7
  6
BYLAYER
 10
47.9031577075
 20
93.375691536
 40
5.0378674323
100
AcDbArc
 50
240.0076734276
 51
246.1261292021
  0
ARC
  5
245
100
AcDbEntity
  8
0
100
AcDbCircle
 62
7
  6
BYLAYER
 10
48.6102674326
 20
92.9674507814
 40
5.0378674323
100
AcDbArc
 50
240.0076734276
 51
246.1261292021
  0
ARC
  5
246
100
AcDbEntity
  8
0
100
AcDbCircle
 62
7
  6
BYLAYER
 10
49.3173771577
 20
92.5592100269
 40
5.0378674323
100
AcDbArc
 50
240.0076734276
 51
246.1261292021
  0
ARC
  5
247
100
AcDbEntity
  8
0
100
AcDbCircle
 62
7
  6
BYLAYER
 10
50.0244868829
 20
92.1509692724
 40
5.0378674323
100
AcDbArc
 50
240.0076734276
 51
246.1261292021
  0
ARC
  5
248
100
AcDbEntity
  8
0
100
AcDbCircle
 62
7
  6
BYLAYER
 10
50.731596608
 20
91.7427285179
 40
5.0378674323
100
AcDbArc
 50
240.0076734276
 51
246.1261292021
  0
ARC
  5
249
100
AcDbEntity
  8
0
100
AcDbCircle
 62
7
  6
BYLAYER
 10
51.4387063332
 20
91.3344877634
 40
5.0378674323
100
AcDbArc
 50
240.0076734276
 51
246.1261292021
  0
ARC
  5
24A
100
AcDbEntity
  8
0
100
AcDbCircle
 62
7
  6
BYLAYER
 10
52.1458160583
 20
90.9262470088
 40
5.0378674323
100
AcDbArc
 50
240.0076734276
 51
246.1261292021
  0
ARC
  5
24B
100
AcDbEntity
  8
0
100
AcDbCircle
 62
7
  6
BYLAYER
 10
52.8529257835
 20
90.5180062543
 40
5.0378674323
100
AcDbArc
 50
240.0076734276
 51
246.1261292021
  0
ARC
  5
24C
100
AcDbEntity
  8
0
100
AcDbCircle
 62
7
  6
BYLAYER
 10
53.5600355086
 20
90.1097654998
 40
5.0378674323
100
AcDbArc
 50
240.0076734276
 51
246.1261292021
  0
ARC
  5
24D
100
AcDbEntity
  8
0
100
AcDbCircle
 62
7
  6
BYLAYER
 10
54.2671452338
 20
89.7015247453
 40
5.0378674323
100
AcDbArc
 50
240.0076734276
 51
246.1261292021
  0
ARC
  5
24E
100
AcDbEntity
  8
0
100
AcDbCircle
 62
7
  6
BYLAYER
 10
54.9730138675
 20
89.29088715
 40
5.0351711466
100
AcDbArc
 50
240.0062710367
 51
245.6884970808
  0
ARC
  5
24F
100
AcDbEntity
  8
0
100
AcDbCircle
 62
7
  6
BYLAYER
 10
57.0797843704
 20
88.0508680156
 40
5.0210456516
100
AcDbArc
 50
238.8918923803
 51
240.0005894897
  0
ARC
  5
250
100
AcDbEntity
  8
0
100
AcDbCircle
 62
7
  6
BYLAYER
 10
56.3726095461
 20
88.4592141757
 40
5.0210386692
100
AcDbArc
 50
238.8811556657
 51
239.9898723295
  0
ARC
  5
251
100
AcDbEntity
  8
0
100
AcDbCircle
 62
7
  6
BYLAYER
 10
55.6633682083
 20
88.8706182615
 40
5.02099026
100
AcDbArc
 50
238.5855676164
 51
239.6947885333
  0
ARC
  5
252
100
AcDbEntity
  8
0
100
AcDbCircle
 62
7
  6
BYLAYER
 10
49.3084377274
 20
92.5424803358
 40
5.0189093347
100
AcDbArc
 50
238.8914197115
 51
240.0005894368
  0
ARC
  5
253
100
AcDbEntity
  8
0
100
AcDbCircle
 62
7
  6
BYLAYER
 10
48.6013280022
 20
92.9507210903
 40
5.0189093347
100
AcDbArc
 50
238.8914197115
 51
240.0005894368
  0
ARC
  5
254
100
AcDbEntity
  8
0
100
AcDbCircle
 62
7
  6
BYLAYER
 10
43.6515599262
 20
95.8084063721
 40
5.0189093349
100
AcDbArc
 50
238.8914197115
 51
240.0005894367
  0
ARC
  5
255
100
AcDbEntity
  8
0
100
AcDbCircle
 62
7
  6
BYLAYER
 10
52.8439863532
 20
90.5012765633
 40
5.0189093349
100
AcDbArc
 50
238.8914197116
 51
240.0005894368
  0
ARC
  5
256
100
AcDbEntity
  8
0
100
AcDbCircle
 62
7
  6
BYLAYER
 10
47.894218277
 20
93.3589618448
 40
5.0189093346
100
AcDbArc
 50
238.8914197115
 51
240.0005894368
  0
ARC
  5
257
100
AcDbEntity
  8
0
100
AcDbCircle
 62
7
  6
BYLAYER
 10
47.1871085519
 20
93.7672025993
 40
5.0189093346
100
AcDbArc
 50
238.8914197115
 51
240.0005894368
  0
ARC
  5
258
100
AcDbEntity
  8
0
100
AcDbCircle
 62
7
  6
BYLAYER
 10
50.7226571777
 20
91.7259988268
 40
5.0189093348
100
AcDbArc
 50
238.8914197116
 51
240.0005894368
  0
ARC
  5
259
100
AcDbEntity
  8
0
100
AcDbCircle
 62
7
  6
BYLAYER
 10
46.4799988267
 20
94.1754433537
 40
5.0189093345
100
AcDbArc
 50
238.8914197115
 51
240.0005894368
  0
ARC
  5
25A
100
AcDbEntity
  8
0
100
AcDbCircle
 62
7
  6
BYLAYER
 10
45.7728891016
 20
94.5836841083
 40
5.0189093346
100
AcDbArc
 50
238.8914197115
 51
240.0005894368
  0
ARC
  5
25B
100
AcDbEntity
  8
0
100
AcDbCircle
 62
7
  6
BYLAYER
 10
45.0657793765
 20
94.9919248629
 40
5.0189093347
100
AcDbArc
 50
238.8914197115
 51
240.0005894368
  0
ARC
  5
25C
100
AcDbEntity
  8
0
100
AcDbCircle
 62
7
  6
BYLAYER
 10
53.5510960782
 20
90.0930358086
 40
5.0189093347
100
AcDbArc
 50
238.8914197115
 51
240.0005894368
  0
ARC
  5
25D
100
AcDbEntity
  8
0
100
AcDbCircle
 62
7
  6
BYLAYER
 10
44.3586696512
 20
95.4001656172
 40
5.0189093344
100
AcDbArc
 50
238.8914197115
 51
240.0005894368
  0
ARC
  5
25E
100
AcDbEntity
  8
0
100
AcDbCircle
 62
7
  6
BYLAYER
 10
54.9653155285
 20
89.2765542995
 40
5.0189093346
100
AcDbArc
 50
238.8914197115
 51
240.0005894368
  0
ARC
  5
25F
100
AcDbEntity
  8
0
100
AcDbCircle
 62
7
  6
BYLAYER
 10
54.2582058033
 20
89.684795054
 40
5.0189093346
100
AcDbArc
 50
238.8914197115
 51
240.0005894368
  0
ARC
  5
260
100
AcDbEntity
  8
0
100
AcDbCircle
 62
7
  6
BYLAYER
 10
51.4297669027
 20
91.3177580722
 40
5.0189093346
100
AcDbArc
 50
238.8914197115
 51
240.0005894368
  0
ARC
  5
261
100
AcDbEntity
  8
0
100
AcDbCircle
 62
7
  6
BYLAYER
 10
50.0155474525
 20
92.1342395812
 40
5.0189093346
100
AcDbArc
 50
238.8914197115
 51
240.0005894368
  0
ARC
  5
262
100
AcDbEntity
  8
0
100
AcDbCircle
 62
7
  6
BYLAYER
 10
52.1368766278
 20
90.9095173174
 40
5.0189093344
100
AcDbArc
 50
238.8914197115
 51
240.0005894368
  0
ARC
  5
263
100
AcDbEntity
  8
0
100
AcDbCircle
 62
7
  6
BYLAYER
 10
35.88229238
 20
100.3157843628
 40
5.0378674323
100
AcDbArc
 50
240.0076734276
 51
246.1261292021
  0
ARC
  5
264
100
AcDbEntity
  8
0
100
AcDbCircle
 62
7
  6
BYLAYER
 10
36.5894021051
 20
99.9075436083
 40
5.0378674323
100
AcDbArc
 50
240.0076734276
 51
246.1261292021
  0
ARC
  5
265
100
AcDbEntity
  8
0
100
AcDbCircle
 62
7
  6
BYLAYER
 10
37.2965118302
 20
99.4993028538
 40
5.0378674323
100
AcDbArc
 50
240.0076734276
 51
246.1261292021
  0
ARC
  5
266
100
AcDbEntity
  8
0
100
AcDbCircle
 62
7
  6
BYLAYER
 10
37.2875723998
 20
99.4825731626
 40
5.0189093346
100
AcDbArc
 50
238.8914197115
 51
240.0005894368
  0
ARC
  5
267
100
AcDbEntity
  8
0
100
AcDbCircle
 62
7
  6
BYLAYER
 10
36.5804626746
 20
99.890813917
 40
5.0189093345
100
AcDbArc
 50
238.8914197115
 51
240.0005894368
  0
ARC
  5
268
100
AcDbEntity
  8
0
100
AcDbCircle
 62
7
  6
BYLAYER
 10
35.8733529495
 20
100.2990546715
 40
5.0189093346
100
AcDbArc
 50
238.8914197115
 51
240.0005894368
  0
ARC
  5
269
100
AcDbEntity
  8
0
100
AcDbCircle
 62
7
  6
BYLAYER
 10
27.7719589346
 20
117.4125630856
 40
12.4827059989
100
AcDbArc
 50
189.623744741
 51
189.7429017204
  0
ARC
  5
26A
100
AcDbEntity
  8
0
100
AcDbCircle
 62
7
  6
BYLAYER
 10
26.2580987348
 20
114.6585407543
 40
9.4803010973
100
AcDbArc
 50
160.1725602693
 51
161.0889168684
  0
ARC
  5
26B
100
AcDbEntity
  8
0
100
AcDbCircle
 62
7
  6
BYLAYER
 10
26.2010782861
 20
114.669549365
 40
9.4229311995
100
AcDbArc
 50
159.2697683947
 51
160.1179292731
  0
ARC
  5
26C
100
AcDbEntity
  8
0
100
AcDbCircle
 62
7
  6
BYLAYER
 10
24.898145981
 20
115.8666271615
 40
8.4976176024
100
AcDbArc
 50
135.5740028668
 51
136.3278854838
  0
ARC
  5
26D
100
AcDbEntity
  8
0
100
AcDbCircle
 62
7
  6
BYLAYER
 10
24.8295425181
 20
115.9031832611
 40
8.4688289864
100
AcDbArc
 50
135.4314254749
 51
136.1872531644
  0
ARC
  5
26E
100
AcDbEntity
  8
0
100
AcDbCircle
 62
7
  6
BYLAYER
 10
23.3808044412
 20
116.6574345487
 40
8.027096625
100
AcDbArc
 50
189.734809828
 51
190.1496285209
  0
ARC
  5
26F
100
AcDbEntity
  8
0
100
AcDbCircle
 62
7
  6
BYLAYER
 10
22.4294560025
 20
115.8752883733
 40
7.0296905102
100
AcDbArc
 50
172.6877622
 51
173.4539188957
  0
ARC
  5
270
100
AcDbEntity
  8
0
100
AcDbCircle
 62
7
  6
BYLAYER
 10
21.2191911729
 20
115.952903889
 40
5.8162477562
100
AcDbArc
 50
179.7587905138
 51
180.0035759491
  0
ARC
  5
271
100
AcDbEntity
  8
0
100
AcDbCircle
 62
7
  6
BYLAYER
 10
21.817471967
 20
115.6377962597
 40
5.6848615877
100
AcDbArc
 50
181.2203692315
 51
181.3939374345
  0
ARC
  5
272
100
AcDbEntity
  8
0
100
AcDbCircle
 62
7
  6
BYLAYER
 10
22.4024640345
 20
115.2277046615
 40
5.5637508465
100
AcDbArc
 50
181.187419787
 51
181.3990917449
  0
ARC
  5
273
100
AcDbEntity
  8
0
100
AcDbCircle
 62
7
  6
BYLAYER
 10
22.1211546411
 20
118.4384128976
 40
5.3895425659
100
AcDbArc
 50
120.1148253891
 51
120.4994384948
  0
ARC
  5
274
100
AcDbEntity
  8
0
100
AcDbCircle
 62
7
  6
BYLAYER
 10
22.1620054539
 20
118.4794795417
 40
5.3744098463
100
AcDbArc
 50
120.6911052967
 51
121.1013738958
  0
ARC
  5
275
100
AcDbEntity
  8
0
100
AcDbCircle
 62
7
  6
BYLAYER
 10
22.1777224333
 20
118.5059468284
 40
5.2963881245
100
AcDbArc
 50
120.0575302063
 51
120.6739079221
  0
ARC
  5
276
100
AcDbEntity
  8
0
100
AcDbCircle
 62
7
  6
BYLAYER
 10
22.1112982897
 20
118.5651324355
 40
5.2748726069
100
AcDbArc
 50
120.1169982749
 51
120.5800334255
  0
ARC
  5
277
100
AcDbEntity
  8
0
100
AcDbCircle
 62
7
  6
BYLAYER
 10
22.1418473199
 20
118.5677905602
 40
5.2248922141
100
AcDbArc
 50
119.8045840664
 51
120.0567066068
  0
ARC
  5
278
100
AcDbEntity
  8
0
100
AcDbCircle
 62
7
  6
BYLAYER
 10
20.2277806847
 20
116.0684810875
 40
4.8193550159
100
AcDbArc
 50
191.9700456091
 51
192.9985929908
  0
ARC
  5
279
100
AcDbEntity
  8
0
100
AcDbCircle
 62
7
  6
BYLAYER
 10
17.6306945518
 20
116.3264263168
 40
2.5337187908
100
AcDbArc
 50
204.4752116631
 51
204.8277973168
  0
ARC
  5
27A
100
AcDbEntity
  8
0
100
AcDbCircle
 62
7
  6
BYLAYER
 10
17.8141088492
 20
115.0000525724
 40
2.1374747591
100
AcDbArc
 50
238.0930043539
 51
238.7393044134
  0
ARC
  5
27B
100
AcDbEntity
  8
0
100
AcDbCircle
 62
7
  6
BYLAYER
 10
17.8137367925
 20
114.9994412285
 40
2.1367591007
100
AcDbArc
 50
238.7393256841
 51
239.9997246724
  0
ARC
  5
27C
100
AcDbEntity
  8
0
100
AcDbCircle
 62
7
  6
BYLAYER
 10
51.7985476489
 20
103.3567390427
 40
21.1468808697
100
AcDbArc
 50
135.7766243456
 51
136.3026172768
  0
ARC
  5
27D
100
AcDbEntity
  8
0
100
AcDbCircle
 62
7
  6
BYLAYER
 10
52.192164461
 20
106.5573830864
 40
14.1364593528
100
AcDbArc
 50
119.9999075581
 51
120.1411776242
  0
ARC
  5
27E
100
AcDbEntity
  8
0
100
AcDbCircle
 62
7
  6
BYLAYER
 10
56.4348228078
 20
104.1079385663
 40
14.1364593447
100
AcDbArc
 50
119.999907558
 51
120.1411776243
  0
ARC
  5
27F
100
AcDbEntity
  8
0
100
AcDbCircle
 62
7
  6
BYLAYER
 10
54.3134936323
 20
105.3326608298
 40
14.1364593447
100
AcDbArc
 50
119.999907558
 51
120.1411776243
  0
ARC
  5
280
100
AcDbEntity
  8
0
100
AcDbCircle
 62
7
  6
BYLAYER
 10
57.14193253
 20
103.6996978169
 40
14.1364593388
100
AcDbArc
 50
119.999907558
 51
120.1411776243
  0
ARC
  5
281
100
AcDbEntity
  8
0
100
AcDbCircle
 62
7
  6
BYLAYER
 10
53.6063839022
 20
105.740901593
 40
14.1364593347
100
AcDbArc
 50
119.999907558
 51
120.1411776243
  0
ARC
  5
282
100
AcDbEntity
  8
0
100
AcDbCircle
 62
7
  6
BYLAYER
 10
50.7779449996
 20
107.3738646146
 40
14.1364593306
100
AcDbArc
 50
119.999907558
 51
120.1411776244
  0
ARC
  5
283
100
AcDbEntity
  8
0
100
AcDbCircle
 62
7
  6
BYLAYER
 10
55.0206033484
 20
104.924420091
 40
14.1364593265
100
AcDbArc
 50
119.9999075579
 51
120.1411776244
  0
ARC
  5
284
100
AcDbEntity
  8
0
100
AcDbCircle
 62
7
  6
BYLAYER
 10
51.4850547226
 20
106.9656238636
 40
14.1364593265
100
AcDbArc
 50
119.9999075579
 51
120.1411776244
  0
ARC
  5
285
100
AcDbEntity
  8
0
100
AcDbCircle
 62
7
  6
BYLAYER
 10
55.7277130706
 20
104.5161793416
 40
14.1364593206
100
AcDbArc
 50
119.9999075579
 51
120.1411776244
  0
ARC
  5
286
100
AcDbEntity
  8
0
100
AcDbCircle
 62
7
  6
BYLAYER
 10
52.8992741679
 20
106.1491423632
 40
14.1364593165
100
AcDbArc
 50
119.9999075579
 51
120.1411776244
  0
ARC
  5
287
100
AcDbEntity
  8
0
100
AcDbCircle
 62
7
  6
BYLAYER
 10
38.0036215554
 20
99.0910620992
 40
5.0378674323
100
AcDbArc
 50
240.0076734276
 51
246.1261292021
  0
ARC
  5
288
100
AcDbEntity
  8
0
100
AcDbCircle
 62
7
  6
BYLAYER
 10
38.7107312805
 20
98.6828213447
 40
5.0378674323
100
AcDbArc
 50
240.0076734276
 51
246.1261292021
  0
ARC
  5
289
100
AcDbEntity
  8
0
100
AcDbCircle
 62
7
  6
BYLAYER
 10
39.4178410057
 20
98.2745805902
 40
5.0378674323
100
AcDbArc
 50
240.0076734276
 51
246.1261292021
  0
ARC
  5
28A
100
AcDbEntity
  8
0
100
AcDbCircle
 62
7
  6
BYLAYER
 10
40.1249507308
 20
97.8663398357
 40
5.0378674323
100
AcDbArc
 50
240.0076734276
 51
246.1261292021
  0
ARC
  5
28B
100
AcDbEntity
  8
0
100
AcDbCircle
 62
7
  6
BYLAYER
 10
40.832060456
 20
97.4580990812
 40
5.0378674323
100
AcDbArc
 50
240.0076734276
 51
246.1261292021
  0
ARC
  5
28C
100
AcDbEntity
  8
0
100
AcDbCircle
 62
7
  6
BYLAYER
 10
41.5391701811
 20
97.0498583266
 40
5.0378674323
100
AcDbArc
 50
240.0076734276
 51
246.1261292021
  0
ARC
  5
28D
100
AcDbEntity
  8
0
100
AcDbCircle
 62
7
  6
BYLAYER
 10
42.2462799063
 20
96.6416175721
 40
5.0378674323
100
AcDbArc
 50
240.0076734276
 51
246.1261292021
  0
ARC
  5
28E
100
AcDbEntity
  8
0
100
AcDbCircle
 62
7
  6
BYLAYER
 10
42.9533896314
 20
96.2333768176
 40
5.0378674323
100
AcDbArc
 50
240.0076734276
 51
246.1261292021
  0
ARC
  5
28F
100
AcDbEntity
  8
0
100
AcDbCircle
 62
7
  6
BYLAYER
 10
42.944450201
 20
96.2166471264
 40
5.0189093346
100
AcDbArc
 50
238.8914197115
 51
240.0005894368
  0
ARC
  5
290
100
AcDbEntity
  8
0
100
AcDbCircle
 62
7
  6
BYLAYER
 10
42.2373404758
 20
96.6248878808
 40
5.0189093345
100
AcDbArc
 50
238.8914197115
 51
240.0005894368
  0
ARC
  5
291
100
AcDbEntity
  8
0
100
AcDbCircle
 62
7
  6
BYLAYER
 10
41.5302307507
 20
97.0331286355
 40
5.0189093347
100
AcDbArc
 50
238.8914197115
 51
240.0005894368
  0
ARC
  5
292
100
AcDbEntity
  8
0
100
AcDbCircle
 62
7
  6
BYLAYER
 10
40.8231210255
 20
97.44136939
 40
5.0189093346
100
AcDbArc
 50
238.8914197115
 51
240.0005894368
  0
ARC
  5
293
100
AcDbEntity
  8
0
100
AcDbCircle
 62
7
  6
BYLAYER
 10
40.1160113004
 20
97.8496101445
 40
5.0189093347
100
AcDbArc
 50
238.8914197115
 51
240.0005894368
  0
ARC
  5
294
100
AcDbEntity
  8
0
100
AcDbCircle
 62
7
  6
BYLAYER
 10
39.4089015752
 20
98.257850899
 40
5.0189093346
100
AcDbArc
 50
238.8914197115
 51
240.0005894368
  0
ARC
  5
295
100
AcDbEntity
  8
0
100
AcDbCircle
 62
7
  6
BYLAYER
 10
37.994682125
 20
99.0743324081
 40
5.0189093347
100
AcDbArc
 50
238.8914197115
 51
240.0005894368
  0
ARC
  5
296
100
AcDbEntity
  8
0
100
AcDbCircle
 62
7
  6
BYLAYER
 10
38.70179185
 20
98.6660916534
 40
5.0189093344
100
AcDbArc
 50
238.8914197115
 51
240.0005894368
  0
ARC
  5
297
100
AcDbEntity
  8
0
100
AcDbCircle
 62
7
  6
BYLAYER
 10
48.6566158332
 20
108.5985868625
 40
14.1364593488
100
AcDbArc
 50
119.9999075581
 51
120.1411776243
  0
ARC
  5
298
100
AcDbEntity
  8
0
100
AcDbCircle
 62
7
  6
BYLAYER
 10
49.3637255563
 20
108.1903461115
 40
14.1364593447
100
AcDbArc
 50
119.999907558
 51
120.1411776243
  0
ARC
  5
299
100
AcDbEntity
  8
0
100
AcDbCircle
 62
7
  6
BYLAYER
 10
47.949506101
 20
109.0068276292
 40
14.1364593347
100
AcDbArc
 50
119.999907558
 51
120.1411776244
  0
ARC
  5
29A
100
AcDbEntity
  8
0
100
AcDbCircle
 62
7
  6
BYLAYER
 10
50.0708352714
 20
107.7821053743
 40
14.1364593247
100
AcDbArc
 50
119.9999075579
 51
120.1411776244
  0
ARC
  5
29B
100
AcDbEntity
  8
0
100
AcDbCircle
 62
7
  6
BYLAYER
 10
47.2570694969
 20
116.725082614
 40
5.1346022415
100
AcDbArc
 50
68.6165278984
 51
69.8995839169
  0
ARC
  5
29C
100
AcDbEntity
  8
0
100
AcDbCircle
 62
7
  6
BYLAYER
 10
49.3783986724
 20
115.5003603504
 40
5.1346022415
100
AcDbArc
 50
68.6165278984
 51
69.8995839169
  0
ARC
  5
29D
100
AcDbEntity
  8
0
100
AcDbCircle
 62
7
  6
BYLAYER
 10
51.4997278478
 20
114.2756380869
 40
5.1346022415
100
AcDbArc
 50
68.6165278984
 51
69.8995839169
  0
ARC
  5
29E
100
AcDbEntity
  8
0
100
AcDbCircle
 62
7
  6
BYLAYER
 10
46.5499597719
 20
117.1333233688
 40
5.1346022412
100
AcDbArc
 50
68.6165278984
 51
69.8995839169
  0
ARC
  5
29F
100
AcDbEntity
  8
0
100
AcDbCircle
 62
7
  6
BYLAYER
 10
47.9641792221
 20
116.3168418597
 40
5.1346022413
100
AcDbArc
 50
68.6165278984
 51
69.8995839169
  0
ARC
  5
2A0
100
AcDbEntity
  8
0
100
AcDbCircle
 62
7
  6
BYLAYER
 10
48.6712889473
 20
115.9086011051
 40
5.1346022413
100
AcDbArc
 50
68.6165278984
 51
69.8995839169
  0
ARC
  5
2A1
100
AcDbEntity
  8
0
100
AcDbCircle
 62
7
  6
BYLAYER
 10
50.0855083976
 20
115.0921195963
 40
5.1346022411
100
AcDbArc
 50
68.6165278984
 51
69.8995839169
  0
ARC
  5
2A2
100
AcDbEntity
  8
0
100
AcDbCircle
 62
7
  6
BYLAYER
 10
50.7926181228
 20
114.6838788417
 40
5.1346022411
100
AcDbArc
 50
68.6165278984
 51
69.8995839169
  0
ARC
  5
2A3
100
AcDbEntity
  8
0
100
AcDbCircle
 62
7
  6
BYLAYER
 10
50.709981048
 20
114.7498064583
 40
5.1186331541
100
AcDbArc
 50
68.6156765736
 51
68.9329720299
  0
ARC
  5
2A4
100
AcDbEntity
  8
0
100
AcDbCircle
 62
7
  6
BYLAYER
 10
49.2957615977
 20
115.5662879673
 40
5.1186331541
100
AcDbArc
 50
68.6156765736
 51
68.9329720299
  0
ARC
  5
2A5
100
AcDbEntity
  8
0
100
AcDbCircle
 62
7
  6
BYLAYER
 10
47.8815421474
 20
116.3827694764
 40
5.1186331541
100
AcDbArc
 50
68.6156765736
 51
68.9329720299
  0
ARC
  5
2A6
100
AcDbEntity
  8
0
100
AcDbCircle
 62
7
  6
BYLAYER
 10
46.4673226971
 20
117.1992509854
 40
5.1186331541
100
AcDbArc
 50
68.6156765736
 51
68.9329720299
  0
ARC
  5
2A7
100
AcDbEntity
  8
0
100
AcDbCircle
 62
7
  6
BYLAYER
 10
50.0028713231
 20
115.1580472134
 40
5.1186331536
100
AcDbArc
 50
68.6156765736
 51
68.9329720299
  0
ARC
  5
2A8
100
AcDbEntity
  8
0
100
AcDbCircle
 62
7
  6
BYLAYER
 10
48.5886518728
 20
115.9745287224
 40
5.1186331536
100
AcDbArc
 50
68.6156765736
 51
68.9329720299
  0
ARC
  5
2A9
100
AcDbEntity
  8
0
100
AcDbCircle
 62
7
  6
BYLAYER
 10
47.1744324225
 20
116.7910102315
 40
5.1186331536
100
AcDbArc
 50
68.6156765736
 51
68.9329720299
  0
ARC
  5
2AA
100
AcDbEntity
  8
0
100
AcDbCircle
 62
7
  6
BYLAYER
 10
51.4170907746
 20
114.3415657077
 40
5.11863315
100
AcDbArc
 50
68.6156765734
 51
68.93297203
  0
ARC
  5
2AB
100
AcDbEntity
  8
0
100
AcDbCircle
 62
7
  6
BYLAYER
 10
51.5453513585
 20
114.3802466279
 40
5.0204084477
100
AcDbArc
 50
57.9645983666
 51
60.0003743451
  0
ARC
  5
2AC
100
AcDbEntity
  8
0
100
AcDbCircle
 62
7
  6
BYLAYER
 10
50.8382416333
 20
114.7884873824
 40
5.0204084477
100
AcDbArc
 50
57.9645983666
 51
60.0003743451
  0
ARC
  5
2AD
100
AcDbEntity
  8
0
100
AcDbCircle
 62
7
  6
BYLAYER
 10
50.1311319082
 20
115.196728137
 40
5.0204084476
100
AcDbArc
 50
57.9645983665
 51
60.0003743451
  0
ARC
  5
2AE
100
AcDbEntity
  8
0
100
AcDbCircle
 62
7
  6
BYLAYER
 10
49.424022183
 20
115.6049688915
 40
5.0204084477
100
AcDbArc
 50
57.9645983665
 51
60.0003743451
  0
ARC
  5
2AF
100
AcDbEntity
  8
0
100
AcDbCircle
 62
7
  6
BYLAYER
 10
48.7169124579
 20
116.013209646
 40
5.0204084476
100
AcDbArc
 50
57.9645983665
 51
60.0003743451
  0
ARC
  5
2B0
100
AcDbEntity
  8
0
100
AcDbCircle
 62
7
  6
BYLAYER
 10
48.0098027327
 20
116.4214504005
 40
5.0204084477
100
AcDbArc
 50
57.9645983666
 51
60.0003743451
  0
ARC
  5
2B1
100
AcDbEntity
  8
0
100
AcDbCircle
 62
7
  6
BYLAYER
 10
47.3026930076
 20
116.8296911551
 40
5.0204084476
100
AcDbArc
 50
57.9645983665
 51
60.0003743451
  0
ARC
  5
2B2
100
AcDbEntity
  8
0
100
AcDbCircle
 62
7
  6
BYLAYER
 10
46.5955832824
 20
117.2379319095
 40
5.0204084477
100
AcDbArc
 50
57.9645983666
 51
60.0003743451
  0
ARC
  5
2B3
100
AcDbEntity
  8
0
100
AcDbCircle
 62
7
  6
BYLAYER
 10
45.8884735573
 20
117.6461726641
 40
5.0204084477
100
AcDbArc
 50
57.9645983665
 51
60.0003743451
  0
ARC
  5
2B4
100
AcDbEntity
  8
0
100
AcDbCircle
 62
7
  6
BYLAYER
 10
48.0105300093
 20
116.4226567435
 40
5.019000086
100
AcDbArc
 50
60.0006788914
 51
61.1597594845
  0
ARC
  5
2B5
100
AcDbEntity
  8
0
100
AcDbCircle
 62
7
  6
BYLAYER
 10
50.8389689099
 20
114.7896937254
 40
5.019000086
100
AcDbArc
 50
60.0006788914
 51
61.1597594845
  0
ARC
  5
2B6
100
AcDbEntity
  8
0
100
AcDbCircle
 62
7
  6
BYLAYER
 10
45.8892008338
 20
117.6473790069
 40
5.0190000861
100
AcDbArc
 50
60.0006788914
 51
61.1597594845
  0
ARC
  5
2B7
100
AcDbEntity
  8
0
100
AcDbCircle
 62
7
  6
BYLAYER
 10
46.5963105591
 20
117.2391382528
 40
5.0190000857
100
AcDbArc
 50
60.0006788914
 51
61.1597594845
  0
ARC
  5
2B8
100
AcDbEntity
  8
0
100
AcDbCircle
 62
7
  6
BYLAYER
 10
47.3034202842
 20
116.8308974981
 40
5.0190000859
100
AcDbArc
 50
60.0006788914
 51
61.1597594845
  0
ARC
  5
2B9
100
AcDbEntity
  8
0
100
AcDbCircle
 62
7
  6
BYLAYER
 10
48.7176397346
 20
116.0144159892
 40
5.0190000857
100
AcDbArc
 50
60.0006788914
 51
61.1597594845
  0
ARC
  5
2BA
100
AcDbEntity
  8
0
100
AcDbCircle
 62
7
  6
BYLAYER
 10
49.4247494597
 20
115.6061752346
 40
5.0190000858
100
AcDbArc
 50
60.0006788914
 51
61.1597594845
  0
ARC
  5
2BB
100
AcDbEntity
  8
0
100
AcDbCircle
 62
7
  6
BYLAYER
 10
50.1318591849
 20
115.1979344802
 40
5.0190000857
100
AcDbArc
 50
60.0006788914
 51
61.1597594845
  0
ARC
  5
2BC
100
AcDbEntity
  8
0
100
AcDbCircle
 62
7
  6
BYLAYER
 10
54.3281667484
 20
112.6426750688
 40
5.1346022415
100
AcDbArc
 50
68.6165278984
 51
69.8995839169
  0
ARC
  5
2BD
100
AcDbEntity
  8
0
100
AcDbCircle
 62
7
  6
BYLAYER
 10
57.156605649
 20
111.0097120507
 40
5.1346022415
100
AcDbArc
 50
68.6165278984
 51
69.8995839169
  0
ARC
  5
2BE
100
AcDbEntity
  8
0
100
AcDbCircle
 62
7
  6
BYLAYER
 10
55.0352764736
 20
112.2344343144
 40
5.1346022413
100
AcDbArc
 50
68.6165278984
 51
69.8995839169
  0
ARC
  5
2BF
100
AcDbEntity
  8
0
100
AcDbCircle
 62
7
  6
BYLAYER
 10
55.7423861988
 20
111.8261935602
 40
5.1346022411
100
AcDbArc
 50
68.6165278984
 51
69.8995839169
  0
ARC
  5
2C0
100
AcDbEntity
  8
0
100
AcDbCircle
 62
7
  6
BYLAYER
 10
56.449495924
 20
111.4179528056
 40
5.1346022411
100
AcDbArc
 50
68.6165278984
 51
69.8995839169
  0
ARC
  5
2C1
100
AcDbEntity
  8
0
100
AcDbCircle
 62
7
  6
BYLAYER
 10
57.0739685734
 20
111.0756396654
 40
5.1186331566
100
AcDbArc
 50
68.6156765736
 51
68.9329720298
  0
ARC
  5
2C2
100
AcDbEntity
  8
0
100
AcDbCircle
 62
7
  6
BYLAYER
 10
55.6597491233
 20
111.892121175
 40
5.118633156
100
AcDbArc
 50
68.6156765736
 51
68.9329720298
  0
ARC
  5
2C3
100
AcDbEntity
  8
0
100
AcDbCircle
 62
7
  6
BYLAYER
 10
56.3668588494
 20
111.4838804227
 40
5.1186331536
100
AcDbArc
 50
68.6156765736
 51
68.9329720299
  0
ARC
  5
2C4
100
AcDbEntity
  8
0
100
AcDbCircle
 62
7
  6
BYLAYER
 10
54.9526393991
 20
112.3003619317
 40
5.1186331536
100
AcDbArc
 50
68.6156765736
 51
68.9329720299
  0
ARC
  5
2C5
100
AcDbEntity
  8
0
100
AcDbCircle
 62
7
  6
BYLAYER
 10
54.245529675
 20
112.708602689
 40
5.1186331506
100
AcDbArc
 50
68.6156765734
 51
68.9329720299
  0
ARC
  5
2C6
100
AcDbEntity
  8
0
100
AcDbCircle
 62
7
  6
BYLAYER
 10
57.2022291596
 20
111.1143205917
 40
5.0204084477
100
AcDbArc
 50
57.9645983665
 51
60.0003743451
  0
ARC
  5
2C7
100
AcDbEntity
  8
0
100
AcDbCircle
 62
7
  6
BYLAYER
 10
56.4951194345
 20
111.5225613463
 40
5.0204084476
100
AcDbArc
 50
57.9645983665
 51
60.0003743451
  0
ARC
  5
2C8
100
AcDbEntity
  8
0
100
AcDbCircle
 62
7
  6
BYLAYER
 10
55.7880097094
 20
111.9308021009
 40
5.0204084476
100
AcDbArc
 50
57.9645983665
 51
60.0003743451
  0
ARC
  5
2C9
100
AcDbEntity
  8
0
100
AcDbCircle
 62
7
  6
BYLAYER
 10
55.0808999842
 20
112.3390428553
 40
5.0204084477
100
AcDbArc
 50
57.9645983665
 51
60.0003743451
  0
ARC
  5
2CA
100
AcDbEntity
  8
0
100
AcDbCircle
 62
7
  6
BYLAYER
 10
56.495846711
 20
111.5237676892
 40
5.019000086
100
AcDbArc
 50
60.0006788914
 51
61.1597594845
  0
ARC
  5
2CB
100
AcDbEntity
  8
0
100
AcDbCircle
 62
7
  6
BYLAYER
 10
55.0816272609
 20
112.3402491986
 40
5.0190000857
100
AcDbArc
 50
60.0006788914
 51
61.1597594845
  0
ARC
  5
2CC
100
AcDbEntity
  8
0
100
AcDbCircle
 62
7
  6
BYLAYER
 10
55.788736986
 20
111.932008444
 40
5.0190000857
100
AcDbArc
 50
60.0006788914
 51
61.1597594845
  0
ARC
  5
2CD
100
AcDbEntity
  8
0
100
AcDbCircle
 62
7
  6
BYLAYER
 10
57.2029564363
 20
111.1155269349
 40
5.0190000857
100
AcDbArc
 50
60.0006788914
 51
61.1597594845
  0
ARC
  5
2CE
100
AcDbEntity
  8
0
100
AcDbCircle
 62
7
  6
BYLAYER
 10
52.2068375729
 20
113.8673973324
 40
5.1346022415
100
AcDbArc
 50
68.6165278984
 51
69.8995839169
  0
ARC
  5
2CF
100
AcDbEntity
  8
0
100
AcDbCircle
 62
7
  6
BYLAYER
 10
52.9139472982
 20
113.459156578
 40
5.1346022413
100
AcDbArc
 50
68.6165278984
 51
69.8995839169
  0
ARC
  5
2D0
100
AcDbEntity
  8
0
100
AcDbCircle
 62
7
  6
BYLAYER
 10
53.6210570233
 20
113.0509158235
 40
5.1346022413
100
AcDbArc
 50
68.6165278984
 51
69.8995839169
  0
ARC
  5
2D1
100
AcDbEntity
  8
0
100
AcDbCircle
 62
7
  6
BYLAYER
 10
52.8313102228
 20
113.525084193
 40
5.118633156
100
AcDbArc
 50
68.6156765736
 51
68.9329720298
  0
ARC
  5
2D2
100
AcDbEntity
  8
0
100
AcDbCircle
 62
7
  6
BYLAYER
 10
52.1242004976
 20
113.9333249476
 40
5.118633156
100
AcDbArc
 50
68.6156765736
 51
68.9329720298
  0
ARC
  5
2D3
100
AcDbEntity
  8
0
100
AcDbCircle
 62
7
  6
BYLAYER
 10
53.5384199501
 20
113.1168434441
 40
5.11863315
100
AcDbArc
 50
68.6156765734
 51
68.93297203
  0
ARC
  5
2D4
100
AcDbEntity
  8
0
100
AcDbCircle
 62
7
  6
BYLAYER
 10
54.3737902591
 20
112.7472836099
 40
5.0204084477
100
AcDbArc
 50
57.9645983665
 51
60.0003743451
  0
ARC
  5
2D5
100
AcDbEntity
  8
0
100
AcDbCircle
 62
7
  6
BYLAYER
 10
53.6666805339
 20
113.1555243643
 40
5.0204084477
100
AcDbArc
 50
57.9645983666
 51
60.0003743451
  0
ARC
  5
2D6
100
AcDbEntity
  8
0
100
AcDbCircle
 62
7
  6
BYLAYER
 10
52.9595708088
 20
113.5637651188
 40
5.0204084477
100
AcDbArc
 50
57.9645983666
 51
60.0003743451
  0
ARC
  5
2D7
100
AcDbEntity
  8
0
100
AcDbCircle
 62
7
  6
BYLAYER
 10
52.2524610836
 20
113.9720058734
 40
5.0204084477
100
AcDbArc
 50
57.9645983665
 51
60.0003743451
  0
ARC
  5
2D8
100
AcDbEntity
  8
0
100
AcDbCircle
 62
7
  6
BYLAYER
 10
52.9602980854
 20
113.564971462
 40
5.0190000858
100
AcDbArc
 50
60.0006788914
 51
61.1597594845
  0
ARC
  5
2D9
100
AcDbEntity
  8
0
100
AcDbCircle
 62
7
  6
BYLAYER
 10
53.6674078105
 20
113.1567307074
 40
5.0190000859
100
AcDbArc
 50
60.0006788914
 51
61.1597594845
  0
ARC
  5
2DA
100
AcDbEntity
  8
0
100
AcDbCircle
 62
7
  6
BYLAYER
 10
54.3745175356
 20
112.7484899528
 40
5.019000086
100
AcDbArc
 50
60.0006788914
 51
61.1597594845
  0
ARC
  5
2DB
100
AcDbEntity
  8
0
100
AcDbCircle
 62
7
  6
BYLAYER
 10
51.546078635
 20
114.3814529709
 40
5.019000086
100
AcDbArc
 50
60.0006788914
 51
61.1597594845
  0
ARC
  5
2DC
100
AcDbEntity
  8
0
100
AcDbCircle
 62
7
  6
BYLAYER
 10
52.2531883604
 20
113.9732122168
 40
5.0190000855
100
AcDbArc
 50
60.0006788914
 51
61.1597594845
  0
ARC
  5
2DD
100
AcDbEntity
  8
0
100
AcDbCircle
 62
7
  6
BYLAYER
 10
82.1227771706
 20
90.9573754829
 40
20.4971100222
100
AcDbArc
 50
120.0010959009
 51
120.6732158823
  0
ARC
  5
2DE
100
AcDbEntity
  8
0
100
AcDbCircle
 62
7
  6
BYLAYER
 10
96.9074629879
 20
82.5564561018
 40
19.7261771311
100
AcDbArc
 50
359.9990814874
 51
0.9549110024
  0
ARC
  5
2DF
100
AcDbEntity
  8
0
100
AcDbCircle
 62
7
  6
BYLAYER
 10
91.8301579106
 20
73.5617676431
 40
19.6101573161
100
AcDbArc
 50
299.0415894955
 51
300.0030175109
  0
ARC
  5
2E0
100
AcDbEntity
  8
0
100
AcDbCircle
 62
7
  6
BYLAYER
 10
74.8179685973
 20
93.4964273604
 40
14.1424739709
100
AcDbArc
 50
119.9999075107
 51
120.1411174237
  0
ARC
  5
2E1
100
AcDbEntity
  8
0
100
AcDbCircle
 62
7
  6
BYLAYER
 10
71.9895296858
 20
95.1293903914
 40
14.1424739557
100
AcDbArc
 50
119.9999075106
 51
120.1411174238
  0
ARC
  5
2E2
100
AcDbEntity
  8
0
100
AcDbCircle
 62
7
  6
BYLAYER
 10
74.1108588645
 20
93.9046681281
 40
14.1424739557
100
AcDbArc
 50
119.9999075106
 51
120.1411174238
  0
ARC
  5
2E3
100
AcDbEntity
  8
0
100
AcDbCircle
 62
7
  6
BYLAYER
 10
72.6966394118
 20
94.7211496406
 40
14.1424739516
100
AcDbArc
 50
119.9999075106
 51
120.1411174238
  0
ARC
  5
2E4
100
AcDbEntity
  8
0
100
AcDbCircle
 62
7
  6
BYLAYER
 10
73.4037491373
 20
94.3129088861
 40
14.1424739516
100
AcDbArc
 50
119.9999075106
 51
120.1411174238
  0
ARC
  5
2E5
100
AcDbEntity
  8
0
100
AcDbCircle
 62
7
  6
BYLAYER
 10
71.2824199285
 20
95.53763116
 40
14.1424739376
100
AcDbArc
 50
119.9999075106
 51
120.1411174239
  0
ARC
  5
2E6
100
AcDbEntity
  8
0
100
AcDbCircle
 62
7
  6
BYLAYER
 10
70.5753099455
 20
95.9458720276
 40
14.1424737915
100
AcDbArc
 50
119.9999075106
 51
120.1411174254
  0
ARC
  5
2E7
100
AcDbEntity
  8
0
100
AcDbCircle
 62
7
  6
BYLAYER
 10
58.5029494681
 20
87.2510951775
 40
5.0399992377
100
AcDbArc
 50
240.0076644502
 51
246.1235215571
  0
ARC
  5
2E8
100
AcDbEntity
  8
0
100
AcDbCircle
 62
7
  6
BYLAYER
 10
57.7958385813
 20
87.6593373188
 40
5.0399986819
100
AcDbArc
 50
240.0076643631
 51
246.1234962344
  0
ARC
  5
2E9
100
AcDbEntity
  8
0
100
AcDbCircle
 62
7
  6
BYLAYER
 10
58.4940135999
 20
87.2343727181
 40
5.0210491842
100
AcDbArc
 50
238.8918931613
 51
240.0005894897
  0
ARC
  5
2EA
100
AcDbEntity
  8
0
100
AcDbCircle
 62
7
  6
BYLAYER
 10
57.7869027881
 20
87.6426150045
 40
5.0210487915
100
AcDbArc
 50
238.8918930745
 51
240.0005894897
  0
ARC
  5
2EB
100
AcDbEntity
  8
0
100
AcDbCircle
 62
7
  6
BYLAYER
 10
61.3845908858
 20
101.2502532811
 40
14.1364593487
100
AcDbArc
 50
119.9999075581
 51
120.1411776243
  0
ARC
  5
2EC
100
AcDbEntity
  8
0
100
AcDbCircle
 62
7
  6
BYLAYER
 10
62.091700611
 20
100.8420125266
 40
14.1364593487
100
AcDbArc
 50
119.9999075581
 51
120.1411776243
  0
ARC
  5
2ED
100
AcDbEntity
  8
0
100
AcDbCircle
 62
7
  6
BYLAYER
 10
59.2632617084
 20
102.4749755482
 40
14.1364593447
100
AcDbArc
 50
119.999907558
 51
120.1411776243
  0
ARC
  5
2EE
100
AcDbEntity
  8
0
100
AcDbCircle
 62
7
  6
BYLAYER
 10
63.5059200563
 20
100.0255310262
 40
14.1364593388
100
AcDbArc
 50
119.9999075581
 51
120.1411776244
  0
ARC
  5
2EF
100
AcDbEntity
  8
0
100
AcDbCircle
 62
7
  6
BYLAYER
 10
60.6774811516
 20
101.6584940513
 40
14.1364593306
100
AcDbArc
 50
119.999907558
 51
120.1411776244
  0
ARC
  5
2F0
100
AcDbEntity
  8
0
100
AcDbCircle
 62
7
  6
BYLAYER
 10
59.9703714265
 20
102.0667348059
 40
14.1364593306
100
AcDbArc
 50
119.999907558
 51
120.1411776244
  0
ARC
  5
2F1
100
AcDbEntity
  8
0
100
AcDbCircle
 62
7
  6
BYLAYER
 10
58.5561519762
 20
102.8832163149
 40
14.1364593306
100
AcDbArc
 50
119.999907558
 51
120.1411776244
  0
ARC
  5
2F2
100
AcDbEntity
  8
0
100
AcDbCircle
 62
7
  6
BYLAYER
 10
57.849042251
 20
103.2914570694
 40
14.1364593306
100
AcDbArc
 50
119.9999075579
 51
120.1411776243
  0
ARC
  5
2F3
100
AcDbEntity
  8
0
100
AcDbCircle
 62
7
  6
BYLAYER
 10
62.798810322
 20
100.4337717964
 40
14.1364593206
100
AcDbArc
 50
119.9999075579
 51
120.1411776244
  0
ARC
  5
2F4
100
AcDbEntity
  8
0
100
AcDbCircle
 62
7
  6
BYLAYER
 10
59.9850445496
 20
109.3767490327
 40
5.1346022414
100
AcDbArc
 50
68.6165278984
 51
69.8995839169
  0
ARC
  5
2F5
100
AcDbEntity
  8
0
100
AcDbCircle
 62
7
  6
BYLAYER
 10
62.106373725
 20
108.152026769
 40
5.1346022415
100
AcDbArc
 50
68.6165278984
 51
69.8995839169
  0
ARC
  5
2F6
100
AcDbEntity
  8
0
100
AcDbCircle
 62
7
  6
BYLAYER
 10
62.8134834501
 20
107.7437860146
 40
5.1346022415
100
AcDbArc
 50
68.6165278984
 51
69.8995839169
  0
ARC
  5
2F7
100
AcDbEntity
  8
0
100
AcDbCircle
 62
7
  6
BYLAYER
 10
57.8637153743
 20
110.6014712966
 40
5.1346022411
100
AcDbArc
 50
68.6165278984
 51
69.8995839169
  0
ARC
  5
2F8
100
AcDbEntity
  8
0
100
AcDbCircle
 62
7
  6
BYLAYER
 10
58.5708250994
 20
110.1932305421
 40
5.1346022411
100
AcDbArc
 50
68.6165278984
 51
69.8995839169
  0
ARC
  5
2F9
100
AcDbEntity
  8
0
100
AcDbCircle
 62
7
  6
BYLAYER
 10
59.2779348245
 20
109.7849897874
 40
5.1346022412
100
AcDbArc
 50
68.6165278984
 51
69.8995839169
  0
ARC
  5
2FA
100
AcDbEntity
  8
0
100
AcDbCircle
 62
7
  6
BYLAYER
 10
60.6921542749
 20
108.9685082785
 40
5.1346022411
100
AcDbArc
 50
68.6165278984
 51
69.8995839169
  0
ARC
  5
2FB
100
AcDbEntity
  8
0
100
AcDbCircle
 62
7
  6
BYLAYER
 10
61.3992639999
 20
108.5602675238
 40
5.1346022412
100
AcDbArc
 50
68.6165278984
 51
69.8995839169
  0
ARC
  5
2FC
100
AcDbEntity
  8
0
100
AcDbCircle
 62
7
  6
BYLAYER
 10
63.5205931754
 20
107.3355452603
 40
5.1346022412
100
AcDbArc
 50
68.6165278984
 51
69.8995839169
  0
ARC
  5
2FD
100
AcDbEntity
  8
0
100
AcDbCircle
 62
7
  6
BYLAYER
 10
60.6095171992
 20
109.0344358928
 40
5.1186331566
100
AcDbArc
 50
68.6156765736
 51
68.9329720298
  0
ARC
  5
2FE
100
AcDbEntity
  8
0
100
AcDbCircle
 62
7
  6
BYLAYER
 10
59.902407474
 20
109.4426766473
 40
5.1186331566
100
AcDbArc
 50
68.6156765736
 51
68.9329720298
  0
ARC
  5
2FF
100
AcDbEntity
  8
0
100
AcDbCircle
 62
7
  6
BYLAYER
 10
57.7810782986
 20
110.6673989109
 40
5.1186331566
100
AcDbArc
 50
68.6156765736
 51
68.9329720297
  0
ARC
  5
300
100
AcDbEntity
  8
0
100
AcDbCircle
 62
7
  6
BYLAYER
 10
62.7308463755
 20
107.8097136315
 40
5.1186331541
100
AcDbArc
 50
68.6156765736
 51
68.9329720299
  0
ARC
  5
301
100
AcDbEntity
  8
0
100
AcDbCircle
 62
7
  6
BYLAYER
 10
63.4379561008
 20
107.4014728775
 40
5.1186331536
100
AcDbArc
 50
68.6156765736
 51
68.9329720299
  0
ARC
  5
302
100
AcDbEntity
  8
0
100
AcDbCircle
 62
7
  6
BYLAYER
 10
61.3166269263
 20
108.6261951433
 40
5.1186331511
100
AcDbArc
 50
68.6156765735
 51
68.9329720299
  0
ARC
  5
303
100
AcDbEntity
  8
0
100
AcDbCircle
 62
7
  6
BYLAYER
 10
62.0237366516
 20
108.2179543893
 40
5.1186331506
100
AcDbArc
 50
68.6156765734
 51
68.9329720299
  0
ARC
  5
304
100
AcDbEntity
  8
0
100
AcDbCircle
 62
7
  6
BYLAYER
 10
59.195297751
 20
109.8509174074
 40
5.1186331506
100
AcDbArc
 50
68.6156765734
 51
68.9329720299
  0
ARC
  5
305
100
AcDbEntity
  8
0
100
AcDbCircle
 62
7
  6
BYLAYER
 10
58.4881880259
 20
110.2591581619
 40
5.1186331506
100
AcDbArc
 50
68.6156765734
 51
68.9329720299
  0
ARC
  5
306
100
AcDbEntity
  8
0
100
AcDbCircle
 62
7
  6
BYLAYER
 10
63.566216686
 20
107.440153801
 40
5.0204084477
100
AcDbArc
 50
57.9645983666
 51
60.0003743451
  0
ARC
  5
307
100
AcDbEntity
  8
0
100
AcDbCircle
 62
7
  6
BYLAYER
 10
62.8591069608
 20
107.8483945556
 40
5.0204084477
100
AcDbArc
 50
57.9645983665
 51
60.0003743451
  0
ARC
  5
308
100
AcDbEntity
  8
0
100
AcDbCircle
 62
7
  6
BYLAYER
 10
62.1519972357
 20
108.2566353101
 40
5.0204084477
100
AcDbArc
 50
57.9645983666
 51
60.0003743451
  0
ARC
  5
309
100
AcDbEntity
  8
0
100
AcDbCircle
 62
7
  6
BYLAYER
 10
61.4448875106
 20
108.6648760647
 40
5.0204084476
100
AcDbArc
 50
57.9645983665
 51
60.0003743451
  0
ARC
  5
30A
100
AcDbEntity
  8
0
100
AcDbCircle
 62
7
  6
BYLAYER
 10
60.7377777854
 20
109.0731168192
 40
5.0204084476
100
AcDbArc
 50
57.9645983665
 51
60.0003743451
  0
ARC
  5
30B
100
AcDbEntity
  8
0
100
AcDbCircle
 62
7
  6
BYLAYER
 10
60.0306680603
 20
109.4813575737
 40
5.0204084477
100
AcDbArc
 50
57.9645983665
 51
60.0003743451
  0
ARC
  5
30C
100
AcDbEntity
  8
0
100
AcDbCircle
 62
7
  6
BYLAYER
 10
59.3235583351
 20
109.8895983282
 40
5.0204084477
100
AcDbArc
 50
57.9645983665
 51
60.0003743451
  0
ARC
  5
30D
100
AcDbEntity
  8
0
100
AcDbCircle
 62
7
  6
BYLAYER
 10
58.6164486099
 20
110.2978390827
 40
5.0204084477
100
AcDbArc
 50
57.9645983666
 51
60.0003743451
  0
ARC
  5
30E
100
AcDbEntity
  8
0
100
AcDbCircle
 62
7
  6
BYLAYER
 10
57.9093388848
 20
110.7060798373
 40
5.0204084476
100
AcDbArc
 50
57.9645983665
 51
60.0003743451
  0
ARC
  5
30F
100
AcDbEntity
  8
0
100
AcDbCircle
 62
7
  6
BYLAYER
 10
58.6171758865
 20
110.2990454257
 40
5.0190000859
100
AcDbArc
 50
60.0006788914
 51
61.1597594845
  0
ARC
  5
310
100
AcDbEntity
  8
0
100
AcDbCircle
 62
7
  6
BYLAYER
 10
62.1527245123
 20
108.2578416532
 40
5.0190000859
100
AcDbArc
 50
60.0006788914
 51
61.1597594845
  0
ARC
  5
311
100
AcDbEntity
  8
0
100
AcDbCircle
 62
7
  6
BYLAYER
 10
63.5669439625
 20
107.4413601441
 40
5.0190000859
100
AcDbArc
 50
60.0006788914
 51
61.1597594845
  0
ARC
  5
312
100
AcDbEntity
  8
0
100
AcDbCircle
 62
7
  6
BYLAYER
 10
57.9100661615
 20
110.7072861805
 40
5.0190000857
100
AcDbArc
 50
60.0006788914
 51
61.1597594845
  0
ARC
  5
313
100
AcDbEntity
  8
0
100
AcDbCircle
 62
7
  6
BYLAYER
 10
59.3242856117
 20
109.8908046713
 40
5.0190000858
100
AcDbArc
 50
60.0006788914
 51
61.1597594845
  0
ARC
  5
314
100
AcDbEntity
  8
0
100
AcDbCircle
 62
7
  6
BYLAYER
 10
60.031395337
 20
109.482563917
 40
5.0190000856
100
AcDbArc
 50
60.0006788914
 51
61.1597594845
  0
ARC
  5
315
100
AcDbEntity
  8
0
100
AcDbCircle
 62
7
  6
BYLAYER
 10
60.7385050621
 20
109.0743231625
 40
5.0190000856
100
AcDbArc
 50
60.0006788914
 51
61.1597594845
  0
ARC
  5
316
100
AcDbEntity
  8
0
100
AcDbCircle
 62
7
  6
BYLAYER
 10
61.4456147872
 20
108.6660824078
 40
5.0190000858
100
AcDbArc
 50
60.0006788914
 51
61.1597594845
  0
ARC
  5
317
100
AcDbEntity
  8
0
100
AcDbCircle
 62
7
  6
BYLAYER
 10
62.8598342375
 20
107.8496008988
 40
5.0190000857
100
AcDbArc
 50
60.0006788914
 51
61.1597594845
  0
ARC
  5
318
100
AcDbEntity
  8
0
100
AcDbCircle
 62
7
  6
BYLAYER
 10
69.8681981908
 20
96.3541136302
 40
14.1424726891
100
AcDbArc
 50
119.9999075106
 51
120.1411174364
  0
ARC
  5
319
100
AcDbEntity
  8
0
100
AcDbCircle
 62
7
  6
BYLAYER
 10
69.1610722278
 20
96.7623611713
 40
14.1424638666
100
AcDbArc
 50
119.9999075107
 51
120.1411175247
  0
ARC
  5
31A
100
AcDbEntity
  8
0
100
AcDbCircle
 62
7
  6
BYLAYER
 10
68.453841265
 20
97.1706490207
 40
14.1424106027
100
AcDbArc
 50
119.9999075391
 51
120.1411535879
  0
ARC
  5
31B
100
AcDbEntity
  8
0
100
AcDbCircle
 62
7
  6
BYLAYER
 10
67.7430644792
 20
97.5804005276
 40
14.1410256476
100
AcDbArc
 50
119.9999083215
 51
120.1421445316
  0
ARC
  5
31C
100
AcDbEntity
  8
0
100
AcDbCircle
 62
7
  6
BYLAYER
 10
64.2130297885
 20
99.6172902595
 40
14.1364593528
100
AcDbArc
 50
119.9999075581
 51
120.1411776242
  0
ARC
  5
31D
100
AcDbEntity
  8
0
100
AcDbCircle
 62
7
  6
BYLAYER
 10
65.6272492353
 20
98.8008087566
 40
14.1364593458
100
AcDbArc
 50
119.9999075581
 51
120.1411776243
  0
ARC
  5
31E
100
AcDbEntity
  8
0
100
AcDbCircle
 62
7
  6
BYLAYER
 10
67.04146868
 20
97.9843272571
 40
14.1364593347
100
AcDbArc
 50
119.999907558
 51
120.1411776244
  0
ARC
  5
31F
100
AcDbEntity
  8
0
100
AcDbCircle
 62
7
  6
BYLAYER
 10
64.9201395045
 20
99.2090495207
 40
14.1364593347
100
AcDbArc
 50
119.999907558
 51
120.1411776244
  0
ARC
  5
320
100
AcDbEntity
  8
0
100
AcDbCircle
 62
7
  6
BYLAYER
 10
66.3343589493
 20
98.3925680213
 40
14.1364593236
100
AcDbArc
 50
119.999907558
 51
120.1411776244
  0
ARC
  5
321
100
AcDbEntity
  8
0
100
AcDbCircle
 62
7
  6
BYLAYER
 10
67.0534861137
 20
105.3006139588
 40
5.1369009445
100
AcDbArc
 50
68.6165375347
 51
69.9061778602
  0
ARC
  5
322
100
AcDbEntity
  8
0
100
AcDbCircle
 62
7
  6
BYLAYER
 10
67.7606726
 20
104.8925332776
 40
5.1367311944
100
AcDbArc
 50
68.6165227521
 51
69.8960470338
  0
ARC
  5
323
100
AcDbEntity
  8
0
100
AcDbCircle
 62
7
  6
BYLAYER
 10
68.4677851064
 20
104.4842947299
 40
5.1367290368
100
AcDbArc
 50
68.6165225342
 51
69.8958970781
  0
ARC
  5
324
100
AcDbEntity
  8
0
100
AcDbCircle
 62
7
  6
BYLAYER
 10
69.1748951793
 20
104.0760542514
 40
5.1367287669
100
AcDbArc
 50
68.616522507
 51
69.8958783337
  0
ARC
  5
325
100
AcDbEntity
  8
0
100
AcDbCircle
 62
7
  6
BYLAYER
 10
65.6360595477
 20
106.1190295234
 40
5.1350258236
100
AcDbArc
 50
68.616432186
 51
69.831946637
  0
ARC
  5
326
100
AcDbEntity
  8
0
100
AcDbCircle
 62
7
  6
BYLAYER
 10
64.9348126256
 20
106.519063751
 40
5.1346022415
100
AcDbArc
 50
68.6165278984
 51
69.8995839169
  0
ARC
  5
327
100
AcDbEntity
  8
0
100
AcDbCircle
 62
7
  6
BYLAYER
 10
64.2277029006
 20
106.9273045059
 40
5.1346022411
100
AcDbArc
 50
68.6165278984
 51
69.8995839169
  0
ARC
  5
328
100
AcDbEntity
  8
0
100
AcDbCircle
 62
7
  6
BYLAYER
 10
66.2619456371
 20
105.7704881367
 40
5.1255166017
100
AcDbArc
 50
68.6158209635
 51
69.2260473972
  0
ARC
  5
329
100
AcDbEntity
  8
0
100
AcDbCircle
 62
7
  6
BYLAYER
 10
66.970851085
 20
105.3665486862
 40
5.1209244901
100
AcDbArc
 50
68.6156789287
 51
68.939977932
  0
ARC
  5
32A
100
AcDbEntity
  8
0
100
AcDbCircle
 62
7
  6
BYLAYER
 10
67.6780345219
 20
104.9584574069
 40
5.1207657204
100
AcDbArc
 50
68.6156755402
 51
68.929846819
  0
ARC
  5
32B
100
AcDbEntity
  8
0
100
AcDbCircle
 62
7
  6
BYLAYER
 10
68.3851469842
 20
104.5502187046
 40
5.120763723
100
AcDbArc
 50
68.6156754908
 51
68.9296969261
  0
ARC
  5
32C
100
AcDbEntity
  8
0
100
AcDbCircle
 62
7
  6
BYLAYER
 10
69.0922570516
 20
104.1419782069
 40
5.1207634729
100
AcDbArc
 50
68.6156754847
 51
68.9296781896
  0
ARC
  5
32D
100
AcDbEntity
  8
0
100
AcDbCircle
 62
7
  6
BYLAYER
 10
64.85217555
 20
106.5849913656
 40
5.1186331566
100
AcDbArc
 50
68.6156765736
 51
68.9329720297
  0
ARC
  5
32E
100
AcDbEntity
  8
0
100
AcDbCircle
 62
7
  6
BYLAYER
 10
64.1450658258
 20
106.9932321224
 40
5.1186331541
100
AcDbArc
 50
68.6156765736
 51
68.9329720299
  0
ARC
  5
32F
100
AcDbEntity
  8
0
100
AcDbCircle
 62
7
  6
BYLAYER
 10
68.5134065195
 20
104.5888906837
 40
5.0225476389
100
AcDbArc
 50
57.9654730574
 51
60.000374676
  0
ARC
  5
330
100
AcDbEntity
  8
0
100
AcDbCircle
 62
7
  6
BYLAYER
 10
67.8062949616
 20
104.9971316754
 40
5.0225471738
100
AcDbArc
 50
57.9655074831
 51
60.0003746891
  0
ARC
  5
331
100
AcDbEntity
  8
0
100
AcDbCircle
 62
7
  6
BYLAYER
 10
67.0991705733
 20
105.4053743267
 40
5.0225434544
100
AcDbArc
 50
57.9657828954
 51
60.0003747932
  0
ARC
  5
332
100
AcDbEntity
  8
0
100
AcDbCircle
 62
7
  6
BYLAYER
 10
66.3919569002
 20
105.813652517
 40
5.0224972843
100
AcDbArc
 50
57.9750482372
 51
60.0110927186
  0
ARC
  5
333
100
AcDbEntity
  8
0
100
AcDbCircle
 62
7
  6
BYLAYER
 10
65.681595597
 20
106.2231092679
 40
5.021347677
100
AcDbArc
 50
58.2344834361
 51
60.306200343
  0
ARC
  5
334
100
AcDbEntity
  8
0
100
AcDbCircle
 62
7
  6
BYLAYER
 10
68.5141334593
 20
104.5900964894
 40
5.0211399108
100
AcDbArc
 50
60.00067883
 51
61.1592652137
  0
ARC
  5
335
100
AcDbEntity
  8
0
100
AcDbCircle
 62
7
  6
BYLAYER
 10
67.8070218642
 20
104.9983374191
 40
5.0211395181
100
AcDbArc
 50
60.0006788299
 51
61.1592653044
  0
ARC
  5
336
100
AcDbEntity
  8
0
100
AcDbCircle
 62
7
  6
BYLAYER
 10
67.0998971781
 20
105.4065795727
 40
5.0211363785
100
AcDbArc
 50
60.0006788301
 51
61.1592660291
  0
ARC
  5
337
100
AcDbEntity
  8
0
100
AcDbCircle
 62
7
  6
BYLAYER
 10
66.3926630026
 20
105.8148228882
 40
5.0211306671
100
AcDbArc
 50
60.0113960394
 51
61.169990813
  0
ARC
  5
338
100
AcDbEntity
  8
0
100
AcDbCircle
 62
7
  6
BYLAYER
 10
65.6817311461
 20
106.2232973773
 40
5.021117123
100
AcDbArc
 50
60.3064806731
 51
61.4652481696
  0
ARC
  5
339
100
AcDbEntity
  8
0
100
AcDbCircle
 62
7
  6
BYLAYER
 10
64.2733264111
 20
107.0319130465
 40
5.0204084477
100
AcDbArc
 50
57.9645983666
 51
60.0003743451
  0
ARC
  5
33A
100
AcDbEntity
  8
0
100
AcDbCircle
 62
7
  6
BYLAYER
 10
64.9806415
 20
106.6240159562
 40
5.020008144
100
AcDbArc
 50
58.1653174244
 51
60.0004430625
  0
ARC
  5
33B
100
AcDbEntity
  8
0
100
AcDbCircle
 62
7
  6
BYLAYER
 10
64.2740536877
 20
107.0331193896
 40
5.0190000859
100
AcDbArc
 50
60.0006788914
 51
61.1597594845
  0
ARC
  5
33C
100
AcDbEntity
  8
0
100
AcDbCircle
 62
7
  6
BYLAYER
 10
64.981163413
 20
106.6248786353
 40
5.0190000856
100
AcDbArc
 50
60.0006788914
 51
61.1597594845
  0
SPLINE
  5
33D
100
AcDbEntity
  8
0
100
AcDbSpline
 62
7
  6
BYLAYER
 70
0
 71
3
 72
23
 73
19
 74
0
 42
0.0000001
 43
0.0000001
 44
0.0000000001
 40
0.0
 40
0.0
 40
0.0
 40
0.0
 40
0.0601548833
 40
0.1238156403
 40
0.1904439396
 40
0.2593909424
 40
0.3299068124
 40
0.401187595
 40
0.4723998512
 40
0.5427134015
 40
0.6113302729
 40
0.6775159311
 40
0.7406327895
 40
0.8001781676
 40
0.8558285607
 40
0.9074919006
 40
0.9553668921
 40
1.0
 40
1.0
 40
1.0
 40
1.0
 10
15.0422848525
 20
116.7453546035
 30
0.0
 10
15.0422848525
 20
116.9391332091
 30
0.0
 10
15.0658362357
 20
117.3382142619
 30
0.0
 10
15.163614738
 20
117.9447299596
 30
0.0
 10
15.3232113135
 20
118.5672371727
 30
0.0
 10
15.5417992558
 20
119.1948817083
 30
0.0
 10
15.8156179105
 20
119.816841051
 30
0.0
 10
16.1398948079
 20
120.4223102717
 30
0.0
 10
16.5090039107
 20
121.000769992
 30
0.0
 10
16.916529081
 20
121.5421678068
 30
0.0
 10
17.3554026534
 20
122.0371065792
 30
0.0
 10
17.8180380255
 20
122.477012589
 30
0.0
 10
18.2964840187
 20
122.8542833143
 30
0.0
 10
18.7826096601
 20
123.1623979379
 30
0.0
 10
19.2682437401
 20
123.3959870073
 30
0.0
 10
19.7454728692
 20
123.5507888002
 30
0.0
 10
20.2062422538
 20
123.6236223664
 30
0.0
 10
20.5064247716
 20
123.6156256872
 30
0.0
 10
20.6489172461
 20
123.5964430733
 30
0.0
  0
SPLINE
  5
33E
100
AcDbEntity
  8
0
100
AcDbSpline
 62
7
  6
BYLAYER
 70
0
 71
3
 72
9
 73
5
 74
0
 42
0.0000001
 43
0.0000001
 44
0.0000000001
 40
0.0
 40
0.0
 40
0.0
 40
0.0
 40
0.2480379906
 40
1.0
 40
1.0
 40
1.0
 40
1.0
 10
15.4840702702
 20
114.9825981495
 30
0.0
 10
15.4777553784
 20
114.99245137
 30
0.0
 10
15.4526166576
 20
115.0323807675
 30
0.0
 10
15.4287578377
 20
115.0731146715
 30
0.0
 10
15.4115345764
 20
115.1041335737
 30
0.0
  0
SPLINE
  5
33F
100
AcDbEntity
  8
0
100
AcDbSpline
 62
7
  6
BYLAYER
 70
0
 71
3
 72
9
 73
5
 74
0
 42
0.0000001
 43
0.0000001
 44
0.0000000001
 40
0.0
 40
0.0
 40
0.0
 40
0.0
 40
0.2474164593
 40
1.0
 40
1.0
 40
1.0
 40
1.0
 10
15.4115345764
 20
115.1041335737
 30
0.0
 10
15.4044222511
 20
115.1169427924
 30
0.0
 10
15.3761679182
 20
115.1689867392
 30
0.0
 10
15.3498706315
 20
115.2220901379
 30
0.0
 10
15.3311575769
 20
115.2625369373
 30
0.0
  0
SPLINE
  5
340
100
AcDbEntity
  8
0
100
AcDbSpline
 62
7
  6
BYLAYER
 70
0
 71
3
 72
10
 73
6
 74
0
 42
0.0000001
 43
0.0000001
 44
0.0000000001
 40
0.0
 40
0.0
 40
0.0
 40
0.0
 40
0.4717527672
 40
0.7288632953
 40
1.0
 40
1.0
 40
1.0
 40
1.0
 10
15.3246542169
 20
115.2767078381
 30
0.0
 10
15.2266138881
 20
115.4920823658
 30
0.0
 10
15.1211599371
 20
115.8468281981
 30
0.0
 10
15.0533295159
 20
116.3440885326
 30
0.0
 10
15.0422848525
 20
116.6093478491
 30
0.0
 10
15.0422848525
 20
116.7453546035
 30
0.0
  0
SPLINE
  5
341
100
AcDbEntity
  8
0
100
AcDbSpline
 62
7
  6
BYLAYER
 70
0
 71
3
 72
9
 73
5
 74
0
 42
0.0000001
 43
0.0000001
 44
0.0000000001
 40
0.0
 40
0.0
 40
0.0
 40
0.0
 40
0.2576141353
 40
1.0
 40
1.0
 40
1.0
 40
1.0
 10
15.9111043416
 20
118.6899077075
 30
0.0
 10
15.850661921
 20
118.5222884379
 30
0.0
 10
15.6340298961
 20
117.8654325848
 30
0.0
 10
15.4915130317
 20
117.1829583617
 30
0.0
 10
15.4392426464
 20
116.6721398658
 30
0.0
  0
SPLINE
  5
342
100
AcDbEntity
  8
0
100
AcDbSpline
 62
7
  6
BYLAYER
 70
0
 71
3
 72
9
 73
5
 74
0
 42
0.0000001
 43
0.0000001
 44
0.0000000001
 40
0.0
 40
0.0
 40
0.0
 40
0.0
 40
0.2512756915
 40
1.0
 40
1.0
 40
1.0
 40
1.0
 10
15.4392426464
 20
116.6721398658
 30
0.0
 10
15.4375133905
 20
116.655240509
 30
0.0
 10
15.4308648768
 20
116.5879626128
 30
0.0
 10
15.4251545898
 20
116.520591792
 30
0.0
 10
15.4214229084
 20
116.470111706
 30
0.0
  0
SPLINE
  5
343
100
AcDbEntity
  8
0
100
AcDbSpline
 62
7
  6
BYLAYER
 70
0
 71
3
 72
9
 73
5
 74
0
 42
0.0000001
 43
0.0000001
 44
0.0000000001
 40
0.0
 40
0.0
 40
0.0
 40
0.0
 40
0.2534976329
 40
1.0
 40
1.0
 40
1.0
 40
1.0
 10
15.4214229084
 20
116.470111706
 30
0.0
 10
15.4183569537
 20
116.4286371963
 30
0.0
 10
15.4077102002
 20
116.26492555
 30
0.0
 10
15.402928444
 20
116.1008228182
 30
0.0
 10
15.4029294819
 20
115.9783550052
 30
0.0
  0
SPLINE
  5
344
100
AcDbEntity
  8
0
100
AcDbSpline
 62
7
  6
BYLAYER
 70
0
 71
3
 72
11
 73
7
 74
0
 42
0.0000001
 43
0.0000001
 44
0.0000000001
 40
0.0
 40
0.0
 40
0.0
 40
0.0
 40
0.2566451343
 40
0.51498738
 40
0.7656183674
 40
1.0
 40
1.0
 40
1.0
 40
1.0
 10
15.909425581
 20
118.6861229278
 30
0.0
 10
16.0654890893
 20
119.0999144014
 30
0.0
 10
16.4382257122
 20
119.9088876709
 30
0.0
 10
17.1484465568
 20
121.0253159098
 30
0.0
 10
17.9796780582
 20
122.0051706523
 30
0.0
 10
18.6135998833
 20
122.5568429885
 30
0.0
 10
18.9417710055
 20
122.7922626436
 30
0.0
  0
SPLINE
  5
345
100
AcDbEntity
  8
0
100
AcDbSpline
 62
7
  6
BYLAYER
 70
0
 71
3
 72
9
 73
5
 74
0
 42
0.0000001
 43
0.0000001
 44
0.0000000001
 40
0.0
 40
0.0
 40
0.0
 40
0.0
 40
0.254945689
 40
1.0
 40
1.0
 40
1.0
 40
1.0
 10
18.9417710055
 20
122.7922626436
 30
0.0
 10
18.9783975252
 20
122.8185373583
 30
0.0
 10
19.1231499221
 20
122.9200668164
 30
0.0
 10
19.2722962807
 20
123.0153702189
 30
0.0
 10
19.3858005398
 20
123.0822267408
 30
0.0
  0
SPLINE
  5
346
100
AcDbEntity
  8
0
100
AcDbSpline
 62
7
  6
BYLAYER
 70
0
 71
3
 72
15
 73
11
 74
0
 42
0.0000001
 43
0.0000001
 44
0.0000000001
 40
0.0
 40
0.0
 40
0.0
 40
0.0
 40
0.1153589853
 40
0.2394498612
 40
0.3697196025
 40
0.5030103064
 40
0.6359410371
 40
0.7650661146
 40
0.8872968299
 40
1.0
 40
1.0
 40
1.0
 40
1.0
 10
16.7997788089
 20
115.1152941649
 30
0.0
 10
16.7914551235
 20
115.4523462018
 30
0.0
 10
16.8370383084
 20
116.1541350354
 30
0.0
 10
17.0579546771
 20
117.2146925565
 30
0.0
 10
17.4252624194
 20
118.2894728788
 30
0.0
 10
17.9278143571
 20
119.3364657815
 30
0.0
 10
18.5422324011
 20
120.3177993217
 30
0.0
 10
19.2439638008
 20
121.1982764507
 30
0.0
 10
20.0091962725
 20
121.9417118937
 30
0.0
 10
20.5666005885
 20
122.3482386413
 30
0.0
 10
20.8487134837
 20
122.5182736552
 30
0.0
  0
SPLINE
  5
347
100
AcDbEntity
  8
0
100
AcDbSpline
 62
7
  6
BYLAYER
 70
0
 71
3
 72
10
 73
6
 74
0
 42
0.0000001
 43
0.0000001
 44
0.0000000001
 40
0.0
 40
0.0
 40
0.0
 40
0.0
 40
0.2495543299
 40
0.6274032953
 40
1.0
 40
1.0
 40
1.0
 40
1.0
 10
18.0067431042
 20
117.4891712147
 30
0.0
 10
18.0986914928
 20
117.7441100562
 30
0.0
 10
18.356408705
 20
118.3757468426
 30
0.0
 10
18.8682276576
 20
119.3365336024
 30
0.0
 10
19.3358381786
 20
120.0068554384
 30
0.0
 10
19.5875626305
 20
120.3236603119
 30
0.0
  0
SPLINE
  5
348
100
AcDbEntity
  8
0
100
AcDbSpline
 62
7
  6
BYLAYER
 70
0
 71
3
 72
12
 73
8
 74
0
 42
0.0000001
 43
0.0000001
 44
0.0000000001
 40
0.0
 40
0.0
 40
0.0
 40
0.0
 40
0.2768672576
 40
0.5323554907
 40
0.770848517
 40
0.886089497
 40
1.0
 40
1.0
 40
1.0
 40
1.0
 10
15.4638418759
 20
115.1546480173
 30
0.0
 10
15.5038975403
 20
114.9357942216
 30
0.0
 10
15.6129822798
 20
114.5195476089
 30
0.0
 10
15.8815652055
 20
113.9568574018
 30
0.0
 10
16.187425948
 20
113.5681475887
 30
0.0
 10
16.4715042156
 20
113.3208502246
 30
0.0
 10
16.6252043805
 20
113.2183118485
 30
0.0
 10
16.7044787275
 20
113.1725431852
 30
0.0
  0
SPLINE
  5
349
100
AcDbEntity
  8
0
100
AcDbSpline
 62
7
  6
BYLAYER
 70
0
 71
3
 72
9
 73
5
 74
0
 42
0.0000001
 43
0.0000001
 44
0.0000000001
 40
0.0
 40
0.0
 40
0.0
 40
0.0
 40
0.2511019528
 40
1.0
 40
1.0
 40
1.0
 40
1.0
 10
17.0611697552
 20
112.9994773478
 30
0.0
 10
17.0337936196
 20
113.0098180181
 30
0.0
 10
16.9256055708
 20
113.0531780572
 30
0.0
 10
16.8209334247
 20
113.1053192247
 30
0.0
 10
16.7453483499
 20
113.1489586995
 30
0.0
  0
SPLINE
  5
34A
100
AcDbEntity
  8
0
100
AcDbSpline
 62
7
  6
BYLAYER
 70
0
 71
3
 72
10
 73
6
 74
0
 42
0.0000001
 43
0.0000001
 44
0.0000000001
 40
0.0
 40
0.0
 40
0.0
 40
0.0
 40
0.2330995886
 40
0.4789498768
 40
1.0
 40
1.0
 40
1.0
 40
1.0
 10
17.5081150164
 20
114.7063453165
 30
0.0
 10
17.5025254227
 20
114.9270155655
 30
0.0
 10
17.5170716336
 20
115.3813990135
 30
0.0
 10
17.6422134699
 20
116.3211525205
 30
0.0
 10
17.8387936594
 20
117.0252088081
 30
0.0
 10
18.0067431042
 20
117.4891712147
 30
0.0
  0
SPLINE
  5
34B
100
AcDbEntity
  8
0
100
AcDbSpline
 62
7
  6
BYLAYER
 70
0
 71
3
 72
15
 73
11
 74
0
 42
0.0000001
 43
0.0000001
 44
0.0000000001
 40
0.0
 40
0.0
 40
0.0
 40
0.0
 40
0.1164018168
 40
0.2335223572
 40
0.3523278849
 40
0.473642527
 40
0.5983784344
 40
0.7273098589
 40
0.8611021464
 40
1.0
 40
1.0
 40
1.0
 40
1.0
 10
20.4856173385
 20
104.8367589491
 30
0.0
 10
20.2164268594
 20
104.9921726288
 30
0.0
 10
19.7014286685
 20
105.3497932807
 30
0.0
 10
19.02428281
 20
106.0085175103
 30
0.0
 10
18.4498633912
 20
106.7747408524
 30
0.0
 10
17.9830383786
 20
107.6334588889
 30
0.0
 10
17.6237330876
 20
108.5708984003
 30
0.0
 10
17.3700176082
 20
109.5762273523
 30
0.0
 10
17.2197121658
 20
110.6398839672
 30
0.0
 10
17.1871769095
 20
111.3685084024
 30
0.0
 10
17.1864336017
 20
111.7394123976
 30
0.0
  0
SPLINE
  5
34C
100
AcDbEntity
  8
0
100
AcDbSpline
 62
7
  6
BYLAYER
 70
0
 71
3
 72
25
 73
21
 74
0
 42
0.0000001
 43
0.0000001
 44
0.0000000001
 40
0.0
 40
0.0
 40
0.0
 40
0.0
 40
0.061932645
 40
0.1269824153
 40
0.194692904
 40
0.2643876829
 40
0.335245734
 40
0.4063636097
 40
0.4768202303
 40
0.5457401572
 40
0.6123579806
 40
0.6760849686
 40
0.7365774197
 40
0.7937963513
 40
0.8480432252
 40
0.8999269513
 40
0.9252734602
 40
0.950336195
 40
0.9751948073
 40
1.0
 40
1.0
 40
1.0
 40
1.0
 10
17.1864336017
 20
111.7394123976
 30
0.0
 10
17.1852889763
 20
112.3105703218
 30
0.0
 10
17.2596187897
 20
113.482628453
 30
0.0
 10
17.5727979878
 20
115.253735226
 30
0.0
 10
18.0812151456
 20
117.0533336243
 30
0.0
 10
18.7732815383
 20
118.8477403274
 30
0.0
 10
19.6343758684
 20
120.6023796882
 30
0.0
 10
20.6469144088
 20
122.2823738597
 30
0.0
 10
21.7906831284
 20
123.8539704249
 30
0.0
 10
23.0435864232
 20
125.285576992
 30
0.0
 10
24.3826187264
 20
126.5486018638
 30
0.0
 10
25.7850652501
 20
127.6178284492
 30
0.0
 10
27.2295531997
 20
128.4710661049
 30
0.0
 10
28.6967865668
 20
129.0877540467
 30
0.0
 10
30.1671553639
 20
129.4466076808
 30
0.0
 10
31.3870533038
 20
129.5112580294
 30
0.0
 10
32.3264868452
 20
129.4080665813
 30
0.0
 10
33.0050942004
 20
129.2545729173
 30
0.0
 10
33.6561288113
 20
129.023827007
 30
0.0
 10
34.0672704561
 20
128.8189321143
 30
0.0
 10
34.2653835329
 20
128.7045540636
 30
0.0
  0
SPLINE
  5
34D
100
AcDbEntity
  8
0
100
AcDbSpline
 62
7
  6
BYLAYER
 70
0
 71
3
 72
9
 73
5
 74
0
 42
0.0000001
 43
0.0000001
 44
0.0000000001
 40
0.0
 40
0.0
 40
0.0
 40
0.0
 40
0.2460867006
 40
1.0
 40
1.0
 40
1.0
 40
1.0
 10
15.402994958
 20
115.9773896365
 30
0.0
 10
15.4031656737
 20
116.0179633286
 30
0.0
 10
15.4055775815
 20
116.1828287744
 30
0.0
 10
15.4147675078
 20
116.347582429
 30
0.0
 10
15.4251772234
 20
116.4714487899
 30
0.0
  0
SPLINE
  5
34E
100
AcDbEntity
  8
0
100
AcDbSpline
 62
7
  6
BYLAYER
 70
0
 71
3
 72
9
 73
5
 74
0
 42
0.0000001
 43
0.0000001
 44
0.0000000001
 40
0.0
 40
0.0
 40
0.0
 40
0.0
 40
0.2485162876
 40
1.0
 40
1.0
 40
1.0
 40
1.0
 10
15.4251772234
 20
116.4714487899
 30
0.0
 10
15.4266080977
 20
116.4884749226
 30
0.0
 10
15.4326308857
 20
116.5569635539
 30
0.0
 10
15.4397067529
 20
116.6253592861
 30
0.0
 10
15.4455956388
 20
116.6766890778
 30
0.0
  0
SPLINE
  5
34F
100
AcDbEntity
  8
0
100
AcDbSpline
 62
7
  6
BYLAYER
 70
0
 71
3
 72
9
 73
5
 74
0
 42
0.0000001
 43
0.0000001
 44
0.0000000001
 40
0.0
 40
0.0
 40
0.0
 40
0.0
 40
0.2566322152
 40
1.0
 40
1.0
 40
1.0
 40
1.0
 10
15.437783681
 20
115.338695007
 30
0.0
 10
15.4396475718
 20
115.3228833339
 30
0.0
 10
15.4473962489
 20
115.2613296474
 30
0.0
 10
15.4563563816
 20
115.1999267006
 30
0.0
 10
15.4638284089
 20
115.1544183999
 30
0.0
  0
SPLINE
  5
350
100
AcDbEntity
  8
0
100
AcDbSpline
 62
7
  6
BYLAYER
 70
0
 71
3
 72
9
 73
5
 74
0
 42
0.0000001
 43
0.0000001
 44
0.0000000001
 40
0.0
 40
0.0
 40
0.0
 40
0.0
 40
0.255360408
 40
1.0
 40
1.0
 40
1.0
 40
1.0
 10
18.9199088978
 20
122.7682861849
 30
0.0
 10
18.9583063347
 20
122.7967388054
 30
0.0
 10
19.1099086842
 20
122.9064755362
 30
0.0
 10
19.2665065911
 20
123.0093582016
 30
0.0
 10
19.3858332964
 20
123.0813432238
 30
0.0
  0
SPLINE
  5
351
100
AcDbEntity
  8
0
100
AcDbSpline
 62
7
  6
BYLAYER
 70
0
 71
3
 72
9
 73
5
 74
0
 42
0.0000001
 43
0.0000001
 44
0.0000000001
 40
0.0
 40
0.0
 40
0.0
 40
0.0
 40
0.2461301449
 40
1.0
 40
1.0
 40
1.0
 40
1.0
 10
21.5999177966
 20
123.4850043702
 30
0.0
 10
21.5784511747
 20
123.481826388
 30
0.0
 10
21.491381132
 20
123.4679375956
 30
0.0
 10
21.4049323025
 20
123.4502017822
 30
0.0
 10
21.3402573535
 20
123.4348736692
 30
0.0
  0
SPLINE
  5
352
100
AcDbEntity
  8
0
100
AcDbSpline
 62
7
  6
BYLAYER
 70
0
 71
3
 72
11
 73
7
 74
0
 42
0.0000001
 43
0.0000001
 44
0.0000000001
 40
0.0
 40
0.0
 40
0.0
 40
0.0
 40
0.2192046326
 40
0.4596901422
 40
0.7207127407
 40
1.0
 40
1.0
 40
1.0
 40
1.0
 10
21.3402573535
 20
123.4348736692
 30
0.0
 10
21.1244948171
 20
123.3837374477
 30
0.0
 10
20.6823023979
 20
123.2307000725
 30
0.0
 10
20.0383626666
 20
122.8837662598
 30
0.0
 10
19.3979445574
 20
122.4181024069
 30
0.0
 10
18.9945183519
 20
122.0475538358
 30
0.0
 10
18.7962551305
 20
121.8462891578
 30
0.0
  0
SPLINE
  5
353
100
AcDbEntity
  8
0
100
AcDbSpline
 62
7
  6
BYLAYER
 70
0
 71
3
 72
15
 73
11
 74
0
 42
0.0000001
 43
0.0000001
 44
0.0000000001
 40
0.0
 40
0.0
 40
0.0
 40
0.0
 40
0.1249133358
 40
0.253732584
 40
0.384539145
 40
0.5152936866
 40
0.6439794578
 40
0.7687292512
 40
0.8878833443
 40
1.0
 40
1.0
 40
1.0
 40
1.0
 10
18.7183827928
 20
121.7661851555
 30
0.0
 10
18.5186088454
 20
121.5579627663
 30
0.0
 10
18.1338607432
 20
121.1143327544
 30
0.0
 10
17.6169511009
 20
120.3904619608
 30
0.0
 10
17.1593347537
 20
119.612057363
 30
0.0
 10
16.7704898296
 20
118.7974710868
 30
0.0
 10
16.4607841999
 20
117.9644095698
 30
0.0
 10
16.2392134208
 20
117.1311970302
 30
0.0
 10
16.110587008
 20
116.3174172958
 30
0.0
 10
16.0870916899
 20
115.7820901487
 30
0.0
 10
16.0933060986
 20
115.523167147
 30
0.0
  0
SPLINE
  5
354
100
AcDbEntity
  8
0
100
AcDbSpline
 62
7
  6
BYLAYER
 70
0
 71
3
 72
11
 73
7
 74
0
 42
0.0000001
 43
0.0000001
 44
0.0000000001
 40
0.0
 40
0.0
 40
0.0
 40
0.0
 40
0.2359240925
 40
0.4783905969
 40
0.7320307999
 40
1.0
 40
1.0
 40
1.0
 40
1.0
 10
17.3087496641
 20
112.8275856388
 30
0.0
 10
17.1983518632
 20
112.8998944884
 30
0.0
 10
16.9877548284
 20
113.0678538792
 30
0.0
 10
16.7171136602
 20
113.3777449989
 30
0.0
 10
16.4918907295
 20
113.7430202315
 30
0.0
 10
16.3767594495
 20
114.0123296866
 30
0.0
 10
16.3268238044
 20
114.1536634087
 30
0.0
  0
SPLINE
  5
355
100
AcDbEntity
  8
0
100
AcDbSpline
 62
7
  6
BYLAYER
 70
0
 71
3
 72
9
 73
5
 74
0
 42
0.0000001
 43
0.0000001
 44
0.0000000001
 40
0.0
 40
0.0
 40
0.0
 40
0.0
 40
0.2354830398
 40
1.0
 40
1.0
 40
1.0
 40
1.0
 10
16.3268238044
 20
114.1536634087
 30
0.0
 10
16.2904072705
 20
114.2567337559
 30
0.0
 10
16.156307832
 20
114.7016896385
 30
0.0
 10
16.1018211466
 20
115.1683701683
 30
0.0
 10
16.0933056614
 20
115.5231673995
 30
0.0
  0
SPLINE
  5
356
100
AcDbEntity
  8
0
100
AcDbSpline
 62
7
  6
BYLAYER
 70
0
 71
3
 72
10
 73
6
 74
0
 42
0.0000001
 43
0.0000001
 44
0.0000000001
 40
0.0
 40
0.0
 40
0.0
 40
0.0
 40
0.2273504747
 40
0.595741407
 40
1.0
 40
1.0
 40
1.0
 40
1.0
 10
17.3057293689
 20
113.1665794633
 30
0.0
 10
17.225612199
 20
113.2982021074
 30
0.0
 10
17.0448137378
 20
113.6613268245
 30
0.0
 10
16.8579639388
 20
114.3175595985
 30
0.0
 10
16.8065430606
 20
114.8413882767
 30
0.0
 10
16.799778804
 20
115.1152941677
 30
0.0
  0
SPLINE
  5
357
100
AcDbEntity
  8
0
100
AcDbSpline
 62
7
  6
BYLAYER
 70
0
 71
3
 72
15
 73
11
 74
0
 42
0.0000001
 43
0.0000001
 44
0.0000000001
 40
0.0
 40
0.0
 40
0.0
 40
0.0
 40
0.112243635
 40
0.231435495
 40
0.3561754507
 40
0.484836477
 40
0.6155452596
 40
0.7463040739
 40
0.8751032546
 40
1.0
 40
1.0
 40
1.0
 40
1.0
 10
16.1338998477
 20
115.5167209261
 30
0.0
 10
16.1283997036
 20
115.7748937924
 30
0.0
 10
16.1528849444
 20
116.3083508093
 30
0.0
 10
16.2827694701
 20
117.1188943287
 30
0.0
 10
16.5050037078
 20
117.9482578628
 30
0.0
 10
16.813524851
 20
118.7776387856
 30
0.0
 10
17.2001361177
 20
119.588910345
 30
0.0
 10
17.656080903
 20
120.363753042
 30
0.0
 10
18.1711798727
 20
121.0841614588
 30
0.0
 10
18.5533684335
 20
121.5266601434
 30
0.0
 10
18.7517910569
 20
121.7344910031
 30
0.0
  0
SPLINE
  5
358
100
AcDbEntity
  8
0
100
AcDbSpline
 62
7
  6
BYLAYER
 70
0
 71
3
 72
11
 73
7
 74
0
 42
0.0000001
 43
0.0000001
 44
0.0000000001
 40
0.0
 40
0.0
 40
0.0
 40
0.0
 40
0.278739803
 40
0.5397710379
 40
0.7804945948
 40
1.0
 40
1.0
 40
1.0
 40
1.0
 10
18.8295286589
 20
121.8148528394
 30
0.0
 10
19.025099002
 20
122.0143728436
 30
0.0
 10
19.4233031141
 20
122.3824395077
 30
0.0
 10
20.0568844172
 20
122.8446261556
 30
0.0
 10
20.6932210709
 20
123.1922991162
 30
0.0
 10
21.1300623941
 20
123.3488981408
 30
0.0
 10
21.3434892326
 20
123.4023296825
 30
0.0
  0
SPLINE
  5
359
100
AcDbEntity
  8
0
100
AcDbSpline
 62
7
  6
BYLAYER
 70
0
 71
3
 72
9
 73
5
 74
0
 42
0.0000001
 43
0.0000001
 44
0.0000000001
 40
0.0
 40
0.0
 40
0.0
 40
0.0
 40
0.2533922585
 40
1.0
 40
1.0
 40
1.0
 40
1.0
 10
21.3434892326
 20
123.4023296825
 30
0.0
 10
21.3625813657
 20
123.4071094099
 30
0.0
 10
21.4380937429
 20
123.425299717
 30
0.0
 10
21.5142691134
 20
123.4407569229
 30
0.0
 10
21.5714149951
 20
123.4506159732
 30
0.0
  0
SPLINE
  5
35A
100
AcDbEntity
  8
0
100
AcDbSpline
 62
7
  6
BYLAYER
 70
0
 71
3
 72
13
 73
9
 74
0
 42
0.0000001
 43
0.0000001
 44
0.0000000001
 40
0.0
 40
0.0
 40
0.0
 40
0.0
 40
0.1369425504
 40
0.2638299124
 40
0.3886983327
 40
0.5124667941
 40
0.7574052829
 40
1.0
 40
1.0
 40
1.0
 40
1.0
 10
15.4367492526
 20
115.4672330339
 30
0.0
 10
15.4402297681
 20
115.4616306762
 30
0.0
 10
15.4432125326
 20
115.4489150808
 30
0.0
 10
15.4468080718
 20
115.4306753301
 30
0.0
 10
15.4500404331
 20
115.4128461498
 30
0.0
 10
15.4541656709
 20
115.3894458982
 30
0.0
 10
15.4590599029
 20
115.3604081743
 30
0.0
 10
15.4629697405
 20
115.3372566835
 30
0.0
 10
15.4649240614
 20
115.3257373419
 30
0.0
  0
SPLINE
  5
35B
100
AcDbEntity
  8
0
100
AcDbSpline
 62
7
  6
BYLAYER
 70
0
 71
3
 72
9
 73
5
 74
0
 42
0.0000001
 43
0.0000001
 44
0.0000000001
 40
0.0
 40
0.0
 40
0.0
 40
0.0
 40
0.2524547482
 40
1.0
 40
1.0
 40
1.0
 40
1.0
 10
15.4793245631
 20
115.2429042513
 30
0.0
 10
15.4819561725
 20
115.2282237621
 30
0.0
 10
15.4925697716
 20
115.1701071299
 30
0.0
 10
15.5040532046
 20
115.1121477059
 30
0.0
 10
15.5132169346
 20
115.0689454877
 30
0.0
  0
SPLINE
  5
35C
100
AcDbEntity
  8
0
100
AcDbSpline
 62
7
  6
BYLAYER
 70
0
 71
3
 72
9
 73
5
 74
0
 42
0.0000001
 43
0.0000001
 44
0.0000000001
 40
0.0
 40
0.0
 40
0.0
 40
0.0
 40
0.5108444657
 40
1.0
 40
1.0
 40
1.0
 40
1.0
 10
15.5319188044
 20
114.9844774111
 30
0.0
 10
15.5553284344
 20
114.8831132427
 30
0.0
 10
15.6077738904
 20
114.6861236229
 30
0.0
 10
15.6755163905
 20
114.4938083183
 30
0.0
 10
15.7124321222
 20
114.4012856528
 30
0.0
  0
SPLINE
  5
35D
100
AcDbEntity
  8
0
100
AcDbSpline
 62
7
  6
BYLAYER
 70
0
 71
3
 72
11
 73
7
 74
0
 42
0.0000001
 43
0.0000001
 44
0.0000000001
 40
0.0
 40
0.0
 40
0.0
 40
0.0
 40
0.2202594619
 40
0.4581474206
 40
0.7175842734
 40
1.0
 40
1.0
 40
1.0
 40
1.0
 10
21.7076555769
 20
123.5787202105
 30
0.0
 10
21.5452215234
 20
123.6126411656
 30
0.0
 10
21.1976022923
 20
123.6407527928
 30
0.0
 10
20.658555238
 20
123.5690049511
 30
0.0
 10
20.0966925106
 20
123.3889707263
 30
0.0
 10
19.7294712579
 20
123.2073167136
 30
0.0
 10
19.5448491982
 20
123.1015637575
 30
0.0
  0
SPLINE
  5
35E
100
AcDbEntity
  8
0
100
AcDbSpline
 62
7
  6
BYLAYER
 70
0
 71
3
 72
9
 73
5
 74
0
 42
0.0000001
 43
0.0000001
 44
0.0000000001
 40
0.0
 40
0.0
 40
0.0
 40
0.0
 40
0.2441509144
 40
1.0
 40
1.0
 40
1.0
 40
1.0
 10
19.4757631751
 20
123.0612891133
 30
0.0
 10
19.4325195609
 20
123.0356405674
 30
0.0
 10
19.2568867839
 20
122.9280944954
 30
0.0
 10
19.0872036105
 20
122.8109073196
 30
0.0
 10
18.9624083079
 20
122.7178831492
 30
0.0
  0
SPLINE
  5
35F
100
AcDbEntity
  8
0
100
AcDbSpline
 62
7
  6
BYLAYER
 70
0
 71
3
 72
11
 73
7
 74
0
 42
0.0000001
 43
0.0000001
 44
0.0000000001
 40
0.0
 40
0.0
 40
0.0
 40
0.0
 40
0.2335783604
 40
0.4835808108
 40
0.7419758801
 40
1.0
 40
1.0
 40
1.0
 40
1.0
 10
18.9624083079
 20
122.7178831492
 30
0.0
 10
18.6455362616
 20
122.4816822779
 30
0.0
 10
18.0333150773
 20
121.9325331265
 30
0.0
 10
17.2283394047
 20
120.9643388444
 30
0.0
 10
16.5362963122
 20
119.8634481289
 30
0.0
 10
16.1689452284
 20
119.0673512758
 30
0.0
 10
16.0133978552
 20
118.659418165
 30
0.0
  0
SPLINE
  5
360
100
AcDbEntity
  8
0
100
AcDbSpline
 62
7
  6
BYLAYER
 70
0
 71
3
 72
11
 73
7
 74
0
 42
0.0000001
 43
0.0000001
 44
0.0000000001
 40
0.0
 40
0.0
 40
0.0
 40
0.0
 40
0.2720817844
 40
0.5318555146
 40
0.7753723316
 40
1.0
 40
1.0
 40
1.0
 40
1.0
 10
16.0133978552
 20
118.659418165
 30
0.0
 10
15.8975545112
 20
118.355611455
 30
0.0
 10
15.7011230619
 20
117.7496729145
 30
0.0
 10
15.5143901549
 20
116.839966632
 30
0.0
 10
15.4459181347
 20
115.9704401367
 30
0.0
 10
15.4824037016
 20
115.4093949441
 30
0.0
 10
15.5236585054
 20
115.1441493414
 30
0.0
  0
SPLINE
  5
361
100
AcDbEntity
  8
0
100
AcDbSpline
 62
7
  6
BYLAYER
 70
0
 71
3
 72
10
 73
6
 74
0
 42
0.0000001
 43
0.0000001
 44
0.0000000001
 40
0.0
 40
0.0
 40
0.0
 40
0.0
 40
0.4741160216
 40
0.7305224196
 40
1.0
 40
1.0
 40
1.0
 40
1.0
 10
34.4977436877
 20
127.3826132283
 30
0.0
 10
33.9330022677
 20
127.3295998556
 30
0.0
 10
33.0710869558
 20
127.1374551852
 30
0.0
 10
31.9519392312
 20
126.7129052598
 30
0.0
 10
31.3847589065
 20
126.4381508313
 30
0.0
 10
31.1003540935
 20
126.2863135089
 30
0.0
  0
SPLINE
  5
362
100
AcDbEntity
  8
0
100
AcDbSpline
 62
7
  6
BYLAYER
 70
0
 71
3
 72
9
 73
5
 74
0
 42
0.0000001
 43
0.0000001
 44
0.0000000001
 40
0.0
 40
0.0
 40
0.0
 40
0.0
 40
0.2481592581
 40
1.0
 40
1.0
 40
1.0
 40
1.0
 10
31.1003540935
 20
126.2863135089
 30
0.0
 10
31.0678946589
 20
126.268984148
 30
0.0
 10
30.9374084548
 20
126.1985645689
 30
0.0
 10
30.808180411
 20
126.1258156826
 30
0.0
 10
30.711748468
 20
126.0698836269
 30
0.0
  0
SPLINE
  5
363
100
AcDbEntity
  8
0
100
AcDbSpline
 62
7
  6
BYLAYER
 70
0
 71
3
 72
11
 73
7
 74
0
 42
0.0000001
 43
0.0000001
 44
0.0000000001
 40
0.0
 40
0.0
 40
0.0
 40
0.0
 40
0.2527981554
 40
0.5074640437
 40
0.7583300458
 40
1.0
 40
1.0
 40
1.0
 40
1.0
 10
17.9085100223
 20
117.7135686425
 30
0.0
 10
18.0182849382
 20
118.0202745633
 30
0.0
 10
18.2724721404
 20
118.6244226629
 30
0.0
 10
18.7474472481
 20
119.4804910205
 30
0.0
 10
19.3014176961
 20
120.2700667774
 30
0.0
 10
19.7205991146
 20
120.7487992216
 30
0.0
 10
19.9398150327
 20
120.9699921822
 30
0.0
  0
SPLINE
  5
364
100
AcDbEntity
  8
0
100
AcDbSpline
 62
7
  6
BYLAYER
 70
0
 71
3
 72
15
 73
11
 74
0
 42
0.0000001
 43
0.0000001
 44
0.0000000001
 40
0.0
 40
0.0
 40
0.0
 40
0.0
 40
0.1080803214
 40
0.2181867572
 40
0.3321629229
 40
0.4515366753
 40
0.5774442634
 40
0.7106226761
 40
0.8514879912
 40
1.0
 40
1.0
 40
1.0
 40
1.0
 10
20.4856245641
 20
104.8367714646
 30
0.0
 10
20.2603602017
 20
104.9668239601
 30
0.0
 10
19.8272143757
 20
105.2688899016
 30
0.0
 10
19.2546217907
 20
105.8315685021
 30
0.0
 10
18.7618576301
 20
106.4992334925
 30
0.0
 10
18.3534485816
 20
107.2644110878
 30
0.0
 10
18.0325722391
 20
108.1193292355
 30
0.0
 10
17.8016628429
 20
109.055801743
 30
0.0
 10
17.6625553175
 20
110.0647972647
 30
0.0
 10
17.632351863
 20
110.7616455335
 30
0.0
 10
17.631635588
 20
111.119060421
 30
0.0
  0
SPLINE
  5
365
100
AcDbEntity
  8
0
100
AcDbSpline
 62
7
  6
BYLAYER
 70
0
 71
3
 72
14
 73
10
 74
0
 42
0.0000001
 43
0.0000001
 44
0.0000000001
 40
0.0
 40
0.0
 40
0.0
 40
0.0
 40
0.130673263
 40
0.2624082661
 40
0.3937822206
 40
0.5234721942
 40
0.6501364368
 40
0.7725167879
 40
1.0
 40
1.0
 40
1.0
 40
1.0
 10
17.3882122201
 20
118.0049689927
 30
0.0
 10
17.4754100012
 20
118.2353822792
 30
0.0
 10
17.6684678377
 20
118.6914604019
 30
0.0
 10
18.0060172635
 20
119.3533447628
 30
0.0
 10
18.389209514
 20
119.9878344241
 30
0.0
 10
18.8124562819
 20
120.5846170781
 30
0.0
 10
19.2689927694
 20
121.1347299059
 30
0.0
 10
19.8954554012
 20
121.7791830413
 30
0.0
 10
20.4140463362
 20
122.1951717113
 30
0.0
 10
20.7761997765
 20
122.4249147998
 30
0.0
  0
SPLINE
  5
366
100
AcDbEntity
  8
0
100
AcDbSpline
 62
7
  6
BYLAYER
 70
0
 71
3
 72
15
 73
11
 74
0
 42
0.0000001
 43
0.0000001
 44
0.0000000001
 40
0.0
 40
0.0
 40
0.0
 40
0.0
 40
0.148657356
 40
0.2896365435
 40
0.4228873238
 40
0.5488183737
 40
0.6681634054
 40
0.7820627556
 40
0.8920548527
 40
1.0
 40
1.0
 40
1.0
 40
1.0
 10
27.3529782511
 20
128.0090266465
 30
0.0
 10
27.6646682384
 20
128.1898117805
 30
0.0
 10
28.2869548295
 20
128.5171391208
 30
0.0
 10
29.2363385996
 20
128.9078464214
 30
0.0
 10
30.1689412782
 20
129.1815539649
 30
0.0
 10
31.0758706029
 20
129.3352527904
 30
0.0
 10
31.9486729323
 20
129.366882037
 30
0.0
 10
32.7788786717
 20
129.2752605054
 30
0.0
 10
33.5575960775
 20
129.0605533663
 30
0.0
 10
34.038784232
 20
128.8353605757
 30
0.0
 10
34.2653763072
 20
128.7045415481
 30
0.0
  0
SPLINE
  5
367
100
AcDbEntity
  8
0
100
AcDbSpline
 62
7
  6
BYLAYER
 70
0
 71
3
 72
19
 73
15
 74
0
 42
0.0000001
 43
0.0000001
 44
0.0000000001
 40
0.0
 40
0.0
 40
0.0
 40
0.0
 40
0.0557831482
 40
0.1140912243
 40
0.1746553957
 40
0.2371975832
 40
0.3667492301
 40
0.4997126642
 40
0.6327161094
 40
0.7623846702
 40
0.8250112802
 40
0.8856748889
 40
0.9440950769
 40
1.0
 40
1.0
 40
1.0
 40
1.0
 10
17.631635588
 20
111.119060421
 30
0.0
 10
17.6308810593
 20
111.4955635255
 30
0.0
 10
17.6628832374
 20
112.2659612614
 30
0.0
 10
17.8026806802
 20
113.4374698886
 30
0.0
 10
18.034162263
 20
114.6408629289
 30
0.0
 10
18.4670186614
 20
116.2913638787
 30
0.0
 10
19.2236554285
 20
118.3569055412
 30
0.0
 10
20.4260811957
 20
120.7464761946
 30
0.0
 10
21.8887813133
 20
122.9871435928
 30
0.0
 10
23.295585797
 20
124.6803511036
 30
0.0
 10
24.5063268586
 20
125.8855643663
 30
0.0
 10
25.4316633041
 20
126.692025275
 30
0.0
 10
26.3756471864
 20
127.4034819009
 30
0.0
 10
27.0265819372
 20
127.81971161
 30
0.0
 10
27.3529782511
 20
128.0090266465
 30
0.0
  0
SPLINE
  5
368
100
AcDbEntity
  8
0
100
AcDbSpline
 62
7
  6
BYLAYER
 70
0
 71
3
 72
10
 73
6
 74
0
 42
0.0000001
 43
0.0000001
 44
0.0000000001
 40
0.0
 40
0.0
 40
0.0
 40
0.0
 40
0.2727055225
 40
0.5303665248
 40
1.0
 40
1.0
 40
1.0
 40
1.0
 10
16.8403710005
 20
115.0918587823
 30
0.0
 10
16.8447349635
 20
114.9131972074
 30
0.0
 10
16.8699263018
 20
114.5656334789
 30
0.0
 10
16.9883547551
 20
113.9206483628
 30
0.0
 10
17.1590535138
 20
113.4671107493
 30
0.0
 10
17.3126669524
 20
113.2004179158
 30
0.0
  0
SPLINE
  5
369
100
AcDbEntity
  8
0
100
AcDbSpline
 62
7
  6
BYLAYER
 70
0
 71
3
 72
9
 73
5
 74
0
 42
0.0000001
 43
0.0000001
 44
0.0000000001
 40
0.0
 40
0.0
 40
0.0
 40
0.0
 40
0.4877259596
 40
1.0
 40
1.0
 40
1.0
 40
1.0
 10
15.4569359952
 20
116.7700025268
 30
0.0
 10
15.4977313317
 20
117.0879802432
 30
0.0
 10
15.6252439562
 20
117.7347443629
 30
0.0
 10
15.8262217979
 20
118.3620996914
 30
0.0
 10
15.9456557824
 20
118.6769259251
 30
0.0
  0
SPLINE
  5
36A
100
AcDbEntity
  8
0
100
AcDbSpline
 62
7
  6
BYLAYER
 70
0
 71
3
 72
11
 73
7
 74
0
 42
0.0000001
 43
0.0000001
 44
0.0000000001
 40
0.0
 40
0.0
 40
0.0
 40
0.0
 40
0.2527857458
 40
0.507352644
 40
0.7582029705
 40
1.0
 40
1.0
 40
1.0
 40
1.0
 10
15.9456557824
 20
118.6769259251
 30
0.0
 10
16.0690335289
 20
119.0021478577
 30
0.0
 10
16.3523898488
 20
119.6418573048
 30
0.0
 10
16.8720160416
 20
120.5486099167
 30
0.0
 10
17.474118818
 20
121.384306046
 30
0.0
 10
17.9291987176
 20
121.8891344136
 30
0.0
 10
18.1667919497
 20
122.1220514808
 30
0.0
  0
SPLINE
  5
36B
100
AcDbEntity
  8
0
100
AcDbSpline
 62
7
  6
BYLAYER
 70
0
 71
3
 72
9
 73
5
 74
0
 42
0.0000001
 43
0.0000001
 44
0.0000000001
 40
0.0
 40
0.0
 40
0.0
 40
0.0
 40
0.2568692883
 40
1.0
 40
1.0
 40
1.0
 40
1.0
 10
18.1667919497
 20
122.1220514808
 30
0.0
 10
18.227495349
 20
122.1815601529
 30
0.0
 10
18.4674774528
 20
122.4094387018
 30
0.0
 10
18.7223166757
 20
122.6218697319
 30
0.0
 10
18.9199088978
 20
122.7682861849
 30
0.0
  0
SPLINE
  5
36C
100
AcDbEntity
  8
0
100
AcDbSpline
 62
7
  6
BYLAYER
 70
0
 71
3
 72
15
 73
11
 74
0
 42
0.0000001
 43
0.0000001
 44
0.0000000001
 40
0.0
 40
0.0
 40
0.0
 40
0.0
 40
0.1109174618
 40
0.2282364561
 40
0.3509852192
 40
0.4779797543
 40
0.6078598661
 40
0.7391646141
 40
0.8703810857
 40
1.0
 40
1.0
 40
1.0
 40
1.0
 10
30.711748468
 20
126.0698836269
 30
0.0
 10
30.2702234456
 20
125.8137921142
 30
0.0
 10
29.3919934123
 20
125.2333904202
 30
0.0
 10
28.1385111294
 20
124.2112498214
 30
0.0
 10
26.9296776015
 20
123.0283489832
 30
0.0
 10
25.7862453506
 20
121.705081569
 30
0.0
 10
24.7276715492
 20
120.2639860089
 30
0.0
 10
23.7720704298
 20
118.7297394804
 30
0.0
 10
22.9358827669
 20
117.1287681648
 30
0.0
 10
22.4627814555
 20
116.0240484666
 30
0.0
 10
22.2502087249
 20
115.4667336797
 30
0.0
  0
SPLINE
  5
36D
100
AcDbEntity
  8
0
100
AcDbSpline
 62
7
  6
BYLAYER
 70
0
 71
3
 72
15
 73
11
 74
0
 42
0.0000001
 43
0.0000001
 44
0.0000000001
 40
0.0
 40
0.0
 40
0.0
 40
0.0
 40
0.149169949
 40
0.293261547
 40
0.4309320908
 40
0.5611067262
 40
0.6830652433
 40
0.7965445
 40
0.9018554392
 40
1.0
 40
1.0
 40
1.0
 40
1.0
 10
22.2502087249
 20
115.4667336797
 30
0.0
 10
22.0455914765
 20
114.9302762617
 30
0.0
 10
21.683956156
 20
113.8594945115
 30
0.0
 10
21.28491033
 20
112.2475254323
 30
0.0
 10
21.0432276177
 20
110.6781130132
 30
0.0
 10
20.9631198206
 20
109.1771170962
 30
0.0
 10
21.0462310919
 20
107.7689786387
 30
0.0
 10
21.2921389393
 20
106.4763144134
 30
0.0
 10
21.6978938329
 20
105.3206707853
 30
0.0
 10
22.0844398871
 20
104.6333374763
 30
0.0
 10
22.3022892508
 20
104.3247222449
 30
0.0
  0
SPLINE
  5
36E
100
AcDbEntity
  8
0
100
AcDbSpline
 62
7
  6
BYLAYER
 70
0
 71
3
 72
9
 73
5
 74
0
 42
0.0000001
 43
0.0000001
 44
0.0000000001
 40
0.0
 40
0.0
 40
0.0
 40
0.0
 40
0.2568020595
 40
1.0
 40
1.0
 40
1.0
 40
1.0
 10
17.2895188506
 20
117.7311103234
 30
0.0
 10
17.2460459494
 20
117.6042117129
 30
0.0
 10
17.087325949
 20
117.1065586131
 30
0.0
 10
16.9711157823
 20
116.5949356005
 30
0.0
 10
16.9141709276
 20
116.2109312411
 30
0.0
  0
SPLINE
  5
36F
100
AcDbEntity
  8
0
100
AcDbSpline
 62
7
  6
BYLAYER
 70
0
 71
3
 72
9
 73
5
 74
0
 42
0.0000001
 43
0.0000001
 44
0.0000000001
 40
0.0
 40
0.0
 40
0.0
 40
0.0
 40
0.2531627788
 40
1.0
 40
1.0
 40
1.0
 40
1.0
 10
16.9141709276
 20
116.2109312411
 30
0.0
 10
16.908348497
 20
116.1716680149
 30
0.0
 10
16.8865711689
 20
116.0163994213
 30
0.0
 10
16.8697395496
 20
115.860429968
 30
0.0
 10
16.8601900635
 20
115.7437257774
 30
0.0
  0
SPLINE
  5
370
100
AcDbEntity
  8
0
100
AcDbSpline
 62
7
  6
BYLAYER
 70
0
 71
3
 72
9
 73
5
 74
0
 42
0.0000001
 43
0.0000001
 44
0.0000000001
 40
0.0
 40
0.0
 40
0.0
 40
0.0
 40
0.2552817453
 40
1.0
 40
1.0
 40
1.0
 40
1.0
 10
16.8601900635
 20
115.7437257774
 30
0.0
 10
16.855805567
 20
115.6901428822
 30
0.0
 10
16.8411293516
 20
115.4800541786
 30
0.0
 10
16.8366574991
 20
115.2692105412
 30
0.0
 10
16.8399079611
 20
115.1124076013
 30
0.0
  0
SPLINE
  5
371
100
AcDbEntity
  8
0
100
AcDbSpline
 62
7
  6
BYLAYER
 70
0
 71
3
 72
9
 73
5
 74
0
 42
0.0000001
 43
0.0000001
 44
0.0000000001
 40
0.0
 40
0.0
 40
0.0
 40
0.0
 40
0.2488770722
 40
1.0
 40
1.0
 40
1.0
 40
1.0
 10
16.6843636913
 20
113.1855349439
 30
0.0
 10
16.6549747072
 20
113.2038329406
 30
0.0
 10
16.5386826797
 20
113.2802055328
 30
0.0
 10
16.4298947059
 20
113.3679500783
 30
0.0
 10
16.3533839331
 20
113.4391051154
 30
0.0
  0
SPLINE
  5
372
100
AcDbEntity
  8
0
100
AcDbSpline
 62
7
  6
BYLAYER
 70
0
 71
3
 72
9
 73
5
 74
0
 42
0.0000001
 43
0.0000001
 44
0.0000000001
 40
0.0
 40
0.0
 40
0.0
 40
0.0
 40
0.4871650462
 40
1.0
 40
1.0
 40
1.0
 40
1.0
 10
16.3533839331
 20
113.4391051154
 30
0.0
 10
16.240999759
 20
113.5436224245
 30
0.0
 10
16.0321258648
 20
113.782539402
 30
0.0
 10
15.8716114654
 20
114.0556687669
 30
0.0
 10
15.8010669967
 20
114.2010138331
 30
0.0
  0
SPLINE
  5
373
100
AcDbEntity
  8
0
100
AcDbSpline
 62
7
  6
BYLAYER
 70
0
 71
3
 72
9
 73
5
 74
0
 42
0.0000001
 43
0.0000001
 44
0.0000000001
 40
0.0
 40
0.0
 40
0.0
 40
0.0
 40
0.2475033267
 40
1.0
 40
1.0
 40
1.0
 40
1.0
 10
15.8010669967
 20
114.2010138331
 30
0.0
 10
15.793176584
 20
114.2172707072
 30
0.0
 10
15.7618843282
 20
114.2832381749
 30
0.0
 10
15.7329308648
 20
114.3503122262
 30
0.0
 10
15.7124321222
 20
114.4012856528
 30
0.0
  0
SPLINE
  5
374
100
AcDbEntity
  8
0
100
AcDbSpline
 62
7
  6
BYLAYER
 70
0
 71
3
 72
9
 73
5
 74
0
 42
0.0000001
 43
0.0000001
 44
0.0000000001
 40
0.0
 40
0.0
 40
0.0
 40
0.0
 40
0.4877651788
 40
1.0
 40
1.0
 40
1.0
 40
1.0
 10
17.3090336952
 20
112.8312849012
 30
0.0
 10
17.1595913555
 20
112.9341494176
 30
0.0
 10
16.8794542969
 20
113.1853989888
 30
0.0
 10
16.6672266106
 20
113.4949715676
 30
0.0
 10
16.57563058
 20
113.6620329926
 30
0.0
  0
SPLINE
  5
375
100
AcDbEntity
  8
0
100
AcDbSpline
 62
7
  6
BYLAYER
 70
0
 71
3
 72
9
 73
5
 74
0
 42
0.0000001
 43
0.0000001
 44
0.0000000001
 40
0.0
 40
0.0
 40
0.0
 40
0.0
 40
0.2436993158
 40
1.0
 40
1.0
 40
1.0
 40
1.0
 10
16.57563058
 20
113.6620329926
 30
0.0
 10
16.5544615485
 20
113.7006430562
 30
0.0
 10
16.4712461784
 20
113.8610647631
 30
0.0
 10
16.4025338771
 20
114.0288914933
 30
0.0
 10
16.3581868296
 20
114.1581467968
 30
0.0
  0
SPLINE
  5
376
100
AcDbEntity
  8
0
100
AcDbSpline
 62
7
  6
BYLAYER
 70
0
 71
3
 72
9
 73
5
 74
0
 42
0.0000001
 43
0.0000001
 44
0.0000000001
 40
0.0
 40
0.0
 40
0.0
 40
0.0
 40
0.2356940937
 40
1.0
 40
1.0
 40
1.0
 40
1.0
 10
16.3581868296
 20
114.1581467968
 30
0.0
 10
16.3234351994
 20
114.2594349942
 30
0.0
 10
16.1955613091
 20
114.6958770411
 30
0.0
 10
16.1427404252
 20
115.1523563532
 30
0.0
 10
16.1342925731
 20
115.4995041303
 30
0.0
  0
SPLINE
  5
377
100
AcDbEntity
  8
0
100
AcDbSpline
 62
7
  6
BYLAYER
 70
0
 71
3
 72
22
 73
18
 74
0
 42
0.0000001
 43
0.0000001
 44
0.0000000001
 40
0.0
 40
0.0
 40
0.0
 40
0.0
 40
0.0557985806
 40
0.1148531686
 40
0.1768660915
 40
0.2414484029
 40
0.3080911383
 40
0.3762052457
 40
0.4451538126
 40
0.5142801283
 40
0.5829073157
 40
0.6503651287
 40
0.7160320863
 40
0.7793418584
 40
0.8397645777
 40
0.8968545108
 40
1.0
 40
1.0
 40
1.0
 40
1.0
 10
16.0853279958
 20
115.5184674655
 30
0.0
 10
16.0629499414
 20
115.6923413367
 30
0.0
 10
16.0381396226
 20
116.0531654648
 30
0.0
 10
16.055400746
 20
116.6093434405
 30
0.0
 10
16.1272918494
 20
117.1890022824
 30
0.0
 10
16.2553749063
 20
117.783197526
 30
0.0
 10
16.4357711983
 20
118.3835417752
 30
0.0
 10
16.6630615908
 20
118.9823689842
 30
0.0
 10
16.934430858
 20
119.5711674193
 30
0.0
 10
17.2474329818
 20
120.1408313514
 30
0.0
 10
17.5989348396
 20
120.6819943117
 30
0.0
 10
17.9810351336
 20
121.1883839219
 30
0.0
 10
18.3872319856
 20
121.653779777
 30
0.0
 10
18.8122788781
 20
122.071080046
 30
0.0
 10
19.2512934674
 20
122.4332225389
 30
0.0
 10
19.8265717395
 20
122.8206669102
 30
0.0
 10
20.2866384445
 20
123.0398698925
 30
0.0
 10
20.5961439892
 20
123.1359056284
 30
0.0
  0
SPLINE
  5
378
100
AcDbEntity
  8
0
100
AcDbSpline
 62
7
  6
BYLAYER
 70
0
 71
3
 72
17
 73
13
 74
0
 42
0.0000001
 43
0.0000001
 44
0.0000000001
 40
0.0
 40
0.0
 40
0.0
 40
0.0
 40
0.1082497534
 40
0.2247930477
 40
0.3484029896
 40
0.4772203759
 40
0.5429482611
 40
0.6091691372
 40
0.6755839685
 40
0.7418874341
 40
0.8729236305
 40
1.0
 40
1.0
 40
1.0
 40
1.0
 10
16.7925055343
 20
115.1109839615
 30
0.0
 10
16.7613788641
 20
115.3507433005
 30
0.0
 10
16.7373422063
 20
115.8543088613
 30
0.0
 10
16.8030957033
 20
116.6316081484
 30
0.0
 10
16.9729394684
 20
117.4398771393
 30
0.0
 10
17.19181106
 20
118.1172098266
 30
0.0
 10
17.4097715482
 20
118.6574791395
 30
0.0
 10
17.5948033962
 20
119.0602195291
 30
0.0
 10
17.7996654223
 20
119.454705766
 30
0.0
 10
18.0972393856
 20
119.9633575743
 30
0.0
 10
18.5085268335
 20
120.5612661788
 30
0.0
 10
18.879491404
 20
121.0039490513
 30
0.0
 10
19.0729962954
 20
121.2115775188
 30
0.0
  0
SPLINE
  5
379
100
AcDbEntity
  8
0
100
AcDbSpline
 62
7
  6
BYLAYER
 70
0
 71
3
 72
11
 73
7
 74
0
 42
0.0000001
 43
0.0000001
 44
0.0000000001
 40
0.0
 40
0.0
 40
0.0
 40
0.0
 40
0.2719087092
 40
0.5304037431
 40
0.7735449766
 40
1.0
 40
1.0
 40
1.0
 40
1.0
 10
19.0729962954
 20
121.2115775188
 30
0.0
 10
19.2193752221
 20
121.3686403818
 30
0.0
 10
19.5174064114
 20
121.6637903441
 30
0.0
 10
19.9912599005
 20
122.0508030957
 30
0.0
 10
20.4726718085
 20
122.3669082116
 30
0.0
 10
20.804360122
 20
122.535046659
 30
0.0
 10
20.9689376239
 20
122.6049518846
 30
0.0
  0
SPLINE
  5
37A
100
AcDbEntity
  8
0
100
AcDbSpline
 62
7
  6
BYLAYER
 70
0
 71
3
 72
9
 73
5
 74
0
 42
0.0000001
 43
0.0000001
 44
0.0000000001
 40
0.0
 40
0.0
 40
0.0
 40
0.0
 40
0.2487031343
 40
1.0
 40
1.0
 40
1.0
 40
1.0
 10
17.5001799428
 20
114.7021265377
 30
0.0
 10
17.4989280068
 20
114.711812445
 30
0.0
 10
17.494022009
 20
114.7507745432
 30
0.0
 10
17.489621971
 20
114.789800186
 30
0.0
 10
17.486589188
 20
114.8191470457
 30
0.0
  0
SPLINE
  5
37B
100
AcDbEntity
  8
0
100
AcDbSpline
 62
7
  6
BYLAYER
 70
0
 71
3
 72
16
 73
12
 74
0
 42
0.0000001
 43
0.0000001
 44
0.0000000001
 40
0.0
 40
0.0
 40
0.0
 40
0.0
 40
0.2287554691
 40
0.4731445298
 40
0.6007004052
 40
0.6656710032
 40
0.7313583154
 40
0.7977029413
 40
0.8646438229
 40
0.9320941722
 40
1.0
 40
1.0
 40
1.0
 40
1.0
 10
17.486589188
 20
114.8191470457
 30
0.0
 10
17.463479883
 20
115.042765269
 30
0.0
 10
17.4488713928
 20
115.5090729542
 30
0.0
 10
17.5023416301
 20
116.0982848349
 30
0.0
 10
17.575895524
 20
116.5214998921
 30
0.0
 10
17.6292302137
 20
116.7696182386
 30
0.0
 10
17.674687721
 20
116.9578315192
 30
0.0
 10
17.7255935505
 20
117.1466551428
 30
0.0
 10
17.7819834188
 20
117.3357134143
 30
0.0
 10
17.8419295338
 20
117.5252737345
 30
0.0
 10
17.8847611563
 20
117.6512335375
 30
0.0
 10
17.9073448947
 20
117.7140304334
 30
0.0
  0
SPLINE
  5
37C
100
AcDbEntity
  8
0
100
AcDbSpline
 62
7
  6
BYLAYER
 70
0
 71
3
 72
10
 73
6
 74
0
 42
0.0000001
 43
0.0000001
 44
0.0000000001
 40
0.0
 40
0.0
 40
0.0
 40
0.0
 40
0.4992419083
 40
0.7508912754
 40
1.0
 40
1.0
 40
1.0
 40
1.0
 10
19.5012951672
 20
120.13887767
 30
0.0
 10
19.1932977341
 20
119.7336071953
 30
0.0
 10
18.7779349761
 20
119.0858392972
 30
0.0
 10
18.3239179081
 20
118.1723675302
 30
0.0
 10
18.1309032705
 20
117.698974931
 30
0.0
 10
18.0445397485
 20
117.4601184642
 30
0.0
  0
SPLINE
  5
37D
100
AcDbEntity
  8
0
100
AcDbSpline
 62
7
  6
BYLAYER
 70
0
 71
3
 72
9
 73
5
 74
0
 42
0.0000001
 43
0.0000001
 44
0.0000000001
 40
0.0
 40
0.0
 40
0.0
 40
0.0
 40
0.5153463295
 40
1.0
 40
1.0
 40
1.0
 40
1.0
 10
18.0445397485
 20
117.4601184642
 30
0.0
 10
17.9098333019
 20
117.0875594814
 30
0.0
 10
17.6932048846
 20
116.3474208612
 30
0.0
 10
17.5819611054
 20
115.5833870573
 30
0.0
 10
17.5589910247
 20
115.2115261684
 30
0.0
  0
SPLINE
  5
37E
100
AcDbEntity
  8
0
100
AcDbSpline
 62
7
  6
BYLAYER
 70
0
 71
3
 72
9
 73
5
 74
0
 42
0.0000001
 43
0.0000001
 44
0.0000000001
 40
0.0
 40
0.0
 40
0.0
 40
0.0
 40
0.4985415638
 40
1.0
 40
1.0
 40
1.0
 40
1.0
 10
15.4638418759
 20
115.1546480173
 30
0.0
 10
15.4576209775
 20
115.1937584167
 30
0.0
 10
15.4474116902
 20
115.2725587403
 30
0.0
 10
15.4395711543
 20
115.3516343734
 30
0.0
 10
15.4368743352
 20
115.3913767398
 30
0.0
  0
SPLINE
  5
37F
100
AcDbEntity
  8
0
100
AcDbSpline
 62
7
  6
BYLAYER
 70
0
 71
3
 72
14
 73
10
 74
0
 42
0.0000001
 43
0.0000001
 44
0.0000000001
 40
0.0
 40
0.0
 40
0.0
 40
0.0
 40
0.2545743324
 40
0.507930382
 40
0.6337633239
 40
0.7585931788
 40
0.8816591902
 40
0.9415661836
 40
1.0
 40
1.0
 40
1.0
 40
1.0
 10
15.4368743352
 20
115.3913767398
 30
0.0
 10
15.4364497651
 20
115.3976335255
 30
0.0
 10
15.4356674554
 20
115.4101221475
 30
0.0
 10
15.4349159444
 20
115.4257153192
 30
0.0
 10
15.4344964275
 20
115.4381276848
 30
0.0
 10
15.4343781932
 20
115.4473251026
 30
0.0
 10
15.4342816955
 20
115.4549331158
 30
0.0
 10
15.4347772036
 20
115.4608285129
 30
0.0
 10
15.4346370826
 20
115.4638230041
 30
0.0
 10
15.435085857
 20
115.4651907161
 30
0.0
  0
SPLINE
  5
380
100
AcDbEntity
  8
0
100
AcDbSpline
 62
7
  6
BYLAYER
 70
0
 71
3
 72
8
 73
4
 74
0
 42
0.0000001
 43
0.0000001
 44
0.0000000001
 40
0.0
 40
0.0
 40
0.0
 40
0.0
 40
1.0
 40
1.0
 40
1.0
 40
1.0
 10
15.435085857
 20
115.4651907161
 30
0.0
 10
15.4353595879
 20
115.4660249549
 30
0.0
 10
15.435974747
 20
115.4668194834
 30
0.0
 10
15.4367492526
 20
115.4672330339
 30
0.0
  0
SPLINE
  5
381
100
AcDbEntity
  8
0
100
AcDbSpline
 62
7
  6
BYLAYER
 70
0
 71
3
 72
9
 73
5
 74
0
 42
0.0000001
 43
0.0000001
 44
0.0000000001
 40
0.0
 40
0.0
 40
0.0
 40
0.0
 40
0.254736247
 40
1.0
 40
1.0
 40
1.0
 40
1.0
 10
15.5236585054
 20
115.1441493414
 30
0.0
 10
15.528923733
 20
115.1102968361
 30
0.0
 10
15.5511205028
 20
114.977648896
 30
0.0
 10
15.5795339505
 20
114.8460226367
 30
0.0
 10
15.6044985653
 20
114.7489507533
 30
0.0
  0
SPLINE
  5
382
100
AcDbEntity
  8
0
100
AcDbSpline
 62
7
  6
BYLAYER
 70
0
 71
3
 72
9
 73
5
 74
0
 42
0.0000001
 43
0.0000001
 44
0.0000000001
 40
0.0
 40
0.0
 40
0.0
 40
0.0
 40
0.2545370083
 40
1.0
 40
1.0
 40
1.0
 40
1.0
 10
15.6044985653
 20
114.7489507533
 30
0.0
 10
15.6121964284
 20
114.7190185442
 30
0.0
 10
15.6438582235
 20
114.6017954592
 30
0.0
 10
15.6813028702
 20
114.4861179255
 30
0.0
 10
15.7126530822
 20
114.4012053458
 30
0.0
  0
SPLINE
  5
383
100
AcDbEntity
  8
0
100
AcDbSpline
 62
7
  6
BYLAYER
 70
0
 71
3
 72
15
 73
11
 74
0
 42
0.0000001
 43
0.0000001
 44
0.0000000001
 40
0.0
 40
0.0
 40
0.0
 40
0.0
 40
0.1493206212
 40
0.2908352892
 40
0.4244262532
 40
0.5504690074
 40
0.6696850341
 40
0.7832283025
 40
0.8926866427
 40
1.0
 40
1.0
 40
1.0
 40
1.0
 10
112.2028398545
 20
79.6862033743
 30
0.0
 10
112.2111188822
 20
80.0912208373
 30
0.0
 10
112.1944034096
 20
80.8813053212
 30
0.0
 10
112.0614221136
 20
82.0269093612
 30
0.0
 10
111.821949816
 20
83.090887678
 30
0.0
 10
111.4779768721
 20
84.0623114905
 30
0.0
 10
111.0322636583
 20
84.9313105063
 30
0.0
 10
110.4884043115
 20
85.6884896527
 30
0.0
 10
109.8516446872
 20
86.3247648345
 30
0.0
 10
109.3673404317
 20
86.6646179467
 30
0.0
 10
109.1152030714
 20
86.8101786418
 30
0.0
  0
SPLINE
  5
384
100
AcDbEntity
  8
0
100
AcDbSpline
 62
7
  6
BYLAYER
 70
0
 71
3
 72
15
 73
11
 74
0
 42
0.0000001
 43
0.0000001
 44
0.0000000001
 40
0.0
 40
0.0
 40
0.0
 40
0.0
 40
0.1493258173
 40
0.2908340274
 40
0.4244250099
 40
0.5504698266
 40
0.6696847171
 40
0.7832277943
 40
0.8926867032
 40
1.0
 40
1.0
 40
1.0
 40
1.0
 10
115.102618159
 20
81.3006458107
 30
0.0
 10
115.1131875022
 20
81.8177075692
 30
0.0
 10
115.0918624163
 20
82.8263226225
 30
0.0
 10
114.9220801183
 20
84.2887909353
 30
0.0
 10
114.6163636709
 20
85.6470425332
 30
0.0
 10
114.1772832433
 20
86.8871741255
 30
0.0
 10
113.6082667724
 20
87.9965313404
 30
0.0
 10
112.9139588825
 20
88.9631196962
 30
0.0
 10
112.1011175227
 20
89.7754369715
 30
0.0
 10
111.4828258899
 20
90.2092503751
 30
0.0
 10
111.1609582292
 20
90.3950894117
 30
0.0
  0
SPLINE
  5
385
100
AcDbEntity
  8
0
100
AcDbSpline
 62
7
  6
BYLAYER
 70
0
 71
3
 72
25
 73
21
 74
0
 42
0.0000001
 43
0.0000001
 44
0.0000000001
 40
0.0
 40
0.0
 40
0.0
 40
0.0
 40
0.021324663
 40
0.0428731917
 40
0.0648576964
 40
0.0874695762
 40
0.1351352938
 40
0.1868641065
 40
0.2430751889
 40
0.3037599254
 40
0.3685719367
 40
0.4369082026
 40
0.5079770605
 40
0.5808555519
 40
0.6545395236
 40
0.7279901525
 40
0.8001781403
 40
0.8701306634
 40
0.9369759183
 40
1.0
 40
1.0
 40
1.0
 40
1.0
 10
92.1113037062
 20
57.3993733983
 30
0.0
 10
92.3429647183
 20
57.2656176204
 30
0.0
 10
92.8263365207
 20
57.0259977669
 30
0.0
 10
93.5966352664
 20
56.7580907372
 30
0.0
 10
94.409555401
 20
56.5820862501
 30
0.0
 10
95.5636071698
 20
56.4690894027
 30
0.0
 10
97.1021526671
 20
56.5738332377
 30
0.0
 10
99.0003155153
 20
57.0657629031
 30
0.0
 10
100.9475046288
 20
57.9107331831
 30
0.0
 10
102.9049993766
 20
59.0896671103
 30
0.0
 10
104.8340517861
 20
60.5775902458
 30
0.0
 10
106.6953608915
 20
62.343598208
 30
0.0
 10
108.4505720603
 20
64.3509970386
 30
0.0
 10
110.0631947788
 20
66.5579685877
 30
0.0
 10
111.499570827
 20
68.9184193946
 30
0.0
 10
112.729664164
 20
71.3830074641
 30
0.0
 10
113.7277697496
 20
73.9001848995
 30
0.0
 10
114.4730353338
 20
76.4176174977
 30
0.0
 10
114.9498774572
 20
78.8825121628
 30
0.0
 10
115.0864609406
 20
80.510220186
 30
0.0
 10
115.102618159
 20
81.3006458107
 30
0.0
  0
SPLINE
  5
386
100
AcDbEntity
  8
0
100
AcDbSpline
 62
7
  6
BYLAYER
 70
0
 71
3
 72
25
 73
21
 74
0
 42
0.0000001
 43
0.0000001
 44
0.0000000001
 40
0.0
 40
0.0
 40
0.0
 40
0.0
 40
0.0213247192
 40
0.0428732416
 40
0.0648577454
 40
0.0874696303
 40
0.1351352473
 40
0.1868639094
 40
0.2430748659
 40
0.3037595143
 40
0.3685714362
 40
0.4369076331
 40
0.5079764796
 40
0.5808549689
 40
0.6545390298
 40
0.7279896095
 40
0.8001778801
 40
0.8701300909
 40
0.9369765485
 40
1.0
 40
1.0
 40
1.0
 40
1.0
 10
94.1929800381
 20
60.9635455379
 30
0.0
 10
94.3744537717
 20
60.8587794582
 30
0.0
 10
94.7530806849
 20
60.6710482418
 30
0.0
 10
95.3564930216
 20
60.4612164035
 30
0.0
 10
95.9932743107
 20
60.3233235776
 30
0.0
 10
96.8972840002
 20
60.2348328045
 30
0.0
 10
98.1024733462
 20
60.3168696113
 30
0.0
 10
99.5893645274
 20
60.7022168656
 30
0.0
 10
101.114659361
 20
61.3641061042
 30
0.0
 10
102.6480282261
 20
62.2876016275
 30
0.0
 10
104.1591180264
 20
63.453138219
 30
0.0
 10
105.6171432467
 20
64.8365083683
 30
0.0
 10
106.992058834
 20
66.4089688811
 30
0.0
 10
108.2552821773
 20
68.1377620696
 30
0.0
 10
109.3804430378
 20
69.9867818053
 30
0.0
 10
110.3440224583
 20
71.9173759054
 30
0.0
 10
111.1258656763
 20
73.8891657089
 30
0.0
 10
111.7096723568
 20
75.8611617748
 30
0.0
 10
112.083187636
 20
77.792000436
 30
0.0
 10
112.1901834962
 20
79.0670429641
 30
0.0
 10
112.2028398545
 20
79.6862033743
 30
0.0
  0
SPLINE
  5
387
100
AcDbEntity
  8
0
100
AcDbSpline
 62
7
  6
BYLAYER
 70
0
 71
3
 72
15
 73
11
 74
0
 42
0.0000001
 43
0.0000001
 44
0.0000000001
 40
0.0
 40
0.0
 40
0.0
 40
0.0
 40
0.1493258173
 40
0.2908340274
 40
0.4244250099
 40
0.5504698266
 40
0.6696847171
 40
0.7832277943
 40
0.8926867032
 40
1.0
 40
1.0
 40
1.0
 40
1.0
 10
88.1696437764
 20
66.4938169993
 30
0.0
 10
88.1590744332
 20
65.9767552408
 30
0.0
 10
88.1803995191
 20
64.9681401875
 30
0.0
 10
88.3501818171
 20
63.5056718747
 30
0.0
 10
88.6558982646
 20
62.1474202768
 30
0.0
 10
89.0949786921
 20
60.9072886844
 30
0.0
 10
89.663995163
 20
59.7979314696
 30
0.0
 10
90.3583030529
 20
58.8313431138
 30
0.0
 10
91.1711444128
 20
58.0190258385
 30
0.0
 10
91.7894360455
 20
57.5852124349
 30
0.0
 10
92.1113037062
 20
57.3993733983
 30
0.0
  0
SPLINE
  5
388
100
AcDbEntity
  8
0
100
AcDbSpline
 62
7
  6
BYLAYER
 70
0
 71
3
 72
15
 73
11
 74
0
 42
0.0000001
 43
0.0000001
 44
0.0000000001
 40
0.0
 40
0.0
 40
0.0
 40
0.0
 40
0.1493206212
 40
0.2908352892
 40
0.4244262532
 40
0.5504690074
 40
0.6696850341
 40
0.7832283025
 40
0.8926866427
 40
1.0
 40
1.0
 40
1.0
 40
1.0
 10
91.1053432549
 20
68.0875208053
 30
0.0
 10
91.0970642273
 20
67.6825033423
 30
0.0
 10
91.1137796999
 20
66.8924188585
 30
0.0
 10
91.2467609959
 20
65.7468148185
 30
0.0
 10
91.4862332934
 20
64.6828365016
 30
0.0
 10
91.8302062374
 20
63.7114126892
 30
0.0
 10
92.2759194511
 20
62.8424136734
 30
0.0
 10
92.819778798
 20
62.085234527
 30
0.0
 10
93.4565384223
 20
61.4489593451
 30
0.0
 10
93.9408426778
 20
61.1091062329
 30
0.0
 10
94.1929800381
 20
60.9635455379
 30
0.0
  0
SPLINE
  5
389
100
AcDbEntity
  8
0
100
AcDbSpline
 62
7
  6
BYLAYER
 70
0
 71
3
 72
25
 73
21
 74
0
 42
0.0000001
 43
0.0000001
 44
0.0000000001
 40
0.0
 40
0.0
 40
0.0
 40
0.0
 40
0.06302329
 40
0.1298693531
 40
0.1998212743
 40
0.2720093645
 40
0.3454600767
 40
0.4191444255
 40
0.4920231117
 40
0.5630920232
 40
0.6314282674
 40
0.6962402651
 40
0.7569249879
 40
0.8131360038
 40
0.8648647322
 40
0.9125304208
 40
0.9351423198
 40
0.9571268269
 40
0.9786753214
 40
1.0
 40
1.0
 40
1.0
 40
1.0
 10
91.0873826679
 20
68.0978901205
 30
0.0
 10
91.1000389939
 20
68.7170489486
 30
0.0
 10
91.2070338323
 20
69.9920860749
 30
0.0
 10
91.5805469467
 20
71.9229166512
 30
0.0
 10
92.1643484517
 20
73.8949053679
 30
0.0
 10
92.946188505
 20
75.8666928875
 30
0.0
 10
93.9097666909
 20
77.7972902661
 30
0.0
 10
95.0349293835
 20
79.6463160503
 30
0.0
 10
96.2981548859
 20
81.3751143875
 30
0.0
 10
97.6730717161
 20
82.9475778845
 30
0.0
 10
99.131097667
 20
84.3309499761
 30
0.0
 10
100.6421885483
 20
85.4964883916
 30
0.0
 10
102.175558864
 20
86.4199855162
 30
0.0
 10
103.700855349
 20
87.0818760747
 30
0.0
 10
105.1877483495
 20
87.4672237532
 30
0.0
 10
106.3929393584
 20
87.5492613119
 30
0.0
 10
107.2969496848
 20
87.4607686564
 30
0.0
 10
107.9337311632
 20
87.3228770513
 30
0.0
 10
108.5371423492
 20
87.1130437684
 30
0.0
 10
108.9157689063
 20
86.925313524
 30
0.0
 10
109.0972424461
 20
86.8205479024
 30
0.0
  0
SPLINE
  5
38A
100
AcDbEntity
  8
0
100
AcDbSpline
 62
7
  6
BYLAYER
 70
0
 71
3
 72
15
 73
11
 74
0
 42
0.0000001
 43
0.0000001
 44
0.0000000001
 40
0.0
 40
0.0
 40
0.0
 40
0.0
 40
0.1073127789
 40
0.2167706611
 40
0.3303137951
 40
0.4495299898
 40
0.5755728664
 40
0.7091642206
 40
0.8506794787
 40
1.0
 40
1.0
 40
1.0
 40
1.0
 10
94.1750194893
 20
60.9739149076
 30
0.0
 10
93.9228832924
 20
61.1194744499
 30
0.0
 10
93.4385825522
 20
61.4593275504
 30
0.0
 10
92.8018230661
 20
62.0955979731
 30
0.0
 10
92.2579634253
 20
62.8527757
 30
0.0
 10
91.8122502319
 20
63.7217750322
 30
0.0
 10
91.4682738876
 20
64.6931995324
 30
0.0
 10
91.2288009658
 20
65.757180842
 30
0.0
 10
91.0958196215
 20
66.9027871811
 30
0.0
 10
91.0791036462
 20
67.6928729488
 30
0.0
 10
91.0873826679
 20
68.0978901205
 30
0.0
  0
SPLINE
  5
38B
100
AcDbEntity
  8
0
100
AcDbSpline
 62
7
  6
BYLAYER
 70
0
 71
3
 72
25
 73
21
 74
0
 42
0.0000001
 43
0.0000001
 44
0.0000000001
 40
0.0
 40
0.0
 40
0.0
 40
0.0
 40
0.021324663
 40
0.0428731917
 40
0.0648576964
 40
0.0874695762
 40
0.1351352938
 40
0.1868641065
 40
0.2430751889
 40
0.3037599254
 40
0.3685719367
 40
0.4369082026
 40
0.5079770605
 40
0.5808555519
 40
0.6545395236
 40
0.7279901525
 40
0.8001781403
 40
0.8701306634
 40
0.9369759183
 40
1.0
 40
1.0
 40
1.0
 40
1.0
 10
111.1609582292
 20
90.3950894117
 30
0.0
 10
110.9292972171
 20
90.5288451896
 30
0.0
 10
110.4459254147
 20
90.7684650431
 30
0.0
 10
109.675626669
 20
91.0363720728
 30
0.0
 10
108.8627065344
 20
91.2123765599
 30
0.0
 10
107.7086547656
 20
91.3253734072
 30
0.0
 10
106.1701092684
 20
91.2206295723
 30
0.0
 10
104.2719464201
 20
90.7286999069
 30
0.0
 10
102.3247573066
 20
89.8837296269
 30
0.0
 10
100.3672625588
 20
88.7047956997
 30
0.0
 10
98.4382101493
 20
87.2168725642
 30
0.0
 10
96.576901044
 20
85.450864602
 30
0.0
 10
94.8216898751
 20
83.4434657714
 30
0.0
 10
93.2090671566
 20
81.2364942222
 30
0.0
 10
91.7726911084
 20
78.8760434153
 30
0.0
 10
90.5425977714
 20
76.4114553459
 30
0.0
 10
89.5444921858
 20
73.8942779105
 30
0.0
 10
88.7992266016
 20
71.3768453123
 30
0.0
 10
88.3223844783
 20
68.9119506472
 30
0.0
 10
88.1858009948
 20
67.284242624
 30
0.0
 10
88.1696437764
 20
66.4938169993
 30
0.0
  0
SPLINE
  5
38C
100
AcDbEntity
  8
0
100
AcDbSpline
 62
7
  6
BYLAYER
 70
0
 71
3
 72
25
 73
21
 74
0
 42
0.0000001
 43
0.0000001
 44
0.0000000001
 40
0.0
 40
0.0
 40
0.0
 40
0.0
 40
0.0213247192
 40
0.0428732416
 40
0.0648577454
 40
0.0874696303
 40
0.1351352473
 40
0.1868639094
 40
0.2430748659
 40
0.3037595143
 40
0.3685714362
 40
0.4369076331
 40
0.5079764796
 40
0.5808549689
 40
0.6545390298
 40
0.7279896095
 40
0.8001778801
 40
0.8701300909
 40
0.9369765485
 40
1.0
 40
1.0
 40
1.0
 40
1.0
 10
109.1152030714
 20
86.8101786418
 30
0.0
 10
108.9337293378
 20
86.9149447215
 30
0.0
 10
108.5551024245
 20
87.1026759379
 30
0.0
 10
107.9516900878
 20
87.3125077761
 30
0.0
 10
107.3149087988
 20
87.4504006021
 30
0.0
 10
106.4108991092
 20
87.5388913751
 30
0.0
 10
105.2057097633
 20
87.4568545683
 30
0.0
 10
103.718818582
 20
87.071507314
 30
0.0
 10
102.1935237485
 20
86.4096180755
 30
0.0
 10
100.6601548834
 20
85.4861225522
 30
0.0
 10
99.149065083
 20
84.3205859607
 30
0.0
 10
97.6910398628
 20
82.9372158113
 30
0.0
 10
96.3161242754
 20
81.3647552985
 30
0.0
 10
95.0529009322
 20
79.6359621101
 30
0.0
 10
93.9277400717
 20
77.7869423744
 30
0.0
 10
92.9641606511
 20
75.8563482742
 30
0.0
 10
92.1823174331
 20
73.8845584707
 30
0.0
 10
91.5985107526
 20
71.9125624048
 30
0.0
 10
91.2249954735
 20
69.9817237436
 30
0.0
 10
91.1179996132
 20
68.7066812155
 30
0.0
 10
91.1053432549
 20
68.0875208053
 30
0.0
  0
SPLINE
  5
38D
100
AcDbEntity
  8
0
100
AcDbSpline
 62
7
  6
BYLAYER
 70
0
 71
3
 72
15
 73
11
 74
0
 42
0.0000001
 43
0.0000001
 44
0.0000000001
 40
0.0
 40
0.0
 40
0.0
 40
0.0
 40
0.1076102011
 40
0.2173184252
 40
0.3310284476
 40
0.4503038571
 40
0.5762935619
 40
0.7097334341
 40
0.8509675913
 40
1.0
 40
1.0
 40
1.0
 40
1.0
 10
61.0791775534
 20
72.3826841238
 30
0.0
 10
60.7189715289
 20
72.5906437617
 30
0.0
 10
60.0268308549
 20
73.0752338512
 30
0.0
 10
59.1148632835
 20
73.9806530144
 30
0.0
 10
58.3335974411
 20
75.0568980185
 30
0.0
 10
57.6905786095
 20
76.2914832687
 30
0.0
 10
57.1907479447
 20
77.6713103227
 30
0.0
 10
56.8381964169
 20
79.1825837773
 30
0.0
 10
56.6355992358
 20
80.8103037137
 30
0.0
 10
56.6022965598
 20
81.9334766633
 30
0.0
 10
56.6091197939
 20
82.5094658427
 30
0.0
  0
SPLINE
  5
38E
100
AcDbEntity
  8
0
100
AcDbSpline
 62
7
  6
BYLAYER
 70
0
 71
3
 72
15
 73
11
 74
0
 42
0.0000001
 43
0.0000001
 44
0.0000000001
 40
0.0
 40
0.0
 40
0.0
 40
0.0
 40
0.1121202732
 40
0.2316990746
 40
0.3571593618
 40
0.4865697258
 40
0.6177808754
 40
0.7485470064
 40
0.8766467697
 40
1.0
 40
1.0
 40
1.0
 40
1.0
 10
56.6091197939
 20
82.5094658427
 30
0.0
 10
56.6208009815
 20
83.4955433471
 30
0.0
 10
56.7890772129
 20
85.5330901481
 30
0.0
 10
57.414679278
 20
88.6175651363
 30
0.0
 10
58.4062875901
 20
91.7641834103
 30
0.0
 10
59.7388244373
 20
94.8930667986
 30
0.0
 10
61.3785816803
 20
97.9254060125
 30
0.0
 10
63.2841433743
 20
100.784508519
 30
0.0
 10
65.4069330456
 20
103.3976069252
 30
0.0
 10
66.9691878934
 20
104.9699299472
 30
0.0
 10
67.7759793775
 20
105.695322339
 30
0.0
  0
SPLINE
  5
38F
100
AcDbEntity
  8
0
100
AcDbSpline
 62
7
  6
BYLAYER
 70
0
 71
3
 72
9
 73
5
 74
0
 42
0.0000001
 43
0.0000001
 44
0.0000000001
 40
0.0
 40
0.0
 40
0.0
 40
0.0
 40
0.5135596678
 40
1.0
 40
1.0
 40
1.0
 40
1.0
 10
67.7759793775
 20
105.695322339
 30
0.0
 10
68.3937644526
 20
106.2507776235
 30
0.0
 10
69.6441536656
 20
107.2810778957
 30
0.0
 10
70.9895438555
 20
108.1853339483
 30
0.0
 10
71.6663628914
 20
108.5867520936
 30
0.0
  0
SPLINE
  5
390
100
AcDbEntity
  8
0
100
AcDbSpline
 62
7
  6
BYLAYER
 70
0
 71
3
 72
15
 73
11
 74
0
 42
0.0000001
 43
0.0000001
 44
0.0000000001
 40
0.0
 40
0.0
 40
0.0
 40
0.0
 40
0.1080135653
 40
0.218062278
 40
0.3320002446
 40
0.451362204
 40
0.5772759503
 40
0.7104919649
 40
0.8514277307
 40
1.0
 40
1.0
 40
1.0
 40
1.0
 10
90.5727192942
 20
55.3549537745
 30
0.0
 10
90.9266871272
 20
55.1505958137
 30
0.0
 10
91.6782400265
 20
54.7987181756
 30
0.0
 10
92.8942391757
 20
54.4624392091
 30
0.0
 10
94.1905509165
 20
54.3178297551
 30
0.0
 10
95.5533199341
 20
54.3653334944
 30
0.0
 10
96.9694364349
 20
54.6028167358
 30
0.0
 10
98.4257878988
 20
55.0273863122
 30
0.0
 10
99.9084780966
 20
55.6343252914
 30
0.0
 10
100.8805503222
 20
56.1431522014
 30
0.0
 10
101.3674292721
 20
56.4242502163
 30
0.0
  0
SPLINE
  5
391
100
AcDbEntity
  8
0
100
AcDbSpline
 62
7
  6
BYLAYER
 70
0
 71
3
 72
14
 73
10
 74
0
 42
0.0000001
 43
0.0000001
 44
0.0000000001
 40
0.0
 40
0.0
 40
0.0
 40
0.0
 40
0.2892707544
 40
0.4225372455
 40
0.5484966612
 40
0.6678939361
 40
0.7818682813
 40
0.8919523447
 40
1.0
 40
1.0
 40
1.0
 40
1.0
 10
116.6336499883
 20
82.8664137079
 30
0.0
 10
116.6336420808
 20
83.9606940797
 30
0.0
 10
116.5058392243
 20
85.5669576018
 30
0.0
 10
116.0120606942
 20
87.5859011579
 30
0.0
 10
115.5096166978
 20
88.9312428129
 30
0.0
 10
114.8693204087
 20
90.1351732515
 30
0.0
 10
114.0959069585
 20
91.1855269493
 30
0.0
 10
113.196653017
 20
92.0704871443
 30
0.0
 10
112.5161145528
 20
92.5454097356
 30
0.0
 10
112.1621392501
 20
92.7497720089
 30
0.0
  0
SPLINE
  5
392
100
AcDbEntity
  8
0
100
AcDbSpline
 62
7
  6
BYLAYER
 70
0
 71
3
 72
25
 73
21
 74
0
 42
0.0000001
 43
0.0000001
 44
0.0000000001
 40
0.0
 40
0.0
 40
0.0
 40
0.0
 40
0.0213284373
 40
0.0428940157
 40
0.064911506
 40
0.0875745515
 40
0.1353966096
 40
0.1873482926
 40
0.2438314396
 40
0.3048138325
 40
0.3699222065
 40
0.4385253792
 40
0.5098037153
 40
0.5828076327
 40
0.6565098813
 40
0.7298500435
 40
0.8017872023
 40
0.8713392726
 40
0.9376476403
 40
1.0
 40
1.0
 40
1.0
 40
1.0
 10
91.6146337415
 20
56.6102868445
 30
0.0
 10
91.3701513396
 20
56.7531609892
 30
0.0
 10
90.8963528262
 20
57.0723969723
 30
0.0
 10
90.2465198377
 20
57.6416612984
 30
0.0
 10
89.6590878593
 20
58.2991503714
 30
0.0
 10
88.9512742972
 20
59.3056804313
 30
0.0
 10
88.2435646669
 20
60.782838927
 30
0.0
 10
87.7057050167
 20
62.7962593456
 30
0.0
 10
87.4683640333
 20
65.0408249842
 30
0.0
 10
87.5342976996
 20
67.4699432043
 30
0.0
 10
87.9006897561
 20
70.0337860874
 30
0.0
 10
88.5594186786
 20
72.6788529562
 30
0.0
 10
89.4963924106
 20
75.3494852896
 30
0.0
 10
90.6917004059
 20
77.9891289782
 30
0.0
 10
92.1199383091
 20
80.5416590749
 30
0.0
 10
93.7506811843
 20
82.9528127353
 30
0.0
 10
95.5492830302
 20
85.1711969668
 30
0.0
 10
97.4777073011
 20
87.1500207915
 30
0.0
 10
99.4949194674
 20
88.8468388563
 30
0.0
 10
100.9192107963
 20
89.7985165565
 30
0.0
 10
101.6361309677
 20
90.2124281397
 30
0.0
  0
SPLINE
  5
393
100
AcDbEntity
  8
0
100
AcDbSpline
 62
7
  6
BYLAYER
 70
0
 71
3
 72
9
 73
5
 74
0
 42
0.0000001
 43
0.0000001
 44
0.0000000001
 40
0.0
 40
0.0
 40
0.0
 40
0.0
 40
0.253384194
 40
1.0
 40
1.0
 40
1.0
 40
1.0
 10
67.6583626671
 20
105.7952106005
 30
0.0
 10
67.7221210356
 20
105.8320212921
 30
0.0
 10
67.9748802844
 20
105.9753248075
 30
0.0
 10
68.2321850904
 20
106.1106355687
 30
0.0
 10
68.4267063847
 20
106.2066613412
 30
0.0
  0
SPLINE
  5
394
100
AcDbEntity
  8
0
100
AcDbSpline
 62
7
  6
BYLAYER
 70
0
 71
3
 72
15
 73
11
 74
0
 42
0.0000001
 43
0.0000001
 44
0.0000000001
 40
0.0
 40
0.0
 40
0.0
 40
0.0
 40
0.1141540674
 40
0.2373250784
 40
0.3669745073
 40
0.4999991373
 40
0.633021673
 40
0.7626728484
 40
0.8858413142
 40
1.0
 40
1.0
 40
1.0
 40
1.0
 10
21.2555579203
 20
109.1547927622
 30
0.0
 10
21.2555505695
 20
109.9180462495
 30
0.0
 10
21.3953417229
 20
111.5063253339
 30
0.0
 10
21.9526398418
 20
113.9024263865
 30
0.0
 10
22.8454095706
 20
116.3295058939
 30
0.0
 10
24.040297922
 20
118.6962740455
 30
0.0
 10
25.4925003962
 20
120.9145010291
 30
0.0
 10
27.1480110943
 20
122.9011889365
 30
0.0
 10
28.9444126787
 20
124.5819477544
 30
0.0
 10
30.2500244229
 20
125.4971527648
 30
0.0
 10
30.9110490614
 20
125.8787932397
 30
0.0
  0
SPLINE
  5
395
100
AcDbEntity
  8
0
100
AcDbSpline
 62
7
  6
BYLAYER
 70
0
 71
3
 72
14
 73
10
 74
0
 42
0.0000001
 43
0.0000001
 44
0.0000000001
 40
0.0
 40
0.0
 40
0.0
 40
0.0
 40
0.108047242
 40
0.2181324819
 40
0.3321060483
 40
0.4515032287
 40
0.5774636278
 40
0.710728722
 40
1.0
 40
1.0
 40
1.0
 40
1.0
 10
24.1623878038
 20
102.4196171071
 30
0.0
 10
23.9322780919
 20
102.5524676344
 30
0.0
 10
23.4898208627
 20
102.8611300541
 30
0.0
 10
22.905299677
 20
103.4364918761
 30
0.0
 10
22.4025004556
 20
104.1192768307
 30
0.0
 10
21.9862415703
 20
104.9019187277
 30
0.0
 10
21.6596592846
 20
105.7765059088
 30
0.0
 10
21.3386051547
 20
107.088955527
 30
0.0
 10
21.255553545
 20
108.1331529902
 30
0.0
 10
21.255548402
 20
108.8445191242
 30
0.0
  0
SPLINE
  5
396
100
AcDbEntity
  8
0
100
AcDbSpline
 62
7
  6
BYLAYER
 70
0
 71
3
 72
9
 73
5
 74
0
 42
0.0000001
 43
0.0000001
 44
0.0000000001
 40
0.0
 40
0.0
 40
0.0
 40
0.0
 40
0.5215024781
 40
1.0
 40
1.0
 40
1.0
 40
1.0
 10
66.9512529419
 20
106.2034513551
 30
0.0
 10
67.4754937016
 20
106.5061200921
 30
0.0
 10
68.5192037616
 20
107.0235776717
 30
0.0
 10
69.6330688156
 20
107.3731950959
 30
0.0
 10
70.1766474255
 20
107.4872807122
 30
0.0
  0
SPLINE
  5
397
100
AcDbEntity
  8
0
100
AcDbSpline
 62
7
  6
BYLAYER
 70
0
 71
3
 72
9
 73
5
 74
0
 42
0.0000001
 43
0.0000001
 44
0.0000000001
 40
0.0
 40
0.0
 40
0.0
 40
0.0
 40
0.2750706968
 40
1.0
 40
1.0
 40
1.0
 40
1.0
 10
66.2441432167
 20
106.6116921096
 30
0.0
 10
66.6299865548
 20
106.8344575349
 30
0.0
 10
68.0661852283
 20
107.5769304454
 30
0.0
 10
69.6810339111
 20
108.0339324569
 30
0.0
 10
70.8549231181
 20
108.059618811
 30
0.0
  0
SPLINE
  5
398
100
AcDbEntity
  8
0
100
AcDbSpline
 62
7
  6
BYLAYER
 70
0
 71
3
 72
24
 73
20
 74
0
 42
0.0000001
 43
0.0000001
 44
0.0000000001
 40
0.0
 40
0.0
 40
0.0
 40
0.0
 40
0.0213226813
 40
0.0428664644
 40
0.0873622873
 40
0.1349677483
 40
0.1865990991
 40
0.2426800676
 40
0.3032124077
 40
0.3678639523
 40
0.4360481847
 40
0.5069907355
 40
0.5797853247
 40
0.6534434287
 40
0.7269393937
 40
0.7992566045
 40
0.8694241133
 40
0.9365750064
 40
1.0
 40
1.0
 40
1.0
 40
1.0
 10
33.2755542818
 20
96.0035559668
 30
0.0
 10
33.09384799
 20
96.1084614768
 30
0.0
 10
32.7414156027
 20
96.3426542125
 30
0.0
 10
32.0887641392
 20
96.9049689188
 30
0.0
 10
31.3823785061
 20
97.7860810778
 30
0.0
 10
30.752465275
 20
99.0625865312
 30
0.0
 10
30.3369636922
 20
100.540998866
 30
0.0
 10
30.1410819731
 20
102.19055711
 30
0.0
 10
30.1664807564
 20
103.9785047613
 30
0.0
 10
30.4117451265
 20
105.8690831215
 30
0.0
 10
30.8714843921
 20
107.8240771784
 30
0.0
 10
31.536165373
 20
109.8035663976
 30
0.0
 10
32.3920814013
 20
111.7668691856
 30
0.0
 10
33.4215554968
 20
113.6734881764
 30
0.0
 10
34.6033075371
 20
115.4840793717
 30
0.0
 10
35.9129444664
 20
117.1611912583
 30
0.0
 10
37.323542781
 20
118.6703692487
 30
0.0
 10
38.805989015
 20
119.9804357876
 30
0.0
 10
39.8558323975
 20
120.7268476852
 30
0.0
 10
40.3858547294
 20
121.056360881
 30
0.0
  0
SPLINE
  5
399
100
AcDbEntity
  8
0
100
AcDbSpline
 62
7
  6
BYLAYER
 70
0
 71
3
 72
9
 73
5
 74
0
 42
0.0000001
 43
0.0000001
 44
0.0000000001
 40
0.0
 40
0.0
 40
0.0
 40
0.0
 40
0.2518406603
 40
1.0
 40
1.0
 40
1.0
 40
1.0
 10
40.3858547294
 20
121.056360881
 30
0.0
 10
40.4196911826
 20
121.0773968962
 30
0.0
 10
40.5543800325
 20
121.1603901029
 30
0.0
 10
40.6904023906
 20
121.2412210488
 30
0.0
 10
40.7929074703
 20
121.3004020309
 30
0.0
  0
SPLINE
  5
39A
100
AcDbEntity
  8
0
100
AcDbSpline
 62
7
  6
BYLAYER
 70
0
 71
3
 72
11
 73
7
 74
0
 42
0.0000001
 43
0.0000001
 44
0.0000000001
 40
0.0
 40
0.0
 40
0.0
 40
0.0
 40
0.280518562
 40
0.5396740784
 40
0.7784011353
 40
1.0
 40
1.0
 40
1.0
 40
1.0
 10
65.5370334912
 20
107.0199328641
 30
0.0
 10
66.0242548183
 20
107.3012285493
 30
0.0
 10
66.9951368917
 20
107.7877546193
 30
0.0
 10
68.4819911753
 20
108.2834501094
 30
0.0
 10
69.9154257001
 20
108.5051147024
 30
0.0
 10
70.8460752256
 20
108.4626295281
 30
0.0
 10
71.2846206376
 20
108.3905619439
 30
0.0
  0
SPLINE
  5
39B
100
AcDbEntity
  8
0
100
AcDbSpline
 62
7
  6
BYLAYER
 70
0
 71
3
 72
12
 73
8
 74
0
 42
0.0000001
 43
0.0000001
 44
0.0000000001
 40
0.0
 40
0.0
 40
0.0
 40
0.0
 40
0.2861046313
 40
0.5456282863
 40
0.7811708172
 40
0.8921441515
 40
1.0
 40
1.0
 40
1.0
 40
1.0
 10
64.8299237632
 20
107.4281736184
 30
0.0
 10
65.4155619774
 20
107.7662899807
 30
0.0
 10
66.5812373724
 20
108.333468502
 30
0.0
 10
68.3689181036
 20
108.8372540341
 30
0.0
 10
69.8150804924
 20
108.9169267445
 30
0.0
 10
70.8803621095
 20
108.7592362041
 30
0.0
 10
71.3783561007
 20
108.611649623
 30
0.0
 10
71.6166888304
 20
108.5211752303
 30
0.0
  0
SPLINE
  5
39C
100
AcDbEntity
  8
0
100
AcDbSpline
 62
7
  6
BYLAYER
 70
0
 71
3
 72
23
 73
19
 74
0
 42
0.0000001
 43
0.0000001
 44
0.0000000001
 40
0.0
 40
0.0
 40
0.0
 40
0.0
 40
0.0431204903
 40
0.0887567481
 40
0.1379687905
 40
0.1913526466
 40
0.2490815281
 40
0.3109824813
 40
0.3766124932
 40
0.445325102
 40
0.5163261734
 40
0.5887212376
 40
0.6615575186
 40
0.7338638053
 40
0.8046927064
 40
0.8731500412
 40
0.9384716777
 40
1.0
 40
1.0
 40
1.0
 40
1.0
 10
33.3358293662
 20
96.0393371625
 30
0.0
 10
33.0091203625
 20
96.3030180951
 30
0.0
 10
32.4022165309
 20
96.9313881285
 30
0.0
 10
31.7023276353
 20
98.0887543851
 30
0.0
 10
31.2041199229
 20
99.451578686
 30
0.0
 10
30.9140883064
 20
100.9913720035
 30
0.0
 10
30.8350702849
 20
102.6787339323
 30
0.0
 10
30.9674347701
 20
104.4814351087
 30
0.0
 10
31.3080260055
 20
106.3647823495
 30
0.0
 10
31.8499600406
 20
108.292136391
 30
0.0
 10
32.5825183039
 20
110.2257274617
 30
0.0
 10
33.4912570395
 20
112.1274828347
 30
0.0
 10
34.5582481388
 20
113.9598455831
 30
0.0
 10
35.7624139712
 20
115.6866413782
 30
0.0
 10
37.079972307
 20
117.2736773578
 30
0.0
 10
38.4850463247
 20
118.689983233
 30
0.0
 10
39.9499157081
 20
119.9071856196
 30
0.0
 10
40.9812082691
 20
120.592628591
 30
0.0
 10
41.5000171955
 20
120.8921612764
 30
0.0
  0
SPLINE
  5
39D
100
AcDbEntity
  8
0
100
AcDbSpline
 62
7
  6
BYLAYER
 70
0
 71
3
 72
12
 73
8
 74
0
 42
0.0000001
 43
0.0000001
 44
0.0000000001
 40
0.0
 40
0.0
 40
0.0
 40
0.0
 40
0.2862257947
 40
0.5457463306
 40
0.7812117663
 40
0.8921522403
 40
1.0
 40
1.0
 40
1.0
 40
1.0
 10
64.1228140149
 20
107.8364143712
 30
0.0
 10
64.710780496
 20
108.175874951
 30
0.0
 10
65.8810573251
 20
108.7448960866
 30
0.0
 10
67.6758744998
 20
109.2484687754
 30
0.0
 10
69.1272874156
 20
109.3248731272
 30
0.0
 10
70.1955155918
 20
109.1626904555
 30
0.0
 10
70.6945308834
 20
109.0123354864
 30
0.0
 10
70.9332406842
 20
108.9203668276
 30
0.0
  0
SPLINE
  5
39E
100
AcDbEntity
  8
0
100
AcDbSpline
 62
7
  6
BYLAYER
 70
0
 71
3
 72
12
 73
8
 74
0
 42
0.0000001
 43
0.0000001
 44
0.0000000001
 40
0.0
 40
0.0
 40
0.0
 40
0.0
 40
0.2862257867
 40
0.5457463228
 40
0.7812117636
 40
0.8921522398
 40
1.0
 40
1.0
 40
1.0
 40
1.0
 10
63.415704105
 20
108.2446551124
 30
0.0
 10
64.0036704263
 20
108.5841156
 30
0.0
 10
65.1739469396
 20
109.1531366082
 30
0.0
 10
66.9687636247
 20
109.6567093067
 30
0.0
 10
68.4201761793
 20
109.7331138752
 30
0.0
 10
69.4884041507
 20
109.5709315033
 30
0.0
 10
69.9874193703
 20
109.4205767193
 30
0.0
 10
70.226129144
 20
109.3286081606
 30
0.0
  0
SPLINE
  5
39F
100
AcDbEntity
  8
0
100
AcDbSpline
 62
7
  6
BYLAYER
 70
0
 71
3
 72
9
 73
5
 74
0
 42
0.0000001
 43
0.0000001
 44
0.0000000001
 40
0.0
 40
0.0
 40
0.0
 40
0.0
 40
0.2480045767
 40
1.0
 40
1.0
 40
1.0
 40
1.0
 10
34.0429390914
 20
95.631096408
 30
0.0
 10
33.991250008
 20
95.672813733
 30
0.0
 10
33.7861126286
 20
95.8450619765
 30
0.0
 10
33.5943630312
 20
96.0331799058
 30
0.0
 10
33.4585464247
 20
96.1819053999
 30
0.0
  0
SPLINE
  5
3A0
100
AcDbEntity
  8
0
100
AcDbSpline
 62
7
  6
BYLAYER
 70
0
 71
3
 72
23
 73
19
 74
0
 42
0.0000001
 43
0.0000001
 44
0.0000000001
 40
0.0
 40
0.0
 40
0.0
 40
0.0
 40
0.043956335
 40
0.0909543038
 40
0.1417122097
 40
0.1965552481
 40
0.2554725602
 40
0.3181850752
 40
0.3842057364
 40
0.4528899218
 40
0.5234787081
 40
0.5951384901
 40
0.6669949993
 40
0.738166588
 40
0.8077981567
 40
0.8750862592
 40
0.9393523741
 40
1.0
 40
1.0
 40
1.0
 40
1.0
 10
33.4585464247
 20
96.1819053999
 30
0.0
 10
33.1778568616
 20
96.4892735123
 30
0.0
 10
32.6686288787
 20
97.1933174185
 30
0.0
 10
32.1085540178
 20
98.4205208766
 30
0.0
 10
31.7373889669
 20
99.8233107789
 30
0.0
 10
31.5597556054
 20
101.3756947325
 30
0.0
 10
31.5771064561
 20
103.0504678735
 30
0.0
 10
31.7884794583
 20
104.8179379102
 30
0.0
 10
32.1897711413
 20
106.6465420896
 30
0.0
 10
32.7736473472
 20
108.5033127918
 30
0.0
 10
33.5294335728
 20
110.3546060858
 30
0.0
 10
34.4433665094
 20
112.1667556597
 30
0.0
 10
35.49879281
 20
113.9067530242
 30
0.0
 10
36.6765137771
 20
115.5428950127
 30
0.0
 10
37.9550799066
 20
117.0452802485
 30
0.0
 10
39.3113218906
 20
118.3869212211
 30
0.0
 10
40.7205633488
 20
119.5429488499
 30
0.0
 10
41.7097621672
 20
120.1967685616
 30
0.0
 10
42.2071269206
 20
120.4839205219
 30
0.0
  0
SPLINE
  5
3A1
100
AcDbEntity
  8
0
100
AcDbSpline
 62
7
  6
BYLAYER
 70
0
 71
3
 72
12
 73
8
 74
0
 42
0.0000001
 43
0.0000001
 44
0.0000000001
 40
0.0
 40
0.0
 40
0.0
 40
0.0
 40
0.2862257228
 40
0.5457462607
 40
0.7812117424
 40
0.8921522358
 40
1.0
 40
1.0
 40
1.0
 40
1.0
 10
62.7085929015
 20
108.6528957602
 30
0.0
 10
63.2965579447
 20
108.9923555099
 30
0.0
 10
64.4668319316
 20
109.5613754994
 30
0.0
 10
66.2616446997
 20
110.0649482761
 30
0.0
 10
67.7130543643
 20
110.1413545773
 30
0.0
 10
68.7812806979
 20
109.979174604
 30
0.0
 10
69.2802953415
 20
109.8288213015
 30
0.0
 10
69.5190048991
 20
109.7368535431
 30
0.0
  0
SPLINE
  5
3A2
100
AcDbEntity
  8
0
100
AcDbSpline
 62
7
  6
BYLAYER
 70
0
 71
3
 72
12
 73
8
 74
0
 42
0.0000001
 43
0.0000001
 44
0.0000000001
 40
0.0
 40
0.0
 40
0.0
 40
0.0
 40
0.2862214014
 40
0.5457420632
 40
0.781210305
 40
0.8921519648
 40
1.0
 40
1.0
 40
1.0
 40
1.0
 10
62.0014713497
 20
109.0611356609
 30
0.0
 10
62.5893527483
 20
109.4005471186
 30
0.0
 10
63.7594614226
 20
109.9695008982
 30
0.0
 10
65.5540178033
 20
110.4730812946
 30
0.0
 10
67.0052388868
 20
110.5496050449
 30
0.0
 10
68.0733594812
 20
110.3875864188
 30
0.0
 10
68.5723375119
 20
110.2373325382
 30
0.0
 10
68.8110335644
 20
110.145418435
 30
0.0
  0
SPLINE
  5
3A3
100
AcDbEntity
  8
0
100
AcDbSpline
 62
7
  6
BYLAYER
 70
0
 71
3
 72
9
 73
5
 74
0
 42
0.0000001
 43
0.0000001
 44
0.0000000001
 40
0.0
 40
0.0
 40
0.0
 40
0.0
 40
0.2480045767
 40
1.0
 40
1.0
 40
1.0
 40
1.0
 10
34.7500488165
 20
95.2228556534
 30
0.0
 10
34.6983597332
 20
95.2645729785
 30
0.0
 10
34.4932223538
 20
95.436821222
 30
0.0
 10
34.3014727563
 20
95.6249391513
 30
0.0
 10
34.1656561499
 20
95.7736646454
 30
0.0
  0
SPLINE
  5
3A4
100
AcDbEntity
  8
0
100
AcDbSpline
 62
7
  6
BYLAYER
 70
0
 71
3
 72
23
 73
19
 74
0
 42
0.0000001
 43
0.0000001
 44
0.0000000001
 40
0.0
 40
0.0
 40
0.0
 40
0.0
 40
0.043956335
 40
0.0909543038
 40
0.1417122097
 40
0.1965552481
 40
0.2554725602
 40
0.3181850752
 40
0.3842057364
 40
0.4528899218
 40
0.5234787081
 40
0.5951384901
 40
0.6669949993
 40
0.738166588
 40
0.8077981567
 40
0.8750862592
 40
0.9393523741
 40
1.0
 40
1.0
 40
1.0
 40
1.0
 10
34.1656561499
 20
95.7736646454
 30
0.0
 10
33.8849665868
 20
96.0810327578
 30
0.0
 10
33.3757386039
 20
96.7850766639
 30
0.0
 10
32.8156637429
 20
98.012280122
 30
0.0
 10
32.444498692
 20
99.4150700244
 30
0.0
 10
32.2668653305
 20
100.967453978
 30
0.0
 10
32.2842161813
 20
102.642227119
 30
0.0
 10
32.4955891835
 20
104.4096971556
 30
0.0
 10
32.8968808665
 20
106.2383013351
 30
0.0
 10
33.4807570723
 20
108.0950720373
 30
0.0
 10
34.236543298
 20
109.9463653313
 30
0.0
 10
35.1504762346
 20
111.7585149052
 30
0.0
 10
36.2059025352
 20
113.4985122696
 30
0.0
 10
37.3836235023
 20
115.1346542582
 30
0.0
 10
38.6621896317
 20
116.637039494
 30
0.0
 10
40.0184316157
 20
117.9786804666
 30
0.0
 10
41.427673074
 20
119.1347080954
 30
0.0
 10
42.4168718923
 20
119.7885278071
 30
0.0
 10
42.9142366458
 20
120.0756797673
 30
0.0
  0
SPLINE
  5
3A5
100
AcDbEntity
  8
0
100
AcDbSpline
 62
7
  6
BYLAYER
 70
0
 71
3
 72
12
 73
8
 74
0
 42
0.0000001
 43
0.0000001
 44
0.0000000001
 40
0.0
 40
0.0
 40
0.0
 40
0.0
 40
0.2860989093
 40
0.5456226936
 40
0.7811688503
 40
0.8921437446
 40
1.0
 40
1.0
 40
1.0
 40
1.0
 10
61.2942670137
 20
109.469361771
 30
0.0
 10
61.879791891
 20
109.8074126986
 30
0.0
 10
63.0452432387
 20
110.3745007904
 30
0.0
 10
64.8325766393
 20
110.8782926814
 30
0.0
 10
66.2784824623
 20
110.9581179097
 30
0.0
 10
67.3436181271
 20
110.8006390424
 30
0.0
 10
67.8415605439
 20
110.6531832935
 30
0.0
 10
68.079873819
 20
110.5627796094
 30
0.0
  0
SPLINE
  5
3A6
100
AcDbEntity
  8
0
100
AcDbSpline
 62
7
  6
BYLAYER
 70
0
 71
3
 72
9
 73
5
 74
0
 42
0.0000001
 43
0.0000001
 44
0.0000000001
 40
0.0
 40
0.0
 40
0.0
 40
0.0
 40
0.2504602894
 40
1.0
 40
1.0
 40
1.0
 40
1.0
 10
53.6271194133
 20
84.2810215023
 30
0.0
 10
53.5844683957
 20
84.2999597723
 30
0.0
 10
53.4152297657
 20
84.3779205065
 30
0.0
 10
53.2503181858
 20
84.4652765773
 30
0.0
 10
53.1297456248
 20
84.5357480448
 30
0.0
  0
SPLINE
  5
3A7
100
AcDbEntity
  8
0
100
AcDbSpline
 62
7
  6
BYLAYER
 70
0
 71
3
 72
12
 73
8
 74
0
 42
0.0000001
 43
0.0000001
 44
0.0000000001
 40
0.0
 40
0.0
 40
0.0
 40
0.0
 40
0.2862539873
 40
0.5457736918
 40
0.7812211005
 40
0.892153976
 40
1.0
 40
1.0
 40
1.0
 40
1.0
 10
60.5841833766
 20
109.8774835644
 30
0.0
 10
61.1726018784
 20
110.2172051169
 30
0.0
 10
62.3437707457
 20
110.78656739
 30
0.0
 10
64.1399746616
 20
111.2900092122
 30
0.0
 10
65.59238633
 20
111.3656335165
 30
0.0
 10
66.6611333701
 20
111.202422421
 30
0.0
 10
67.160307454
 20
111.0514418822
 30
0.0
 10
67.3990670023
 20
110.9591373803
 30
0.0
  0
SPLINE
  5
3A8
100
AcDbEntity
  8
0
100
AcDbSpline
 62
7
  6
BYLAYER
 70
0
 71
3
 72
9
 73
5
 74
0
 42
0.0000001
 43
0.0000001
 44
0.0000000001
 40
0.0
 40
0.0
 40
0.0
 40
0.0
 40
0.2480045767
 40
1.0
 40
1.0
 40
1.0
 40
1.0
 10
35.4571585416
 20
94.8146148989
 30
0.0
 10
35.4054694583
 20
94.8563322239
 30
0.0
 10
35.2003320789
 20
95.0285804675
 30
0.0
 10
35.0085824815
 20
95.2166983968
 30
0.0
 10
34.872765875
 20
95.3654238908
 30
0.0
  0
SPLINE
  5
3A9
100
AcDbEntity
  8
0
100
AcDbSpline
 62
7
  6
BYLAYER
 70
0
 71
3
 72
23
 73
19
 74
0
 42
0.0000001
 43
0.0000001
 44
0.0000000001
 40
0.0
 40
0.0
 40
0.0
 40
0.0
 40
0.043956335
 40
0.0909543038
 40
0.1417122097
 40
0.1965552481
 40
0.2554725602
 40
0.3181850752
 40
0.3842057364
 40
0.4528899218
 40
0.5234787081
 40
0.5951384901
 40
0.6669949993
 40
0.738166588
 40
0.8077981567
 40
0.8750862592
 40
0.9393523741
 40
1.0
 40
1.0
 40
1.0
 40
1.0
 10
34.872765875
 20
95.3654238908
 30
0.0
 10
34.5920763119
 20
95.6727920033
 30
0.0
 10
34.082848329
 20
96.3768359094
 30
0.0
 10
33.5227734681
 20
97.6040393675
 30
0.0
 10
33.1516084172
 20
99.0068292698
 30
0.0
 10
32.9739750557
 20
100.5592132234
 30
0.0
 10
32.9913259064
 20
102.2339863645
 30
0.0
 10
33.2026989086
 20
104.0014564011
 30
0.0
 10
33.6039905916
 20
105.8300605806
 30
0.0
 10
34.1878667975
 20
107.6868312828
 30
0.0
 10
34.9436530231
 20
109.5381245768
 30
0.0
 10
35.8575859597
 20
111.3502741507
 30
0.0
 10
36.9130122603
 20
113.0902715151
 30
0.0
 10
38.0907332274
 20
114.7264135037
 30
0.0
 10
39.3692993569
 20
116.2287987395
 30
0.0
 10
40.7255413409
 20
117.5704397121
 30
0.0
 10
42.1347827991
 20
118.7264673409
 30
0.0
 10
43.1239816174
 20
119.3802870526
 30
0.0
 10
43.6213463709
 20
119.6674390128
 30
0.0
  0
SPLINE
  5
3AA
100
AcDbEntity
  8
0
100
AcDbSpline
 62
7
  6
BYLAYER
 70
0
 71
3
 72
12
 73
8
 74
0
 42
0.0000001
 43
0.0000001
 44
0.0000000001
 40
0.0
 40
0.0
 40
0.0
 40
0.0
 40
0.2862243899
 40
0.5457449661
 40
0.7812112992
 40
0.8921521523
 40
1.0
 40
1.0
 40
1.0
 40
1.0
 10
59.8848700493
 20
110.2779016588
 30
0.0
 10
60.4725588215
 20
110.6172019043
 30
0.0
 10
61.6422832852
 20
111.1859590697
 30
0.0
 10
63.4362523872
 20
111.6893196705
 30
0.0
 10
64.8869855879
 20
111.7657296406
 30
0.0
 10
65.9547242433
 20
111.6036685122
 30
0.0
 10
66.4535150133
 20
111.4534099202
 30
0.0
 10
66.6921187147
 20
111.3614978864
 30
0.0
  0
SPLINE
  5
3AB
100
AcDbEntity
  8
0
100
AcDbSpline
 62
7
  6
BYLAYER
 70
0
 71
3
 72
12
 73
8
 74
0
 42
0.0000001
 43
0.0000001
 44
0.0000000001
 40
0.0
 40
0.0
 40
0.0
 40
0.0
 40
0.2862243899
 40
0.5457449661
 40
0.7812112992
 40
0.8921521523
 40
1.0
 40
1.0
 40
1.0
 40
1.0
 10
59.1777603242
 20
110.6861424134
 30
0.0
 10
59.7654490963
 20
111.0254426588
 30
0.0
 10
60.9351735601
 20
111.5941998243
 30
0.0
 10
62.729142662
 20
112.097560425
 30
0.0
 10
64.1798758627
 20
112.1739703951
 30
0.0
 10
65.2476145182
 20
112.0119092668
 30
0.0
 10
65.7464052882
 20
111.8616506747
 30
0.0
 10
65.9850089895
 20
111.7697386409
 30
0.0
  0
SPLINE
  5
3AC
100
AcDbEntity
  8
0
100
AcDbSpline
 62
7
  6
BYLAYER
 70
0
 71
3
 72
9
 73
5
 74
0
 42
0.0000001
 43
0.0000001
 44
0.0000000001
 40
0.0
 40
0.0
 40
0.0
 40
0.0
 40
0.2480045767
 40
1.0
 40
1.0
 40
1.0
 40
1.0
 10
36.1642682668
 20
94.4063741444
 30
0.0
 10
36.1125791835
 20
94.4480914694
 30
0.0
 10
35.9074418041
 20
94.620339713
 30
0.0
 10
35.7156922066
 20
94.8084576423
 30
0.0
 10
35.5798756002
 20
94.9571831363
 30
0.0
  0
SPLINE
  5
3AD
100
AcDbEntity
  8
0
100
AcDbSpline
 62
7
  6
BYLAYER
 70
0
 71
3
 72
23
 73
19
 74
0
 42
0.0000001
 43
0.0000001
 44
0.0000000001
 40
0.0
 40
0.0
 40
0.0
 40
0.0
 40
0.043956335
 40
0.0909543038
 40
0.1417122097
 40
0.1965552481
 40
0.2554725602
 40
0.3181850752
 40
0.3842057364
 40
0.4528899218
 40
0.5234787081
 40
0.5951384901
 40
0.6669949993
 40
0.738166588
 40
0.8077981567
 40
0.8750862592
 40
0.9393523741
 40
1.0
 40
1.0
 40
1.0
 40
1.0
 10
35.5798756002
 20
94.9571831363
 30
0.0
 10
35.2991860371
 20
95.2645512487
 30
0.0
 10
34.7899580542
 20
95.9685951549
 30
0.0
 10
34.2298831932
 20
97.195798613
 30
0.0
 10
33.8587181423
 20
98.5985885153
 30
0.0
 10
33.6810847808
 20
100.1509724689
 30
0.0
 10
33.6984356316
 20
101.82574561
 30
0.0
 10
33.9098086338
 20
103.5932156466
 30
0.0
 10
34.3111003168
 20
105.421819826
 30
0.0
 10
34.8949765226
 20
107.2785905283
 30
0.0
 10
35.6507627483
 20
109.1298838223
 30
0.0
 10
36.5646956849
 20
110.9420333961
 30
0.0
 10
37.6201219855
 20
112.6820307606
 30
0.0
 10
38.7978429526
 20
114.3181727492
 30
0.0
 10
40.076409082
 20
115.820557985
 30
0.0
 10
41.432651066
 20
117.1621989576
 30
0.0
 10
42.8418925243
 20
118.3182265864
 30
0.0
 10
43.8310913426
 20
118.972046298
 30
0.0
 10
44.3284560961
 20
119.2591982583
 30
0.0
  0
SPLINE
  5
3AE
100
AcDbEntity
  8
0
100
AcDbSpline
 62
7
  6
BYLAYER
 70
0
 71
3
 72
12
 73
8
 74
0
 42
0.0000001
 43
0.0000001
 44
0.0000000001
 40
0.0
 40
0.0
 40
0.0
 40
0.0
 40
0.2862243899
 40
0.5457449661
 40
0.7812112992
 40
0.8921521523
 40
1.0
 40
1.0
 40
1.0
 40
1.0
 10
58.470650599
 20
111.0943831679
 30
0.0
 10
59.0583393712
 20
111.4336834133
 30
0.0
 10
60.2280638349
 20
112.0024405788
 30
0.0
 10
62.0220329369
 20
112.5058011795
 30
0.0
 10
63.4727661376
 20
112.5822111496
 30
0.0
 10
64.540504793
 20
112.4201500213
 30
0.0
 10
65.039295563
 20
112.2698914293
 30
0.0
 10
65.2778992644
 20
112.1779793954
 30
0.0
  0
SPLINE
  5
3AF
100
AcDbEntity
  8
0
100
AcDbSpline
 62
7
  6
BYLAYER
 70
0
 71
3
 72
12
 73
8
 74
0
 42
0.0000001
 43
0.0000001
 44
0.0000000001
 40
0.0
 40
0.0
 40
0.0
 40
0.0
 40
0.2862243899
 40
0.5457449661
 40
0.7812112992
 40
0.8921521523
 40
1.0
 40
1.0
 40
1.0
 40
1.0
 10
57.7635408739
 20
111.5026239224
 30
0.0
 10
58.351229646
 20
111.8419241679
 30
0.0
 10
59.5209541098
 20
112.4106813333
 30
0.0
 10
61.3149232117
 20
112.914041934
 30
0.0
 10
62.7656564124
 20
112.9904519042
 30
0.0
 10
63.8333950679
 20
112.8283907758
 30
0.0
 10
64.3321858379
 20
112.6781321838
 30
0.0
 10
64.5707895392
 20
112.5862201499
 30
0.0
  0
SPLINE
  5
3B0
100
AcDbEntity
  8
0
100
AcDbSpline
 62
7
  6
BYLAYER
 70
0
 71
3
 72
9
 73
5
 74
0
 42
0.0000001
 43
0.0000001
 44
0.0000000001
 40
0.0
 40
0.0
 40
0.0
 40
0.0
 40
0.2480045767
 40
1.0
 40
1.0
 40
1.0
 40
1.0
 10
36.8713779919
 20
93.9981333899
 30
0.0
 10
36.8196889086
 20
94.0398507149
 30
0.0
 10
36.6145515292
 20
94.2120989585
 30
0.0
 10
36.4228019317
 20
94.4002168878
 30
0.0
 10
36.2869853253
 20
94.5489423818
 30
0.0
  0
SPLINE
  5
3B1
100
AcDbEntity
  8
0
100
AcDbSpline
 62
7
  6
BYLAYER
 70
0
 71
3
 72
23
 73
19
 74
0
 42
0.0000001
 43
0.0000001
 44
0.0000000001
 40
0.0
 40
0.0
 40
0.0
 40
0.0
 40
0.043956335
 40
0.0909543038
 40
0.1417122097
 40
0.1965552481
 40
0.2554725602
 40
0.3181850752
 40
0.3842057364
 40
0.4528899218
 40
0.5234787081
 40
0.5951384901
 40
0.6669949993
 40
0.738166588
 40
0.8077981567
 40
0.8750862592
 40
0.9393523741
 40
1.0
 40
1.0
 40
1.0
 40
1.0
 10
36.2869853253
 20
94.5489423818
 30
0.0
 10
36.0062957622
 20
94.8563104942
 30
0.0
 10
35.4970677793
 20
95.5603544004
 30
0.0
 10
34.9369929184
 20
96.7875578585
 30
0.0
 10
34.5658278675
 20
98.1903477608
 30
0.0
 10
34.388194506
 20
99.7427317144
 30
0.0
 10
34.4055453567
 20
101.4175048555
 30
0.0
 10
34.6169183589
 20
103.1849748921
 30
0.0
 10
35.0182100419
 20
105.0135790715
 30
0.0
 10
35.6020862477
 20
106.8703497738
 30
0.0
 10
36.3578724734
 20
108.7216430677
 30
0.0
 10
37.27180541
 20
110.5337926416
 30
0.0
 10
38.3272317106
 20
112.2737900061
 30
0.0
 10
39.5049526777
 20
113.9099319946
 30
0.0
 10
40.7835188072
 20
115.4123172304
 30
0.0
 10
42.1397607912
 20
116.7539582031
 30
0.0
 10
43.5490022494
 20
117.9099858318
 30
0.0
 10
44.5382010677
 20
118.5638055435
 30
0.0
 10
45.0355658212
 20
118.8509575038
 30
0.0
  0
SPLINE
  5
3B2
100
AcDbEntity
  8
0
100
AcDbSpline
 62
7
  6
BYLAYER
 70
0
 71
3
 72
12
 73
8
 74
0
 42
0.0000001
 43
0.0000001
 44
0.0000000001
 40
0.0
 40
0.0
 40
0.0
 40
0.0
 40
0.2862243899
 40
0.5457449661
 40
0.7812112992
 40
0.8921521523
 40
1.0
 40
1.0
 40
1.0
 40
1.0
 10
57.0564311487
 20
111.9108646769
 30
0.0
 10
57.6441199209
 20
112.2501649224
 30
0.0
 10
58.8138443846
 20
112.8189220878
 30
0.0
 10
60.6078134866
 20
113.3222826886
 30
0.0
 10
62.0585466873
 20
113.3986926587
 30
0.0
 10
63.1262853427
 20
113.2366315303
 30
0.0
 10
63.6250761127
 20
113.0863729383
 30
0.0
 10
63.8636798141
 20
112.9944609044
 30
0.0
  0
SPLINE
  5
3B3
100
AcDbEntity
  8
0
100
AcDbSpline
 62
7
  6
BYLAYER
 70
0
 71
3
 72
12
 73
8
 74
0
 42
0.0000001
 43
0.0000001
 44
0.0000000001
 40
0.0
 40
0.0
 40
0.0
 40
0.0
 40
0.2862243899
 40
0.5457449661
 40
0.7812112992
 40
0.8921521523
 40
1.0
 40
1.0
 40
1.0
 40
1.0
 10
56.3493214236
 20
112.3191054314
 30
0.0
 10
56.9370101957
 20
112.6584056769
 30
0.0
 10
58.1067346595
 20
113.2271628423
 30
0.0
 10
59.9007037614
 20
113.7305234431
 30
0.0
 10
61.3514369622
 20
113.8069334132
 30
0.0
 10
62.4191756176
 20
113.6448722848
 30
0.0
 10
62.9179663876
 20
113.4946136928
 30
0.0
 10
63.1565700889
 20
113.402701659
 30
0.0
  0
SPLINE
  5
3B4
100
AcDbEntity
  8
0
100
AcDbSpline
 62
7
  6
BYLAYER
 70
0
 71
3
 72
9
 73
5
 74
0
 42
0.0000001
 43
0.0000001
 44
0.0000000001
 40
0.0
 40
0.0
 40
0.0
 40
0.0
 40
0.2480045767
 40
1.0
 40
1.0
 40
1.0
 40
1.0
 10
37.5784877171
 20
93.5898926354
 30
0.0
 10
37.5267986338
 20
93.6316099604
 30
0.0
 10
37.3216612544
 20
93.8038582039
 30
0.0
 10
37.1299116569
 20
93.9919761332
 30
0.0
 10
36.9940950505
 20
94.1407016273
 30
0.0
  0
SPLINE
  5
3B5
100
AcDbEntity
  8
0
100
AcDbSpline
 62
7
  6
BYLAYER
 70
0
 71
3
 72
23
 73
19
 74
0
 42
0.0000001
 43
0.0000001
 44
0.0000000001
 40
0.0
 40
0.0
 40
0.0
 40
0.0
 40
0.043956335
 40
0.0909543038
 40
0.1417122097
 40
0.1965552481
 40
0.2554725602
 40
0.3181850752
 40
0.3842057364
 40
0.4528899218
 40
0.5234787081
 40
0.5951384901
 40
0.6669949993
 40
0.738166588
 40
0.8077981567
 40
0.8750862592
 40
0.9393523741
 40
1.0
 40
1.0
 40
1.0
 40
1.0
 10
36.9940950505
 20
94.1407016273
 30
0.0
 10
36.7134054873
 20
94.4480697397
 30
0.0
 10
36.2041775045
 20
95.1521136459
 30
0.0
 10
35.6441026435
 20
96.379317104
 30
0.0
 10
35.2729375926
 20
97.7821070063
 30
0.0
 10
35.0953042311
 20
99.3344909599
 30
0.0
 10
35.1126550819
 20
101.0092641009
 30
0.0
 10
35.3240280841
 20
102.7767341376
 30
0.0
 10
35.7253197671
 20
104.605338317
 30
0.0
 10
36.3091959729
 20
106.4621090192
 30
0.0
 10
37.0649821986
 20
108.3134023132
 30
0.0
 10
37.9789151352
 20
110.1255518871
 30
0.0
 10
39.0343414358
 20
111.8655492516
 30
0.0
 10
40.2120624029
 20
113.5016912401
 30
0.0
 10
41.4906285323
 20
115.0040764759
 30
0.0
 10
42.8468705163
 20
116.3457174485
 30
0.0
 10
44.2561119745
 20
117.5017450773
 30
0.0
 10
45.2453107929
 20
118.155564789
 30
0.0
 10
45.7426755464
 20
118.4427167493
 30
0.0
  0
SPLINE
  5
3B6
100
AcDbEntity
  8
0
100
AcDbSpline
 62
7
  6
BYLAYER
 70
0
 71
3
 72
12
 73
8
 74
0
 42
0.0000001
 43
0.0000001
 44
0.0000000001
 40
0.0
 40
0.0
 40
0.0
 40
0.0
 40
0.2862243899
 40
0.5457449661
 40
0.7812112992
 40
0.8921521523
 40
1.0
 40
1.0
 40
1.0
 40
1.0
 10
55.6422116984
 20
112.727346186
 30
0.0
 10
56.2299004706
 20
113.0666464314
 30
0.0
 10
57.3996249343
 20
113.6354035969
 30
0.0
 10
59.1935940363
 20
114.1387641976
 30
0.0
 10
60.644327237
 20
114.2151741677
 30
0.0
 10
61.7120658924
 20
114.0531130394
 30
0.0
 10
62.2108566624
 20
113.9028544473
 30
0.0
 10
62.4494603638
 20
113.8109424135
 30
0.0
  0
SPLINE
  5
3B7
100
AcDbEntity
  8
0
100
AcDbSpline
 62
7
  6
BYLAYER
 70
0
 71
3
 72
12
 73
8
 74
0
 42
0.0000001
 43
0.0000001
 44
0.0000000001
 40
0.0
 40
0.0
 40
0.0
 40
0.0
 40
0.2862243899
 40
0.5457449661
 40
0.7812112992
 40
0.8921521523
 40
1.0
 40
1.0
 40
1.0
 40
1.0
 10
54.9351019733
 20
113.1355869405
 30
0.0
 10
55.5227907454
 20
113.4748871859
 30
0.0
 10
56.6925152092
 20
114.0436443514
 30
0.0
 10
58.4864843112
 20
114.5470049521
 30
0.0
 10
59.9372175119
 20
114.6234149222
 30
0.0
 10
61.0049561673
 20
114.4613537939
 30
0.0
 10
61.5037469373
 20
114.3110952019
 30
0.0
 10
61.7423506386
 20
114.219183168
 30
0.0
  0
SPLINE
  5
3B8
100
AcDbEntity
  8
0
100
AcDbSpline
 62
7
  6
BYLAYER
 70
0
 71
3
 72
9
 73
5
 74
0
 42
0.0000001
 43
0.0000001
 44
0.0000000001
 40
0.0
 40
0.0
 40
0.0
 40
0.0
 40
0.2480045767
 40
1.0
 40
1.0
 40
1.0
 40
1.0
 10
38.2855974422
 20
93.1816518808
 30
0.0
 10
38.2339083589
 20
93.2233692059
 30
0.0
 10
38.0287709795
 20
93.3956174494
 30
0.0
 10
37.837021382
 20
93.5837353787
 30
0.0
 10
37.7012047756
 20
93.7324608728
 30
0.0
  0
SPLINE
  5
3B9
100
AcDbEntity
  8
0
100
AcDbSpline
 62
7
  6
BYLAYER
 70
0
 71
3
 72
23
 73
19
 74
0
 42
0.0000001
 43
0.0000001
 44
0.0000000001
 40
0.0
 40
0.0
 40
0.0
 40
0.0
 40
0.043956335
 40
0.0909543038
 40
0.1417122097
 40
0.1965552481
 40
0.2554725602
 40
0.3181850752
 40
0.3842057364
 40
0.4528899218
 40
0.5234787081
 40
0.5951384901
 40
0.6669949993
 40
0.738166588
 40
0.8077981567
 40
0.8750862592
 40
0.9393523741
 40
1.0
 40
1.0
 40
1.0
 40
1.0
 10
37.7012047756
 20
93.7324608728
 30
0.0
 10
37.4205152125
 20
94.0398289852
 30
0.0
 10
36.9112872296
 20
94.7438728913
 30
0.0
 10
36.3512123687
 20
95.9710763494
 30
0.0
 10
35.9800473178
 20
97.3738662518
 30
0.0
 10
35.8024139563
 20
98.9262502054
 30
0.0
 10
35.819764807
 20
100.6010233464
 30
0.0
 10
36.0311378092
 20
102.368493383
 30
0.0
 10
36.4324294922
 20
104.1970975625
 30
0.0
 10
37.016305698
 20
106.0538682647
 30
0.0
 10
37.7720919237
 20
107.9051615587
 30
0.0
 10
38.6860248603
 20
109.7173111326
 30
0.0
 10
39.7414511609
 20
111.457308497
 30
0.0
 10
40.919172128
 20
113.0934504856
 30
0.0
 10
42.1977382575
 20
114.5958357214
 30
0.0
 10
43.5539802415
 20
115.937476694
 30
0.0
 10
44.9632216997
 20
117.0935043228
 30
0.0
 10
45.952420518
 20
117.7473240345
 30
0.0
 10
46.4497852715
 20
118.0344759947
 30
0.0
  0
SPLINE
  5
3BA
100
AcDbEntity
  8
0
100
AcDbSpline
 62
7
  6
BYLAYER
 70
0
 71
3
 72
12
 73
8
 74
0
 42
0.0000001
 43
0.0000001
 44
0.0000000001
 40
0.0
 40
0.0
 40
0.0
 40
0.0
 40
0.2862243899
 40
0.5457449661
 40
0.7812112992
 40
0.8921521523
 40
1.0
 40
1.0
 40
1.0
 40
1.0
 10
54.2279922481
 20
113.543827695
 30
0.0
 10
54.8156810203
 20
113.8831279405
 30
0.0
 10
55.9854054841
 20
114.4518851059
 30
0.0
 10
57.779374586
 20
114.9552457066
 30
0.0
 10
59.2301077867
 20
115.0316556768
 30
0.0
 10
60.2978464421
 20
114.8695945484
 30
0.0
 10
60.7966372122
 20
114.7193359564
 30
0.0
 10
61.0352409135
 20
114.6274239225
 30
0.0
  0
SPLINE
  5
3BB
100
AcDbEntity
  8
0
100
AcDbSpline
 62
7
  6
BYLAYER
 70
0
 71
3
 72
12
 73
8
 74
0
 42
0.0000001
 43
0.0000001
 44
0.0000000001
 40
0.0
 40
0.0
 40
0.0
 40
0.0
 40
0.2862243899
 40
0.5457449661
 40
0.7812112992
 40
0.8921521523
 40
1.0
 40
1.0
 40
1.0
 40
1.0
 10
53.520882523
 20
113.9520684495
 30
0.0
 10
54.1085712952
 20
114.291368695
 30
0.0
 10
55.2782957589
 20
114.8601258604
 30
0.0
 10
57.0722648609
 20
115.3634864612
 30
0.0
 10
58.5229980616
 20
115.4398964313
 30
0.0
 10
59.590736717
 20
115.2778353029
 30
0.0
 10
60.089527487
 20
115.1275767109
 30
0.0
 10
60.3281311883
 20
115.035664677
 30
0.0
  0
SPLINE
  5
3BC
100
AcDbEntity
  8
0
100
AcDbSpline
 62
7
  6
BYLAYER
 70
0
 71
3
 72
9
 73
5
 74
0
 42
0.0000001
 43
0.0000001
 44
0.0000000001
 40
0.0
 40
0.0
 40
0.0
 40
0.0
 40
0.2480045767
 40
1.0
 40
1.0
 40
1.0
 40
1.0
 10
38.9927071674
 20
92.7734111263
 30
0.0
 10
38.9410180841
 20
92.8151284513
 30
0.0
 10
38.7358807047
 20
92.9873766949
 30
0.0
 10
38.5441311072
 20
93.1754946242
 30
0.0
 10
38.4083145008
 20
93.3242201182
 30
0.0
  0
SPLINE
  5
3BD
100
AcDbEntity
  8
0
100
AcDbSpline
 62
7
  6
BYLAYER
 70
0
 71
3
 72
23
 73
19
 74
0
 42
0.0000001
 43
0.0000001
 44
0.0000000001
 40
0.0
 40
0.0
 40
0.0
 40
0.0
 40
0.043956335
 40
0.0909543038
 40
0.1417122097
 40
0.1965552481
 40
0.2554725602
 40
0.3181850752
 40
0.3842057364
 40
0.4528899218
 40
0.5234787081
 40
0.5951384901
 40
0.6669949993
 40
0.738166588
 40
0.8077981567
 40
0.8750862592
 40
0.9393523741
 40
1.0
 40
1.0
 40
1.0
 40
1.0
 10
38.4083145008
 20
93.3242201182
 30
0.0
 10
38.1276249376
 20
93.6315882307
 30
0.0
 10
37.6183969548
 20
94.3356321368
 30
0.0
 10
37.0583220938
 20
95.5628355949
 30
0.0
 10
36.6871570429
 20
96.9656254972
 30
0.0
 10
36.5095236814
 20
98.5180094508
 30
0.0
 10
36.5268745321
 20
100.1927825919
 30
0.0
 10
36.7382475344
 20
101.9602526285
 30
0.0
 10
37.1395392174
 20
103.788856808
 30
0.0
 10
37.7234154232
 20
105.6456275102
 30
0.0
 10
38.4792016489
 20
107.4969208042
 30
0.0
 10
39.3931345855
 20
109.3090703781
 30
0.0
 10
40.4485608861
 20
111.0490677425
 30
0.0
 10
41.6262818531
 20
112.6852097311
 30
0.0
 10
42.9048479826
 20
114.1875949669
 30
0.0
 10
44.2610899666
 20
115.5292359395
 30
0.0
 10
45.6703314248
 20
116.6852635683
 30
0.0
 10
46.6595302432
 20
117.33908328
 30
0.0
 10
47.1568949967
 20
117.6262352402
 30
0.0
  0
SPLINE
  5
3BE
100
AcDbEntity
  8
0
100
AcDbSpline
 62
7
  6
BYLAYER
 70
0
 71
3
 72
12
 73
8
 74
0
 42
0.0000001
 43
0.0000001
 44
0.0000000001
 40
0.0
 40
0.0
 40
0.0
 40
0.0
 40
0.2862243899
 40
0.5457449661
 40
0.7812112992
 40
0.8921521523
 40
1.0
 40
1.0
 40
1.0
 40
1.0
 10
52.8137727978
 20
114.360309204
 30
0.0
 10
53.40146157
 20
114.6996094495
 30
0.0
 10
54.5711860338
 20
115.2683666149
 30
0.0
 10
56.3651551357
 20
115.7717272157
 30
0.0
 10
57.8158883364
 20
115.8481371858
 30
0.0
 10
58.8836269918
 20
115.6860760574
 30
0.0
 10
59.3824177619
 20
115.5358174654
 30
0.0
 10
59.6210214632
 20
115.4439054316
 30
0.0
  0
SPLINE
  5
3BF
100
AcDbEntity
  8
0
100
AcDbSpline
 62
7
  6
BYLAYER
 70
0
 71
3
 72
12
 73
8
 74
0
 42
0.0000001
 43
0.0000001
 44
0.0000000001
 40
0.0
 40
0.0
 40
0.0
 40
0.0
 40
0.2862243899
 40
0.5457449661
 40
0.7812112992
 40
0.8921521523
 40
1.0
 40
1.0
 40
1.0
 40
1.0
 10
52.1066630727
 20
114.7685499586
 30
0.0
 10
52.6943518449
 20
115.107850204
 30
0.0
 10
53.8640763086
 20
115.6766073695
 30
0.0
 10
55.6580454106
 20
116.1799679702
 30
0.0
 10
57.1087786113
 20
116.2563779403
 30
0.0
 10
58.1765172667
 20
116.094316812
 30
0.0
 10
58.6753080367
 20
115.9440582199
 30
0.0
 10
58.913911738
 20
115.8521461861
 30
0.0
  0
SPLINE
  5
3C0
100
AcDbEntity
  8
0
100
AcDbSpline
 62
7
  6
BYLAYER
 70
0
 71
3
 72
9
 73
5
 74
0
 42
0.0000001
 43
0.0000001
 44
0.0000000001
 40
0.0
 40
0.0
 40
0.0
 40
0.0
 40
0.2480045767
 40
1.0
 40
1.0
 40
1.0
 40
1.0
 10
39.6998168925
 20
92.3651703718
 30
0.0
 10
39.6481278092
 20
92.4068876968
 30
0.0
 10
39.4429904298
 20
92.5791359404
 30
0.0
 10
39.2512408323
 20
92.7672538697
 30
0.0
 10
39.1154242259
 20
92.9159793637
 30
0.0
  0
SPLINE
  5
3C1
100
AcDbEntity
  8
0
100
AcDbSpline
 62
7
  6
BYLAYER
 70
0
 71
3
 72
23
 73
19
 74
0
 42
0.0000001
 43
0.0000001
 44
0.0000000001
 40
0.0
 40
0.0
 40
0.0
 40
0.0
 40
0.043956335
 40
0.0909543038
 40
0.1417122097
 40
0.1965552481
 40
0.2554725602
 40
0.3181850752
 40
0.3842057364
 40
0.4528899218
 40
0.5234787081
 40
0.5951384901
 40
0.6669949993
 40
0.738166588
 40
0.8077981567
 40
0.8750862592
 40
0.9393523741
 40
1.0
 40
1.0
 40
1.0
 40
1.0
 10
39.1154242259
 20
92.9159793637
 30
0.0
 10
38.8347346628
 20
93.2233474761
 30
0.0
 10
38.3255066799
 20
93.9273913823
 30
0.0
 10
37.765431819
 20
95.1545948404
 30
0.0
 10
37.394266768
 20
96.5573847427
 30
0.0
 10
37.2166334066
 20
98.1097686963
 30
0.0
 10
37.2339842573
 20
99.7845418374
 30
0.0
 10
37.4453572595
 20
101.552011874
 30
0.0
 10
37.8466489425
 20
103.3806160534
 30
0.0
 10
38.4305251483
 20
105.2373867557
 30
0.0
 10
39.186311374
 20
107.0886800496
 30
0.0
 10
40.1002443106
 20
108.9008296235
 30
0.0
 10
41.1556706112
 20
110.640826988
 30
0.0
 10
42.3333915783
 20
112.2769689766
 30
0.0
 10
43.6119577078
 20
113.7793542124
 30
0.0
 10
44.9681996917
 20
115.120995185
 30
0.0
 10
46.37744115
 20
116.2770228138
 30
0.0
 10
47.3666399683
 20
116.9308425254
 30
0.0
 10
47.8640047218
 20
117.2179944857
 30
0.0
  0
SPLINE
  5
3C2
100
AcDbEntity
  8
0
100
AcDbSpline
 62
7
  6
BYLAYER
 70
0
 71
3
 72
12
 73
8
 74
0
 42
0.0000001
 43
0.0000001
 44
0.0000000001
 40
0.0
 40
0.0
 40
0.0
 40
0.0
 40
0.2862243899
 40
0.5457449661
 40
0.7812112992
 40
0.8921521523
 40
1.0
 40
1.0
 40
1.0
 40
1.0
 10
51.3995533475
 20
115.1767907131
 30
0.0
 10
51.9872421197
 20
115.5160909585
 30
0.0
 10
53.1569665835
 20
116.084848124
 30
0.0
 10
54.9509356854
 20
116.5882087247
 30
0.0
 10
56.4016688861
 20
116.6646186948
 30
0.0
 10
57.4694075415
 20
116.5025575665
 30
0.0
 10
57.9681983116
 20
116.3522989745
 30
0.0
 10
58.2068020129
 20
116.2603869406
 30
0.0
  0
SPLINE
  5
3C3
100
AcDbEntity
  8
0
100
AcDbSpline
 62
7
  6
BYLAYER
 70
0
 71
3
 72
12
 73
8
 74
0
 42
0.0000001
 43
0.0000001
 44
0.0000000001
 40
0.0
 40
0.0
 40
0.0
 40
0.0
 40
0.2862243899
 40
0.5457449661
 40
0.7812112992
 40
0.8921521523
 40
1.0
 40
1.0
 40
1.0
 40
1.0
 10
50.6924436224
 20
115.5850314676
 30
0.0
 10
51.2801323946
 20
115.9243317131
 30
0.0
 10
52.4498568583
 20
116.4930888785
 30
0.0
 10
54.2438259603
 20
116.9964494792
 30
0.0
 10
55.694559161
 20
117.0728594494
 30
0.0
 10
56.7622978164
 20
116.910798321
 30
0.0
 10
57.2610885864
 20
116.760539729
 30
0.0
 10
57.4996922878
 20
116.6686276951
 30
0.0
  0
SPLINE
  5
3C4
100
AcDbEntity
  8
0
100
AcDbSpline
 62
7
  6
BYLAYER
 70
0
 71
3
 72
9
 73
5
 74
0
 42
0.0000001
 43
0.0000001
 44
0.0000000001
 40
0.0
 40
0.0
 40
0.0
 40
0.0
 40
0.2480045767
 40
1.0
 40
1.0
 40
1.0
 40
1.0
 10
40.4069266177
 20
91.9569296173
 30
0.0
 10
40.3552375344
 20
91.9986469423
 30
0.0
 10
40.150100155
 20
92.1708951859
 30
0.0
 10
39.9583505575
 20
92.3590131152
 30
0.0
 10
39.8225339511
 20
92.5077386092
 30
0.0
  0
SPLINE
  5
3C5
100
AcDbEntity
  8
0
100
AcDbSpline
 62
7
  6
BYLAYER
 70
0
 71
3
 72
23
 73
19
 74
0
 42
0.0000001
 43
0.0000001
 44
0.0000000001
 40
0.0
 40
0.0
 40
0.0
 40
0.0
 40
0.043956335
 40
0.0909543038
 40
0.1417122097
 40
0.1965552481
 40
0.2554725602
 40
0.3181850752
 40
0.3842057364
 40
0.4528899218
 40
0.5234787081
 40
0.5951384901
 40
0.6669949993
 40
0.738166588
 40
0.8077981567
 40
0.8750862592
 40
0.9393523741
 40
1.0
 40
1.0
 40
1.0
 40
1.0
 10
39.8225339511
 20
92.5077386092
 30
0.0
 10
39.5418443879
 20
92.8151067216
 30
0.0
 10
39.0326164051
 20
93.5191506278
 30
0.0
 10
38.4725415441
 20
94.7463540859
 30
0.0
 10
38.1013764932
 20
96.1491439882
 30
0.0
 10
37.9237431317
 20
97.7015279418
 30
0.0
 10
37.9410939824
 20
99.3763010829
 30
0.0
 10
38.1524669847
 20
101.1437711195
 30
0.0
 10
38.5537586676
 20
102.9723752989
 30
0.0
 10
39.1376348735
 20
104.8291460012
 30
0.0
 10
39.8934210992
 20
106.6804392951
 30
0.0
 10
40.8073540358
 20
108.492588869
 30
0.0
 10
41.8627803364
 20
110.2325862335
 30
0.0
 10
43.0405013034
 20
111.868728222
 30
0.0
 10
44.3190674329
 20
113.3711134578
 30
0.0
 10
45.6753094169
 20
114.7127544305
 30
0.0
 10
47.0845508751
 20
115.8687820592
 30
0.0
 10
48.0737496935
 20
116.5226017709
 30
0.0
 10
48.571114447
 20
116.8097537312
 30
0.0
  0
SPLINE
  5
3C6
100
AcDbEntity
  8
0
100
AcDbSpline
 62
7
  6
BYLAYER
 70
0
 71
3
 72
12
 73
8
 74
0
 42
0.0000001
 43
0.0000001
 44
0.0000000001
 40
0.0
 40
0.0
 40
0.0
 40
0.0
 40
0.2862243899
 40
0.5457449661
 40
0.7812112992
 40
0.8921521523
 40
1.0
 40
1.0
 40
1.0
 40
1.0
 10
49.9853338973
 20
115.9932722221
 30
0.0
 10
50.5730226694
 20
116.3325724676
 30
0.0
 10
51.7427471332
 20
116.901329633
 30
0.0
 10
53.5367162351
 20
117.4046902338
 30
0.0
 10
54.9874494358
 20
117.4811002039
 30
0.0
 10
56.0551880912
 20
117.3190390755
 30
0.0
 10
56.5539788613
 20
117.1687804835
 30
0.0
 10
56.7925825626
 20
117.0768684496
 30
0.0
  0
SPLINE
  5
3C7
100
AcDbEntity
  8
0
100
AcDbSpline
 62
7
  6
BYLAYER
 70
0
 71
3
 72
12
 73
8
 74
0
 42
0.0000001
 43
0.0000001
 44
0.0000000001
 40
0.0
 40
0.0
 40
0.0
 40
0.0
 40
0.2862243899
 40
0.5457449661
 40
0.7812112992
 40
0.8921521523
 40
1.0
 40
1.0
 40
1.0
 40
1.0
 10
49.2782241721
 20
116.4015129766
 30
0.0
 10
49.8659129443
 20
116.7408132221
 30
0.0
 10
51.035637408
 20
117.3095703875
 30
0.0
 10
52.82960651
 20
117.8129309883
 30
0.0
 10
54.2803397107
 20
117.8893409584
 30
0.0
 10
55.3480783661
 20
117.72727983
 30
0.0
 10
55.8468691361
 20
117.577021238
 30
0.0
 10
56.0854728375
 20
117.4851092042
 30
0.0
  0
SPLINE
  5
3C8
100
AcDbEntity
  8
0
100
AcDbSpline
 62
7
  6
BYLAYER
 70
0
 71
3
 72
9
 73
5
 74
0
 42
0.0000001
 43
0.0000001
 44
0.0000000001
 40
0.0
 40
0.0
 40
0.0
 40
0.0
 40
0.2480045767
 40
1.0
 40
1.0
 40
1.0
 40
1.0
 10
41.1140363428
 20
91.5486888628
 30
0.0
 10
41.0623472595
 20
91.5904061878
 30
0.0
 10
40.8572098801
 20
91.7626544313
 30
0.0
 10
40.6654602826
 20
91.9507723606
 30
0.0
 10
40.5296436762
 20
92.0994978547
 30
0.0
  0
SPLINE
  5
3C9
100
AcDbEntity
  8
0
100
AcDbSpline
 62
7
  6
BYLAYER
 70
0
 71
3
 72
23
 73
19
 74
0
 42
0.0000001
 43
0.0000001
 44
0.0000000001
 40
0.0
 40
0.0
 40
0.0
 40
0.0
 40
0.043956335
 40
0.0909543038
 40
0.1417122097
 40
0.1965552481
 40
0.2554725602
 40
0.3181850752
 40
0.3842057364
 40
0.4528899218
 40
0.5234787081
 40
0.5951384901
 40
0.6669949993
 40
0.738166588
 40
0.8077981567
 40
0.8750862592
 40
0.9393523741
 40
1.0
 40
1.0
 40
1.0
 40
1.0
 10
40.5296436762
 20
92.0994978547
 30
0.0
 10
40.2489541131
 20
92.4068659671
 30
0.0
 10
39.7397261302
 20
93.1109098733
 30
0.0
 10
39.1796512693
 20
94.3381133314
 30
0.0
 10
38.8084862183
 20
95.7409032337
 30
0.0
 10
38.6308528569
 20
97.2932871873
 30
0.0
 10
38.6482037076
 20
98.9680603283
 30
0.0
 10
38.8595767098
 20
100.735530365
 30
0.0
 10
39.2608683928
 20
102.5641345444
 30
0.0
 10
39.8447445986
 20
104.4209052466
 30
0.0
 10
40.6005308243
 20
106.2721985406
 30
0.0
 10
41.5144637609
 20
108.0843481145
 30
0.0
 10
42.5698900615
 20
109.824345479
 30
0.0
 10
43.7476110286
 20
111.4604874675
 30
0.0
 10
45.0261771581
 20
112.9628727033
 30
0.0
 10
46.382419142
 20
114.3045136759
 30
0.0
 10
47.7916606003
 20
115.4605413047
 30
0.0
 10
48.7808594186
 20
116.1143610164
 30
0.0
 10
49.2782241721
 20
116.4015129766
 30
0.0
  0
SPLINE
  5
3CA
100
AcDbEntity
  8
0
100
AcDbSpline
 62
7
  6
BYLAYER
 70
0
 71
3
 72
12
 73
8
 74
0
 42
0.0000001
 43
0.0000001
 44
0.0000000001
 40
0.0
 40
0.0
 40
0.0
 40
0.0
 40
0.2862243899
 40
0.5457449661
 40
0.7812112992
 40
0.8921521523
 40
1.0
 40
1.0
 40
1.0
 40
1.0
 10
48.571114447
 20
116.8097537312
 30
0.0
 10
49.1588032191
 20
117.1490539766
 30
0.0
 10
50.3285276829
 20
117.7178111421
 30
0.0
 10
52.1224967848
 20
118.2211717428
 30
0.0
 10
53.5732299855
 20
118.2975817129
 30
0.0
 10
54.6409686409
 20
118.1355205846
 30
0.0
 10
55.139759411
 20
117.9852619925
 30
0.0
 10
55.3783631123
 20
117.8933499587
 30
0.0
  0
SPLINE
  5
3CB
100
AcDbEntity
  8
0
100
AcDbSpline
 62
7
  6
BYLAYER
 70
0
 71
3
 72
12
 73
8
 74
0
 42
0.0000001
 43
0.0000001
 44
0.0000000001
 40
0.0
 40
0.0
 40
0.0
 40
0.0
 40
0.2862243899
 40
0.5457449661
 40
0.7812112992
 40
0.8921521523
 40
1.0
 40
1.0
 40
1.0
 40
1.0
 10
47.8640047218
 20
117.2179944857
 30
0.0
 10
48.451693494
 20
117.5572947312
 30
0.0
 10
49.6214179577
 20
118.1260518966
 30
0.0
 10
51.4153870597
 20
118.6294124973
 30
0.0
 10
52.8661202604
 20
118.7058224674
 30
0.0
 10
53.9338589158
 20
118.5437613391
 30
0.0
 10
54.4326496858
 20
118.3935027471
 30
0.0
 10
54.6712533872
 20
118.3015907132
 30
0.0
  0
SPLINE
  5
3CC
100
AcDbEntity
  8
0
100
AcDbSpline
 62
7
  6
BYLAYER
 70
0
 71
3
 72
9
 73
5
 74
0
 42
0.0000001
 43
0.0000001
 44
0.0000000001
 40
0.0
 40
0.0
 40
0.0
 40
0.0
 40
0.2480045767
 40
1.0
 40
1.0
 40
1.0
 40
1.0
 10
41.821146068
 20
91.1404481082
 30
0.0
 10
41.7694569847
 20
91.1821654333
 30
0.0
 10
41.5643196053
 20
91.3544136768
 30
0.0
 10
41.3725700078
 20
91.5425316061
 30
0.0
 10
41.2367534014
 20
91.6912571002
 30
0.0
  0
SPLINE
  5
3CD
100
AcDbEntity
  8
0
100
AcDbSpline
 62
7
  6
BYLAYER
 70
0
 71
3
 72
23
 73
19
 74
0
 42
0.0000001
 43
0.0000001
 44
0.0000000001
 40
0.0
 40
0.0
 40
0.0
 40
0.0
 40
0.043956335
 40
0.0909543038
 40
0.1417122097
 40
0.1965552481
 40
0.2554725602
 40
0.3181850752
 40
0.3842057364
 40
0.4528899218
 40
0.5234787081
 40
0.5951384901
 40
0.6669949993
 40
0.738166588
 40
0.8077981567
 40
0.8750862592
 40
0.9393523741
 40
1.0
 40
1.0
 40
1.0
 40
1.0
 10
41.2367534014
 20
91.6912571002
 30
0.0
 10
40.9560638382
 20
91.9986252126
 30
0.0
 10
40.4468358553
 20
92.7026691187
 30
0.0
 10
39.8867609944
 20
93.9298725768
 30
0.0
 10
39.5155959435
 20
95.3326624792
 30
0.0
 10
39.337962582
 20
96.8850464328
 30
0.0
 10
39.3553134327
 20
98.5598195738
 30
0.0
 10
39.5666864349
 20
100.3272896104
 30
0.0
 10
39.9679781179
 20
102.1558937899
 30
0.0
 10
40.5518543238
 20
104.0126644921
 30
0.0
 10
41.3076405495
 20
105.8639577861
 30
0.0
 10
42.2215734861
 20
107.67610736
 30
0.0
 10
43.2769997867
 20
109.4161047244
 30
0.0
 10
44.4547207537
 20
111.052246713
 30
0.0
 10
45.7332868832
 20
112.5546319488
 30
0.0
 10
47.0895288672
 20
113.8962729214
 30
0.0
 10
48.4987703254
 20
115.0523005502
 30
0.0
 10
49.4879691438
 20
115.7061202619
 30
0.0
 10
49.9853338973
 20
115.9932722221
 30
0.0
  0
SPLINE
  5
3CE
100
AcDbEntity
  8
0
100
AcDbSpline
 62
7
  6
BYLAYER
 70
0
 71
3
 72
12
 73
8
 74
0
 42
0.0000001
 43
0.0000001
 44
0.0000000001
 40
0.0
 40
0.0
 40
0.0
 40
0.0
 40
0.2862243899
 40
0.5457449661
 40
0.7812112992
 40
0.8921521523
 40
1.0
 40
1.0
 40
1.0
 40
1.0
 10
47.1568949967
 20
117.6262352402
 30
0.0
 10
47.7445837688
 20
117.9655354857
 30
0.0
 10
48.9143082326
 20
118.5342926511
 30
0.0
 10
50.7082773345
 20
119.0376532518
 30
0.0
 10
52.1590105352
 20
119.114063222
 30
0.0
 10
53.2267491907
 20
118.9520020936
 30
0.0
 10
53.7255399607
 20
118.8017435016
 30
0.0
 10
53.964143662
 20
118.7098314677
 30
0.0
  0
SPLINE
  5
3CF
100
AcDbEntity
  8
0
100
AcDbSpline
 62
7
  6
BYLAYER
 70
0
 71
3
 72
12
 73
8
 74
0
 42
0.0000001
 43
0.0000001
 44
0.0000000001
 40
0.0
 40
0.0
 40
0.0
 40
0.0
 40
0.2862243899
 40
0.5457449661
 40
0.7812112992
 40
0.8921521523
 40
1.0
 40
1.0
 40
1.0
 40
1.0
 10
46.4497852715
 20
118.0344759947
 30
0.0
 10
47.0374740437
 20
118.3737762402
 30
0.0
 10
48.2071985074
 20
118.9425334056
 30
0.0
 10
50.0011676094
 20
119.4458940064
 30
0.0
 10
51.4519008101
 20
119.5223039765
 30
0.0
 10
52.5196394655
 20
119.3602428481
 30
0.0
 10
53.0184302355
 20
119.2099842561
 30
0.0
 10
53.2570339369
 20
119.1180722222
 30
0.0
  0
SPLINE
  5
3D0
100
AcDbEntity
  8
0
100
AcDbSpline
 62
7
  6
BYLAYER
 70
0
 71
3
 72
9
 73
5
 74
0
 42
0.0000001
 43
0.0000001
 44
0.0000000001
 40
0.0
 40
0.0
 40
0.0
 40
0.0
 40
0.2480045767
 40
1.0
 40
1.0
 40
1.0
 40
1.0
 10
42.5282557931
 20
90.7322073537
 30
0.0
 10
42.4765667098
 20
90.7739246787
 30
0.0
 10
42.2714293304
 20
90.9461729223
 30
0.0
 10
42.0796797329
 20
91.1342908516
 30
0.0
 10
41.9438631265
 20
91.2830163456
 30
0.0
  0
SPLINE
  5
3D1
100
AcDbEntity
  8
0
100
AcDbSpline
 62
7
  6
BYLAYER
 70
0
 71
3
 72
12
 73
8
 74
0
 42
0.0000001
 43
0.0000001
 44
0.0000000001
 40
0.0
 40
0.0
 40
0.0
 40
0.0
 40
0.2862243899
 40
0.5457449661
 40
0.7812112992
 40
0.8921521523
 40
1.0
 40
1.0
 40
1.0
 40
1.0
 10
45.7426755464
 20
118.4427167493
 30
0.0
 10
46.3303643185
 20
118.7820169947
 30
0.0
 10
47.5000887823
 20
119.3507741602
 30
0.0
 10
49.2940578842
 20
119.8541347609
 30
0.0
 10
50.7447910849
 20
119.930544731
 30
0.0
 10
51.8125297404
 20
119.7684836026
 30
0.0
 10
52.3113205104
 20
119.6182250106
 30
0.0
 10
52.5499242117
 20
119.5263129768
 30
0.0
  0
SPLINE
  5
3D2
100
AcDbEntity
  8
0
100
AcDbSpline
 62
7
  6
BYLAYER
 70
0
 71
3
 72
12
 73
8
 74
0
 42
0.0000001
 43
0.0000001
 44
0.0000000001
 40
0.0
 40
0.0
 40
0.0
 40
0.0
 40
0.2862243899
 40
0.5457449661
 40
0.7812112992
 40
0.8921521523
 40
1.0
 40
1.0
 40
1.0
 40
1.0
 10
45.0355658212
 20
118.8509575038
 30
0.0
 10
45.6232545934
 20
119.1902577492
 30
0.0
 10
46.7929790571
 20
119.7590149147
 30
0.0
 10
48.5869481591
 20
120.2623755154
 30
0.0
 10
50.0376813598
 20
120.3387854855
 30
0.0
 10
51.1054200152
 20
120.1767243572
 30
0.0
 10
51.6042107852
 20
120.0264657651
 30
0.0
 10
51.8428144866
 20
119.9345537313
 30
0.0
  0
SPLINE
  5
3D3
100
AcDbEntity
  8
0
100
AcDbSpline
 62
7
  6
BYLAYER
 70
0
 71
3
 72
9
 73
5
 74
0
 42
0.0000001
 43
0.0000001
 44
0.0000000001
 40
0.0
 40
0.0
 40
0.0
 40
0.0
 40
0.2480045767
 40
1.0
 40
1.0
 40
1.0
 40
1.0
 10
43.2353655183
 20
90.3239665992
 30
0.0
 10
43.183676435
 20
90.3656839242
 30
0.0
 10
42.9785390556
 20
90.5379321678
 30
0.0
 10
42.7867894581
 20
90.7260500971
 30
0.0
 10
42.6509728517
 20
90.8747755911
 30
0.0
  0
SPLINE
  5
3D4
100
AcDbEntity
  8
0
100
AcDbSpline
 62
7
  6
BYLAYER
 70
0
 71
3
 72
23
 73
19
 74
0
 42
0.0000001
 43
0.0000001
 44
0.0000000001
 40
0.0
 40
0.0
 40
0.0
 40
0.0
 40
0.043956335
 40
0.0909543038
 40
0.1417122097
 40
0.1965552481
 40
0.2554725602
 40
0.3181850752
 40
0.3842057364
 40
0.4528899218
 40
0.5234787081
 40
0.5951384901
 40
0.6669949993
 40
0.738166588
 40
0.8077981567
 40
0.8750862592
 40
0.9393523741
 40
1.0
 40
1.0
 40
1.0
 40
1.0
 10
42.6509728517
 20
90.8747755911
 30
0.0
 10
42.3702832885
 20
91.1821437035
 30
0.0
 10
41.8610553056
 20
91.8861876097
 30
0.0
 10
41.3009804447
 20
93.1133910678
 30
0.0
 10
40.9298153938
 20
94.5161809701
 30
0.0
 10
40.7521820323
 20
96.0685649237
 30
0.0
 10
40.769532883
 20
97.7433380648
 30
0.0
 10
40.9809058852
 20
99.5108081014
 30
0.0
 10
41.3821975682
 20
101.3394122808
 30
0.0
 10
41.9660737741
 20
103.1961829831
 30
0.0
 10
42.7218599998
 20
105.047476277
 30
0.0
 10
43.6357929364
 20
106.8596258509
 30
0.0
 10
44.691219237
 20
108.5996232154
 30
0.0
 10
45.868940204
 20
110.2357652039
 30
0.0
 10
47.1475063335
 20
111.7381504398
 30
0.0
 10
48.5037483175
 20
113.0797914124
 30
0.0
 10
49.9129897757
 20
114.2358190412
 30
0.0
 10
50.9021885941
 20
114.8896387528
 30
0.0
 10
51.3995533475
 20
115.1767907131
 30
0.0
  0
SPLINE
  5
3D5
100
AcDbEntity
  8
0
100
AcDbSpline
 62
7
  6
BYLAYER
 70
0
 71
3
 72
12
 73
8
 74
0
 42
0.0000001
 43
0.0000001
 44
0.0000000001
 40
0.0
 40
0.0
 40
0.0
 40
0.0
 40
0.2862243899
 40
0.5457449661
 40
0.7812112992
 40
0.8921521523
 40
1.0
 40
1.0
 40
1.0
 40
1.0
 10
44.3284560961
 20
119.2591982583
 30
0.0
 10
44.9161448682
 20
119.5984985038
 30
0.0
 10
46.085869332
 20
120.1672556692
 30
0.0
 10
47.879838434
 20
120.6706162699
 30
0.0
 10
49.3305716347
 20
120.74702624
 30
0.0
 10
50.3983102901
 20
120.5849651117
 30
0.0
 10
50.8971010601
 20
120.4347065197
 30
0.0
 10
51.1357047614
 20
120.3427944858
 30
0.0
  0
SPLINE
  5
3D6
100
AcDbEntity
  8
0
100
AcDbSpline
 62
7
  6
BYLAYER
 70
0
 71
3
 72
12
 73
8
 74
0
 42
0.0000001
 43
0.0000001
 44
0.0000000001
 40
0.0
 40
0.0
 40
0.0
 40
0.0
 40
0.2862243899
 40
0.5457449661
 40
0.7812112992
 40
0.8921521523
 40
1.0
 40
1.0
 40
1.0
 40
1.0
 10
43.6213463709
 20
119.6674390128
 30
0.0
 10
44.2090351431
 20
120.0067392583
 30
0.0
 10
45.3787596068
 20
120.5754964237
 30
0.0
 10
47.1727287088
 20
121.0788570244
 30
0.0
 10
48.6234619095
 20
121.1552669946
 30
0.0
 10
49.6912005649
 20
120.9932058662
 30
0.0
 10
50.1899913349
 20
120.8429472742
 30
0.0
 10
50.4285950363
 20
120.7510352403
 30
0.0
  0
SPLINE
  5
3D7
100
AcDbEntity
  8
0
100
AcDbSpline
 62
7
  6
BYLAYER
 70
0
 71
3
 72
9
 73
5
 74
0
 42
0.0000001
 43
0.0000001
 44
0.0000000001
 40
0.0
 40
0.0
 40
0.0
 40
0.0
 40
0.2480045767
 40
1.0
 40
1.0
 40
1.0
 40
1.0
 10
43.9424752434
 20
89.9157258447
 30
0.0
 10
43.8907861601
 20
89.9574431697
 30
0.0
 10
43.6856487807
 20
90.1296914133
 30
0.0
 10
43.4938991832
 20
90.3178093426
 30
0.0
 10
43.3580825768
 20
90.4665348366
 30
0.0
  0
SPLINE
  5
3D8
100
AcDbEntity
  8
0
100
AcDbSpline
 62
7
  6
BYLAYER
 70
0
 71
3
 72
23
 73
19
 74
0
 42
0.0000001
 43
0.0000001
 44
0.0000000001
 40
0.0
 40
0.0
 40
0.0
 40
0.0
 40
0.043956335
 40
0.0909543038
 40
0.1417122097
 40
0.1965552481
 40
0.2554725602
 40
0.3181850752
 40
0.3842057364
 40
0.4528899218
 40
0.5234787081
 40
0.5951384901
 40
0.6669949993
 40
0.738166588
 40
0.8077981567
 40
0.8750862592
 40
0.9393523741
 40
1.0
 40
1.0
 40
1.0
 40
1.0
 10
43.3580825768
 20
90.4665348366
 30
0.0
 10
43.0773930137
 20
90.773902949
 30
0.0
 10
42.5681650308
 20
91.4779468552
 30
0.0
 10
42.0080901698
 20
92.7051503133
 30
0.0
 10
41.6369251189
 20
94.1079402156
 30
0.0
 10
41.4592917575
 20
95.6603241692
 30
0.0
 10
41.4766426082
 20
97.3350973103
 30
0.0
 10
41.6880156104
 20
99.1025673469
 30
0.0
 10
42.0893072934
 20
100.9311715263
 30
0.0
 10
42.6731834992
 20
102.7879422286
 30
0.0
 10
43.4289697249
 20
104.6392355225
 30
0.0
 10
44.3429026615
 20
106.4513850964
 30
0.0
 10
45.3983289621
 20
108.1913824609
 30
0.0
 10
46.5760499292
 20
109.8275244494
 30
0.0
 10
47.8546160586
 20
111.3299096852
 30
0.0
 10
49.2108580426
 20
112.6715506579
 30
0.0
 10
50.6200995009
 20
113.8275782866
 30
0.0
 10
51.6092983192
 20
114.4813979983
 30
0.0
 10
52.1066630727
 20
114.7685499586
 30
0.0
  0
SPLINE
  5
3D9
100
AcDbEntity
  8
0
100
AcDbSpline
 62
7
  6
BYLAYER
 70
0
 71
3
 72
9
 73
5
 74
0
 42
0.0000001
 43
0.0000001
 44
0.0000000001
 40
0.0
 40
0.0
 40
0.0
 40
0.0
 40
0.2550764572
 40
1.0
 40
1.0
 40
1.0
 40
1.0
 10
42.9142366458
 20
120.0756797673
 30
0.0
 10
43.007669874
 20
120.1296231448
 30
0.0
 10
43.3763732811
 20
120.3368875127
 30
0.0
 10
43.7547896719
 20
120.5269972914
 30
0.0
 10
44.0416550061
 20
120.6573022087
 30
0.0
  0
SPLINE
  5
3DA
100
AcDbEntity
  8
0
100
AcDbSpline
 62
7
  6
BYLAYER
 70
0
 71
3
 72
11
 73
7
 74
0
 42
0.0000001
 43
0.0000001
 44
0.0000000001
 40
0.0
 40
0.0
 40
0.0
 40
0.0
 40
0.2803858544
 40
0.5379432911
 40
0.7758981555
 40
1.0
 40
1.0
 40
1.0
 40
1.0
 10
44.0416550061
 20
120.6573022087
 30
0.0
 10
44.5390106219
 20
120.8832196502
 30
0.0
 10
45.524791435
 20
121.2528602607
 30
0.0
 10
47.0169907994
 20
121.5416916561
 30
0.0
 10
48.4291836297
 20
121.531804116
 30
0.0
 10
49.3140619709
 20
121.3162186895
 30
0.0
 10
49.7214853111
 20
121.1592759949
 30
0.0
  0
SPLINE
  5
3DB
100
AcDbEntity
  8
0
100
AcDbSpline
 62
7
  6
BYLAYER
 70
0
 71
3
 72
12
 73
8
 74
0
 42
0.0000001
 43
0.0000001
 44
0.0000000001
 40
0.0
 40
0.0
 40
0.0
 40
0.0
 40
0.2862243899
 40
0.5457449661
 40
0.7812112992
 40
0.8921521523
 40
1.0
 40
1.0
 40
1.0
 40
1.0
 10
42.2071269206
 20
120.4839205219
 30
0.0
 10
42.7948156928
 20
120.8232207673
 30
0.0
 10
43.9645401566
 20
121.3919779328
 30
0.0
 10
45.7585092585
 20
121.8953385335
 30
0.0
 10
47.2092424592
 20
121.9717485036
 30
0.0
 10
48.2769811146
 20
121.8096873752
 30
0.0
 10
48.7757718847
 20
121.6594287832
 30
0.0
 10
49.014375586
 20
121.5675167494
 30
0.0
  0
SPLINE
  5
3DC
100
AcDbEntity
  8
0
100
AcDbSpline
 62
7
  6
BYLAYER
 70
0
 71
3
 72
9
 73
5
 74
0
 42
0.0000001
 43
0.0000001
 44
0.0000000001
 40
0.0
 40
0.0
 40
0.0
 40
0.0
 40
0.2480045767
 40
1.0
 40
1.0
 40
1.0
 40
1.0
 10
44.6495849686
 20
89.5074850902
 30
0.0
 10
44.5978958852
 20
89.5492024152
 30
0.0
 10
44.3927585059
 20
89.7214506587
 30
0.0
 10
44.2010089084
 20
89.909568588
 30
0.0
 10
44.065192302
 20
90.0582940821
 30
0.0
  0
SPLINE
  5
3DD
100
AcDbEntity
  8
0
100
AcDbSpline
 62
7
  6
BYLAYER
 70
0
 71
3
 72
23
 73
19
 74
0
 42
0.0000001
 43
0.0000001
 44
0.0000000001
 40
0.0
 40
0.0
 40
0.0
 40
0.0
 40
0.043956335
 40
0.0909543038
 40
0.1417122097
 40
0.1965552481
 40
0.2554725602
 40
0.3181850752
 40
0.3842057364
 40
0.4528899218
 40
0.5234787081
 40
0.5951384901
 40
0.6669949993
 40
0.738166588
 40
0.8077981567
 40
0.8750862592
 40
0.9393523741
 40
1.0
 40
1.0
 40
1.0
 40
1.0
 10
44.065192302
 20
90.0582940821
 30
0.0
 10
43.7845027388
 20
90.3656621945
 30
0.0
 10
43.2752747559
 20
91.0697061007
 30
0.0
 10
42.715199895
 20
92.2969095588
 30
0.0
 10
42.3440348441
 20
93.6996994611
 30
0.0
 10
42.1664014826
 20
95.2520834147
 30
0.0
 10
42.1837523333
 20
96.9268565557
 30
0.0
 10
42.3951253355
 20
98.6943265924
 30
0.0
 10
42.7964170185
 20
100.5229307718
 30
0.0
 10
43.3802932244
 20
102.379701474
 30
0.0
 10
44.13607945
 20
104.230994768
 30
0.0
 10
45.0500123866
 20
106.0431443419
 30
0.0
 10
46.1054386873
 20
107.7831417064
 30
0.0
 10
47.2831596543
 20
109.4192836949
 30
0.0
 10
48.5617257838
 20
110.9216689307
 30
0.0
 10
49.9179677678
 20
112.2633099033
 30
0.0
 10
51.327209226
 20
113.4193375321
 30
0.0
 10
52.3164080444
 20
114.0731572438
 30
0.0
 10
52.8137727978
 20
114.360309204
 30
0.0
  0
SPLINE
  5
3DE
100
AcDbEntity
  8
0
100
AcDbSpline
 62
7
  6
BYLAYER
 70
0
 71
3
 72
12
 73
8
 74
0
 42
0.0000001
 43
0.0000001
 44
0.0000000001
 40
0.0
 40
0.0
 40
0.0
 40
0.0
 40
0.2862243899
 40
0.5457449661
 40
0.7812112992
 40
0.8921521523
 40
1.0
 40
1.0
 40
1.0
 40
1.0
 10
41.5000171955
 20
120.8921612764
 30
0.0
 10
42.0877059677
 20
121.2314615218
 30
0.0
 10
43.2574304314
 20
121.8002186873
 30
0.0
 10
45.0513995334
 20
122.303579288
 30
0.0
 10
46.5021327341
 20
122.3799892581
 30
0.0
 10
47.5698713895
 20
122.2179281298
 30
0.0
 10
48.0686621595
 20
122.0676695377
 30
0.0
 10
48.3072658608
 20
121.9757575039
 30
0.0
  0
SPLINE
  5
3DF
100
AcDbEntity
  8
0
100
AcDbSpline
 62
7
  6
BYLAYER
 70
0
 71
3
 72
14
 73
10
 74
0
 42
0.0000001
 43
0.0000001
 44
0.0000000001
 40
0.0
 40
0.0
 40
0.0
 40
0.0
 40
0.2892793707
 40
0.4225448337
 40
0.5484924444
 40
0.667891698
 40
0.7818676682
 40
0.8919526176
 40
1.0
 40
1.0
 40
1.0
 40
1.0
 10
40.7929074703
 20
121.3004020309
 30
0.0
 10
41.4528652585
 20
121.6814265631
 30
0.0
 10
42.4660729668
 20
122.1636731139
 30
0.0
 10
43.8555817653
 20
122.5688256819
 30
0.0
 10
44.8418449377
 20
122.7342273513
 30
0.0
 10
45.7908330483
 20
122.7672826696
 30
0.0
 10
46.6935770231
 20
122.6665647533
 30
0.0
 10
47.5404252852
 20
122.4324697595
 30
0.0
 10
48.063761719
 20
122.1873330239
 30
0.0
 10
48.3102606589
 20
122.0450204119
 30
0.0
  0
SPLINE
  5
3E0
100
AcDbEntity
  8
0
100
AcDbSpline
 62
7
  6
BYLAYER
 70
0
 71
3
 72
9
 73
5
 74
0
 42
0.0000001
 43
0.0000001
 44
0.0000000001
 40
0.0
 40
0.0
 40
0.0
 40
0.0
 40
0.2480045767
 40
1.0
 40
1.0
 40
1.0
 40
1.0
 10
45.3566946937
 20
89.0992443356
 30
0.0
 10
45.3050056104
 20
89.1409616607
 30
0.0
 10
45.099868231
 20
89.3132099042
 30
0.0
 10
44.9081186335
 20
89.5013278335
 30
0.0
 10
44.7723020271
 20
89.6500533275
 30
0.0
  0
SPLINE
  5
3E1
100
AcDbEntity
  8
0
100
AcDbSpline
 62
7
  6
BYLAYER
 70
0
 71
3
 72
23
 73
19
 74
0
 42
0.0000001
 43
0.0000001
 44
0.0000000001
 40
0.0
 40
0.0
 40
0.0
 40
0.0
 40
0.043956335
 40
0.0909543038
 40
0.1417122097
 40
0.1965552481
 40
0.2554725602
 40
0.3181850752
 40
0.3842057364
 40
0.4528899218
 40
0.5234787081
 40
0.5951384901
 40
0.6669949993
 40
0.738166588
 40
0.8077981567
 40
0.8750862592
 40
0.9393523741
 40
1.0
 40
1.0
 40
1.0
 40
1.0
 10
44.7723020271
 20
89.6500533275
 30
0.0
 10
44.491612464
 20
89.95742144
 30
0.0
 10
43.9823844811
 20
90.6614653461
 30
0.0
 10
43.4223096201
 20
91.8886688042
 30
0.0
 10
43.0511445692
 20
93.2914587065
 30
0.0
 10
42.8735112077
 20
94.8438426602
 30
0.0
 10
42.8908620585
 20
96.5186158012
 30
0.0
 10
43.1022350607
 20
98.2860858378
 30
0.0
 10
43.5035267437
 20
100.1146900173
 30
0.0
 10
44.0874029495
 20
101.9714607195
 30
0.0
 10
44.8431891752
 20
103.8227540135
 30
0.0
 10
45.7571221118
 20
105.6349035874
 30
0.0
 10
46.8125484124
 20
107.3749009518
 30
0.0
 10
47.9902693795
 20
109.0110429404
 30
0.0
 10
49.2688355089
 20
110.5134281762
 30
0.0
 10
50.6250774929
 20
111.8550691488
 30
0.0
 10
52.0343189512
 20
113.0110967776
 30
0.0
 10
53.0235177695
 20
113.6649164893
 30
0.0
 10
53.520882523
 20
113.9520684495
 30
0.0
  0
SPLINE
  5
3E2
100
AcDbEntity
  8
0
100
AcDbSpline
 62
7
  6
BYLAYER
 70
0
 71
3
 72
15
 73
11
 74
0
 42
0.0000001
 43
0.0000001
 44
0.0000000001
 40
0.0
 40
0.0
 40
0.0
 40
0.0
 40
0.1046158803
 40
0.2185605017
 40
0.3406888785
 40
0.4692154389
 40
0.60192141
 40
0.7363301902
 40
0.8698641149
 40
1.0
 40
1.0
 40
1.0
 40
1.0
 10
30.318278535
 20
101.4234331904
 30
0.0
 10
30.2116820636
 20
102.0488430569
 30
0.0
 10
30.1098833687
 20
103.3773660338
 30
0.0
 10
30.255258937
 20
105.4440042301
 30
0.0
 10
30.6861078246
 20
107.6180505203
 30
0.0
 10
31.3901575993
 20
109.8382854712
 30
0.0
 10
32.3474385611
 20
112.04271523
 30
0.0
 10
33.5310031544
 20
114.1691110265
 30
0.0
 10
34.9070688738
 20
116.1571031432
 30
0.0
 10
35.9471008992
 20
117.37621263
 30
0.0
 10
36.4916296476
 20
117.9474500078
 30
0.0
  0
SPLINE
  5
3E3
100
AcDbEntity
  8
0
100
AcDbSpline
 62
7
  6
BYLAYER
 70
0
 71
3
 72
9
 73
5
 74
0
 42
0.0000001
 43
0.0000001
 44
0.0000000001
 40
0.0
 40
0.0
 40
0.0
 40
0.0
 40
0.5182734752
 40
1.0
 40
1.0
 40
1.0
 40
1.0
 10
36.6441405227
 20
118.105790374
 30
0.0
 10
37.2145373376
 20
118.6918525791
 30
0.0
 10
38.3818924202
 20
119.7601535166
 30
0.0
 10
39.6838188152
 20
120.6634663182
 30
0.0
 10
40.3421250206
 20
121.0435373144
 30
0.0
  0
SPLINE
  5
3E4
100
AcDbEntity
  8
0
100
AcDbSpline
 62
7
  6
BYLAYER
 70
0
 71
3
 72
9
 73
5
 74
0
 42
0.0000001
 43
0.0000001
 44
0.0000000001
 40
0.0
 40
0.0
 40
0.0
 40
0.0
 40
0.2510461624
 40
1.0
 40
1.0
 40
1.0
 40
1.0
 10
40.3421250206
 20
121.0435373144
 30
0.0
 10
40.36164563
 20
121.0548074762
 30
0.0
 10
40.4395149078
 20
121.0995055719
 30
0.0
 10
40.5178333616
 20
121.1434213702
 30
0.0
 10
40.5767388778
 20
121.1758575269
 30
0.0
  0
SPLINE
  5
3E5
100
AcDbEntity
  8
0
100
AcDbSpline
 62
7
  6
BYLAYER
 70
0
 71
3
 72
14
 73
10
 74
0
 42
0.0000001
 43
0.0000001
 44
0.0000000001
 40
0.0
 40
0.0
 40
0.0
 40
0.0
 40
0.2892793707
 40
0.4225448337
 40
0.5484924444
 40
0.667891698
 40
0.7818676682
 40
0.8919526176
 40
1.0
 40
1.0
 40
1.0
 40
1.0
 10
31.179750757
 20
126.0339326715
 30
0.0
 10
31.7958137804
 20
126.3896147007
 30
0.0
 10
32.7416315513
 20
126.839786323
 30
0.0
 10
34.0387220725
 20
127.2179915967
 30
0.0
 10
34.9593874283
 20
127.3723921574
 30
0.0
 10
35.8452569417
 20
127.4032489178
 30
0.0
 10
36.6879580847
 20
127.3092298986
 30
0.0
 10
37.4784812213
 20
127.0907049076
 30
0.0
 10
37.9670097779
 20
126.8618725774
 30
0.0
 10
38.1971137101
 20
126.729025387
 30
0.0
  0
SPLINE
  5
3E6
100
AcDbEntity
  8
0
100
AcDbSpline
 62
7
  6
BYLAYER
 70
0
 71
3
 72
9
 73
5
 74
0
 42
0.0000001
 43
0.0000001
 44
0.0000000001
 40
0.0
 40
0.0
 40
0.0
 40
0.0
 40
0.2480045767
 40
1.0
 40
1.0
 40
1.0
 40
1.0
 10
46.0638044189
 20
88.6910035811
 30
0.0
 10
46.0121153355
 20
88.7327209061
 30
0.0
 10
45.8069779561
 20
88.9049691497
 30
0.0
 10
45.6152283587
 20
89.093087079
 30
0.0
 10
45.4794117522
 20
89.241812573
 30
0.0
  0
SPLINE
  5
3E7
100
AcDbEntity
  8
0
100
AcDbSpline
 62
7
  6
BYLAYER
 70
0
 71
3
 72
23
 73
19
 74
0
 42
0.0000001
 43
0.0000001
 44
0.0000000001
 40
0.0
 40
0.0
 40
0.0
 40
0.0
 40
0.043956335
 40
0.0909543038
 40
0.1417122097
 40
0.1965552481
 40
0.2554725602
 40
0.3181850752
 40
0.3842057364
 40
0.4528899218
 40
0.5234787081
 40
0.5951384901
 40
0.6669949993
 40
0.738166588
 40
0.8077981567
 40
0.8750862592
 40
0.9393523741
 40
1.0
 40
1.0
 40
1.0
 40
1.0
 10
45.4794117522
 20
89.241812573
 30
0.0
 10
45.1987221891
 20
89.5491806854
 30
0.0
 10
44.6894942062
 20
90.2532245916
 30
0.0
 10
44.1294193453
 20
91.4804280497
 30
0.0
 10
43.7582542944
 20
92.883217952
 30
0.0
 10
43.5806209329
 20
94.4356019056
 30
0.0
 10
43.5979717836
 20
96.1103750467
 30
0.0
 10
43.8093447858
 20
97.8778450833
 30
0.0
 10
44.2106364688
 20
99.7064492627
 30
0.0
 10
44.7945126747
 20
101.563219965
 30
0.0
 10
45.5502989003
 20
103.414513259
 30
0.0
 10
46.4642318369
 20
105.2266628329
 30
0.0
 10
47.5196581375
 20
106.9666601973
 30
0.0
 10
48.6973791046
 20
108.6028021859
 30
0.0
 10
49.9759452341
 20
110.1051874217
 30
0.0
 10
51.3321872181
 20
111.4468283943
 30
0.0
 10
52.7414286763
 20
112.6028560231
 30
0.0
 10
53.7306274947
 20
113.2566757348
 30
0.0
 10
54.2279922481
 20
113.543827695
 30
0.0
  0
SPLINE
  5
3E8
100
AcDbEntity
  8
0
100
AcDbSpline
 62
7
  6
BYLAYER
 70
0
 71
3
 72
15
 73
11
 74
0
 42
0.0000001
 43
0.0000001
 44
0.0000000001
 40
0.0
 40
0.0
 40
0.0
 40
0.0
 40
0.1141568063
 40
0.2373231842
 40
0.3669723598
 40
0.4999972953
 40
0.6330231281
 40
0.7626738089
 40
0.8858456521
 40
1.0
 40
1.0
 40
1.0
 40
1.0
 10
101.6361309677
 20
56.5793896481
 30
0.0
 10
102.6628585836
 20
57.1721675751
 30
0.0
 10
104.6907799339
 20
58.5936991505
 30
0.0
 10
107.4810296933
 20
61.2043013248
 30
0.0
 10
110.0524801806
 20
64.290116848
 30
0.0
 10
112.3081859077
 20
67.7355904878
 30
0.0
 10
114.1641666824
 20
71.4118573283
 30
0.0
 10
115.5508722683
 20
75.1817831646
 30
0.0
 10
116.4165094926
 20
78.9035799064
 30
0.0
 10
116.6336440147
 20
81.37060424
 30
0.0
 10
116.6336401165
 20
82.5561398701
 30
0.0
  0
SPLINE
  5
3E9
100
AcDbEntity
  8
0
100
AcDbSpline
 62
7
  6
BYLAYER
 70
0
 71
3
 72
15
 73
11
 74
0
 42
0.0000001
 43
0.0000001
 44
0.0000000001
 40
0.0
 40
0.0
 40
0.0
 40
0.0
 40
0.148496808
 40
0.2894091106
 40
0.4226291274
 40
0.5485668615
 40
0.6679707554
 40
0.7819471838
 40
0.8920127678
 40
1.0
 40
1.0
 40
1.0
 40
1.0
 10
101.6361309677
 20
90.2124281397
 30
0.0
 10
102.0849971686
 20
90.4715796147
 30
0.0
 10
102.9812501769
 20
90.9408709248
 30
0.0
 10
104.3482174216
 20
91.5013803218
 30
0.0
 10
105.691123613
 20
91.8944143103
 30
0.0
 10
106.9971756392
 20
92.1156819568
 30
0.0
 10
108.2543984294
 20
92.1625792188
 30
0.0
 10
109.4508115269
 20
92.0330213835
 30
0.0
 10
110.5738059102
 20
91.7276074389
 30
0.0
 10
111.2685419604
 20
91.4064509876
 30
0.0
 10
111.5959742155
 20
91.2197656993
 30
0.0
  0
SPLINE
  5
3EA
100
AcDbEntity
  8
0
100
AcDbSpline
 62
7
  6
BYLAYER
 70
0
 71
3
 72
15
 73
11
 74
0
 42
0.0000001
 43
0.0000001
 44
0.0000000001
 40
0.0
 40
0.0
 40
0.0
 40
0.0
 40
0.1485719084
 40
0.2895070142
 40
0.4227231617
 40
0.5486372823
 40
0.667998866
 40
0.7819356736
 40
0.8919846724
 40
1.0
 40
1.0
 40
1.0
 40
1.0
 10
71.8738826363
 20
108.7081974381
 30
0.0
 10
72.3607602185
 20
108.9892946634
 30
0.0
 10
73.3328280361
 20
109.4981208676
 30
0.0
 10
74.8155151994
 20
110.1050566594
 30
0.0
 10
76.2718650023
 20
110.5296278391
 30
0.0
 10
77.6879819722
 20
110.7671088213
 30
0.0
 10
79.0507455549
 20
110.8146137005
 30
0.0
 10
80.3470532856
 20
110.6700110569
 30
0.0
 10
81.5630529226
 20
110.3337233277
 30
0.0
 10
82.3146143099
 20
109.9818467311
 30
0.0
 10
82.6685877191
 20
109.7774854017
 30
0.0
  0
SPLINE
  5
3EB
100
AcDbEntity
  8
0
100
AcDbSpline
 62
7
  6
BYLAYER
 70
0
 71
3
 72
9
 73
5
 74
0
 42
0.0000001
 43
0.0000001
 44
0.0000000001
 40
0.0
 40
0.0
 40
0.0
 40
0.0
 40
0.2480045767
 40
1.0
 40
1.0
 40
1.0
 40
1.0
 10
46.770914144
 20
88.2827628266
 30
0.0
 10
46.7192250607
 20
88.3244801516
 30
0.0
 10
46.5140876813
 20
88.4967283952
 30
0.0
 10
46.3223380838
 20
88.6848463245
 30
0.0
 10
46.1865214774
 20
88.8335718185
 30
0.0
  0
SPLINE
  5
3EC
100
AcDbEntity
  8
0
100
AcDbSpline
 62
7
  6
BYLAYER
 70
0
 71
3
 72
23
 73
19
 74
0
 42
0.0000001
 43
0.0000001
 44
0.0000000001
 40
0.0
 40
0.0
 40
0.0
 40
0.0
 40
0.043956335
 40
0.0909543038
 40
0.1417122097
 40
0.1965552481
 40
0.2554725602
 40
0.3181850752
 40
0.3842057364
 40
0.4528899218
 40
0.5234787081
 40
0.5951384901
 40
0.6669949993
 40
0.738166588
 40
0.8077981567
 40
0.8750862592
 40
0.9393523741
 40
1.0
 40
1.0
 40
1.0
 40
1.0
 10
46.1865214774
 20
88.8335718185
 30
0.0
 10
45.9058319143
 20
89.1409399309
 30
0.0
 10
45.3966039314
 20
89.8449838371
 30
0.0
 10
44.8365290704
 20
91.0721872952
 30
0.0
 10
44.4653640195
 20
92.4749771975
 30
0.0
 10
44.287730658
 20
94.0273611511
 30
0.0
 10
44.3050815088
 20
95.7021342922
 30
0.0
 10
44.516454511
 20
97.4696043288
 30
0.0
 10
44.917746194
 20
99.2982085082
 30
0.0
 10
45.5016223998
 20
101.1549792105
 30
0.0
 10
46.2574086255
 20
103.0062725044
 30
0.0
 10
47.1713415621
 20
104.8184220783
 30
0.0
 10
48.2267678627
 20
106.5584194428
 30
0.0
 10
49.4044888298
 20
108.1945614313
 30
0.0
 10
50.6830549592
 20
109.6969466672
 30
0.0
 10
52.0392969432
 20
111.0385876398
 30
0.0
 10
53.4485384015
 20
112.1946152686
 30
0.0
 10
54.4377372198
 20
112.8484349802
 30
0.0
 10
54.9351019733
 20
113.1355869405
 30
0.0
  0
SPLINE
  5
3ED
100
AcDbEntity
  8
0
100
AcDbSpline
 62
7
  6
BYLAYER
 70
0
 71
3
 72
9
 73
5
 74
0
 42
0.0000001
 43
0.0000001
 44
0.0000000001
 40
0.0
 40
0.0
 40
0.0
 40
0.0
 40
0.2480045767
 40
1.0
 40
1.0
 40
1.0
 40
1.0
 10
47.4780238691
 20
87.8745220721
 30
0.0
 10
47.4263347858
 20
87.9162393971
 30
0.0
 10
47.2211974064
 20
88.0884876407
 30
0.0
 10
47.0294478089
 20
88.27660557
 30
0.0
 10
46.8936312025
 20
88.425331064
 30
0.0
  0
SPLINE
  5
3EE
100
AcDbEntity
  8
0
100
AcDbSpline
 62
7
  6
BYLAYER
 70
0
 71
3
 72
23
 73
19
 74
0
 42
0.0000001
 43
0.0000001
 44
0.0000000001
 40
0.0
 40
0.0
 40
0.0
 40
0.0
 40
0.043956335
 40
0.0909543038
 40
0.1417122097
 40
0.1965552481
 40
0.2554725602
 40
0.3181850752
 40
0.3842057364
 40
0.4528899218
 40
0.5234787081
 40
0.5951384901
 40
0.6669949993
 40
0.738166588
 40
0.8077981567
 40
0.8750862592
 40
0.9393523741
 40
1.0
 40
1.0
 40
1.0
 40
1.0
 10
46.8936312025
 20
88.425331064
 30
0.0
 10
46.6129416394
 20
88.7326991764
 30
0.0
 10
46.1037136565
 20
89.4367430826
 30
0.0
 10
45.5436387956
 20
90.6639465407
 30
0.0
 10
45.1724737447
 20
92.066736443
 30
0.0
 10
44.9948403832
 20
93.6191203966
 30
0.0
 10
45.0121912339
 20
95.2938935377
 30
0.0
 10
45.2235642361
 20
97.0613635743
 30
0.0
 10
45.6248559191
 20
98.8899677537
 30
0.0
 10
46.208732125
 20
100.746738456
 30
0.0
 10
46.9645183506
 20
102.5980317499
 30
0.0
 10
47.8784512872
 20
104.4101813238
 30
0.0
 10
48.9338775878
 20
106.1501786883
 30
0.0
 10
50.1115985549
 20
107.7863206768
 30
0.0
 10
51.3901646844
 20
109.2887059126
 30
0.0
 10
52.7464066684
 20
110.6303468853
 30
0.0
 10
54.1556481266
 20
111.786374514
 30
0.0
 10
55.1448469449
 20
112.4401942257
 30
0.0
 10
55.6422116984
 20
112.727346186
 30
0.0
  0
SPLINE
  5
3EF
100
AcDbEntity
  8
0
100
AcDbSpline
 62
7
  6
BYLAYER
 70
0
 71
3
 72
15
 73
11
 74
0
 42
0.0000001
 43
0.0000001
 44
0.0000000001
 40
0.0
 40
0.0
 40
0.0
 40
0.0
 40
0.1119630483
 40
0.2338299372
 40
0.3630588276
 40
0.4963999697
 40
0.6302454528
 40
0.7609482828
 40
0.8851193205
 40
1.0
 40
1.0
 40
1.0
 40
1.0
 10
57.039091156
 20
86.6980129336
 30
0.0
 10
56.9968358962
 20
87.546704925
 30
0.0
 10
57.0804184019
 20
89.3294847506
 30
0.0
 10
57.6245744024
 20
92.0389276529
 30
0.0
 10
58.5707736726
 20
94.807189686
 30
0.0
 10
59.8812164831
 20
97.5230276947
 30
0.0
 10
61.5033294285
 20
100.078217798
 30
0.0
 10
63.372532555
 20
102.3704343497
 30
0.0
 10
65.4133625914
 20
104.3078149516
 30
0.0
 10
66.9032855854
 20
105.3592692464
 30
0.0
 10
67.6583626671
 20
105.7952106005
 30
0.0
  0
SPLINE
  5
3F0
100
AcDbEntity
  8
0
100
AcDbSpline
 62
7
  6
BYLAYER
 70
0
 71
3
 72
9
 73
5
 74
0
 42
0.0000001
 43
0.0000001
 44
0.0000000001
 40
0.0
 40
0.0
 40
0.0
 40
0.0
 40
0.2480045767
 40
1.0
 40
1.0
 40
1.0
 40
1.0
 10
48.1851335943
 20
87.4662813176
 30
0.0
 10
48.133444511
 20
87.5079986426
 30
0.0
 10
47.9283071316
 20
87.6802468861
 30
0.0
 10
47.7365575341
 20
87.8683648154
 30
0.0
 10
47.6007409277
 20
88.0170903095
 30
0.0
  0
SPLINE
  5
3F1
100
AcDbEntity
  8
0
100
AcDbSpline
 62
7
  6
BYLAYER
 70
0
 71
3
 72
23
 73
19
 74
0
 42
0.0000001
 43
0.0000001
 44
0.0000000001
 40
0.0
 40
0.0
 40
0.0
 40
0.0
 40
0.043956335
 40
0.0909543038
 40
0.1417122097
 40
0.1965552481
 40
0.2554725602
 40
0.3181850752
 40
0.3842057364
 40
0.4528899218
 40
0.5234787081
 40
0.5951384901
 40
0.6669949993
 40
0.738166588
 40
0.8077981567
 40
0.8750862592
 40
0.9393523741
 40
1.0
 40
1.0
 40
1.0
 40
1.0
 10
47.6007409277
 20
88.0170903095
 30
0.0
 10
47.3200513645
 20
88.3244584219
 30
0.0
 10
46.8108233817
 20
89.0285023281
 30
0.0
 10
46.2507485207
 20
90.2557057862
 30
0.0
 10
45.8795834698
 20
91.6584956885
 30
0.0
 10
45.7019501083
 20
93.2108796421
 30
0.0
 10
45.7193009591
 20
94.8856527831
 30
0.0
 10
45.9306739613
 20
96.6531228198
 30
0.0
 10
46.3319656443
 20
98.4817269992
 30
0.0
 10
46.9158418501
 20
100.3384977014
 30
0.0
 10
47.6716280758
 20
102.1897909954
 30
0.0
 10
48.5855610124
 20
104.0019405693
 30
0.0
 10
49.640987313
 20
105.7419379337
 30
0.0
 10
50.8187082801
 20
107.3780799223
 30
0.0
 10
52.0972744095
 20
108.8804651581
 30
0.0
 10
53.4535163935
 20
110.2221061307
 30
0.0
 10
54.8627578518
 20
111.3781337595
 30
0.0
 10
55.8519566701
 20
112.0319534712
 30
0.0
 10
56.3493214236
 20
112.3191054314
 30
0.0
  0
SPLINE
  5
3F2
100
AcDbEntity
  8
0
100
AcDbSpline
 62
7
  6
BYLAYER
 70
0
 71
3
 72
18
 73
14
 74
0
 42
0.0000001
 43
0.0000001
 44
0.0000000001
 40
0.0
 40
0.0
 40
0.0
 40
0.0
 40
0.102159368
 40
0.1583662415
 40
0.2177332856
 40
0.2799451374
 40
0.3445814285
 40
0.478996381
 40
0.6164991079
 40
0.7521650892
 40
0.881266563
 40
0.9421537311
 40
1.0
 40
1.0
 40
1.0
 40
1.0
 10
56.7674818889
 20
84.5000877052
 30
0.0
 10
56.513415286
 20
85.3273959043
 30
0.0
 10
56.3074407654
 20
86.6707015792
 30
0.0
 10
56.3106745084
 20
88.5160798741
 30
0.0
 10
56.4560764219
 20
90.017684566
 30
0.0
 10
56.7425266543
 20
91.570685301
 30
0.0
 10
57.3145837122
 20
93.710751004
 30
0.0
 10
58.3557639735
 20
96.3760220646
 30
0.0
 10
60.0361120315
 20
99.4037446953
 30
0.0
 10
62.0767356423
 20
102.1456166952
 30
0.0
 10
64.0276991292
 20
104.1130709177
 30
0.0
 10
65.6813424206
 20
105.4101892428
 30
0.0
 10
66.5268620391
 20
105.9584306157
 30
0.0
 10
66.9512529419
 20
106.2034513551
 30
0.0
  0
SPLINE
  5
3F3
100
AcDbEntity
  8
0
100
AcDbSpline
 62
7
  6
BYLAYER
 70
0
 71
3
 72
21
 73
17
 74
0
 42
0.0000001
 43
0.0000001
 44
0.0000000001
 40
0.0
 40
0.0
 40
0.0
 40
0.0
 40
0.0462973379
 40
0.0960423756
 40
0.149503054
 40
0.2066819102
 40
0.2673673017
 40
0.3311771534
 40
0.3975958492
 40
0.4660098695
 40
0.6059537009
 40
0.7452582861
 40
0.8128955078
 40
0.8782568592
 40
0.9407931344
 40
1.0
 40
1.0
 40
1.0
 40
1.0
 10
56.6726305574
 20
83.4492370332
 30
0.0
 10
56.4707540054
 20
83.8138271274
 30
0.0
 10
56.1219166405
 20
84.6102209008
 30
0.0
 10
55.7798612406
 20
85.9163015201
 30
0.0
 10
55.6046227612
 20
87.35324681
 30
0.0
 10
55.5981274973
 20
88.8984828796
 30
0.0
 10
55.7598528092
 20
90.5284276294
 30
0.0
 10
56.0871275049
 20
92.217752762
 30
0.0
 10
56.5746522524
 20
93.9402213697
 30
0.0
 10
57.4344391592
 20
96.2616590182
 30
0.0
 10
58.8499622447
 20
99.0659925604
 30
0.0
 10
60.6476367781
 20
101.6339334866
 30
0.0
 10
62.2760259201
 20
103.4689556693
 30
0.0
 10
63.5485992227
 20
104.6880838893
 30
0.0
 10
64.8638253969
 20
105.7436218253
 30
0.0
 10
65.782589413
 20
106.3452154874
 30
0.0
 10
66.2441432167
 20
106.6116921096
 30
0.0
  0
SPLINE
  5
3F4
100
AcDbEntity
  8
0
100
AcDbSpline
 62
7
  6
BYLAYER
 70
0
 71
3
 72
9
 73
5
 74
0
 42
0.0000001
 43
0.0000001
 44
0.0000000001
 40
0.0
 40
0.0
 40
0.0
 40
0.0
 40
0.2480045767
 40
1.0
 40
1.0
 40
1.0
 40
1.0
 10
48.8922433194
 20
87.058040563
 30
0.0
 10
48.8405542361
 20
87.0997578881
 30
0.0
 10
48.6354168567
 20
87.2720061316
 30
0.0
 10
48.4436672592
 20
87.4601240609
 30
0.0
 10
48.3078506528
 20
87.6088495549
 30
0.0
  0
SPLINE
  5
3F5
100
AcDbEntity
  8
0
100
AcDbSpline
 62
7
  6
BYLAYER
 70
0
 71
3
 72
23
 73
19
 74
0
 42
0.0000001
 43
0.0000001
 44
0.0000000001
 40
0.0
 40
0.0
 40
0.0
 40
0.0
 40
0.043956335
 40
0.0909543038
 40
0.1417122097
 40
0.1965552481
 40
0.2554725602
 40
0.3181850752
 40
0.3842057364
 40
0.4528899218
 40
0.5234787081
 40
0.5951384901
 40
0.6669949993
 40
0.738166588
 40
0.8077981567
 40
0.8750862592
 40
0.9393523741
 40
1.0
 40
1.0
 40
1.0
 40
1.0
 10
48.3078506528
 20
87.6088495549
 30
0.0
 10
48.0271610897
 20
87.9162176674
 30
0.0
 10
47.5179331068
 20
88.6202615735
 30
0.0
 10
46.9578582459
 20
89.8474650316
 30
0.0
 10
46.586693195
 20
91.2502549339
 30
0.0
 10
46.4090598335
 20
92.8026388876
 30
0.0
 10
46.4264106842
 20
94.4774120286
 30
0.0
 10
46.6377836864
 20
96.2448820652
 30
0.0
 10
47.0390753694
 20
98.0734862447
 30
0.0
 10
47.6229515752
 20
99.9302569469
 30
0.0
 10
48.3787378009
 20
101.7815502409
 30
0.0
 10
49.2926707375
 20
103.5936998148
 30
0.0
 10
50.3480970381
 20
105.3336971792
 30
0.0
 10
51.5258180052
 20
106.9698391678
 30
0.0
 10
52.8043841347
 20
108.4722244036
 30
0.0
 10
54.1606261187
 20
109.8138653762
 30
0.0
 10
55.5698675769
 20
110.969893005
 30
0.0
 10
56.5590663952
 20
111.6237127167
 30
0.0
 10
57.0564311487
 20
111.9108646769
 30
0.0
  0
SPLINE
  5
3F6
100
AcDbEntity
  8
0
100
AcDbSpline
 62
7
  6
BYLAYER
 70
0
 71
3
 72
23
 73
19
 74
0
 42
0.0000001
 43
0.0000001
 44
0.0000000001
 40
0.0
 40
0.0
 40
0.0
 40
0.0
 40
0.0442627619
 40
0.0916710593
 40
0.1428590769
 40
0.198089812
 40
0.2573113298
 40
0.320221766
 40
0.3863259503
 40
0.4549824037
 40
0.5254432865
 40
0.5968918052
 40
0.6684747683
 40
0.7393343155
 40
0.8086394484
 40
0.8756104196
 40
0.9395908496
 40
1.0
 40
1.0
 40
1.0
 40
1.0
 10
56.6382517549
 20
82.8745207154
 30
0.0
 10
56.3701216545
 20
83.1926617425
 30
0.0
 10
55.8871183662
 20
83.9148557002
 30
0.0
 10
55.3634953469
 20
85.1584627827
 30
0.0
 10
55.0253098716
 20
86.5700763489
 30
0.0
 10
54.8767673213
 20
88.1242876139
 30
0.0
 10
54.9189601465
 20
89.7944581236
 30
0.0
 10
55.1505844396
 20
91.5515775914
 30
0.0
 10
55.5672997113
 20
93.3649220793
 30
0.0
 10
56.161684932
 20
95.2024966025
 30
0.0
 10
56.9231334721
 20
97.0317232318
 30
0.0
 10
57.8380709054
 20
98.8200721727
 30
0.0
 10
58.8901922095
 20
100.5356945259
 30
0.0
 10
60.0607870244
 20
102.1480271593
 30
0.0
 10
61.3290193279
 20
103.6282520026
 30
0.0
 10
62.672417645
 20
104.9503861825
 30
0.0
 10
64.0670819432
 20
106.0904486909
 30
0.0
 10
65.0452732706
 20
106.736016663
 30
0.0
 10
65.5370334912
 20
107.0199328641
 30
0.0
  0
SPLINE
  5
3F7
100
AcDbEntity
  8
0
100
AcDbSpline
 62
7
  6
BYLAYER
 70
0
 71
3
 72
9
 73
5
 74
0
 42
0.0000001
 43
0.0000001
 44
0.0000000001
 40
0.0
 40
0.0
 40
0.0
 40
0.0
 40
0.2481398857
 40
1.0
 40
1.0
 40
1.0
 40
1.0
 10
56.5945150231
 20
82.6203827357
 30
0.0
 10
56.5490964125
 20
82.6583361573
 30
0.0
 10
56.3687009581
 20
82.8144264919
 30
0.0
 10
56.1990319239
 20
82.9828675219
 30
0.0
 10
56.0780795201
 20
83.1152826154
 30
0.0
  0
SPLINE
  5
3F8
100
AcDbEntity
  8
0
100
AcDbSpline
 62
7
  6
BYLAYER
 70
0
 71
3
 72
23
 73
19
 74
0
 42
0.0000001
 43
0.0000001
 44
0.0000000001
 40
0.0
 40
0.0
 40
0.0
 40
0.0
 40
0.0439554243
 40
0.0909521316
 40
0.1417086951
 40
0.196550512
 40
0.2554668584
 40
0.3181787387
 40
0.384199124
 40
0.4528833838
 40
0.5234725611
 40
0.5951329983
 40
0.6669903606
 40
0.7381629253
 40
0.8077955169
 40
0.8750846142
 40
0.9393516257
 40
1.0
 40
1.0
 40
1.0
 40
1.0
 10
56.0780795201
 20
83.1152826154
 30
0.0
 10
55.7972306207
 20
83.4227476357
 30
0.0
 10
55.287702434
 20
84.1270340318
 30
0.0
 10
54.7272728972
 20
85.354709101
 30
0.0
 10
54.3558448175
 20
86.7580697493
 30
0.0
 10
54.1780433768
 20
88.3111106072
 30
0.0
 10
54.1953229066
 20
89.9866133985
 30
0.0
 10
54.4067220034
 20
91.7548709998
 30
0.0
 10
54.8081362196
 20
93.5843045208
 30
0.0
 10
55.3922285244
 20
95.4419291874
 30
0.0
 10
56.1483196948
 20
97.2940833017
 30
0.0
 10
57.0626399437
 20
99.107082559
 30
0.0
 10
58.1185277142
 20
100.8479006737
 30
0.0
 10
59.2967745562
 20
102.484817303
 30
0.0
 10
60.5759198564
 20
103.9879148399
 30
0.0
 10
61.9327821921
 20
105.3301910357
 30
0.0
 10
63.3426721667
 20
106.4867633537
 30
0.0
 10
64.3323286663
 20
107.1408886701
 30
0.0
 10
64.8299237632
 20
107.4281736184
 30
0.0
  0
SPLINE
  5
3F9
100
AcDbEntity
  8
0
100
AcDbSpline
 62
7
  6
BYLAYER
 70
0
 71
3
 72
9
 73
5
 74
0
 42
0.0000001
 43
0.0000001
 44
0.0000000001
 40
0.0
 40
0.0
 40
0.0
 40
0.0
 40
0.2480045767
 40
1.0
 40
1.0
 40
1.0
 40
1.0
 10
49.5993530446
 20
86.6497998085
 30
0.0
 10
49.5476639613
 20
86.6915171335
 30
0.0
 10
49.3425265819
 20
86.8637653771
 30
0.0
 10
49.1507769844
 20
87.0518833064
 30
0.0
 10
49.014960378
 20
87.2006088004
 30
0.0
  0
SPLINE
  5
3FA
100
AcDbEntity
  8
0
100
AcDbSpline
 62
7
  6
BYLAYER
 70
0
 71
3
 72
23
 73
19
 74
0
 42
0.0000001
 43
0.0000001
 44
0.0000000001
 40
0.0
 40
0.0
 40
0.0
 40
0.0
 40
0.043956335
 40
0.0909543038
 40
0.1417122097
 40
0.1965552481
 40
0.2554725602
 40
0.3181850752
 40
0.3842057364
 40
0.4528899218
 40
0.5234787081
 40
0.5951384901
 40
0.6669949993
 40
0.738166588
 40
0.8077981567
 40
0.8750862592
 40
0.9393523741
 40
1.0
 40
1.0
 40
1.0
 40
1.0
 10
49.014960378
 20
87.2006088004
 30
0.0
 10
48.7342708148
 20
87.5079769128
 30
0.0
 10
48.225042832
 20
88.212020819
 30
0.0
 10
47.664967971
 20
89.4392242771
 30
0.0
 10
47.2938029201
 20
90.8420141794
 30
0.0
 10
47.1161695586
 20
92.394398133
 30
0.0
 10
47.1335204094
 20
94.0691712741
 30
0.0
 10
47.3448934116
 20
95.8366413107
 30
0.0
 10
47.7461850946
 20
97.6652454901
 30
0.0
 10
48.3300613004
 20
99.5220161924
 30
0.0
 10
49.0858475261
 20
101.3733094864
 30
0.0
 10
49.9997804627
 20
103.1854590603
 30
0.0
 10
51.0552067633
 20
104.9254564247
 30
0.0
 10
52.2329277304
 20
106.5615984133
 30
0.0
 10
53.5114938598
 20
108.0639836491
 30
0.0
 10
54.8677358438
 20
109.4056246217
 30
0.0
 10
56.276977302
 20
110.5616522505
 30
0.0
 10
57.2661761204
 20
111.2154719622
 30
0.0
 10
57.7635408739
 20
111.5026239224
 30
0.0
  0
SPLINE
  5
3FB
100
AcDbEntity
  8
0
100
AcDbSpline
 62
7
  6
BYLAYER
 70
0
 71
3
 72
9
 73
5
 74
0
 42
0.0000001
 43
0.0000001
 44
0.0000000001
 40
0.0
 40
0.0
 40
0.0
 40
0.0
 40
0.2480061914
 40
1.0
 40
1.0
 40
1.0
 40
1.0
 10
55.9554079154
 20
82.9727784715
 30
0.0
 10
55.9037163349
 20
83.0144921709
 30
0.0
 10
55.6985686009
 20
83.1867232314
 30
0.0
 10
55.506801853
 20
83.3748183831
 30
0.0
 10
55.370968476
 20
83.5235248284
 30
0.0
  0
SPLINE
  5
3FC
100
AcDbEntity
  8
0
100
AcDbSpline
 62
7
  6
BYLAYER
 70
0
 71
3
 72
23
 73
19
 74
0
 42
0.0000001
 43
0.0000001
 44
0.0000000001
 40
0.0
 40
0.0
 40
0.0
 40
0.0
 40
0.0439554268
 40
0.0909521377
 40
0.1417087049
 40
0.1965505252
 40
0.2554668743
 40
0.3181787564
 40
0.3841991425
 40
0.4528834021
 40
0.5234725783
 40
0.5951330137
 40
0.6669903735
 40
0.7381629355
 40
0.8077955243
 40
0.8750846188
 40
0.9393516277
 40
1.0
 40
1.0
 40
1.0
 40
1.0
 10
55.370968476
 20
83.5235248284
 30
0.0
 10
55.0901196876
 20
83.8309899439
 30
0.0
 10
54.5805917337
 20
84.5352765006
 30
0.0
 10
54.0201625214
 20
85.7629517131
 30
0.0
 10
53.648734735
 20
87.1663124366
 30
0.0
 10
53.4709335527
 20
88.719353307
 30
0.0
 10
53.4882133026
 20
90.3948560533
 30
0.0
 10
53.6996125782
 20
92.1631135579
 30
0.0
 10
54.1010269298
 20
93.9925469383
 30
0.0
 10
54.6851193259
 20
95.8501714291
 30
0.0
 10
55.441210544
 20
97.7023253418
 30
0.0
 10
56.3555307987
 20
99.515324382
 30
0.0
 10
57.4114185361
 20
101.2561422746
 30
0.0
 10
58.5896653106
 20
102.893058687
 30
0.0
 10
59.8688105145
 20
104.396156022
 30
0.0
 10
61.2256727314
 20
105.7384320399
 30
0.0
 10
62.6355625713
 20
106.8950042119
 30
0.0
 10
63.6252189696
 20
107.5491294527
 30
0.0
 10
64.1228140149
 20
107.8364143712
 30
0.0
  0
SPLINE
  5
3FD
100
AcDbEntity
  8
0
100
AcDbSpline
 62
7
  6
BYLAYER
 70
0
 71
3
 72
9
 73
5
 74
0
 42
0.0000001
 43
0.0000001
 44
0.0000000001
 40
0.0
 40
0.0
 40
0.0
 40
0.0
 40
0.248006147
 40
1.0
 40
1.0
 40
1.0
 40
1.0
 10
55.2482967702
 20
83.3810205169
 30
0.0
 10
55.1966043259
 20
83.4227349415
 30
0.0
 10
54.9914531846
 20
83.5949690923
 30
0.0
 10
54.7996834963
 20
83.7830678638
 30
0.0
 10
54.6638481987
 20
83.9317772506
 30
0.0
  0
SPLINE
  5
3FE
100
AcDbEntity
  8
0
100
AcDbSpline
 62
7
  6
BYLAYER
 70
0
 71
3
 72
23
 73
19
 74
0
 42
0.0000001
 43
0.0000001
 44
0.0000000001
 40
0.0
 40
0.0
 40
0.0
 40
0.0
 40
0.0439554472
 40
0.0909521863
 40
0.1417087835
 40
0.1965506311
 40
0.2554670019
 40
0.3181788981
 40
0.3841992904
 40
0.4528835483
 40
0.5234727157
 40
0.5951331365
 40
0.6669904773
 40
0.7381630175
 40
0.8077955833
 40
0.8750846556
 40
0.9393516445
 40
1.0
 40
1.0
 40
1.0
 40
1.0
 10
54.6638481987
 20
83.9317772506
 30
0.0
 10
54.3830002995
 20
84.2392431277
 30
0.0
 10
53.8734742077
 20
84.9435309697
 30
0.0
 10
53.3130475915
 20
86.1712073281
 30
0.0
 10
52.9416221513
 20
87.5745686533
 30
0.0
 10
52.7638230358
 20
89.1276096238
 30
0.0
 10
52.7811045463
 20
90.8031120093
 30
0.0
 10
52.9925052525
 20
92.5713687411
 30
0.0
 10
53.3939206875
 20
94.4008009969
 30
0.0
 10
53.9780138141
 20
96.2584240806
 30
0.0
 10
54.7341054135
 20
98.1105763807
 30
0.0
 10
55.6484257143
 20
99.9235736845
 30
0.0
 10
56.7043131874
 20
101.6643898001
 30
0.0
 10
57.8825594224
 20
103.3013044773
 30
0.0
 10
59.1617038557
 20
104.8044001967
 30
0.0
 10
60.5185651211
 20
106.1466747914
 30
0.0
 10
61.9284538846
 20
107.3032457964
 30
0.0
 10
62.9181094723
 20
107.9573704321
 30
0.0
 10
63.415704105
 20
108.2446551124
 30
0.0
  0
SPLINE
  5
3FF
100
AcDbEntity
  8
0
100
AcDbSpline
 62
7
  6
BYLAYER
 70
0
 71
3
 72
9
 73
5
 74
0
 42
0.0000001
 43
0.0000001
 44
0.0000000001
 40
0.0
 40
0.0
 40
0.0
 40
0.0
 40
0.2480045767
 40
1.0
 40
1.0
 40
1.0
 40
1.0
 10
50.3064627697
 20
86.241559054
 30
0.0
 10
50.2547736864
 20
86.283276379
 30
0.0
 10
50.049636307
 20
86.4555246226
 30
0.0
 10
49.8578867095
 20
86.6436425519
 30
0.0
 10
49.7220701031
 20
86.7923680459
 30
0.0
  0
SPLINE
  5
400
100
AcDbEntity
  8
0
100
AcDbSpline
 62
7
  6
BYLAYER
 70
0
 71
3
 72
23
 73
19
 74
0
 42
0.0000001
 43
0.0000001
 44
0.0000000001
 40
0.0
 40
0.0
 40
0.0
 40
0.0
 40
0.043956335
 40
0.0909543038
 40
0.1417122097
 40
0.1965552481
 40
0.2554725602
 40
0.3181850752
 40
0.3842057364
 40
0.4528899218
 40
0.5234787081
 40
0.5951384901
 40
0.6669949993
 40
0.738166588
 40
0.8077981567
 40
0.8750862592
 40
0.9393523741
 40
1.0
 40
1.0
 40
1.0
 40
1.0
 10
49.7220701031
 20
86.7923680459
 30
0.0
 10
49.44138054
 20
87.0997361583
 30
0.0
 10
48.9321525571
 20
87.8037800645
 30
0.0
 10
48.3720776962
 20
89.0309835226
 30
0.0
 10
48.0009126452
 20
90.4337734249
 30
0.0
 10
47.8232792838
 20
91.9861573785
 30
0.0
 10
47.8406301345
 20
93.6609305196
 30
0.0
 10
48.0520031367
 20
95.4284005562
 30
0.0
 10
48.4532948197
 20
97.2570047356
 30
0.0
 10
49.0371710255
 20
99.1137754379
 30
0.0
 10
49.7929572512
 20
100.9650687318
 30
0.0
 10
50.7068901878
 20
102.7772183057
 30
0.0
 10
51.7623164884
 20
104.5172156702
 30
0.0
 10
52.9400374555
 20
106.1533576587
 30
0.0
 10
54.218603585
 20
107.6557428946
 30
0.0
 10
55.574845569
 20
108.9973838672
 30
0.0
 10
56.9840870272
 20
110.1534114959
 30
0.0
 10
57.9732858455
 20
110.8072312076
 30
0.0
 10
58.470650599
 20
111.0943831679
 30
0.0
  0
SPLINE
  5
401
100
AcDbEntity
  8
0
100
AcDbSpline
 62
7
  6
BYLAYER
 70
0
 71
3
 72
9
 73
5
 74
0
 42
0.0000001
 43
0.0000001
 44
0.0000000001
 40
0.0
 40
0.0
 40
0.0
 40
0.0
 40
0.2480029631
 40
1.0
 40
1.0
 40
1.0
 40
1.0
 10
54.5411756847
 20
83.7892715985
 30
0.0
 10
54.4894167199
 20
83.8310399289
 30
0.0
 10
54.2840031939
 20
84.0035040247
 30
0.0
 10
54.0920063429
 20
84.1918733956
 30
0.0
 10
53.9560222721
 20
84.3408031623
 30
0.0
  0
SPLINE
  5
402
100
AcDbEntity
  8
0
100
AcDbSpline
 62
7
  6
BYLAYER
 70
0
 71
3
 72
23
 73
19
 74
0
 42
0.0000001
 43
0.0000001
 44
0.0000000001
 40
0.0
 40
0.0
 40
0.0
 40
0.0
 40
0.0439568416
 40
0.090955512
 40
0.1417141644
 40
0.1965578821
 40
0.2554757312
 40
0.3181885991
 40
0.3842094138
 40
0.4528935578
 40
0.5234821266
 40
0.5951415442
 40
0.666997579
 40
0.7381686249
 40
0.8077996248
 40
0.875087174
 40
0.9393527903
 40
1.0
 40
1.0
 40
1.0
 40
1.0
 10
53.9560222721
 20
84.3408031623
 30
0.0
 10
53.6752350655
 20
84.6483213366
 30
0.0
 10
53.1658361289
 20
85.3526975583
 30
0.0
 10
52.6055868655
 20
86.5804530593
 30
0.0
 10
52.2343217978
 20
87.9838563863
 30
0.0
 10
52.0566640358
 20
89.5369051153
 30
0.0
 10
52.0740660601
 20
91.2123837893
 30
0.0
 10
52.2855648064
 20
92.980588662
 30
0.0
 10
52.6870546243
 20
94.8099450113
 30
0.0
 10
53.2711980869
 20
96.6674728809
 30
0.0
 10
54.027316233
 20
98.5195158956
 30
0.0
 10
54.9416402237
 20
100.33239541
 30
0.0
 10
55.9975102274
 20
102.0730909284
 30
0.0
 10
57.1757202306
 20
103.7098877995
 30
0.0
 10
58.4548126742
 20
105.212873831
 30
0.0
 10
59.8116096134
 20
106.5550518006
 30
0.0
 10
61.2214255324
 20
107.7115436089
 30
0.0
 10
62.2110262161
 20
108.3656272152
 30
0.0
 10
62.7085929015
 20
108.6528957602
 30
0.0
  0
SPLINE
  5
403
100
AcDbEntity
  8
0
100
AcDbSpline
 62
7
  6
BYLAYER
 70
0
 71
3
 72
9
 73
5
 74
0
 42
0.0000001
 43
0.0000001
 44
0.0000000001
 40
0.0
 40
0.0
 40
0.0
 40
0.0
 40
0.247914239
 40
1.0
 40
1.0
 40
1.0
 40
1.0
 10
53.8332622461
 20
84.1981703402
 30
0.0
 10
53.7796903348
 20
84.2414193601
 30
0.0
 10
53.5671268595
 20
84.4202059736
 30
0.0
 10
53.3689632707
 20
84.6160265672
 30
0.0
 10
53.228956731
 20
84.7710251484
 30
0.0
  0
SPLINE
  5
404
100
AcDbEntity
  8
0
100
AcDbSpline
 62
7
  6
BYLAYER
 70
0
 71
3
 72
23
 73
19
 74
0
 42
0.0000001
 43
0.0000001
 44
0.0000000001
 40
0.0
 40
0.0
 40
0.0
 40
0.0
 40
0.0439961198
 40
0.0910489264
 40
0.1418650657
 40
0.1967610208
 40
0.2557201229
 40
0.3184600667
 40
0.3844926039
 40
0.4531734888
 40
0.5237452619
 40
0.595376597
 40
0.6671960966
 40
0.738325359
 40
0.8079125824
 40
0.8751575631
 40
0.9393848156
 40
1.0
 40
1.0
 40
1.0
 40
1.0
 10
53.228956731
 20
84.7710251484
 30
0.0
 10
52.9498663333
 20
85.0800008275
 30
0.0
 10
52.4440202603
 20
85.7868378821
 30
0.0
 10
51.8887229017
 20
87.0167957568
 30
0.0
 10
51.5219349667
 20
88.4213650691
 30
0.0
 10
51.3482229031
 20
89.9746242071
 30
0.0
 10
51.3689884979
 20
91.6494351679
 30
0.0
 10
51.5832230365
 20
93.4161870838
 30
0.0
 10
51.986787976
 20
95.2434197673
 30
0.0
 10
52.5723349393
 20
97.0982856998
 30
0.0
 10
53.3291925278
 20
98.9472746275
 30
0.0
 10
54.2436179399
 20
100.7568633233
 30
0.0
 10
55.2989988091
 20
102.4941902209
 30
0.0
 10
56.4761960448
 20
104.127696893
 30
0.0
 10
57.7538359869
 20
105.6276197484
 30
0.0
 10
59.1088361983
 20
106.9670994938
 30
0.0
 10
60.5166176974
 20
108.121379812
 30
0.0
 10
61.5046851157
 20
108.774317707
 30
0.0
 10
62.0014713497
 20
109.0611356609
 30
0.0
  0
SPLINE
  5
405
100
AcDbEntity
  8
0
100
AcDbSpline
 62
7
  6
BYLAYER
 70
0
 71
3
 72
9
 73
5
 74
0
 42
0.0000001
 43
0.0000001
 44
0.0000000001
 40
0.0
 40
0.0
 40
0.0
 40
0.0
 40
0.2480045767
 40
1.0
 40
1.0
 40
1.0
 40
1.0
 10
51.0135724949
 20
85.8333182995
 30
0.0
 10
50.9618834116
 20
85.8750356245
 30
0.0
 10
50.7567460322
 20
86.0472838681
 30
0.0
 10
50.5649964347
 20
86.2354017974
 30
0.0
 10
50.4291798283
 20
86.3841272914
 30
0.0
  0
SPLINE
  5
406
100
AcDbEntity
  8
0
100
AcDbSpline
 62
7
  6
BYLAYER
 70
0
 71
3
 72
23
 73
19
 74
0
 42
0.0000001
 43
0.0000001
 44
0.0000000001
 40
0.0
 40
0.0
 40
0.0
 40
0.0
 40
0.043956335
 40
0.0909543038
 40
0.1417122097
 40
0.1965552481
 40
0.2554725602
 40
0.3181850752
 40
0.3842057364
 40
0.4528899218
 40
0.5234787081
 40
0.5951384901
 40
0.6669949993
 40
0.738166588
 40
0.8077981567
 40
0.8750862592
 40
0.9393523741
 40
1.0
 40
1.0
 40
1.0
 40
1.0
 10
50.4291798283
 20
86.3841272914
 30
0.0
 10
50.1484902651
 20
86.6914954038
 30
0.0
 10
49.6392622823
 20
87.39553931
 30
0.0
 10
49.0791874213
 20
88.6227427681
 30
0.0
 10
48.7080223704
 20
90.0255326704
 30
0.0
 10
48.5303890089
 20
91.577916624
 30
0.0
 10
48.5477398596
 20
93.2526897651
 30
0.0
 10
48.7591128619
 20
95.0201598017
 30
0.0
 10
49.1604045449
 20
96.8487639811
 30
0.0
 10
49.7442807507
 20
98.7055346834
 30
0.0
 10
50.5000669764
 20
100.5568279773
 30
0.0
 10
51.413999913
 20
102.3689775512
 30
0.0
 10
52.4694262136
 20
104.1089749157
 30
0.0
 10
53.6471471806
 20
105.7451169042
 30
0.0
 10
54.9257133101
 20
107.24750214
 30
0.0
 10
56.2819552941
 20
108.5891431127
 30
0.0
 10
57.6911967523
 20
109.7451707414
 30
0.0
 10
58.6803955707
 20
110.3989904531
 30
0.0
 10
59.1777603242
 20
110.6861424134
 30
0.0
  0
SPLINE
  5
407
100
AcDbEntity
  8
0
100
AcDbSpline
 62
7
  6
BYLAYER
 70
0
 71
3
 72
9
 73
5
 74
0
 42
0.0000001
 43
0.0000001
 44
0.0000000001
 40
0.0
 40
0.0
 40
0.0
 40
0.0
 40
0.2480616902
 40
1.0
 40
1.0
 40
1.0
 40
1.0
 10
53.1036566696
 20
84.6247633311
 30
0.0
 10
53.0543783628
 20
84.6650069738
 30
0.0
 10
52.8587493385
 20
84.8309157027
 30
0.0
 10
52.675435596
 20
85.0112837785
 30
0.0
 10
52.5452606593
 20
85.1535816036
 30
0.0
  0
SPLINE
  5
408
100
AcDbEntity
  8
0
100
AcDbSpline
 62
7
  6
BYLAYER
 70
0
 71
3
 72
23
 73
19
 74
0
 42
0.0000001
 43
0.0000001
 44
0.0000000001
 40
0.0
 40
0.0
 40
0.0
 40
0.0
 40
0.0439500107
 40
0.0909392138
 40
0.1416877882
 40
0.1965223345
 40
0.2554329321
 40
0.318141033
 40
0.3841597742
 40
0.4528444749
 40
0.5234359782
 40
0.595100314
 40
0.6669627529
 40
0.7381411263
 40
0.8077798055
 40
0.8750748234
 40
0.9393471711
 40
1.0
 40
1.0
 40
1.0
 40
1.0
 10
52.5452606593
 20
85.1535816036
 30
0.0
 10
52.2641777056
 20
85.4608411578
 30
0.0
 10
51.754158582
 20
86.1647790363
 30
0.0
 10
51.1930432085
 20
87.3921379857
 30
0.0
 10
50.8209940345
 20
88.7953257656
 30
0.0
 10
50.6426441439
 20
90.348325911
 30
0.0
 10
50.6594549412
 20
92.0239095463
 30
0.0
 10
50.8704713819
 20
93.7923568304
 30
0.0
 10
51.2715936512
 20
95.6220731438
 30
0.0
 10
51.8554862816
 20
97.4800555058
 30
0.0
 10
52.6114691278
 20
99.3326220822
 30
0.0
 10
53.5257688696
 20
101.1460671456
 30
0.0
 10
54.5817174636
 20
102.8873424813
 30
0.0
 10
55.7600972677
 20
104.5247061865
 30
0.0
 10
57.0394361305
 20
106.0282201389
 30
0.0
 10
58.3965394808
 20
107.37086304
 30
0.0
 10
59.8067032397
 20
108.5277355445
 30
0.0
 10
60.7965665859
 20
109.1820160102
 30
0.0
 10
61.2942670137
 20
109.469361771
 30
0.0
  0
SPLINE
  5
409
100
AcDbEntity
  8
0
100
AcDbSpline
 62
7
  6
BYLAYER
 70
0
 71
3
 72
9
 73
5
 74
0
 42
0.0000001
 43
0.0000001
 44
0.0000000001
 40
0.0
 40
0.0
 40
0.0
 40
0.0
 40
0.2480214043
 40
1.0
 40
1.0
 40
1.0
 40
1.0
 10
52.4238864576
 20
85.0130197034
 30
0.0
 10
52.3722030571
 20
85.0546020746
 30
0.0
 10
52.1670884662
 20
85.226289807
 30
0.0
 10
51.9753044174
 20
85.4138296279
 30
0.0
 10
51.8394349988
 20
85.5621160612
 30
0.0
  0
SPLINE
  5
40A
100
AcDbEntity
  8
0
100
AcDbSpline
 62
7
  6
BYLAYER
 70
0
 71
3
 72
23
 73
19
 74
0
 42
0.0000001
 43
0.0000001
 44
0.0000000001
 40
0.0
 40
0.0
 40
0.0
 40
0.0
 40
0.0439442859
 40
0.0909255423
 40
0.1416656517
 40
0.1964924914
 40
0.2553969936
 40
0.3181010856
 40
0.384118081
 40
0.4528032459
 40
0.5233972119
 40
0.5950656775
 40
0.6669334952
 40
0.7381180241
 40
0.8077631545
 40
0.875064447
 40
0.9393424501
 40
1.0
 40
1.0
 40
1.0
 40
1.0
 10
51.8394349988
 20
85.5621160612
 30
0.0
 10
51.5581441951
 20
85.8691138423
 30
0.0
 10
51.0476776521
 20
86.5725815012
 30
0.0
 10
50.4859154704
 20
87.7994297942
 30
0.0
 10
50.1132610816
 20
89.2022336701
 30
0.0
 10
49.9343552959
 20
90.754968615
 30
0.0
 10
49.9506668107
 20
92.4303984082
 30
0.0
 10
50.1612474574
 20
94.1987939776
 30
0.0
 10
50.5620029227
 20
96.0285485459
 30
0.0
 10
51.1456004419
 20
97.886644552
 30
0.0
 10
51.9013604318
 20
99.7393836256
 30
0.0
 10
52.8155077948
 20
101.5530421449
 30
0.0
 10
53.8713699954
 20
103.294553367
 30
0.0
 10
55.0497223932
 20
104.9321570656
 30
0.0
 10
56.3290836736
 20
106.4358976439
 30
0.0
 10
57.6862486408
 20
107.7787374649
 30
0.0
 10
59.0965011788
 20
108.9357629194
 30
0.0
 10
60.0864423895
 20
109.5901143869
 30
0.0
 10
60.5841833766
 20
109.8774835644
 30
0.0
  0
SPLINE
  5
40B
100
AcDbEntity
  8
0
100
AcDbSpline
 62
7
  6
BYLAYER
 70
0
 71
3
 72
9
 73
5
 74
0
 42
0.0000001
 43
0.0000001
 44
0.0000000001
 40
0.0
 40
0.0
 40
0.0
 40
0.0
 40
0.2480045767
 40
1.0
 40
1.0
 40
1.0
 40
1.0
 10
51.72068222
 20
85.425077545
 30
0.0
 10
51.6689931367
 20
85.46679487
 30
0.0
 10
51.4638557573
 20
85.6390431135
 30
0.0
 10
51.2721061598
 20
85.8271610428
 30
0.0
 10
51.1362895534
 20
85.9758865369
 30
0.0
  0
SPLINE
  5
40C
100
AcDbEntity
  8
0
100
AcDbSpline
 62
7
  6
BYLAYER
 70
0
 71
3
 72
23
 73
19
 74
0
 42
0.0000001
 43
0.0000001
 44
0.0000000001
 40
0.0
 40
0.0
 40
0.0
 40
0.0
 40
0.043956335
 40
0.0909543038
 40
0.1417122097
 40
0.1965552481
 40
0.2554725602
 40
0.3181850752
 40
0.3842057364
 40
0.4528899218
 40
0.5234787081
 40
0.5951384901
 40
0.6669949993
 40
0.738166588
 40
0.8077981567
 40
0.8750862592
 40
0.9393523741
 40
1.0
 40
1.0
 40
1.0
 40
1.0
 10
51.1362895534
 20
85.9758865369
 30
0.0
 10
50.8555999903
 20
86.2832546493
 30
0.0
 10
50.3463720074
 20
86.9872985555
 30
0.0
 10
49.7862971465
 20
88.2145020136
 30
0.0
 10
49.4151320955
 20
89.6172919159
 30
0.0
 10
49.2374987341
 20
91.1696758695
 30
0.0
 10
49.2548495848
 20
92.8444490105
 30
0.0
 10
49.466222587
 20
94.6119190472
 30
0.0
 10
49.86751427
 20
96.4405232266
 30
0.0
 10
50.4513904758
 20
98.2972939288
 30
0.0
 10
51.2071767015
 20
100.1485872228
 30
0.0
 10
52.1211096381
 20
101.9607367967
 30
0.0
 10
53.1765359387
 20
103.7007341611
 30
0.0
 10
54.3542569058
 20
105.3368761497
 30
0.0
 10
55.6328230353
 20
106.8392613855
 30
0.0
 10
56.9890650192
 20
108.1809023581
 30
0.0
 10
58.3983064775
 20
109.3369299869
 30
0.0
 10
59.3875052958
 20
109.9907496986
 30
0.0
 10
59.8848700493
 20
110.2779016588
 30
0.0
  0
SPLINE
  5
40D
100
AcDbEntity
  8
0
100
AcDbSpline
 62
7
  6
BYLAYER
 70
0
 71
3
 72
23
 73
19
 74
0
 42
0.0000001
 43
0.0000001
 44
0.0000000001
 40
0.0
 40
0.0
 40
0.0
 40
0.0
 40
0.0606123215
 40
0.1248045223
 40
0.1919891756
 40
0.2614970899
 40
0.3325366574
 40
0.4042656255
 40
0.4758154537
 40
0.5463241955
 40
0.6149688238
 40
0.6809983292
 40
0.7437722471
 40
0.8028022012
 40
0.8578004998
 40
0.9087383306
 40
0.9559121201
 40
1.0
 40
1.0
 40
1.0
 40
1.0
 10
54.2862169218
 20
113.4753328304
 30
0.0
 10
53.7922299413
 20
113.1885047185
 30
0.0
 10
52.8098916788
 20
112.5365785026
 30
0.0
 10
51.4101984664
 20
111.3859129661
 30
0.0
 10
50.0630157371
 20
110.0522060482
 30
0.0
 10
48.7925319784
 20
108.5598450692
 30
0.0
 10
47.6214806973
 20
106.9352951723
 30
0.0
 10
46.5709152806
 20
105.2078670648
 30
0.0
 10
45.6596989458
 20
103.4086324948
 30
0.0
 10
44.9042239483
 20
101.5699446782
 30
0.0
 10
44.3180772625
 20
99.7248144412
 30
0.0
 10
43.9118345012
 20
97.9062548985
 30
0.0
 10
43.6928115602
 20
96.1466468758
 30
0.0
 10
43.6651817199
 20
94.4770301887
 30
0.0
 10
43.8300394747
 20
92.9266539631
 30
0.0
 10
44.1860934353
 20
91.5223448573
 30
0.0
 10
44.7289184781
 20
90.2897150324
 30
0.0
 10
45.2253921142
 20
89.5784232297
 30
0.0
 10
45.4998975874
 20
89.266525454
 30
0.0
  0
SPLINE
  5
40E
100
AcDbEntity
  8
0
100
AcDbSpline
 62
7
  6
BYLAYER
 70
0
 71
3
 72
9
 73
5
 74
0
 42
0.0000001
 43
0.0000001
 44
0.0000000001
 40
0.0
 40
0.0
 40
0.0
 40
0.0
 40
0.2525642381
 40
1.0
 40
1.0
 40
1.0
 40
1.0
 10
45.4998975874
 20
89.266525454
 30
0.0
 10
45.5447137209
 20
89.2156046027
 30
0.0
 10
45.7258117831
 20
89.0172411359
 30
0.0
 10
45.9216442742
 20
88.8322753051
 30
0.0
 10
46.0753909857
 20
88.7031974551
 30
0.0
  0
SPLINE
  5
40F
100
AcDbEntity
  8
0
100
AcDbSpline
 62
7
  6
BYLAYER
 70
0
 71
3
 72
9
 73
5
 74
0
 42
0.0000001
 43
0.0000001
 44
0.0000000001
 40
0.0
 40
0.0
 40
0.0
 40
0.0
 40
0.251165571
 40
1.0
 40
1.0
 40
1.0
 40
1.0
 10
46.0753909857
 20
88.7031974551
 30
0.0
 10
46.1258752106
 20
88.6608134902
 30
0.0
 10
46.3300853269
 20
88.4959273474
 30
0.0
 10
46.5470953352
 20
88.3468799368
 30
0.0
 10
46.7153602374
 20
88.2453417482
 30
0.0
  0
SPLINE
  5
410
100
AcDbEntity
  8
0
100
AcDbSpline
 62
7
  6
BYLAYER
 70
0
 71
3
 72
21
 73
17
 74
0
 42
0.0000001
 43
0.0000001
 44
0.0000000001
 40
0.0
 40
0.0
 40
0.0
 40
0.0
 40
0.0603695054
 40
0.1242692764
 40
0.1911285181
 40
0.2603014307
 40
0.4023640445
 40
0.5439766195
 40
0.612602694
 40
0.6787317098
 40
0.7417268373
 40
0.8010916402
 40
0.8565151216
 40
0.907926555
 40
0.9555580512
 40
1.0
 40
1.0
 40
1.0
 40
1.0
 10
65.5952581713
 20
106.9514380243
 30
0.0
 10
65.1072957903
 20
106.6681087149
 30
0.0
 10
64.1367845572
 20
106.0250718385
 30
0.0
 10
62.7527902651
 20
104.8915739543
 30
0.0
 10
61.4193710978
 20
103.5787768953
 30
0.0
 10
59.7258695993
 20
101.6035961905
 30
0.0
 10
57.8863710872
 20
98.8494919628
 30
0.0
 10
56.4838962518
 20
95.8545873729
 30
0.0
 10
55.6793337803
 20
93.3971977278
 30
0.0
 10
55.2568485371
 20
91.5952194688
 30
0.0
 10
55.016413689
 20
89.8471052871
 30
0.0
 10
54.9624630834
 20
88.1828840065
 30
0.0
 10
55.0964553442
 20
86.6310998744
 30
0.0
 10
55.4174567822
 20
85.2179636757
 30
0.0
 10
55.9214943755
 20
83.9684733501
 30
0.0
 10
56.3899269423
 20
83.238389797
 30
0.0
 10
56.6509334796
 20
82.9152491889
 30
0.0
  0
SPLINE
  5
411
100
AcDbEntity
  8
0
100
AcDbSpline
 62
7
  6
BYLAYER
 70
0
 71
3
 72
23
 73
19
 74
0
 42
0.0000001
 43
0.0000001
 44
0.0000000001
 40
0.0
 40
0.0
 40
0.0
 40
0.0
 40
0.0606123215
 40
0.1248045223
 40
0.1919891756
 40
0.2614970899
 40
0.3325366574
 40
0.4042656255
 40
0.4758154537
 40
0.5463241955
 40
0.6149688238
 40
0.6809983292
 40
0.7437722471
 40
0.8028022012
 40
0.8578004998
 40
0.9087383306
 40
0.9559121201
 40
1.0
 40
1.0
 40
1.0
 40
1.0
 10
53.5791071967
 20
113.8835735849
 30
0.0
 10
53.0851202162
 20
113.596745473
 30
0.0
 10
52.1027819537
 20
112.9448192572
 30
0.0
 10
50.7030887413
 20
111.7941537206
 30
0.0
 10
49.3559060119
 20
110.4604468028
 30
0.0
 10
48.0854222532
 20
108.9680858237
 30
0.0
 10
46.9143709721
 20
107.3435359268
 30
0.0
 10
45.8638055554
 20
105.6161078193
 30
0.0
 10
44.9525892207
 20
103.8168732493
 30
0.0
 10
44.1971142231
 20
101.9781854327
 30
0.0
 10
43.6109675374
 20
100.1330551957
 30
0.0
 10
43.204724776
 20
98.3144956531
 30
0.0
 10
42.985701835
 20
96.5548876304
 30
0.0
 10
42.9580719948
 20
94.8852709432
 30
0.0
 10
43.1229297495
 20
93.3348947176
 30
0.0
 10
43.4789837101
 20
91.9305856118
 30
0.0
 10
44.0218087529
 20
90.697955787
 30
0.0
 10
44.5182823891
 20
89.9866639842
 30
0.0
 10
44.7927878622
 20
89.6747662085
 30
0.0
  0
SPLINE
  5
412
100
AcDbEntity
  8
0
100
AcDbSpline
 62
7
  6
BYLAYER
 70
0
 71
3
 72
9
 73
5
 74
0
 42
0.0000001
 43
0.0000001
 44
0.0000000001
 40
0.0
 40
0.0
 40
0.0
 40
0.0
 40
0.2525642381
 40
1.0
 40
1.0
 40
1.0
 40
1.0
 10
44.7927878622
 20
89.6747662085
 30
0.0
 10
44.8376039957
 20
89.6238453573
 30
0.0
 10
45.018702058
 20
89.4254818905
 30
0.0
 10
45.214534549
 20
89.2405160596
 30
0.0
 10
45.3682812605
 20
89.1114382096
 30
0.0
  0
SPLINE
  5
413
100
AcDbEntity
  8
0
100
AcDbSpline
 62
7
  6
BYLAYER
 70
0
 71
3
 72
9
 73
5
 74
0
 42
0.0000001
 43
0.0000001
 44
0.0000000001
 40
0.0
 40
0.0
 40
0.0
 40
0.0
 40
0.251165571
 40
1.0
 40
1.0
 40
1.0
 40
1.0
 10
45.3682812605
 20
89.1114382096
 30
0.0
 10
45.4187654855
 20
89.0690542447
 30
0.0
 10
45.6229756017
 20
88.9041681019
 30
0.0
 10
45.8399856101
 20
88.7551206913
 30
0.0
 10
46.0082505123
 20
88.6535825027
 30
0.0
  0
SPLINE
  5
414
100
AcDbEntity
  8
0
100
AcDbSpline
 62
7
  6
BYLAYER
 70
0
 71
3
 72
9
 73
5
 74
0
 42
0.0000001
 43
0.0000001
 44
0.0000000001
 40
0.0
 40
0.0
 40
0.0
 40
0.0
 40
0.2494603608
 40
1.0
 40
1.0
 40
1.0
 40
1.0
 10
54.6741984691
 20
118.3696962565
 30
0.0
 10
54.6263005116
 20
118.396072226
 30
0.0
 10
54.4325806023
 20
118.4986644019
 30
0.0
 10
54.2321429824
 20
118.5885535616
 30
0.0
 10
54.0789556076
 20
118.6485388532
 30
0.0
  0
SPLINE
  5
415
100
AcDbEntity
  8
0
100
AcDbSpline
 62
7
  6
BYLAYER
 70
0
 71
3
 72
12
 73
8
 74
0
 42
0.0000001
 43
0.0000001
 44
0.0000000001
 40
0.0
 40
0.0
 40
0.0
 40
0.0
 40
0.1078799327
 40
0.2189353654
 40
0.4546647851
 40
0.7141930712
 40
1.0
 40
1.0
 40
1.0
 40
1.0
 10
53.9714284276
 20
118.6892599698
 30
0.0
 10
53.7341457963
 20
118.7760990903
 30
0.0
 10
53.2389025213
 20
118.9169660393
 30
0.0
 10
52.1813169809
 20
119.0638052657
 30
0.0
 10
50.7485683947
 20
118.9763628323
 30
0.0
 10
48.9790001045
 20
118.4723524538
 30
0.0
 10
47.825010919
 20
117.9099088069
 30
0.0
 10
47.2452837123
 20
117.5752051459
 30
0.0
  0
SPLINE
  5
416
100
AcDbEntity
  8
0
100
AcDbSpline
 62
7
  6
BYLAYER
 70
0
 71
3
 72
23
 73
19
 74
0
 42
0.0000001
 43
0.0000001
 44
0.0000000001
 40
0.0
 40
0.0
 40
0.0
 40
0.0
 40
0.0606123215
 40
0.1248045223
 40
0.1919891756
 40
0.2614970899
 40
0.3325366574
 40
0.4042656255
 40
0.4758154537
 40
0.5463241955
 40
0.6149688238
 40
0.6809983292
 40
0.7437722471
 40
0.8028022012
 40
0.8578004998
 40
0.9087383306
 40
0.9559121201
 40
1.0
 40
1.0
 40
1.0
 40
1.0
 10
52.8719974715
 20
114.2918143394
 30
0.0
 10
52.378010491
 20
114.0049862275
 30
0.0
 10
51.3956722285
 20
113.3530600117
 30
0.0
 10
49.9959790161
 20
112.2023944752
 30
0.0
 10
48.6487962868
 20
110.8686875573
 30
0.0
 10
47.3783125281
 20
109.3763265783
 30
0.0
 10
46.207261247
 20
107.7517766813
 30
0.0
 10
45.1566958303
 20
106.0243485738
 30
0.0
 10
44.2454794955
 20
104.2251140038
 30
0.0
 10
43.490004498
 20
102.3864261872
 30
0.0
 10
42.9038578123
 20
100.5412959502
 30
0.0
 10
42.4976150509
 20
98.7227364076
 30
0.0
 10
42.2785921099
 20
96.9631283849
 30
0.0
 10
42.2509622697
 20
95.2935116977
 30
0.0
 10
42.4158200244
 20
93.7431354721
 30
0.0
 10
42.771873985
 20
92.3388263663
 30
0.0
 10
43.3146990278
 20
91.1061965415
 30
0.0
 10
43.8111726639
 20
90.3949047388
 30
0.0
 10
44.0856781371
 20
90.083006963
 30
0.0
  0
SPLINE
  5
417
100
AcDbEntity
  8
0
100
AcDbSpline
 62
7
  6
BYLAYER
 70
0
 71
3
 72
9
 73
5
 74
0
 42
0.0000001
 43
0.0000001
 44
0.0000000001
 40
0.0
 40
0.0
 40
0.0
 40
0.0
 40
0.2525642381
 40
1.0
 40
1.0
 40
1.0
 40
1.0
 10
44.0856781371
 20
90.083006963
 30
0.0
 10
44.1304942706
 20
90.0320861118
 30
0.0
 10
44.3115923328
 20
89.833722645
 30
0.0
 10
44.5074248239
 20
89.6487568141
 30
0.0
 10
44.6611715354
 20
89.5196789641
 30
0.0
  0
SPLINE
  5
418
100
AcDbEntity
  8
0
100
AcDbSpline
 62
7
  6
BYLAYER
 70
0
 71
3
 72
9
 73
5
 74
0
 42
0.0000001
 43
0.0000001
 44
0.0000000001
 40
0.0
 40
0.0
 40
0.0
 40
0.0
 40
0.251165571
 40
1.0
 40
1.0
 40
1.0
 40
1.0
 10
44.6611715354
 20
89.5196789641
 30
0.0
 10
44.7116557603
 20
89.4772949992
 30
0.0
 10
44.9158658766
 20
89.3124088564
 30
0.0
 10
45.1328758849
 20
89.1633614459
 30
0.0
 10
45.3011407871
 20
89.0618232572
 30
0.0
  0
SPLINE
  5
419
100
AcDbEntity
  8
0
100
AcDbSpline
 62
7
  6
BYLAYER
 70
0
 71
3
 72
25
 73
21
 74
0
 42
0.0000001
 43
0.0000001
 44
0.0000000001
 40
0.0
 40
0.0
 40
0.0
 40
0.0
 40
0.0213368252
 40
0.0428933805
 40
0.0648870919
 40
0.0875148447
 40
0.1352441134
 40
0.1870947101
 40
0.2434868108
 40
0.3043998231
 40
0.3694664959
 40
0.4380573702
 40
0.509351404
 40
0.5823953181
 40
0.6561565634
 40
0.729568443
 40
0.8015831568
 40
0.8712119955
 40
0.9375899413
 40
1.0
 40
1.0
 40
1.0
 40
1.0
 10
111.5959742155
 20
91.2197656993
 30
0.0
 10
111.8425041339
 20
91.0792068259
 30
0.0
 10
112.3205064445
 20
90.7644386019
 30
0.0
 10
112.9769167214
 20
90.2008716356
 30
0.0
 10
113.5708855712
 20
89.5483487151
 30
0.0
 10
114.2872750387
 20
88.5476535958
 30
0.0
 10
115.005522545
 20
87.0755366389
 30
0.0
 10
115.5545341421
 20
85.0650591452
 30
0.0
 10
115.8015877931
 20
82.8208929326
 30
0.0
 10
115.7437796952
 20
80.3898556496
 30
0.0
 10
115.3838161051
 20
77.8220498178
 30
0.0
 10
114.7297405116
 20
75.1713135261
 30
0.0
 10
113.7956227593
 20
72.4936993977
 30
0.0
 10
112.6014147514
 20
69.8461952484
 30
0.0
 10
111.172627478
 20
67.2853804945
 30
0.0
 10
109.5398541692
 20
64.8659763442
 30
0.0
 10
107.7379645541
 20
62.639816305
 30
0.0
 10
105.8052613391
 20
60.6541039172
 30
0.0
 10
103.7830848851
 20
58.9516444229
 30
0.0
 10
102.3549923632
 20
57.997067013
 30
0.0
 10
101.6361309677
 20
57.5820346703
 30
0.0
  0
SPLINE
  5
41A
100
AcDbEntity
  8
0
100
AcDbSpline
 62
7
  6
BYLAYER
 70
0
 71
3
 72
23
 73
19
 74
0
 42
0.0000001
 43
0.0000001
 44
0.0000000001
 40
0.0
 40
0.0
 40
0.0
 40
0.0
 40
0.0606123215
 40
0.1248045223
 40
0.1919891756
 40
0.2614970899
 40
0.3325366574
 40
0.4042656255
 40
0.4758154537
 40
0.5463241955
 40
0.6149688238
 40
0.6809983292
 40
0.7437722471
 40
0.8028022012
 40
0.8578004998
 40
0.9087383306
 40
0.9559121201
 40
1.0
 40
1.0
 40
1.0
 40
1.0
 10
52.1648877464
 20
114.7000550939
 30
0.0
 10
51.6709007659
 20
114.413226982
 30
0.0
 10
50.6885625034
 20
113.7613007662
 30
0.0
 10
49.288869291
 20
112.6106352297
 30
0.0
 10
47.9416865616
 20
111.2769283118
 30
0.0
 10
46.6712028029
 20
109.7845673328
 30
0.0
 10
45.5001515218
 20
108.1600174359
 30
0.0
 10
44.4495861051
 20
106.4325893283
 30
0.0
 10
43.5383697704
 20
104.6333547584
 30
0.0
 10
42.7828947728
 20
102.7946669417
 30
0.0
 10
42.1967480871
 20
100.9495367047
 30
0.0
 10
41.7905053257
 20
99.1309771621
 30
0.0
 10
41.5714823847
 20
97.3713691394
 30
0.0
 10
41.5438525445
 20
95.7017524522
 30
0.0
 10
41.7087102992
 20
94.1513762266
 30
0.0
 10
42.0647642599
 20
92.7470671209
 30
0.0
 10
42.6075893026
 20
91.514437296
 30
0.0
 10
43.1040629388
 20
90.8031454933
 30
0.0
 10
43.3785684119
 20
90.4912477175
 30
0.0
  0
SPLINE
  5
41B
100
AcDbEntity
  8
0
100
AcDbSpline
 62
7
  6
BYLAYER
 70
0
 71
3
 72
9
 73
5
 74
0
 42
0.0000001
 43
0.0000001
 44
0.0000000001
 40
0.0
 40
0.0
 40
0.0
 40
0.0
 40
0.2525642381
 40
1.0
 40
1.0
 40
1.0
 40
1.0
 10
43.3785684119
 20
90.4912477175
 30
0.0
 10
43.4233845454
 20
90.4403268663
 30
0.0
 10
43.6044826077
 20
90.2419633995
 30
0.0
 10
43.8003150988
 20
90.0569975687
 30
0.0
 10
43.9540618102
 20
89.9279197186
 30
0.0
  0
SPLINE
  5
41C
100
AcDbEntity
  8
0
100
AcDbSpline
 62
7
  6
BYLAYER
 70
0
 71
3
 72
9
 73
5
 74
0
 42
0.0000001
 43
0.0000001
 44
0.0000000001
 40
0.0
 40
0.0
 40
0.0
 40
0.0
 40
0.251165571
 40
1.0
 40
1.0
 40
1.0
 40
1.0
 10
43.9540618102
 20
89.9279197186
 30
0.0
 10
44.0045460352
 20
89.8855357537
 30
0.0
 10
44.2087561514
 20
89.720649611
 30
0.0
 10
44.4257661598
 20
89.5716022004
 30
0.0
 10
44.594031062
 20
89.4700640117
 30
0.0
  0
SPLINE
  5
41D
100
AcDbEntity
  8
0
100
AcDbSpline
 62
7
  6
BYLAYER
 70
0
 71
3
 72
9
 73
5
 74
0
 42
0.0000001
 43
0.0000001
 44
0.0000000001
 40
0.0
 40
0.0
 40
0.0
 40
0.0
 40
0.2494603608
 40
1.0
 40
1.0
 40
1.0
 40
1.0
 10
55.3813081943
 20
117.961455502
 30
0.0
 10
55.3334102368
 20
117.9878314714
 30
0.0
 10
55.1396903275
 20
118.0904236474
 30
0.0
 10
54.9392527075
 20
118.1803128071
 30
0.0
 10
54.7860653328
 20
118.2402980987
 30
0.0
  0
SPLINE
  5
41E
100
AcDbEntity
  8
0
100
AcDbSpline
 62
7
  6
BYLAYER
 70
0
 71
3
 72
12
 73
8
 74
0
 42
0.0000001
 43
0.0000001
 44
0.0000000001
 40
0.0
 40
0.0
 40
0.0
 40
0.0
 40
0.1078799327
 40
0.2189353654
 40
0.4546647851
 40
0.7141930712
 40
1.0
 40
1.0
 40
1.0
 40
1.0
 10
54.6785381527
 20
118.2810192153
 30
0.0
 10
54.4412555214
 20
118.3678583358
 30
0.0
 10
53.9460122464
 20
118.5087252847
 30
0.0
 10
52.888426706
 20
118.6555645111
 30
0.0
 10
51.4556781198
 20
118.5681220778
 30
0.0
 10
49.6861098296
 20
118.0641116993
 30
0.0
 10
48.5321206442
 20
117.5016680523
 30
0.0
 10
47.9523934375
 20
117.1669643914
 30
0.0
  0
SPLINE
  5
41F
100
AcDbEntity
  8
0
100
AcDbSpline
 62
7
  6
BYLAYER
 70
0
 71
3
 72
23
 73
19
 74
0
 42
0.0000001
 43
0.0000001
 44
0.0000000001
 40
0.0
 40
0.0
 40
0.0
 40
0.0
 40
0.0606123215
 40
0.1248045223
 40
0.1919891756
 40
0.2614970899
 40
0.3325366574
 40
0.4042656255
 40
0.4758154537
 40
0.5463241955
 40
0.6149688238
 40
0.6809983292
 40
0.7437722471
 40
0.8028022012
 40
0.8578004998
 40
0.9087383306
 40
0.9559121201
 40
1.0
 40
1.0
 40
1.0
 40
1.0
 10
51.4577780212
 20
115.1082958485
 30
0.0
 10
50.9637910407
 20
114.8214677366
 30
0.0
 10
49.9814527782
 20
114.1695415207
 30
0.0
 10
48.5817595658
 20
113.0188759842
 30
0.0
 10
47.2345768365
 20
111.6851690663
 30
0.0
 10
45.9640930778
 20
110.1928080873
 30
0.0
 10
44.7930417967
 20
108.5682581904
 30
0.0
 10
43.74247638
 20
106.8408300828
 30
0.0
 10
42.8312600452
 20
105.0415955129
 30
0.0
 10
42.0757850477
 20
103.2029076963
 30
0.0
 10
41.489638362
 20
101.3577774592
 30
0.0
 10
41.0833956006
 20
99.5392179166
 30
0.0
 10
40.8643726596
 20
97.7796098939
 30
0.0
 10
40.8367428194
 20
96.1099932068
 30
0.0
 10
41.0016005741
 20
94.5596169812
 30
0.0
 10
41.3576545347
 20
93.1553078754
 30
0.0
 10
41.9004795775
 20
91.9226780505
 30
0.0
 10
42.3969532136
 20
91.2113862478
 30
0.0
 10
42.6714586868
 20
90.8994884721
 30
0.0
  0
SPLINE
  5
420
100
AcDbEntity
  8
0
100
AcDbSpline
 62
7
  6
BYLAYER
 70
0
 71
3
 72
9
 73
5
 74
0
 42
0.0000001
 43
0.0000001
 44
0.0000000001
 40
0.0
 40
0.0
 40
0.0
 40
0.0
 40
0.2525642381
 40
1.0
 40
1.0
 40
1.0
 40
1.0
 10
42.6714586868
 20
90.8994884721
 30
0.0
 10
42.7162748203
 20
90.8485676208
 30
0.0
 10
42.8973728825
 20
90.650204154
 30
0.0
 10
43.0932053736
 20
90.4652383232
 30
0.0
 10
43.2469520851
 20
90.3361604731
 30
0.0
  0
SPLINE
  5
421
100
AcDbEntity
  8
0
100
AcDbSpline
 62
7
  6
BYLAYER
 70
0
 71
3
 72
9
 73
5
 74
0
 42
0.0000001
 43
0.0000001
 44
0.0000000001
 40
0.0
 40
0.0
 40
0.0
 40
0.0
 40
0.251165571
 40
1.0
 40
1.0
 40
1.0
 40
1.0
 10
43.2469520851
 20
90.3361604731
 30
0.0
 10
43.29743631
 20
90.2937765082
 30
0.0
 10
43.5016464263
 20
90.1288903655
 30
0.0
 10
43.7186564347
 20
89.9798429549
 30
0.0
 10
43.8869213368
 20
89.8783047662
 30
0.0
  0
SPLINE
  5
422
100
AcDbEntity
  8
0
100
AcDbSpline
 62
7
  6
BYLAYER
 70
0
 71
3
 72
23
 73
19
 74
0
 42
0.0000001
 43
0.0000001
 44
0.0000000001
 40
0.0
 40
0.0
 40
0.0
 40
0.0
 40
0.0606130846
 40
0.1248062122
 40
0.1919919026
 40
0.2615008908
 40
0.3325414902
 40
0.4042713671
 40
0.4758219015
 40
0.5463310755
 40
0.6149758053
 40
0.6810050438
 40
0.7437783149
 40
0.8028072685
 40
0.8578042881
 40
0.9087406979
 40
0.9559131313
 40
1.0
 40
1.0
 40
1.0
 40
1.0
 10
64.8881484432
 20
107.3596787786
 30
0.0
 10
64.393931153
 20
107.0727176337
 30
0.0
 10
63.4111352831
 20
106.4204857867
 30
0.0
 10
62.0107936245
 20
105.2692756265
 30
0.0
 10
60.6629905718
 20
103.9349336435
 30
0.0
 10
59.3919275934
 20
102.4418605719
 30
0.0
 10
58.2203502801
 20
100.8165362453
 30
0.0
 10
57.1693231067
 20
99.0882875458
 30
0.0
 10
56.2577190261
 20
97.288203344
 30
0.0
 10
55.5019385006
 20
95.4486545971
 30
0.0
 10
54.9155749785
 20
93.6026700804
 30
0.0
 10
54.509208841
 20
91.783280629
 30
0.0
 10
54.2901588552
 20
90.0228842038
 30
0.0
 10
54.2625993123
 20
88.3525367405
 30
0.0
 10
54.4276240545
 20
86.8015021946
 30
0.0
 10
54.7839399317
 20
85.3966206283
 30
0.0
 10
55.3271185546
 20
84.163517147
 30
0.0
 10
55.8238920188
 20
83.451980936
 30
0.0
 10
56.0985568273
 20
83.1399853548
 30
0.0
  0
SPLINE
  5
423
100
AcDbEntity
  8
0
100
AcDbSpline
 62
7
  6
BYLAYER
 70
0
 71
3
 72
9
 73
5
 74
0
 42
0.0000001
 43
0.0000001
 44
0.0000000001
 40
0.0
 40
0.0
 40
0.0
 40
0.0
 40
0.2522760311
 40
1.0
 40
1.0
 40
1.0
 40
1.0
 10
56.0985568273
 20
83.1399853548
 30
0.0
 10
56.1375268889
 20
83.0957187191
 30
0.0
 10
56.2947676479
 20
82.9227089993
 30
0.0
 10
56.4631434166
 20
82.7597872288
 30
0.0
 10
56.5947337421
 20
82.6447255237
 30
0.0
  0
SPLINE
  5
424
100
AcDbEntity
  8
0
100
AcDbSpline
 62
7
  6
BYLAYER
 70
0
 71
3
 72
9
 73
5
 74
0
 42
0.0000001
 43
0.0000001
 44
0.0000000001
 40
0.0
 40
0.0
 40
0.0
 40
0.0
 40
0.2525642381
 40
1.0
 40
1.0
 40
1.0
 40
1.0
 10
41.9643489616
 20
91.3077292266
 30
0.0
 10
42.0091650951
 20
91.2568083753
 30
0.0
 10
42.1902631574
 20
91.0584449085
 30
0.0
 10
42.3860956485
 20
90.8734790777
 30
0.0
 10
42.5398423599
 20
90.7444012277
 30
0.0
  0
SPLINE
  5
425
100
AcDbEntity
  8
0
100
AcDbSpline
 62
7
  6
BYLAYER
 70
0
 71
3
 72
9
 73
5
 74
0
 42
0.0000001
 43
0.0000001
 44
0.0000000001
 40
0.0
 40
0.0
 40
0.0
 40
0.0
 40
0.251165571
 40
1.0
 40
1.0
 40
1.0
 40
1.0
 10
42.5398423599
 20
90.7444012277
 30
0.0
 10
42.5903265849
 20
90.7020172628
 30
0.0
 10
42.7945367011
 20
90.53713112
 30
0.0
 10
43.0115467095
 20
90.3880837094
 30
0.0
 10
43.1798116117
 20
90.2865455208
 30
0.0
  0
SPLINE
  5
426
100
AcDbEntity
  8
0
100
AcDbSpline
 62
7
  6
BYLAYER
 70
0
 71
3
 72
9
 73
5
 74
0
 42
0.0000001
 43
0.0000001
 44
0.0000000001
 40
0.0
 40
0.0
 40
0.0
 40
0.0
 40
0.2494603608
 40
1.0
 40
1.0
 40
1.0
 40
1.0
 10
49.017320668
 20
121.6356222927
 30
0.0
 10
48.9694227104
 20
121.6619982621
 30
0.0
 10
48.7757028012
 20
121.764590438
 30
0.0
 10
48.5752651812
 20
121.8544795978
 30
0.0
 10
48.4220778065
 20
121.9144648894
 30
0.0
  0
SPLINE
  5
427
100
AcDbEntity
  8
0
100
AcDbSpline
 62
7
  6
BYLAYER
 70
0
 71
3
 72
12
 73
8
 74
0
 42
0.0000001
 43
0.0000001
 44
0.0000000001
 40
0.0
 40
0.0
 40
0.0
 40
0.0
 40
0.1078799327
 40
0.2189353654
 40
0.4546647851
 40
0.7141930712
 40
1.0
 40
1.0
 40
1.0
 40
1.0
 10
48.3145506264
 20
121.9551860059
 30
0.0
 10
48.0772679951
 20
122.0420251265
 30
0.0
 10
47.5820247201
 20
122.1828920754
 30
0.0
 10
46.5244391797
 20
122.3297313018
 30
0.0
 10
45.0916905935
 20
122.2422888685
 30
0.0
 10
43.3221223033
 20
121.73827849
 30
0.0
 10
42.1681331179
 20
121.175834843
 30
0.0
 10
41.5884059111
 20
120.8411311821
 30
0.0
  0
SPLINE
  5
428
100
AcDbEntity
  8
0
100
AcDbSpline
 62
7
  6
BYLAYER
 70
0
 71
3
 72
9
 73
5
 74
0
 42
0.0000001
 43
0.0000001
 44
0.0000000001
 40
0.0
 40
0.0
 40
0.0
 40
0.0
 40
0.2494603608
 40
1.0
 40
1.0
 40
1.0
 40
1.0
 10
56.0884179194
 20
117.5532147475
 30
0.0
 10
56.0405199619
 20
117.5795907169
 30
0.0
 10
55.8468000526
 20
117.6821828928
 30
0.0
 10
55.6463624327
 20
117.7720720526
 30
0.0
 10
55.4931750579
 20
117.8320573442
 30
0.0
  0
SPLINE
  5
429
100
AcDbEntity
  8
0
100
AcDbSpline
 62
7
  6
BYLAYER
 70
0
 71
3
 72
12
 73
8
 74
0
 42
0.0000001
 43
0.0000001
 44
0.0000000001
 40
0.0
 40
0.0
 40
0.0
 40
0.0
 40
0.1078799327
 40
0.2189353654
 40
0.4546647851
 40
0.7141930712
 40
1.0
 40
1.0
 40
1.0
 40
1.0
 10
55.3856478779
 20
117.8727784607
 30
0.0
 10
55.1483652466
 20
117.9596175813
 30
0.0
 10
54.6531219716
 20
118.1004845302
 30
0.0
 10
53.5955364312
 20
118.2473237566
 30
0.0
 10
52.162787845
 20
118.1598813233
 30
0.0
 10
50.3932195548
 20
117.6558709448
 30
0.0
 10
49.2392303693
 20
117.0934272978
 30
0.0
 10
48.6595031626
 20
116.7587236369
 30
0.0
  0
SPLINE
  5
42A
100
AcDbEntity
  8
0
100
AcDbSpline
 62
7
  6
BYLAYER
 70
0
 71
3
 72
23
 73
19
 74
0
 42
0.0000001
 43
0.0000001
 44
0.0000000001
 40
0.0
 40
0.0
 40
0.0
 40
0.0
 40
0.0606123215
 40
0.1248045223
 40
0.1919891756
 40
0.2614970899
 40
0.3325366574
 40
0.4042656255
 40
0.4758154537
 40
0.5463241955
 40
0.6149688238
 40
0.6809983292
 40
0.7437722471
 40
0.8028022012
 40
0.8578004998
 40
0.9087383306
 40
0.9559121201
 40
1.0
 40
1.0
 40
1.0
 40
1.0
 10
50.0435585709
 20
115.9247773575
 30
0.0
 10
49.5495715904
 20
115.6379492456
 30
0.0
 10
48.5672333279
 20
114.9860230298
 30
0.0
 10
47.1675401155
 20
113.8353574932
 30
0.0
 10
45.8203573862
 20
112.5016505754
 30
0.0
 10
44.5498736275
 20
111.0092895963
 30
0.0
 10
43.3788223464
 20
109.3847396994
 30
0.0
 10
42.3282569297
 20
107.6573115919
 30
0.0
 10
41.4170405949
 20
105.8580770219
 30
0.0
 10
40.6615655974
 20
104.0193892053
 30
0.0
 10
40.0754189117
 20
102.1742589683
 30
0.0
 10
39.6691761503
 20
100.3556994257
 30
0.0
 10
39.4501532093
 20
98.596091403
 30
0.0
 10
39.4225233691
 20
96.9264747158
 30
0.0
 10
39.5873811238
 20
95.3760984902
 30
0.0
 10
39.9434350844
 20
93.9717893844
 30
0.0
 10
40.4862601272
 20
92.7391595596
 30
0.0
 10
40.9827337633
 20
92.0278677568
 30
0.0
 10
41.2572392365
 20
91.7159699811
 30
0.0
  0
SPLINE
  5
42B
100
AcDbEntity
  8
0
100
AcDbSpline
 62
7
  6
BYLAYER
 70
0
 71
3
 72
9
 73
5
 74
0
 42
0.0000001
 43
0.0000001
 44
0.0000000001
 40
0.0
 40
0.0
 40
0.0
 40
0.0
 40
0.2525642381
 40
1.0
 40
1.0
 40
1.0
 40
1.0
 10
41.2572392365
 20
91.7159699811
 30
0.0
 10
41.30205537
 20
91.6650491299
 30
0.0
 10
41.4831534322
 20
91.4666856631
 30
0.0
 10
41.6789859233
 20
91.2817198322
 30
0.0
 10
41.8327326348
 20
91.1526419822
 30
0.0
  0
SPLINE
  5
42C
100
AcDbEntity
  8
0
100
AcDbSpline
 62
7
  6
BYLAYER
 70
0
 71
3
 72
9
 73
5
 74
0
 42
0.0000001
 43
0.0000001
 44
0.0000000001
 40
0.0
 40
0.0
 40
0.0
 40
0.0
 40
0.251165571
 40
1.0
 40
1.0
 40
1.0
 40
1.0
 10
41.8327326348
 20
91.1526419822
 30
0.0
 10
41.8832168597
 20
91.1102580173
 30
0.0
 10
42.087426976
 20
90.9453718745
 30
0.0
 10
42.3044369844
 20
90.7963244639
 30
0.0
 10
42.4727018865
 20
90.6947862753
 30
0.0
  0
SPLINE
  5
42D
100
AcDbEntity
  8
0
100
AcDbSpline
 62
7
  6
BYLAYER
 70
0
 71
3
 72
23
 73
19
 74
0
 42
0.0000001
 43
0.0000001
 44
0.0000000001
 40
0.0
 40
0.0
 40
0.0
 40
0.0
 40
0.0606123215
 40
0.1248045223
 40
0.1919891756
 40
0.2614970899
 40
0.3325366574
 40
0.4042656255
 40
0.4758154537
 40
0.5463241955
 40
0.6149688238
 40
0.6809983292
 40
0.7437722471
 40
0.8028022012
 40
0.8578004998
 40
0.9087383306
 40
0.9559121201
 40
1.0
 40
1.0
 40
1.0
 40
1.0
 10
49.3364488458
 20
116.333018112
 30
0.0
 10
48.8424618653
 20
116.0461900001
 30
0.0
 10
47.8601236028
 20
115.3942637843
 30
0.0
 10
46.4604303904
 20
114.2435982478
 30
0.0
 10
45.113247661
 20
112.9098913299
 30
0.0
 10
43.8427639024
 20
111.4175303509
 30
0.0
 10
42.6717126212
 20
109.7929804539
 30
0.0
 10
41.6211472045
 20
108.0655523464
 30
0.0
 10
40.7099308698
 20
106.2663177764
 30
0.0
 10
39.9544558723
 20
104.4276299598
 30
0.0
 10
39.3683091865
 20
102.5824997228
 30
0.0
 10
38.9620664252
 20
100.7639401802
 30
0.0
 10
38.7430434842
 20
99.0043321575
 30
0.0
 10
38.7154136439
 20
97.3347154703
 30
0.0
 10
38.8802713986
 20
95.7843392447
 30
0.0
 10
39.2363253593
 20
94.380030139
 30
0.0
 10
39.7791504021
 20
93.1474003141
 30
0.0
 10
40.2756240382
 20
92.4361085114
 30
0.0
 10
40.5501295113
 20
92.1242107356
 30
0.0
  0
SPLINE
  5
42E
100
AcDbEntity
  8
0
100
AcDbSpline
 62
7
  6
BYLAYER
 70
0
 71
3
 72
9
 73
5
 74
0
 42
0.0000001
 43
0.0000001
 44
0.0000000001
 40
0.0
 40
0.0
 40
0.0
 40
0.0
 40
0.2525642381
 40
1.0
 40
1.0
 40
1.0
 40
1.0
 10
40.5501295113
 20
92.1242107356
 30
0.0
 10
40.5949456448
 20
92.0732898844
 30
0.0
 10
40.7760437071
 20
91.8749264176
 30
0.0
 10
40.9718761982
 20
91.6899605867
 30
0.0
 10
41.1256229096
 20
91.5608827367
 30
0.0
  0
SPLINE
  5
42F
100
AcDbEntity
  8
0
100
AcDbSpline
 62
7
  6
BYLAYER
 70
0
 71
3
 72
9
 73
5
 74
0
 42
0.0000001
 43
0.0000001
 44
0.0000000001
 40
0.0
 40
0.0
 40
0.0
 40
0.0
 40
0.251165571
 40
1.0
 40
1.0
 40
1.0
 40
1.0
 10
41.1256229096
 20
91.5608827367
 30
0.0
 10
41.1761071346
 20
91.5184987718
 30
0.0
 10
41.3803172509
 20
91.3536126291
 30
0.0
 10
41.5973272592
 20
91.2045652185
 30
0.0
 10
41.7655921614
 20
91.1030270298
 30
0.0
  0
SPLINE
  5
430
100
AcDbEntity
  8
0
100
AcDbSpline
 62
7
  6
BYLAYER
 70
0
 71
3
 72
23
 73
19
 74
0
 42
0.0000001
 43
0.0000001
 44
0.0000000001
 40
0.0
 40
0.0
 40
0.0
 40
0.0
 40
0.0606130825
 40
0.1248062076
 40
0.1919918952
 40
0.2615008806
 40
0.3325414772
 40
0.4042713518
 40
0.4758218843
 40
0.5463310572
 40
0.6149757868
 40
0.681005026
 40
0.7437782988
 40
0.8028072551
 40
0.8578042781
 40
0.9087406917
 40
0.9559131287
 40
1.0
 40
1.0
 40
1.0
 40
1.0
 10
64.181038695
 20
107.7679195315
 30
0.0
 10
63.6868214562
 20
107.4809584164
 30
0.0
 10
62.7040256875
 20
106.8287266451
 30
0.0
 10
61.3036841632
 20
105.6775166306
 30
0.0
 10
59.9558812294
 20
104.3431748251
 30
0.0
 10
58.6848183475
 20
102.8501019549
 30
0.0
 10
57.513241102
 20
101.2247778446
 30
0.0
 10
56.4622139624
 20
99.4965293668
 30
0.0
 10
55.5506098772
 20
97.6964453819
 30
0.0
 10
54.7948293057
 20
95.8568968369
 30
0.0
 10
54.2084656943
 20
94.0109124969
 30
0.0
 10
53.8020994236
 20
92.1915231876
 30
0.0
 10
53.5830492616
 20
90.4311268613
 30
0.0
 10
53.5554895014
 20
88.7607794462
 30
0.0
 10
53.7205139882
 20
87.2097448916
 30
0.0
 10
54.0768295751
 20
85.8048632547
 30
0.0
 10
54.6200078764
 20
84.5717596358
 30
0.0
 10
55.1167811088
 20
83.8602232693
 30
0.0
 10
55.3914458062
 20
83.5482275953
 30
0.0
  0
SPLINE
  5
431
100
AcDbEntity
  8
0
100
AcDbSpline
 62
7
  6
BYLAYER
 70
0
 71
3
 72
9
 73
5
 74
0
 42
0.0000001
 43
0.0000001
 44
0.0000000001
 40
0.0
 40
0.0
 40
0.0
 40
0.0
 40
0.2525622046
 40
1.0
 40
1.0
 40
1.0
 40
1.0
 10
55.3914458062
 20
83.5482275953
 30
0.0
 10
55.4362677372
 20
83.497313704
 30
0.0
 10
55.6173883974
 20
83.2989754274
 30
0.0
 10
55.8132360993
 20
83.1140315022
 30
0.0
 10
55.966990863
 20
82.9849662961
 30
0.0
  0
SPLINE
  5
432
100
AcDbEntity
  8
0
100
AcDbSpline
 62
7
  6
BYLAYER
 70
0
 71
3
 72
9
 73
5
 74
0
 42
0.0000001
 43
0.0000001
 44
0.0000000001
 40
0.0
 40
0.0
 40
0.0
 40
0.0
 40
0.2511645797
 40
1.0
 40
1.0
 40
1.0
 40
1.0
 10
55.966990863
 20
82.9849662961
 30
0.0
 10
56.0174777428
 20
82.942586474
 30
0.0
 10
56.221697632
 20
82.7777148098
 30
0.0
 10
56.438710873
 20
82.6286759511
 30
0.0
 10
56.6069758921
 20
82.5271395886
 30
0.0
  0
SPLINE
  5
433
100
AcDbEntity
  8
0
100
AcDbSpline
 62
7
  6
BYLAYER
 70
0
 71
3
 72
9
 73
5
 74
0
 42
0.0000001
 43
0.0000001
 44
0.0000000001
 40
0.0
 40
0.0
 40
0.0
 40
0.0
 40
0.2494603608
 40
1.0
 40
1.0
 40
1.0
 40
1.0
 10
56.7955276446
 20
117.144973993
 30
0.0
 10
56.7476296871
 20
117.1713499624
 30
0.0
 10
56.5539097778
 20
117.2739421383
 30
0.0
 10
56.3534721578
 20
117.3638312981
 30
0.0
 10
56.2002847831
 20
117.4238165897
 30
0.0
  0
SPLINE
  5
434
100
AcDbEntity
  8
0
100
AcDbSpline
 62
7
  6
BYLAYER
 70
0
 71
3
 72
12
 73
8
 74
0
 42
0.0000001
 43
0.0000001
 44
0.0000000001
 40
0.0
 40
0.0
 40
0.0
 40
0.0
 40
0.1078799327
 40
0.2189353654
 40
0.4546647851
 40
0.7141930712
 40
1.0
 40
1.0
 40
1.0
 40
1.0
 10
56.092757603
 20
117.4645377062
 30
0.0
 10
55.8554749717
 20
117.5513768268
 30
0.0
 10
55.3602316967
 20
117.6922437757
 30
0.0
 10
54.3026461563
 20
117.8390830021
 30
0.0
 10
52.8698975701
 20
117.7516405688
 30
0.0
 10
51.1003292799
 20
117.2476301902
 30
0.0
 10
49.9463400945
 20
116.6851865433
 30
0.0
 10
49.3666128877
 20
116.3504828823
 30
0.0
  0
SPLINE
  5
435
100
AcDbEntity
  8
0
100
AcDbSpline
 62
7
  6
BYLAYER
 70
0
 71
3
 72
23
 73
19
 74
0
 42
0.0000001
 43
0.0000001
 44
0.0000000001
 40
0.0
 40
0.0
 40
0.0
 40
0.0
 40
0.0606123215
 40
0.1248045223
 40
0.1919891756
 40
0.2614970899
 40
0.3325366574
 40
0.4042656255
 40
0.4758154537
 40
0.5463241955
 40
0.6149688238
 40
0.6809983292
 40
0.7437722471
 40
0.8028022012
 40
0.8578004998
 40
0.9087383306
 40
0.9559121201
 40
1.0
 40
1.0
 40
1.0
 40
1.0
 10
48.6293391206
 20
116.7412588665
 30
0.0
 10
48.1353521402
 20
116.4544307546
 30
0.0
 10
47.1530138776
 20
115.8025045388
 30
0.0
 10
45.7533206652
 20
114.6518390023
 30
0.0
 10
44.4061379359
 20
113.3181320844
 30
0.0
 10
43.1356541772
 20
111.8257711054
 30
0.0
 10
41.9646028961
 20
110.2012212085
 30
0.0
 10
40.9140374794
 20
108.4737931009
 30
0.0
 10
40.0028211446
 20
106.674558531
 30
0.0
 10
39.2473461471
 20
104.8358707143
 30
0.0
 10
38.6611994614
 20
102.9907404773
 30
0.0
 10
38.2549567
 20
101.1721809347
 30
0.0
 10
38.035933759
 20
99.412572912
 30
0.0
 10
38.0083039188
 20
97.7429562248
 30
0.0
 10
38.1731616735
 20
96.1925799992
 30
0.0
 10
38.5292156341
 20
94.7882708935
 30
0.0
 10
39.0720406769
 20
93.5556410686
 30
0.0
 10
39.568514313
 20
92.8443492659
 30
0.0
 10
39.8430197862
 20
92.5324514901
 30
0.0
  0
SPLINE
  5
436
100
AcDbEntity
  8
0
100
AcDbSpline
 62
7
  6
BYLAYER
 70
0
 71
3
 72
9
 73
5
 74
0
 42
0.0000001
 43
0.0000001
 44
0.0000000001
 40
0.0
 40
0.0
 40
0.0
 40
0.0
 40
0.2525642381
 40
1.0
 40
1.0
 40
1.0
 40
1.0
 10
39.8430197862
 20
92.5324514901
 30
0.0
 10
39.8878359197
 20
92.4815306389
 30
0.0
 10
40.0689339819
 20
92.2831671721
 30
0.0
 10
40.264766473
 20
92.0982013413
 30
0.0
 10
40.4185131845
 20
91.9691234912
 30
0.0
  0
SPLINE
  5
437
100
AcDbEntity
  8
0
100
AcDbSpline
 62
7
  6
BYLAYER
 70
0
 71
3
 72
9
 73
5
 74
0
 42
0.0000001
 43
0.0000001
 44
0.0000000001
 40
0.0
 40
0.0
 40
0.0
 40
0.0
 40
0.251165571
 40
1.0
 40
1.0
 40
1.0
 40
1.0
 10
40.4185131845
 20
91.9691234912
 30
0.0
 10
40.4689974095
 20
91.9267395263
 30
0.0
 10
40.6732075257
 20
91.7618533836
 30
0.0
 10
40.8902175341
 20
91.612805973
 30
0.0
 10
41.0584824362
 20
91.5112677843
 30
0.0
  0
SPLINE
  5
438
100
AcDbEntity
  8
0
100
AcDbSpline
 62
7
  6
BYLAYER
 70
0
 71
3
 72
23
 73
19
 74
0
 42
0.0000001
 43
0.0000001
 44
0.0000000001
 40
0.0
 40
0.0
 40
0.0
 40
0.0
 40
0.0606123215
 40
0.1248045223
 40
0.1919891756
 40
0.2614970899
 40
0.3325366574
 40
0.4042656255
 40
0.4758154537
 40
0.5463241955
 40
0.6149688238
 40
0.6809983292
 40
0.7437722471
 40
0.8028022012
 40
0.8578004998
 40
0.9087383306
 40
0.9559121201
 40
1.0
 40
1.0
 40
1.0
 40
1.0
 10
47.9222293955
 20
117.1494996211
 30
0.0
 10
47.428242415
 20
116.8626715092
 30
0.0
 10
46.4459041525
 20
116.2107452933
 30
0.0
 10
45.0462109401
 20
115.0600797568
 30
0.0
 10
43.6990282107
 20
113.7263728389
 30
0.0
 10
42.4285444521
 20
112.2340118599
 30
0.0
 10
41.257493171
 20
110.609461963
 30
0.0
 10
40.2069277542
 20
108.8820338554
 30
0.0
 10
39.2957114195
 20
107.0827992855
 30
0.0
 10
38.540236422
 20
105.2441114689
 30
0.0
 10
37.9540897362
 20
103.3989812318
 30
0.0
 10
37.5478469749
 20
101.5804216892
 30
0.0
 10
37.3288240339
 20
99.8208136665
 30
0.0
 10
37.3011941936
 20
98.1511969794
 30
0.0
 10
37.4660519483
 20
96.6008207538
 30
0.0
 10
37.822105909
 20
95.196511648
 30
0.0
 10
38.3649309518
 20
93.9638818231
 30
0.0
 10
38.8614045879
 20
93.2525900204
 30
0.0
 10
39.135910061
 20
92.9406922447
 30
0.0
  0
SPLINE
  5
439
100
AcDbEntity
  8
0
100
AcDbSpline
 62
7
  6
BYLAYER
 70
0
 71
3
 72
9
 73
5
 74
0
 42
0.0000001
 43
0.0000001
 44
0.0000000001
 40
0.0
 40
0.0
 40
0.0
 40
0.0
 40
0.2525642381
 40
1.0
 40
1.0
 40
1.0
 40
1.0
 10
39.135910061
 20
92.9406922447
 30
0.0
 10
39.1807261945
 20
92.8897713934
 30
0.0
 10
39.3618242568
 20
92.6914079266
 30
0.0
 10
39.5576567479
 20
92.5064420958
 30
0.0
 10
39.7114034593
 20
92.3773642457
 30
0.0
  0
SPLINE
  5
43A
100
AcDbEntity
  8
0
100
AcDbSpline
 62
7
  6
BYLAYER
 70
0
 71
3
 72
9
 73
5
 74
0
 42
0.0000001
 43
0.0000001
 44
0.0000000001
 40
0.0
 40
0.0
 40
0.0
 40
0.0
 40
0.251165571
 40
1.0
 40
1.0
 40
1.0
 40
1.0
 10
39.7114034593
 20
92.3773642457
 30
0.0
 10
39.7618876843
 20
92.3349802808
 30
0.0
 10
39.9660978006
 20
92.1700941381
 30
0.0
 10
40.1831078089
 20
92.0210467275
 30
0.0
 10
40.3513727111
 20
91.9195085388
 30
0.0
  0
SPLINE
  5
43B
100
AcDbEntity
  8
0
100
AcDbSpline
 62
7
  6
BYLAYER
 70
0
 71
3
 72
9
 73
5
 74
0
 42
0.0000001
 43
0.0000001
 44
0.0000000001
 40
0.0
 40
0.0
 40
0.0
 40
0.0
 40
0.2494603608
 40
1.0
 40
1.0
 40
1.0
 40
1.0
 10
57.5026373697
 20
116.7367332385
 30
0.0
 10
57.4547394122
 20
116.7631092079
 30
0.0
 10
57.2610195029
 20
116.8657013838
 30
0.0
 10
57.060581883
 20
116.9555905435
 30
0.0
 10
56.9073945082
 20
117.0155758351
 30
0.0
  0
SPLINE
  5
43C
100
AcDbEntity
  8
0
100
AcDbSpline
 62
7
  6
BYLAYER
 70
0
 71
3
 72
12
 73
8
 74
0
 42
0.0000001
 43
0.0000001
 44
0.0000000001
 40
0.0
 40
0.0
 40
0.0
 40
0.0
 40
0.1078799327
 40
0.2189353654
 40
0.4546647851
 40
0.7141930712
 40
1.0
 40
1.0
 40
1.0
 40
1.0
 10
56.7998673282
 20
117.0562969517
 30
0.0
 10
56.5625846969
 20
117.1431360722
 30
0.0
 10
56.0673414219
 20
117.2840030212
 30
0.0
 10
55.0097558815
 20
117.4308422476
 30
0.0
 10
53.5770072953
 20
117.3433998143
 30
0.0
 10
51.8074390051
 20
116.8393894357
 30
0.0
 10
50.6534498196
 20
116.2769457888
 30
0.0
 10
50.0737226129
 20
115.9422421278
 30
0.0
  0
SPLINE
  5
43D
100
AcDbEntity
  8
0
100
AcDbSpline
 62
7
  6
BYLAYER
 70
0
 71
3
 72
23
 73
19
 74
0
 42
0.0000001
 43
0.0000001
 44
0.0000000001
 40
0.0
 40
0.0
 40
0.0
 40
0.0
 40
0.0606123215
 40
0.1248045223
 40
0.1919891756
 40
0.2614970899
 40
0.3325366574
 40
0.4042656255
 40
0.4758154537
 40
0.5463241955
 40
0.6149688238
 40
0.6809983292
 40
0.7437722471
 40
0.8028022012
 40
0.8578004998
 40
0.9087383306
 40
0.9559121201
 40
1.0
 40
1.0
 40
1.0
 40
1.0
 10
47.2151196703
 20
117.5577403756
 30
0.0
 10
46.7211326899
 20
117.2709122637
 30
0.0
 10
45.7387944274
 20
116.6189860478
 30
0.0
 10
44.3391012149
 20
115.4683205113
 30
0.0
 10
42.9919184856
 20
114.1346135934
 30
0.0
 10
41.7214347269
 20
112.6422526144
 30
0.0
 10
40.5503834458
 20
111.0177027175
 30
0.0
 10
39.4998180291
 20
109.29027461
 30
0.0
 10
38.5886016943
 20
107.49104004
 30
0.0
 10
37.8331266968
 20
105.6523522234
 30
0.0
 10
37.2469800111
 20
103.8072219864
 30
0.0
 10
36.8407372497
 20
101.9886624437
 30
0.0
 10
36.6217143087
 20
100.229054421
 30
0.0
 10
36.5940844685
 20
98.5594377339
 30
0.0
 10
36.7589422232
 20
97.0090615083
 30
0.0
 10
37.1149961838
 20
95.6047524025
 30
0.0
 10
37.6578212266
 20
94.3721225776
 30
0.0
 10
38.1542948627
 20
93.6608307749
 30
0.0
 10
38.4288003359
 20
93.3489329992
 30
0.0
  0
SPLINE
  5
43E
100
AcDbEntity
  8
0
100
AcDbSpline
 62
7
  6
BYLAYER
 70
0
 71
3
 72
9
 73
5
 74
0
 42
0.0000001
 43
0.0000001
 44
0.0000000001
 40
0.0
 40
0.0
 40
0.0
 40
0.0
 40
0.2525642381
 40
1.0
 40
1.0
 40
1.0
 40
1.0
 10
38.4288003359
 20
93.3489329992
 30
0.0
 10
38.4736164694
 20
93.2980121479
 30
0.0
 10
38.6547145316
 20
93.0996486811
 30
0.0
 10
38.8505470227
 20
92.9146828503
 30
0.0
 10
39.0042937342
 20
92.7856050003
 30
0.0
  0
SPLINE
  5
43F
100
AcDbEntity
  8
0
100
AcDbSpline
 62
7
  6
BYLAYER
 70
0
 71
3
 72
9
 73
5
 74
0
 42
0.0000001
 43
0.0000001
 44
0.0000000001
 40
0.0
 40
0.0
 40
0.0
 40
0.0
 40
0.251165571
 40
1.0
 40
1.0
 40
1.0
 40
1.0
 10
39.0042937342
 20
92.7856050003
 30
0.0
 10
39.0547779592
 20
92.7432210354
 30
0.0
 10
39.2589880754
 20
92.5783348926
 30
0.0
 10
39.4759980838
 20
92.429287482
 30
0.0
 10
39.644262986
 20
92.3277492934
 30
0.0
  0
SPLINE
  5
440
100
AcDbEntity
  8
0
100
AcDbSpline
 62
7
  6
BYLAYER
 70
0
 71
3
 72
23
 73
19
 74
0
 42
0.0000001
 43
0.0000001
 44
0.0000000001
 40
0.0
 40
0.0
 40
0.0
 40
0.0
 40
0.0606130658
 40
0.1248061708
 40
0.1919918363
 40
0.2615007988
 40
0.3325413736
 40
0.4042712291
 40
0.4758217468
 40
0.5463309108
 40
0.6149756385
 40
0.6810048837
 40
0.7437781703
 40
0.8028071479
 40
0.8578041981
 40
0.9087406417
 40
0.9559131073
 40
1.0
 40
1.0
 40
1.0
 40
1.0
 10
63.473928785
 20
108.1761602727
 30
0.0
 10
62.9797119581
 20
107.8891993967
 30
0.0
 10
61.9969169984
 20
107.236968231
 30
0.0
 10
60.5965765491
 20
106.085759382
 30
0.0
 10
59.2487745661
 20
104.7514189961
 30
0.0
 10
57.9777124558
 20
103.2583477369
 30
0.0
 10
56.8061357534
 20
101.6330253572
 30
0.0
 10
55.7551088843
 20
99.9047786529
 30
0.0
 10
54.8435047625
 20
98.1046964034
 30
0.0
 10
54.0877238222
 20
96.2651494734
 30
0.0
 10
53.5013594964
 20
94.4191665474
 30
0.0
 10
53.0949921607
 20
92.5997783751
 30
0.0
 10
52.8759405887
 20
90.8393828398
 30
0.0
 10
52.84837909
 20
89.1690358099
 30
0.0
 10
53.0134015336
 20
87.6180011858
 30
0.0
 10
53.3697147983
 20
86.2131189844
 30
0.0
 10
53.9128905273
 20
84.9800142639
 30
0.0
 10
54.4096619057
 20
84.2684766537
 30
0.0
 10
54.6843257139
 20
83.9564802376
 30
0.0
  0
SPLINE
  5
441
100
AcDbEntity
  8
0
100
AcDbSpline
 62
7
  6
BYLAYER
 70
0
 71
3
 72
9
 73
5
 74
0
 42
0.0000001
 43
0.0000001
 44
0.0000000001
 40
0.0
 40
0.0
 40
0.0
 40
0.0
 40
0.2525622645
 40
1.0
 40
1.0
 40
1.0
 40
1.0
 10
54.6843257139
 20
83.9564802376
 30
0.0
 10
54.7291482825
 20
83.9055653361
 30
0.0
 10
54.9102715533
 20
83.7072232042
 30
0.0
 10
55.1061223887
 20
83.5222758299
 30
0.0
 10
55.2598797348
 20
83.39320837
 30
0.0
  0
SPLINE
  5
442
100
AcDbEntity
  8
0
100
AcDbSpline
 62
7
  6
BYLAYER
 70
0
 71
3
 72
9
 73
5
 74
0
 42
0.0000001
 43
0.0000001
 44
0.0000000001
 40
0.0
 40
0.0
 40
0.0
 40
0.0
 40
0.2511645843
 40
1.0
 40
1.0
 40
1.0
 40
1.0
 10
55.2598797348
 20
83.39320837
 30
0.0
 10
55.3103667096
 20
83.3508284398
 30
0.0
 10
55.5145869881
 20
83.1859563635
 30
0.0
 10
55.7316006776
 20
83.0369171563
 30
0.0
 10
55.8998660556
 20
82.9353805771
 30
0.0
  0
SPLINE
  5
443
100
AcDbEntity
  8
0
100
AcDbSpline
 62
7
  6
BYLAYER
 70
0
 71
3
 72
23
 73
19
 74
0
 42
0.0000001
 43
0.0000001
 44
0.0000000001
 40
0.0
 40
0.0
 40
0.0
 40
0.0
 40
0.0606123215
 40
0.1248045223
 40
0.1919891756
 40
0.2614970899
 40
0.3325366574
 40
0.4042656255
 40
0.4758154537
 40
0.5463241955
 40
0.6149688238
 40
0.6809983292
 40
0.7437722471
 40
0.8028022012
 40
0.8578004998
 40
0.9087383306
 40
0.9559121201
 40
1.0
 40
1.0
 40
1.0
 40
1.0
 10
46.5080099452
 20
117.9659811301
 30
0.0
 10
46.0140229647
 20
117.6791530182
 30
0.0
 10
45.0316847022
 20
117.0272268024
 30
0.0
 10
43.6319914898
 20
115.8765612658
 30
0.0
 10
42.2848087604
 20
114.542854348
 30
0.0
 10
41.0143250018
 20
113.0504933689
 30
0.0
 10
39.8432737207
 20
111.425943472
 30
0.0
 10
38.7927083039
 20
109.6985153645
 30
0.0
 10
37.8814919692
 20
107.8992807945
 30
0.0
 10
37.1260169717
 20
106.0605929779
 30
0.0
 10
36.5398702859
 20
104.2154627409
 30
0.0
 10
36.1336275246
 20
102.3969031983
 30
0.0
 10
35.9146045836
 20
100.6372951756
 30
0.0
 10
35.8869747433
 20
98.9676784884
 30
0.0
 10
36.0518324981
 20
97.4173022628
 30
0.0
 10
36.4078864587
 20
96.012993157
 30
0.0
 10
36.9507115015
 20
94.7803633322
 30
0.0
 10
37.4471851376
 20
94.0690715294
 30
0.0
 10
37.7216906107
 20
93.7571737537
 30
0.0
  0
SPLINE
  5
444
100
AcDbEntity
  8
0
100
AcDbSpline
 62
7
  6
BYLAYER
 70
0
 71
3
 72
9
 73
5
 74
0
 42
0.0000001
 43
0.0000001
 44
0.0000000001
 40
0.0
 40
0.0
 40
0.0
 40
0.0
 40
0.2525642381
 40
1.0
 40
1.0
 40
1.0
 40
1.0
 10
37.7216906107
 20
93.7571737537
 30
0.0
 10
37.7665067442
 20
93.7062529025
 30
0.0
 10
37.9476048065
 20
93.5078894357
 30
0.0
 10
38.1434372976
 20
93.3229236048
 30
0.0
 10
38.297184009
 20
93.1938457548
 30
0.0
  0
SPLINE
  5
445
100
AcDbEntity
  8
0
100
AcDbSpline
 62
7
  6
BYLAYER
 70
0
 71
3
 72
9
 73
5
 74
0
 42
0.0000001
 43
0.0000001
 44
0.0000000001
 40
0.0
 40
0.0
 40
0.0
 40
0.0
 40
0.251165571
 40
1.0
 40
1.0
 40
1.0
 40
1.0
 10
38.297184009
 20
93.1938457548
 30
0.0
 10
38.347668234
 20
93.1514617899
 30
0.0
 10
38.5518783503
 20
92.9865756471
 30
0.0
 10
38.7688883586
 20
92.8375282365
 30
0.0
 10
38.9371532608
 20
92.7359900479
 30
0.0
  0
SPLINE
  5
446
100
AcDbEntity
  8
0
100
AcDbSpline
 62
7
  6
BYLAYER
 70
0
 71
3
 72
9
 73
5
 74
0
 42
0.0000001
 43
0.0000001
 44
0.0000000001
 40
0.0
 40
0.0
 40
0.0
 40
0.0
 40
0.2494603608
 40
1.0
 40
1.0
 40
1.0
 40
1.0
 10
58.2097470949
 20
116.3284924839
 30
0.0
 10
58.1618491374
 20
116.3548684534
 30
0.0
 10
57.9681292281
 20
116.4574606293
 30
0.0
 10
57.7676916081
 20
116.547349789
 30
0.0
 10
57.6145042334
 20
116.6073350806
 30
0.0
  0
SPLINE
  5
447
100
AcDbEntity
  8
0
100
AcDbSpline
 62
7
  6
BYLAYER
 70
0
 71
3
 72
12
 73
8
 74
0
 42
0.0000001
 43
0.0000001
 44
0.0000000001
 40
0.0
 40
0.0
 40
0.0
 40
0.0
 40
0.1078799327
 40
0.2189353654
 40
0.4546647851
 40
0.7141930712
 40
1.0
 40
1.0
 40
1.0
 40
1.0
 10
57.5069770533
 20
116.6480561972
 30
0.0
 10
57.269694422
 20
116.7348953177
 30
0.0
 10
56.774451147
 20
116.8757622667
 30
0.0
 10
55.7168656066
 20
117.0226014931
 30
0.0
 10
54.2841170204
 20
116.9351590597
 30
0.0
 10
52.5145487302
 20
116.4311486812
 30
0.0
 10
51.3605595448
 20
115.8687050342
 30
0.0
 10
50.780832338
 20
115.5340013733
 30
0.0
  0
SPLINE
  5
448
100
AcDbEntity
  8
0
100
AcDbSpline
 62
7
  6
BYLAYER
 70
0
 71
3
 72
9
 73
5
 74
0
 42
0.0000001
 43
0.0000001
 44
0.0000000001
 40
0.0
 40
0.0
 40
0.0
 40
0.0
 40
0.2494603608
 40
1.0
 40
1.0
 40
1.0
 40
1.0
 10
49.7244303931
 20
121.2273815382
 30
0.0
 10
49.6765324356
 20
121.2537575076
 30
0.0
 10
49.4828125263
 20
121.3563496835
 30
0.0
 10
49.2823749064
 20
121.4462388433
 30
0.0
 10
49.1291875316
 20
121.5062241349
 30
0.0
  0
SPLINE
  5
449
100
AcDbEntity
  8
0
100
AcDbSpline
 62
7
  6
BYLAYER
 70
0
 71
3
 72
12
 73
8
 74
0
 42
0.0000001
 43
0.0000001
 44
0.0000000001
 40
0.0
 40
0.0
 40
0.0
 40
0.0
 40
0.1078799327
 40
0.2189353654
 40
0.4546647851
 40
0.7141930712
 40
1.0
 40
1.0
 40
1.0
 40
1.0
 10
49.0216603516
 20
121.5469452514
 30
0.0
 10
48.7843777202
 20
121.633784372
 30
0.0
 10
48.2891344453
 20
121.7746513209
 30
0.0
 10
47.2315489049
 20
121.9214905473
 30
0.0
 10
45.7988003187
 20
121.834048114
 30
0.0
 10
44.0292320284
 20
121.3300377354
 30
0.0
 10
42.875242843
 20
120.7675940885
 30
0.0
 10
42.2955156363
 20
120.4328904275
 30
0.0
  0
SPLINE
  5
44A
100
AcDbEntity
  8
0
100
AcDbSpline
 62
7
  6
BYLAYER
 70
0
 71
3
 72
23
 73
19
 74
0
 42
0.0000001
 43
0.0000001
 44
0.0000000001
 40
0.0
 40
0.0
 40
0.0
 40
0.0
 40
0.0606123215
 40
0.1248045223
 40
0.1919891756
 40
0.2614970899
 40
0.3325366574
 40
0.4042656255
 40
0.4758154537
 40
0.5463241955
 40
0.6149688238
 40
0.6809983292
 40
0.7437722471
 40
0.8028022012
 40
0.8578004998
 40
0.9087383306
 40
0.9559121201
 40
1.0
 40
1.0
 40
1.0
 40
1.0
 10
45.8009002201
 20
118.3742218846
 30
0.0
 10
45.3069132396
 20
118.0873937727
 30
0.0
 10
44.3245749771
 20
117.4354675569
 30
0.0
 10
42.9248817646
 20
116.2848020204
 30
0.0
 10
41.5776990353
 20
114.9510951025
 30
0.0
 10
40.3072152766
 20
113.4587341235
 30
0.0
 10
39.1361639955
 20
111.8341842265
 30
0.0
 10
38.0855985788
 20
110.106756119
 30
0.0
 10
37.174382244
 20
108.307521549
 30
0.0
 10
36.4189072465
 20
106.4688337324
 30
0.0
 10
35.8327605608
 20
104.6237034954
 30
0.0
 10
35.4265177994
 20
102.8051439528
 30
0.0
 10
35.2074948584
 20
101.0455359301
 30
0.0
 10
35.1798650182
 20
99.3759192429
 30
0.0
 10
35.3447227729
 20
97.8255430173
 30
0.0
 10
35.7007767335
 20
96.4212339116
 30
0.0
 10
36.2436017763
 20
95.1886040867
 30
0.0
 10
36.7400754125
 20
94.477312284
 30
0.0
 10
37.0145808856
 20
94.1654145082
 30
0.0
  0
SPLINE
  5
44B
100
AcDbEntity
  8
0
100
AcDbSpline
 62
7
  6
BYLAYER
 70
0
 71
3
 72
9
 73
5
 74
0
 42
0.0000001
 43
0.0000001
 44
0.0000000001
 40
0.0
 40
0.0
 40
0.0
 40
0.0
 40
0.2525642381
 40
1.0
 40
1.0
 40
1.0
 40
1.0
 10
37.0145808856
 20
94.1654145082
 30
0.0
 10
37.0593970191
 20
94.114493657
 30
0.0
 10
37.2404950813
 20
93.9161301902
 30
0.0
 10
37.4363275724
 20
93.7311643593
 30
0.0
 10
37.5900742839
 20
93.6020865093
 30
0.0
  0
SPLINE
  5
44C
100
AcDbEntity
  8
0
100
AcDbSpline
 62
7
  6
BYLAYER
 70
0
 71
3
 72
9
 73
5
 74
0
 42
0.0000001
 43
0.0000001
 44
0.0000000001
 40
0.0
 40
0.0
 40
0.0
 40
0.0
 40
0.251165571
 40
1.0
 40
1.0
 40
1.0
 40
1.0
 10
37.5900742839
 20
93.6020865093
 30
0.0
 10
37.6405585089
 20
93.5597025444
 30
0.0
 10
37.8447686251
 20
93.3948164017
 30
0.0
 10
38.0617786335
 20
93.2457689911
 30
0.0
 10
38.2300435357
 20
93.1442308024
 30
0.0
  0
SPLINE
  5
44D
100
AcDbEntity
  8
0
100
AcDbSpline
 62
7
  6
BYLAYER
 70
0
 71
3
 72
23
 73
19
 74
0
 42
0.0000001
 43
0.0000001
 44
0.0000000001
 40
0.0
 40
0.0
 40
0.0
 40
0.0
 40
0.0606123215
 40
0.1248045223
 40
0.1919891756
 40
0.2614970899
 40
0.3325366574
 40
0.4042656255
 40
0.4758154537
 40
0.5463241955
 40
0.6149688238
 40
0.6809983292
 40
0.7437722471
 40
0.8028022012
 40
0.8578004998
 40
0.9087383306
 40
0.9559121201
 40
1.0
 40
1.0
 40
1.0
 40
1.0
 10
45.0937904949
 20
118.7824626391
 30
0.0
 10
44.5998035144
 20
118.4956345272
 30
0.0
 10
43.6174652519
 20
117.8437083114
 30
0.0
 10
42.2177720395
 20
116.6930427749
 30
0.0
 10
40.8705893101
 20
115.359335857
 30
0.0
 10
39.6001055515
 20
113.866974878
 30
0.0
 10
38.4290542704
 20
112.2424249811
 30
0.0
 10
37.3784888536
 20
110.5149968735
 30
0.0
 10
36.4672725189
 20
108.7157623036
 30
0.0
 10
35.7117975214
 20
106.8770744869
 30
0.0
 10
35.1256508356
 20
105.0319442499
 30
0.0
 10
34.7194080743
 20
103.2133847073
 30
0.0
 10
34.5003851333
 20
101.4537766846
 30
0.0
 10
34.472755293
 20
99.7841599974
 30
0.0
 10
34.6376130478
 20
98.2337837718
 30
0.0
 10
34.9936670084
 20
96.8294746661
 30
0.0
 10
35.5364920512
 20
95.5968448412
 30
0.0
 10
36.0329656873
 20
94.8855530385
 30
0.0
 10
36.3074711604
 20
94.5736552627
 30
0.0
  0
SPLINE
  5
44E
100
AcDbEntity
  8
0
100
AcDbSpline
 62
7
  6
BYLAYER
 70
0
 71
3
 72
9
 73
5
 74
0
 42
0.0000001
 43
0.0000001
 44
0.0000000001
 40
0.0
 40
0.0
 40
0.0
 40
0.0
 40
0.2525642381
 40
1.0
 40
1.0
 40
1.0
 40
1.0
 10
36.3074711604
 20
94.5736552627
 30
0.0
 10
36.352287294
 20
94.5227344115
 30
0.0
 10
36.5333853562
 20
94.3243709447
 30
0.0
 10
36.7292178473
 20
94.1394051139
 30
0.0
 10
36.8829645587
 20
94.0103272638
 30
0.0
  0
SPLINE
  5
44F
100
AcDbEntity
  8
0
100
AcDbSpline
 62
7
  6
BYLAYER
 70
0
 71
3
 72
9
 73
5
 74
0
 42
0.0000001
 43
0.0000001
 44
0.0000000001
 40
0.0
 40
0.0
 40
0.0
 40
0.0
 40
0.251165571
 40
1.0
 40
1.0
 40
1.0
 40
1.0
 10
36.8829645587
 20
94.0103272638
 30
0.0
 10
36.9334487837
 20
93.9679432989
 30
0.0
 10
37.1376589
 20
93.8030571562
 30
0.0
 10
37.3546689083
 20
93.6540097456
 30
0.0
 10
37.5229338105
 20
93.5524715569
 30
0.0
  0
SPLINE
  5
450
100
AcDbEntity
  8
0
100
AcDbSpline
 62
7
  6
BYLAYER
 70
0
 71
3
 72
9
 73
5
 74
0
 42
0.0000001
 43
0.0000001
 44
0.0000000001
 40
0.0
 40
0.0
 40
0.0
 40
0.0
 40
0.2494603608
 40
1.0
 40
1.0
 40
1.0
 40
1.0
 10
58.91685682
 20
115.9202517294
 30
0.0
 10
58.8689588625
 20
115.9466276988
 30
0.0
 10
58.6752389532
 20
116.0492198748
 30
0.0
 10
58.4748013333
 20
116.1391090345
 30
0.0
 10
58.3216139585
 20
116.1990943261
 30
0.0
  0
SPLINE
  5
451
100
AcDbEntity
  8
0
100
AcDbSpline
 62
7
  6
BYLAYER
 70
0
 71
3
 72
12
 73
8
 74
0
 42
0.0000001
 43
0.0000001
 44
0.0000000001
 40
0.0
 40
0.0
 40
0.0
 40
0.0
 40
0.1078799327
 40
0.2189353654
 40
0.4546647851
 40
0.7141930712
 40
1.0
 40
1.0
 40
1.0
 40
1.0
 10
58.2140867785
 20
116.2398154427
 30
0.0
 10
57.9768041471
 20
116.3266545632
 30
0.0
 10
57.4815608722
 20
116.4675215121
 30
0.0
 10
56.4239753318
 20
116.6143607385
 30
0.0
 10
54.9912267456
 20
116.5269183052
 30
0.0
 10
53.2216584554
 20
116.0229079267
 30
0.0
 10
52.0676692699
 20
115.4604642797
 30
0.0
 10
51.4879420632
 20
115.1257606188
 30
0.0
  0
SPLINE
  5
452
100
AcDbEntity
  8
0
100
AcDbSpline
 62
7
  6
BYLAYER
 70
0
 71
3
 72
23
 73
19
 74
0
 42
0.0000001
 43
0.0000001
 44
0.0000000001
 40
0.0
 40
0.0
 40
0.0
 40
0.0
 40
0.0606119206
 40
0.1248036551
 40
0.1919878003
 40
0.2614951992
 40
0.3325342804
 40
0.4042628276
 40
0.4758123362
 40
0.546320891
 40
0.6149654894
 40
0.6809951379
 40
0.7437693753
 40
0.8027998117
 40
0.857798719
 40
0.9087372207
 40
0.955911647
 40
1.0
 40
1.0
 40
1.0
 40
1.0
 10
62.7668175815
 20
108.5844009205
 30
0.0
 10
62.2726286506
 20
108.2974562419
 30
0.0
 10
61.2898884836
 20
107.6452661369
 30
0.0
 10
59.8896207739
 20
106.4941363782
 30
0.0
 10
58.5418830758
 20
105.1598923761
 30
0.0
 10
57.2708730301
 20
103.6669304909
 30
0.0
 10
56.099332796
 20
102.0417256019
 30
0.0
 10
55.0483238253
 20
100.3135992596
 30
0.0
 10
54.1367166601
 20
98.5136347243
 30
0.0
 10
53.3809100413
 20
96.6741972454
 30
0.0
 10
52.7944964757
 20
94.8283100044
 30
0.0
 10
52.3880560087
 20
93.0089985836
 30
0.0
 10
52.1689078063
 20
91.2486561535
 30
0.0
 10
52.1412273111
 20
89.5783345076
 30
0.0
 10
52.3061100187
 20
88.0272942272
 30
0.0
 10
52.6622645576
 20
86.6223725674
 30
0.0
 10
53.205264555
 20
85.3891917367
 30
0.0
 10
53.7019093315
 20
84.6775685899
 30
0.0
 10
53.9765124468
 20
84.365521206
 30
0.0
  0
SPLINE
  5
453
100
AcDbEntity
  8
0
100
AcDbSpline
 62
7
  6
BYLAYER
 70
0
 71
3
 72
9
 73
5
 74
0
 42
0.0000001
 43
0.0000001
 44
0.0000000001
 40
0.0
 40
0.0
 40
0.0
 40
0.0
 40
0.2525666386
 40
1.0
 40
1.0
 40
1.0
 40
1.0
 10
53.9765124468
 20
84.365521206
 30
0.0
 10
54.0213844136
 20
84.3145305979
 30
0.0
 10
54.2027099039
 20
84.1158996552
 30
0.0
 10
54.3988025536
 20
83.9306947777
 30
0.0
 10
54.5527587853
 20
83.801459679
 30
0.0
  0
SPLINE
  5
454
100
AcDbEntity
  8
0
100
AcDbSpline
 62
7
  6
BYLAYER
 70
0
 71
3
 72
9
 73
5
 74
0
 42
0.0000001
 43
0.0000001
 44
0.0000000001
 40
0.0
 40
0.0
 40
0.0
 40
0.0
 40
0.2511646206
 40
1.0
 40
1.0
 40
1.0
 40
1.0
 10
54.5527587853
 20
83.801459679
 30
0.0
 10
54.6032465203
 20
83.7590788844
 30
0.0
 10
54.8074699134
 20
83.5942035115
 30
0.0
 10
55.0244871897
 20
83.4451615165
 30
0.0
 10
55.1927554402
 20
83.3436232037
 30
0.0
  0
SPLINE
  5
455
100
AcDbEntity
  8
0
100
AcDbSpline
 62
7
  6
BYLAYER
 70
0
 71
3
 72
23
 73
19
 74
0
 42
0.0000001
 43
0.0000001
 44
0.0000000001
 40
0.0
 40
0.0
 40
0.0
 40
0.0
 40
0.0606123215
 40
0.1248045223
 40
0.1919891756
 40
0.2614970899
 40
0.3325366574
 40
0.4042656255
 40
0.4758154537
 40
0.5463241955
 40
0.6149688238
 40
0.6809983292
 40
0.7437722471
 40
0.8028022012
 40
0.8578004998
 40
0.9087383306
 40
0.9559121201
 40
1.0
 40
1.0
 40
1.0
 40
1.0
 10
44.3866807698
 20
119.1907033937
 30
0.0
 10
43.8926937893
 20
118.9038752818
 30
0.0
 10
42.9103555268
 20
118.2519490659
 30
0.0
 10
41.5106623143
 20
117.1012835294
 30
0.0
 10
40.163479585
 20
115.7675766115
 30
0.0
 10
38.8929958263
 20
114.2752156325
 30
0.0
 10
37.7219445452
 20
112.6506657356
 30
0.0
 10
36.6713791285
 20
110.923237628
 30
0.0
 10
35.7601627937
 20
109.1240030581
 30
0.0
 10
35.0046877962
 20
107.2853152415
 30
0.0
 10
34.4185411105
 20
105.4401850044
 30
0.0
 10
34.0122983491
 20
103.6216254618
 30
0.0
 10
33.7932754081
 20
101.8620174391
 30
0.0
 10
33.7656455679
 20
100.192400752
 30
0.0
 10
33.9305033226
 20
98.6420245264
 30
0.0
 10
34.2865572832
 20
97.2377154206
 30
0.0
 10
34.829382326
 20
96.0050855957
 30
0.0
 10
35.3258559622
 20
95.293793793
 30
0.0
 10
35.6003614353
 20
94.9818960173
 30
0.0
  0
SPLINE
  5
456
100
AcDbEntity
  8
0
100
AcDbSpline
 62
7
  6
BYLAYER
 70
0
 71
3
 72
9
 73
5
 74
0
 42
0.0000001
 43
0.0000001
 44
0.0000000001
 40
0.0
 40
0.0
 40
0.0
 40
0.0
 40
0.2525642381
 40
1.0
 40
1.0
 40
1.0
 40
1.0
 10
35.6003614353
 20
94.9818960173
 30
0.0
 10
35.6451775688
 20
94.930975166
 30
0.0
 10
35.8262756311
 20
94.7326116992
 30
0.0
 10
36.0221081221
 20
94.5476458684
 30
0.0
 10
36.1758548336
 20
94.4185680183
 30
0.0
  0
SPLINE
  5
457
100
AcDbEntity
  8
0
100
AcDbSpline
 62
7
  6
BYLAYER
 70
0
 71
3
 72
9
 73
5
 74
0
 42
0.0000001
 43
0.0000001
 44
0.0000000001
 40
0.0
 40
0.0
 40
0.0
 40
0.0
 40
0.251165571
 40
1.0
 40
1.0
 40
1.0
 40
1.0
 10
36.1758548336
 20
94.4185680183
 30
0.0
 10
36.2263390586
 20
94.3761840534
 30
0.0
 10
36.4305491748
 20
94.2112979107
 30
0.0
 10
36.6475591832
 20
94.0622505001
 30
0.0
 10
36.8158240854
 20
93.9607123115
 30
0.0
  0
SPLINE
  5
458
100
AcDbEntity
  8
0
100
AcDbSpline
 62
7
  6
BYLAYER
 70
0
 71
3
 72
10
 73
6
 74
0
 42
0.0000001
 43
0.0000001
 44
0.0000000001
 40
0.0
 40
0.0
 40
0.0
 40
0.0
 40
0.5035706461
 40
0.7545204728
 40
1.0
 40
1.0
 40
1.0
 40
1.0
 10
62.7228133427
 20
100.0916574701
 30
0.0
 10
61.8352391348
 20
98.9235934517
 30
0.0
 10
60.6551362427
 20
97.0522968206
 30
0.0
 10
59.422726514
 20
94.4102587829
 30
0.0
 10
58.9271285057
 20
93.0489139683
 30
0.0
 10
58.7143533783
 20
92.3661586177
 30
0.0
  0
SPLINE
  5
459
100
AcDbEntity
  8
0
100
AcDbSpline
 62
7
  6
BYLAYER
 70
0
 71
3
 72
23
 73
19
 74
0
 42
0.0000001
 43
0.0000001
 44
0.0000000001
 40
0.0
 40
0.0
 40
0.0
 40
0.0
 40
0.0606123215
 40
0.1248045223
 40
0.1919891756
 40
0.2614970899
 40
0.3325366574
 40
0.4042656255
 40
0.4758154537
 40
0.5463241955
 40
0.6149688238
 40
0.6809983292
 40
0.7437722471
 40
0.8028022012
 40
0.8578004998
 40
0.9087383306
 40
0.9559121201
 40
1.0
 40
1.0
 40
1.0
 40
1.0
 10
43.6795710446
 20
119.5989441482
 30
0.0
 10
43.1855840641
 20
119.3121160363
 30
0.0
 10
42.2032458016
 20
118.6601898204
 30
0.0
 10
40.8035525892
 20
117.5095242839
 30
0.0
 10
39.4563698598
 20
116.175817366
 30
0.0
 10
38.1858861012
 20
114.683456387
 30
0.0
 10
37.0148348201
 20
113.0589064901
 30
0.0
 10
35.9642694033
 20
111.3314783826
 30
0.0
 10
35.0530530686
 20
109.5322438126
 30
0.0
 10
34.2975780711
 20
107.693555996
 30
0.0
 10
33.7114313853
 20
105.848425759
 30
0.0
 10
33.305188624
 20
104.0298662163
 30
0.0
 10
33.086165683
 20
102.2702581936
 30
0.0
 10
33.0585358427
 20
100.6006415065
 30
0.0
 10
33.2233935975
 20
99.0502652809
 30
0.0
 10
33.5794475581
 20
97.6459561751
 30
0.0
 10
34.1222726009
 20
96.4133263502
 30
0.0
 10
34.618746237
 20
95.7020345475
 30
0.0
 10
34.8932517101
 20
95.3901367718
 30
0.0
  0
SPLINE
  5
45A
100
AcDbEntity
  8
0
100
AcDbSpline
 62
7
  6
BYLAYER
 70
0
 71
3
 72
9
 73
5
 74
0
 42
0.0000001
 43
0.0000001
 44
0.0000000001
 40
0.0
 40
0.0
 40
0.0
 40
0.0
 40
0.2525642381
 40
1.0
 40
1.0
 40
1.0
 40
1.0
 10
34.8932517101
 20
95.3901367718
 30
0.0
 10
34.9380678437
 20
95.3392159205
 30
0.0
 10
35.1191659059
 20
95.1408524537
 30
0.0
 10
35.314998397
 20
94.9558866229
 30
0.0
 10
35.4687451084
 20
94.8268087729
 30
0.0
  0
SPLINE
  5
45B
100
AcDbEntity
  8
0
100
AcDbSpline
 62
7
  6
BYLAYER
 70
0
 71
3
 72
9
 73
5
 74
0
 42
0.0000001
 43
0.0000001
 44
0.0000000001
 40
0.0
 40
0.0
 40
0.0
 40
0.0
 40
0.251165571
 40
1.0
 40
1.0
 40
1.0
 40
1.0
 10
35.4687451084
 20
94.8268087729
 30
0.0
 10
35.5192293334
 20
94.784424808
 30
0.0
 10
35.7234394497
 20
94.6195386652
 30
0.0
 10
35.940449458
 20
94.4704912546
 30
0.0
 10
36.1087143602
 20
94.368953066
 30
0.0
  0
SPLINE
  5
45C
100
AcDbEntity
  8
0
100
AcDbSpline
 62
7
  6
BYLAYER
 70
0
 71
3
 72
9
 73
5
 74
0
 42
0.0000001
 43
0.0000001
 44
0.0000000001
 40
0.0
 40
0.0
 40
0.0
 40
0.0
 40
0.2494603608
 40
1.0
 40
1.0
 40
1.0
 40
1.0
 10
59.6239665452
 20
115.5120109749
 30
0.0
 10
59.5760685876
 20
115.5383869443
 30
0.0
 10
59.3823486784
 20
115.6409791202
 30
0.0
 10
59.1819110584
 20
115.73086828
 30
0.0
 10
59.0287236837
 20
115.7908535716
 30
0.0
  0
SPLINE
  5
45D
100
AcDbEntity
  8
0
100
AcDbSpline
 62
7
  6
BYLAYER
 70
0
 71
3
 72
12
 73
8
 74
0
 42
0.0000001
 43
0.0000001
 44
0.0000000001
 40
0.0
 40
0.0
 40
0.0
 40
0.0
 40
0.1078799327
 40
0.2189353654
 40
0.4546647851
 40
0.7141930712
 40
1.0
 40
1.0
 40
1.0
 40
1.0
 10
58.9211965036
 20
115.8315746881
 30
0.0
 10
58.6839138723
 20
115.9184138087
 30
0.0
 10
58.1886705973
 20
116.0592807576
 30
0.0
 10
57.1310850569
 20
116.206119984
 30
0.0
 10
55.6983364707
 20
116.1186775507
 30
0.0
 10
53.9287681805
 20
115.6146671722
 30
0.0
 10
52.7747789951
 20
115.0522235252
 30
0.0
 10
52.1950517883
 20
114.7175198643
 30
0.0
  0
SPLINE
  5
45E
100
AcDbEntity
  8
0
100
AcDbSpline
 62
7
  6
BYLAYER
 70
0
 71
3
 72
23
 73
19
 74
0
 42
0.0000001
 43
0.0000001
 44
0.0000000001
 40
0.0
 40
0.0
 40
0.0
 40
0.0
 40
0.0606123215
 40
0.1248045223
 40
0.1919891756
 40
0.2614970899
 40
0.3325366574
 40
0.4042656255
 40
0.4758154537
 40
0.5463241955
 40
0.6149688238
 40
0.6809983292
 40
0.7437722471
 40
0.8028022012
 40
0.8578004998
 40
0.9087383306
 40
0.9559121201
 40
1.0
 40
1.0
 40
1.0
 40
1.0
 10
42.9724613195
 20
120.0071849027
 30
0.0
 10
42.478474339
 20
119.7203567908
 30
0.0
 10
41.4961360765
 20
119.068430575
 30
0.0
 10
40.0964428641
 20
117.9177650384
 30
0.0
 10
38.7492601347
 20
116.5840581206
 30
0.0
 10
37.478776376
 20
115.0916971415
 30
0.0
 10
36.3077250949
 20
113.4671472446
 30
0.0
 10
35.2571596782
 20
111.7397191371
 30
0.0
 10
34.3459433434
 20
109.9404845671
 30
0.0
 10
33.5904683459
 20
108.1017967505
 30
0.0
 10
33.0043216602
 20
106.2566665135
 30
0.0
 10
32.5980788988
 20
104.4381069709
 30
0.0
 10
32.3790559578
 20
102.6784989482
 30
0.0
 10
32.3514261176
 20
101.008882261
 30
0.0
 10
32.5162838723
 20
99.4585060354
 30
0.0
 10
32.8723378329
 20
98.0541969296
 30
0.0
 10
33.4151628757
 20
96.8215671048
 30
0.0
 10
33.9116365119
 20
96.110275302
 30
0.0
 10
34.186141985
 20
95.7983775263
 30
0.0
  0
SPLINE
  5
45F
100
AcDbEntity
  8
0
100
AcDbSpline
 62
7
  6
BYLAYER
 70
0
 71
3
 72
9
 73
5
 74
0
 42
0.0000001
 43
0.0000001
 44
0.0000000001
 40
0.0
 40
0.0
 40
0.0
 40
0.0
 40
0.2525642381
 40
1.0
 40
1.0
 40
1.0
 40
1.0
 10
34.186141985
 20
95.7983775263
 30
0.0
 10
34.2309581185
 20
95.7474566751
 30
0.0
 10
34.4120561808
 20
95.5490932083
 30
0.0
 10
34.6078886718
 20
95.3641273774
 30
0.0
 10
34.7616353833
 20
95.2350495274
 30
0.0
  0
SPLINE
  5
460
100
AcDbEntity
  8
0
100
AcDbSpline
 62
7
  6
BYLAYER
 70
0
 71
3
 72
9
 73
5
 74
0
 42
0.0000001
 43
0.0000001
 44
0.0000000001
 40
0.0
 40
0.0
 40
0.0
 40
0.0
 40
0.251165571
 40
1.0
 40
1.0
 40
1.0
 40
1.0
 10
34.7616353833
 20
95.2350495274
 30
0.0
 10
34.8121196083
 20
95.1926655625
 30
0.0
 10
35.0163297245
 20
95.0277794197
 30
0.0
 10
35.2333397329
 20
94.8787320091
 30
0.0
 10
35.4016046351
 20
94.7771938205
 30
0.0
  0
SPLINE
  5
461
100
AcDbEntity
  8
0
100
AcDbSpline
 62
7
  6
BYLAYER
 70
0
 71
3
 72
23
 73
19
 74
0
 42
0.0000001
 43
0.0000001
 44
0.0000000001
 40
0.0
 40
0.0
 40
0.0
 40
0.0
 40
0.0605799174
 40
0.1247333487
 40
0.1918750049
 40
0.2613386965
 40
0.3323360178
 40
0.4040279732
 40
0.4755492346
 40
0.5460407009
 40
0.6146816129
 40
0.6807224538
 40
0.7435231815
 40
0.8025943216
 40
0.8576451021
 40
0.9086411615
 40
0.9558705362
 40
1.0
 40
1.0
 40
1.0
 40
1.0
 10
62.0596960297
 20
108.9926408211
 30
0.0
 10
61.5662860873
 20
108.7061484515
 30
0.0
 10
60.5850760149
 20
108.0551048926
 30
0.0
 10
59.1868397144
 20
106.9061835648
 30
0.0
 10
57.8408975192
 20
105.5746309407
 30
0.0
 10
56.5713420089
 20
104.0847233353
 30
0.0
 10
55.4008211024
 20
102.4627996962
 30
0.0
 10
54.3503132261
 20
100.7380352562
 30
0.0
 10
53.4386227018
 20
98.9413592867
 30
0.0
 10
52.6821009291
 20
97.1049803698
 30
0.0
 10
52.0943145318
 20
95.2617680815
 30
0.0
 10
51.6858340018
 20
93.4446038072
 30
0.0
 10
51.4639895275
 20
91.6857490515
 30
0.0
 10
51.4329880122
 20
90.0161417887
 30
0.0
 10
51.5939704527
 20
88.4649498096
 30
0.0
 10
51.9456939675
 20
87.0589332009
 30
0.0
 10
52.4837876078
 20
85.8236347141
 30
0.0
 10
52.9768953936
 20
85.1096303019
 30
0.0
 10
53.2498018163
 20
84.7961626449
 30
0.0
  0
SPLINE
  5
462
100
AcDbEntity
  8
0
100
AcDbSpline
 62
7
  6
BYLAYER
 70
0
 71
3
 72
9
 73
5
 74
0
 42
0.0000001
 43
0.0000001
 44
0.0000000001
 40
0.0
 40
0.0
 40
0.0
 40
0.0
 40
0.2526882168
 40
1.0
 40
1.0
 40
1.0
 40
1.0
 10
53.2498018163
 20
84.7961626449
 30
0.0
 10
53.2960098054
 20
84.7430869057
 30
0.0
 10
53.4828077428
 20
84.5365064792
 30
0.0
 10
53.6854778744
 20
84.3442158033
 30
0.0
 10
53.8448556459
 20
84.2103756402
 30
0.0
  0
SPLINE
  5
463
100
AcDbEntity
  8
0
100
AcDbSpline
 62
7
  6
BYLAYER
 70
0
 71
3
 72
9
 73
5
 74
0
 42
0.0000001
 43
0.0000001
 44
0.0000000001
 40
0.0
 40
0.0
 40
0.0
 40
0.0
 40
0.2511673772
 40
1.0
 40
1.0
 40
1.0
 40
1.0
 10
53.8448556459
 20
84.2103756402
 30
0.0
 10
53.8954012407
 20
84.1679291272
 30
0.0
 10
54.0998616539
 20
84.0028031061
 30
0.0
 10
54.3171518255
 20
83.8535491099
 30
0.0
 10
54.4856385926
 20
83.7518789345
 30
0.0
  0
SPLINE
  5
464
100
AcDbEntity
  8
0
100
AcDbSpline
 62
7
  6
BYLAYER
 70
0
 71
3
 72
23
 73
19
 74
0
 42
0.0000001
 43
0.0000001
 44
0.0000000001
 40
0.0
 40
0.0
 40
0.0
 40
0.0
 40
0.0606123215
 40
0.1248045223
 40
0.1919891756
 40
0.2614970899
 40
0.3325366574
 40
0.4042656255
 40
0.4758154537
 40
0.5463241955
 40
0.6149688238
 40
0.6809983292
 40
0.7437722471
 40
0.8028022012
 40
0.8578004998
 40
0.9087383306
 40
0.9559121201
 40
1.0
 40
1.0
 40
1.0
 40
1.0
 10
42.2653515943
 20
120.4154256572
 30
0.0
 10
41.7713646138
 20
120.1285975453
 30
0.0
 10
40.7890263513
 20
119.4766713295
 30
0.0
 10
39.3893331389
 20
118.326005793
 30
0.0
 10
38.0421504096
 20
116.9922988751
 30
0.0
 10
36.7716666509
 20
115.4999378961
 30
0.0
 10
35.6006153698
 20
113.8753879991
 30
0.0
 10
34.5500499531
 20
112.1479598916
 30
0.0
 10
33.6388336183
 20
110.3487253216
 30
0.0
 10
32.8833586208
 20
108.510037505
 30
0.0
 10
32.297211935
 20
106.664907268
 30
0.0
 10
31.8909691737
 20
104.8463477254
 30
0.0
 10
31.6719462327
 20
103.0867397027
 30
0.0
 10
31.6443163924
 20
101.4171230155
 30
0.0
 10
31.8091741472
 20
99.8667467899
 30
0.0
 10
32.1652281078
 20
98.4624376842
 30
0.0
 10
32.7080531506
 20
97.2298078593
 30
0.0
 10
33.2045267867
 20
96.5185160566
 30
0.0
 10
33.4790322599
 20
96.2066182808
 30
0.0
  0
SPLINE
  5
465
100
AcDbEntity
  8
0
100
AcDbSpline
 62
7
  6
BYLAYER
 70
0
 71
3
 72
9
 73
5
 74
0
 42
0.0000001
 43
0.0000001
 44
0.0000000001
 40
0.0
 40
0.0
 40
0.0
 40
0.0
 40
0.2525642381
 40
1.0
 40
1.0
 40
1.0
 40
1.0
 10
33.4790322599
 20
96.2066182808
 30
0.0
 10
33.5238483934
 20
96.1556974296
 30
0.0
 10
33.7049464556
 20
95.9573339628
 30
0.0
 10
33.9007789467
 20
95.7723681319
 30
0.0
 10
34.0545256582
 20
95.6432902819
 30
0.0
  0
SPLINE
  5
466
100
AcDbEntity
  8
0
100
AcDbSpline
 62
7
  6
BYLAYER
 70
0
 71
3
 72
9
 73
5
 74
0
 42
0.0000001
 43
0.0000001
 44
0.0000000001
 40
0.0
 40
0.0
 40
0.0
 40
0.0
 40
0.251165571
 40
1.0
 40
1.0
 40
1.0
 40
1.0
 10
34.0545256582
 20
95.6432902819
 30
0.0
 10
34.1050098831
 20
95.600906317
 30
0.0
 10
34.3092199994
 20
95.4360201743
 30
0.0
 10
34.5262300077
 20
95.2869727637
 30
0.0
 10
34.6944949099
 20
95.185434575
 30
0.0
  0
SPLINE
  5
467
100
AcDbEntity
  8
0
100
AcDbSpline
 62
7
  6
BYLAYER
 70
0
 71
3
 72
9
 73
5
 74
0
 42
0.0000001
 43
0.0000001
 44
0.0000000001
 40
0.0
 40
0.0
 40
0.0
 40
0.0
 40
0.2494603608
 40
1.0
 40
1.0
 40
1.0
 40
1.0
 10
60.3310762703
 20
115.1037702204
 30
0.0
 10
60.2831783128
 20
115.1301461898
 30
0.0
 10
60.0894584035
 20
115.2327383657
 30
0.0
 10
59.8890207836
 20
115.3226275255
 30
0.0
 10
59.7358334088
 20
115.3826128171
 30
0.0
  0
SPLINE
  5
468
100
AcDbEntity
  8
0
100
AcDbSpline
 62
7
  6
BYLAYER
 70
0
 71
3
 72
12
 73
8
 74
0
 42
0.0000001
 43
0.0000001
 44
0.0000000001
 40
0.0
 40
0.0
 40
0.0
 40
0.0
 40
0.1078799327
 40
0.2189353654
 40
0.4546647851
 40
0.7141930712
 40
1.0
 40
1.0
 40
1.0
 40
1.0
 10
59.6283062288
 20
115.4233339336
 30
0.0
 10
59.3910235974
 20
115.5101730541
 30
0.0
 10
58.8957803225
 20
115.6510400031
 30
0.0
 10
57.8381947821
 20
115.7978792295
 30
0.0
 10
56.4054461959
 20
115.7104367962
 30
0.0
 10
54.6358779056
 20
115.2064264176
 30
0.0
 10
53.4818887202
 20
114.6439827707
 30
0.0
 10
52.9021615135
 20
114.3092791097
 30
0.0
  0
SPLINE
  5
469
100
AcDbEntity
  8
0
100
AcDbSpline
 62
7
  6
BYLAYER
 70
0
 71
3
 72
23
 73
19
 74
0
 42
0.0000001
 43
0.0000001
 44
0.0000000001
 40
0.0
 40
0.0
 40
0.0
 40
0.0
 40
0.0614947667
 40
0.1267434422
 40
0.1950979593
 40
0.2658042343
 40
0.3379807924
 40
0.4106939402
 40
0.4829862014
 40
0.5539175039
 40
0.6226039423
 40
0.6882585156
 40
0.7502370231
 40
0.8080922802
 40
0.8616381653
 40
0.9110232584
 40
0.9568062143
 40
1.0
 40
1.0
 40
1.0
 40
1.0
 10
41.5582418692
 20
120.8236664118
 30
0.0
 10
41.0428282947
 20
120.5243971835
 30
0.0
 10
40.0184390961
 20
119.840791843
 30
0.0
 10
38.5631414278
 20
118.6289717632
 30
0.0
 10
37.1671070074
 20
117.2207091378
 30
0.0
 10
35.8575307074
 20
115.6438498945
 30
0.0
 10
34.6598200152
 20
113.9287903428
 30
0.0
 10
33.5973408504
 20
112.1090720189
 30
0.0
 10
32.6908197444
 20
110.2201797951
 30
0.0
 10
31.9579214325
 20
108.2989582283
 30
0.0
 10
31.4129194961
 20
106.3827757758
 30
0.0
 10
31.0664599133
 20
104.5087327491
 30
0.0
 10
30.9254519325
 20
102.7128587897
 30
0.0
 10
30.9931358969
 20
101.0293195116
 30
0.0
 10
31.26929208
 20
99.4898954372
 30
0.0
 10
31.7512528551
 20
98.1235872344
 30
0.0
 10
32.4327720426
 20
96.9584023708
 30
0.0
 10
33.0267996272
 20
96.3207040356
 30
0.0
 10
33.347415933
 20
96.0515310364
 30
0.0
  0
SPLINE
  5
46A
100
AcDbEntity
  8
0
100
AcDbSpline
 62
7
  6
BYLAYER
 70
0
 71
3
 72
9
 73
5
 74
0
 42
0.0000001
 43
0.0000001
 44
0.0000000001
 40
0.0
 40
0.0
 40
0.0
 40
0.0
 40
0.251165571
 40
1.0
 40
1.0
 40
1.0
 40
1.0
 10
33.347415933
 20
96.0515310364
 30
0.0
 10
33.397900158
 20
96.0091470715
 30
0.0
 10
33.6021102742
 20
95.8442609288
 30
0.0
 10
33.8191202826
 20
95.6952135182
 30
0.0
 10
33.9873851848
 20
95.5936753295
 30
0.0
  0
SPLINE
  5
46B
100
AcDbEntity
  8
0
100
AcDbSpline
 62
7
  6
BYLAYER
 70
0
 71
3
 72
9
 73
5
 74
0
 42
0.0000001
 43
0.0000001
 44
0.0000000001
 40
0.0
 40
0.0
 40
0.0
 40
0.0
 40
0.2494603608
 40
1.0
 40
1.0
 40
1.0
 40
1.0
 10
50.4315401183
 20
120.8191407837
 30
0.0
 10
50.3836421607
 20
120.8455167531
 30
0.0
 10
50.1899222515
 20
120.948108929
 30
0.0
 10
49.9894846315
 20
121.0379980887
 30
0.0
 10
49.8362972568
 20
121.0979833804
 30
0.0
  0
SPLINE
  5
46C
100
AcDbEntity
  8
0
100
AcDbSpline
 62
7
  6
BYLAYER
 70
0
 71
3
 72
12
 73
8
 74
0
 42
0.0000001
 43
0.0000001
 44
0.0000000001
 40
0.0
 40
0.0
 40
0.0
 40
0.0
 40
0.1078799327
 40
0.2189353654
 40
0.4546647851
 40
0.7141930712
 40
1.0
 40
1.0
 40
1.0
 40
1.0
 10
49.7287700767
 20
121.1387044969
 30
0.0
 10
49.4914874454
 20
121.2255436174
 30
0.0
 10
48.9962441704
 20
121.3664105664
 30
0.0
 10
47.93865863
 20
121.5132497928
 30
0.0
 10
46.5059100438
 20
121.4258073595
 30
0.0
 10
44.7363417536
 20
120.9217969809
 30
0.0
 10
43.5823525682
 20
120.359353334
 30
0.0
 10
43.0026253614
 20
120.024649673
 30
0.0
  0
SPLINE
  5
46D
100
AcDbEntity
  8
0
100
AcDbSpline
 62
7
  6
BYLAYER
 70
0
 71
3
 72
9
 73
5
 74
0
 42
0.0000001
 43
0.0000001
 44
0.0000000001
 40
0.0
 40
0.0
 40
0.0
 40
0.0
 40
0.2481625656
 40
1.0
 40
1.0
 40
1.0
 40
1.0
 10
40.851132144
 20
121.2319071663
 30
0.0
 10
40.8171022417
 20
121.2121480774
 30
0.0
 10
40.6803069575
 20
121.1319555707
 30
0.0
 10
40.5448372308
 20
121.0495037777
 30
0.0
 10
40.4437424667
 20
120.9863177847
 30
0.0
  0
SPLINE
  5
46E
100
AcDbEntity
  8
0
100
AcDbSpline
 62
7
  6
BYLAYER
 70
0
 71
3
 72
24
 73
20
 74
0
 42
0.0000001
 43
0.0000001
 44
0.0000000001
 40
0.0
 40
0.0
 40
0.0
 40
0.0
 40
0.0633937277
 40
0.1304752668
 40
0.2005446638
 40
0.2727458768
 40
0.3461212709
 40
0.4196683225
 40
0.492375119
 40
0.5632654153
 40
0.6314426272
 40
0.6961380099
 40
0.7567648642
 40
0.8129828545
 40
0.8647750139
 40
0.912533766
 40
0.957131877
 40
0.9786916387
 40
1.0
 40
1.0
 40
1.0
 40
1.0
 10
40.4437424667
 20
120.9863177847
 30
0.0
 10
39.91714725
 20
120.6571865779
 30
0.0
 10
38.8742307048
 20
119.9128212723
 30
0.0
 10
37.40129471
 20
118.6084248183
 30
0.0
 10
35.9995676188
 20
117.1075178109
 30
0.0
 10
34.6976316798
 20
115.4407264576
 30
0.0
 10
33.5219358114
 20
113.6418900136
 30
0.0
 10
32.496458606
 20
111.7477731693
 30
0.0
 10
31.6421470724
 20
109.7969960804
 30
0.0
 10
30.9764365649
 20
107.8293214132
 30
0.0
 10
30.5128866034
 20
105.8847150383
 30
0.0
 10
30.2609897625
 20
104.0024266276
 30
0.0
 10
30.2261882536
 20
102.2200756762
 30
0.0
 10
30.410018974
 20
100.5729171812
 30
0.0
 10
30.8109767896
 20
99.0932731519
 30
0.0
 10
31.424042088
 20
97.8114616591
 30
0.0
 10
32.1148769237
 20
96.9215035992
 30
0.0
 10
32.7552158891
 20
96.3495323071
 30
0.0
 10
33.1015612121
 20
96.1097598515
 30
0.0
 10
33.2802754596
 20
96.0019160841
 30
0.0
  0
SPLINE
  5
46F
100
AcDbEntity
  8
0
100
AcDbSpline
 62
7
  6
BYLAYER
 70
0
 71
3
 72
9
 73
5
 74
0
 42
0.0000001
 43
0.0000001
 44
0.0000000001
 40
0.0
 40
0.0
 40
0.0
 40
0.0
 40
0.2494603608
 40
1.0
 40
1.0
 40
1.0
 40
1.0
 10
61.0381859955
 20
114.6955294659
 30
0.0
 10
60.9902880379
 20
114.7219054353
 30
0.0
 10
60.7965681287
 20
114.8244976112
 30
0.0
 10
60.5961305087
 20
114.9143867709
 30
0.0
 10
60.442943134
 20
114.9743720625
 30
0.0
  0
SPLINE
  5
470
100
AcDbEntity
  8
0
100
AcDbSpline
 62
7
  6
BYLAYER
 70
0
 71
3
 72
12
 73
8
 74
0
 42
0.0000001
 43
0.0000001
 44
0.0000000001
 40
0.0
 40
0.0
 40
0.0
 40
0.0
 40
0.1078799327
 40
0.2189353654
 40
0.4546647851
 40
0.7141930712
 40
1.0
 40
1.0
 40
1.0
 40
1.0
 10
60.3354159539
 20
115.0150931791
 30
0.0
 10
60.0981333226
 20
115.1019322996
 30
0.0
 10
59.6028900476
 20
115.2427992486
 30
0.0
 10
58.5453045072
 20
115.389638475
 30
0.0
 10
57.112555921
 20
115.3021960417
 30
0.0
 10
55.3429876308
 20
114.7981856631
 30
0.0
 10
54.1889984454
 20
114.2357420162
 30
0.0
 10
53.6092712386
 20
113.9010383552
 30
0.0
  0
SPLINE
  5
471
100
AcDbEntity
  8
0
100
AcDbSpline
 62
7
  6
BYLAYER
 70
0
 71
3
 72
12
 73
8
 74
0
 42
0.0000001
 43
0.0000001
 44
0.0000000001
 40
0.0
 40
0.0
 40
0.0
 40
0.0
 40
0.2856784833
 40
0.5452074847
 40
0.7810164644
 40
0.8921078924
 40
1.0
 40
1.0
 40
1.0
 40
1.0
 10
61.3826557283
 20
109.4183472845
 30
0.0
 10
61.9602074943
 20
109.7517949617
 30
0.0
 10
63.1099002707
 20
110.3125497498
 30
0.0
 10
64.8727994601
 20
110.8169267304
 30
0.0
 10
66.3006691404
 20
110.9076797184
 30
0.0
 10
67.3555719849
 20
110.7653277616
 30
0.0
 10
67.849915413
 20
110.6272142829
 30
0.0
 10
68.0868790632
 20
110.5418599395
 30
0.0
  0
SPLINE
  5
472
100
AcDbEntity
  8
0
100
AcDbSpline
 62
7
  6
BYLAYER
 70
0
 71
3
 72
9
 73
5
 74
0
 42
0.0000001
 43
0.0000001
 44
0.0000000001
 40
0.0
 40
0.0
 40
0.0
 40
0.0
 40
0.2512031892
 40
1.0
 40
1.0
 40
1.0
 40
1.0
 10
68.0868790632
 20
110.5418599395
 30
0.0
 10
68.1497584629
 20
110.51921077
 30
0.0
 10
68.3983003933
 20
110.4242085607
 30
0.0
 10
68.6393861475
 20
110.3096730924
 30
0.0
 10
68.8139153842
 20
110.2136056835
 30
0.0
  0
SPLINE
  5
473
100
AcDbEntity
  8
0
100
AcDbSpline
 62
7
  6
BYLAYER
 70
0
 71
3
 72
9
 73
5
 74
0
 42
0.0000001
 43
0.0000001
 44
0.0000000001
 40
0.0
 40
0.0
 40
0.0
 40
0.0
 40
0.2494603608
 40
1.0
 40
1.0
 40
1.0
 40
1.0
 10
61.7452957206
 20
114.2872887113
 30
0.0
 10
61.6973977631
 20
114.3136646808
 30
0.0
 10
61.5036778538
 20
114.4162568567
 30
0.0
 10
61.3032402338
 20
114.5061460164
 30
0.0
 10
61.1500528591
 20
114.566131308
 30
0.0
  0
SPLINE
  5
474
100
AcDbEntity
  8
0
100
AcDbSpline
 62
7
  6
BYLAYER
 70
0
 71
3
 72
12
 73
8
 74
0
 42
0.0000001
 43
0.0000001
 44
0.0000000001
 40
0.0
 40
0.0
 40
0.0
 40
0.0
 40
0.1078799327
 40
0.2189353654
 40
0.4546647851
 40
0.7141930712
 40
1.0
 40
1.0
 40
1.0
 40
1.0
 10
61.0425256791
 20
114.6068524246
 30
0.0
 10
60.8052430477
 20
114.6936915451
 30
0.0
 10
60.3099997728
 20
114.8345584941
 30
0.0
 10
59.2524142324
 20
114.9813977205
 30
0.0
 10
57.8196656462
 20
114.8939552871
 30
0.0
 10
56.0500973559
 20
114.3899449086
 30
0.0
 10
54.8961081705
 20
113.8275012616
 30
0.0
 10
54.3163809638
 20
113.4927976007
 30
0.0
  0
SPLINE
  5
475
100
AcDbEntity
  8
0
100
AcDbSpline
 62
7
  6
BYLAYER
 70
0
 71
3
 72
31
 73
27
 74
0
 42
0.0000001
 43
0.0000001
 44
0.0000000001
 40
0.0
 40
0.0
 40
0.0
 40
0.0
 40
0.0665173805
 40
0.1382617672
 40
0.2137820443
 40
0.2912925908
 40
0.3688519387
 40
0.4445139649
 40
0.5164836507
 40
0.5506271727
 40
0.5833315655
 40
0.6144939981
 40
0.6440604348
 40
0.6720319425
 40
0.6984762756
 40
0.7235372337
 40
0.7474390184
 40
0.7704876738
 40
0.7930573376
 40
0.8155643971
 40
0.8384306531
 40
0.8620462205
 40
0.8867397306
 40
0.9127583716
 40
0.9402689553
 40
1.0
 40
1.0
 40
1.0
 40
1.0
 10
101.6361309677
 20
91.2150731619
 30
0.0
 10
100.6159037767
 20
90.6260482345
 30
0.0
 10
98.6004932546
 20
89.2149174447
 30
0.0
 10
95.8253540061
 20
86.6249374962
 30
0.0
 10
93.2651821333
 20
83.5640498918
 30
0.0
 10
91.015367126
 20
80.1456038693
 30
0.0
 10
89.1586049609
 20
76.4956294293
 30
0.0
 10
87.7639358341
 20
72.7498305972
 30
0.0
 10
87.0162192738
 20
69.6079064412
 30
0.0
 10
86.7044195383
 20
67.1672598481
 30
0.0
 10
86.6159397624
 20
65.431830548
 30
0.0
 10
86.6697291529
 20
63.7758539509
 30
0.0
 10
86.8653810486
 20
62.2146626153
 30
0.0
 10
87.2016074372
 20
60.7627867772
 30
0.0
 10
87.6758970856
 20
59.433836366
 30
0.0
 10
88.2845487692
 20
58.2404811925
 30
0.0
 10
89.0229941706
 20
57.1948026326
 30
0.0
 10
89.8847726277
 20
56.3079528598
 30
0.0
 10
90.8616568864
 20
55.5900913126
 30
0.0
 10
91.9432775151
 20
55.0497071067
 30
0.0
 10
93.1174006009
 20
54.6922700737
 30
0.0
 10
94.3712623542
 20
54.5208433072
 30
0.0
 10
95.691830387
 20
54.5358368386
 30
0.0
 10
97.0665261273
 20
54.7356689777
 30
0.0
 10
99.006563703
 20
55.2591868309
 30
0.0
 10
100.4249307196
 20
55.9037254242
 30
0.0
 10
101.3497980971
 20
56.4172431329
 30
0.0
  0
SPLINE
  5
476
100
AcDbEntity
  8
0
100
AcDbSpline
 62
7
  6
BYLAYER
 70
0
 71
3
 72
15
 73
11
 74
0
 42
0.0000001
 43
0.0000001
 44
0.0000000001
 40
0.0
 40
0.0
 40
0.0
 40
0.0
 40
0.1486300961
 40
0.289604845
 40
0.4228218804
 40
0.5487053142
 40
0.6680256989
 40
0.7819228992
 40
0.8919553671
 40
1.0
 40
1.0
 40
1.0
 40
1.0
 10
101.6361309677
 20
57.5820346703
 30
0.0
 10
101.1838161837
 20
57.3208921668
 30
0.0
 10
100.2807068132
 20
56.8483695576
 30
0.0
 10
98.9031707027
 20
56.2853375293
 30
0.0
 10
97.5502492468
 20
55.8924925804
 30
0.0
 10
96.2350166431
 20
55.6742207344
 30
0.0
 10
94.9697291245
 20
55.6331578069
 30
0.0
 10
93.7666615348
 20
55.7714115208
 30
0.0
 10
92.6387460105
 20
56.088315078
 30
0.0
 10
91.9424329375
 20
56.4187228325
 30
0.0
 10
91.6146337415
 20
56.6102868445
 30
0.0
  0
SPLINE
  5
477
100
AcDbEntity
  8
0
100
AcDbSpline
 62
7
  6
BYLAYER
 70
0
 71
3
 72
25
 73
21
 74
0
 42
0.0000001
 43
0.0000001
 44
0.0000000001
 40
0.0
 40
0.0
 40
0.0
 40
0.0
 40
0.0623819331
 40
0.1287219907
 40
0.1983134329
 40
0.2702902026
 40
0.3436671312
 40
0.4173987224
 40
0.490423079
 40
0.5617096995
 40
0.6303071348
 40
0.6953950238
 40
0.7563430453
 40
0.8127808559
 40
0.8646819467
 40
0.9124572525
 40
0.9351019182
 40
0.9571074501
 40
0.9786678731
 40
1.0
 40
1.0
 40
1.0
 40
1.0
 10
101.3674292721
 20
91.6804755671
 30
0.0
 10
100.5917591226
 20
91.2326448706
 30
0.0
 10
99.0508135542
 20
90.2028539251
 30
0.0
 10
96.8686242429
 20
88.3664323523
 30
0.0
 10
94.782678469
 20
86.2246969771
 30
0.0
 10
92.8375552477
 20
83.8235474114
 30
0.0
 10
91.0744565977
 20
81.2138978594
 30
0.0
 10
89.5309913449
 20
78.4514609071
 30
0.0
 10
88.2400856079
 20
75.59514108
 30
0.0
 10
87.22925565
 20
72.7058021821
 30
0.0
 10
86.5200317268
 20
69.8447968516
 30
0.0
 10
86.1276224476
 20
67.0724746364
 30
0.0
 10
86.0607659815
 20
64.4468266223
 30
0.0
 10
86.3224356951
 20
62.0218291881
 30
0.0
 10
86.9096222939
 20
59.8479843149
 30
0.0
 10
87.6798935505
 20
58.2546208398
 30
0.0
 10
88.4494395067
 20
57.1703571849
 30
0.0
 10
89.087551693
 20
56.4625416057
 30
0.0
 10
89.7933207453
 20
55.8506507825
 30
0.0
 10
90.3074697403
 20
55.5080915822
 30
0.0
 10
90.5727192942
 20
55.3549537745
 30
0.0
  0
SPLINE
  5
478
100
AcDbEntity
  8
0
100
AcDbSpline
 62
7
  6
BYLAYER
 70
0
 71
3
 72
12
 73
8
 74
0
 42
0.0000001
 43
0.0000001
 44
0.0000000001
 40
0.0
 40
0.0
 40
0.0
 40
0.0
 40
0.2858364761
 40
0.5453644902
 40
0.7810755181
 40
0.8921227184
 40
1.0
 40
1.0
 40
1.0
 40
1.0
 10
60.6725712509
 20
109.8268992874
 30
0.0
 10
61.2530349061
 20
110.1620281346
 30
0.0
 10
62.4084821843
 20
110.7250884595
 30
0.0
 10
64.1803051388
 20
111.2292150276
 30
0.0
 10
65.6147578593
 20
111.3159233692
 30
0.0
 10
66.6733872532
 20
111.1679838603
 30
0.0
 10
67.1690363846
 20
111.0264216332
 30
0.0
 10
67.4064873881
 20
110.9392033243
 30
0.0
  0
SPLINE
  5
479
100
AcDbEntity
  8
0
100
AcDbSpline
 62
7
  6
BYLAYER
 70
0
 71
3
 72
9
 73
5
 74
0
 42
0.0000001
 43
0.0000001
 44
0.0000000001
 40
0.0
 40
0.0
 40
0.0
 40
0.0
 40
0.2508279825
 40
1.0
 40
1.0
 40
1.0
 40
1.0
 10
67.5083400114
 20
110.9005623398
 30
0.0
 10
67.5574677514
 20
110.8813248419
 30
0.0
 10
67.7521326779
 20
110.8016067857
 30
0.0
 10
67.9418359083
 20
110.7097633719
 30
0.0
 10
68.0802771446
 20
110.6344870418
 30
0.0
  0
SPLINE
  5
47A
100
AcDbEntity
  8
0
100
AcDbSpline
 62
7
  6
BYLAYER
 70
0
 71
3
 72
9
 73
5
 74
0
 42
0.0000001
 43
0.0000001
 44
0.0000000001
 40
0.0
 40
0.0
 40
0.0
 40
0.0
 40
0.2494603608
 40
1.0
 40
1.0
 40
1.0
 40
1.0
 10
62.4524054458
 20
113.8790479568
 30
0.0
 10
62.4045074882
 20
113.9054239262
 30
0.0
 10
62.210787579
 20
114.0080161022
 30
0.0
 10
62.010349959
 20
114.0979052619
 30
0.0
 10
61.8571625843
 20
114.1578905535
 30
0.0
  0
SPLINE
  5
47B
100
AcDbEntity
  8
0
100
AcDbSpline
 62
7
  6
BYLAYER
 70
0
 71
3
 72
12
 73
8
 74
0
 42
0.0000001
 43
0.0000001
 44
0.0000000001
 40
0.0
 40
0.0
 40
0.0
 40
0.0
 40
0.1078799327
 40
0.2189353654
 40
0.4546647851
 40
0.7141930712
 40
1.0
 40
1.0
 40
1.0
 40
1.0
 10
61.7496354042
 20
114.1986116701
 30
0.0
 10
61.5123527729
 20
114.2854507906
 30
0.0
 10
61.0171094979
 20
114.4263177395
 30
0.0
 10
59.9595239575
 20
114.5731569659
 30
0.0
 10
58.5267753713
 20
114.4857145326
 30
0.0
 10
56.7572070811
 20
113.9817041541
 30
0.0
 10
55.6032178957
 20
113.4192605071
 30
0.0
 10
55.0234906889
 20
113.0845568462
 30
0.0
  0
SPLINE
  5
47C
100
AcDbEntity
  8
0
100
AcDbSpline
 62
7
  6
BYLAYER
 70
0
 71
3
 72
9
 73
5
 74
0
 42
0.0000001
 43
0.0000001
 44
0.0000000001
 40
0.0
 40
0.0
 40
0.0
 40
0.0
 40
0.2494603608
 40
1.0
 40
1.0
 40
1.0
 40
1.0
 10
51.1386498434
 20
120.4109000291
 30
0.0
 10
51.0907518859
 20
120.4372759986
 30
0.0
 10
50.8970319766
 20
120.5398681745
 30
0.0
 10
50.6965943566
 20
120.6297573342
 30
0.0
 10
50.5434069819
 20
120.6897426258
 30
0.0
  0
SPLINE
  5
47D
100
AcDbEntity
  8
0
100
AcDbSpline
 62
7
  6
BYLAYER
 70
0
 71
3
 72
12
 73
8
 74
0
 42
0.0000001
 43
0.0000001
 44
0.0000000001
 40
0.0
 40
0.0
 40
0.0
 40
0.0
 40
0.1078799327
 40
0.2189353654
 40
0.4546647851
 40
0.7141930712
 40
1.0
 40
1.0
 40
1.0
 40
1.0
 10
50.4358798018
 20
120.7304637424
 30
0.0
 10
50.1985971705
 20
120.8173028629
 30
0.0
 10
49.7033538956
 20
120.9581698119
 30
0.0
 10
48.6457683552
 20
121.1050090383
 30
0.0
 10
47.213019769
 20
121.0175666049
 30
0.0
 10
45.4434514787
 20
120.5135562264
 30
0.0
 10
44.2894622933
 20
119.9511125795
 30
0.0
 10
43.7097350866
 20
119.6164089185
 30
0.0
  0
SPLINE
  5
47E
100
AcDbEntity
  8
0
100
AcDbSpline
 62
7
  6
BYLAYER
 70
0
 71
3
 72
9
 73
5
 74
0
 42
0.0000001
 43
0.0000001
 44
0.0000000001
 40
0.0
 40
0.0
 40
0.0
 40
0.0
 40
0.2488022033
 40
1.0
 40
1.0
 40
1.0
 40
1.0
 10
21.255548402
 20
108.8445191242
 30
0.0
 10
21.2555482232
 20
108.8692520617
 30
0.0
 10
21.2558269278
 20
108.9686599223
 30
0.0
 10
21.2572171626
 20
109.0680644821
 30
0.0
 10
21.2588699552
 20
109.1427212838
 30
0.0
  0
SPLINE
  5
47F
100
AcDbEntity
  8
0
100
AcDbSpline
 62
7
  6
BYLAYER
 70
0
 71
3
 72
15
 73
11
 74
0
 42
0.0000001
 43
0.0000001
 44
0.0000000001
 40
0.0
 40
0.0
 40
0.0
 40
0.0
 40
0.1148407677
 40
0.2381662251
 40
0.3675500537
 40
0.5000752714
 40
0.6325886031
 40
0.7619411197
 40
0.8852078712
 40
1.0
 40
1.0
 40
1.0
 40
1.0
 10
21.2588699552
 20
109.1427212838
 30
0.0
 10
21.2758469971
 20
109.9095759406
 30
0.0
 10
21.4429463589
 20
111.4984394918
 30
0.0
 10
22.0258710849
 20
113.8892528541
 30
0.0
 10
22.9305374072
 20
116.3042057748
 30
0.0
 10
24.1252258508
 20
118.6580200451
 30
0.0
 10
25.5678899467
 20
120.8683057118
 30
0.0
 10
27.2081433113
 20
122.8573959239
 30
0.0
 10
28.9879465566
 20
124.5555084332
 30
0.0
 10
30.2808205458
 20
125.4928665758
 30
0.0
 10
30.9366096207
 20
125.8901029081
 30
0.0
  0
SPLINE
  5
480
100
AcDbEntity
  8
0
100
AcDbSpline
 62
7
  6
BYLAYER
 70
0
 71
3
 72
9
 73
5
 74
0
 42
0.0000001
 43
0.0000001
 44
0.0000000001
 40
0.0
 40
0.0
 40
0.0
 40
0.0
 40
0.2511901393
 40
1.0
 40
1.0
 40
1.0
 40
1.0
 10
30.9366096207
 20
125.8901029081
 30
0.0
 10
30.9568411406
 20
125.9023579076
 30
0.0
 10
31.0375099878
 20
125.9509369721
 30
0.0
 10
31.1186846739
 20
125.9986763624
 30
0.0
 10
31.179750757
 20
126.0339326715
 30
0.0
  0
SPLINE
  5
481
100
AcDbEntity
  8
0
100
AcDbSpline
 62
7
  6
BYLAYER
 70
0
 71
3
 72
23
 73
19
 74
0
 42
0.0000001
 43
0.0000001
 44
0.0000000001
 40
0.0
 40
0.0
 40
0.0
 40
0.0
 40
0.0606123215
 40
0.1248045223
 40
0.1919891756
 40
0.2614970899
 40
0.3325366574
 40
0.4042656255
 40
0.4758154537
 40
0.5463241955
 40
0.6149688238
 40
0.6809983292
 40
0.7437722471
 40
0.8028022012
 40
0.8578004998
 40
0.9087383306
 40
0.9559121201
 40
1.0
 40
1.0
 40
1.0
 40
1.0
 10
59.943094723
 20
110.2094067942
 30
0.0
 10
59.4491077425
 20
109.9225786823
 30
0.0
 10
58.46676948
 20
109.2706524665
 30
0.0
 10
57.0670762676
 20
108.11998693
 30
0.0
 10
55.7198935382
 20
106.7862800121
 30
0.0
 10
54.4494097796
 20
105.2939190331
 30
0.0
 10
53.2783584985
 20
103.6693691361
 30
0.0
 10
52.2277930817
 20
101.9419410286
 30
0.0
 10
51.316576747
 20
100.1427064586
 30
0.0
 10
50.5611017495
 20
98.304018642
 30
0.0
 10
49.9749550637
 20
96.458888405
 30
0.0
 10
49.5687123024
 20
94.6403288624
 30
0.0
 10
49.3496893614
 20
92.8807208397
 30
0.0
 10
49.3220595211
 20
91.2111041525
 30
0.0
 10
49.4869172758
 20
89.6607279269
 30
0.0
 10
49.8429712365
 20
88.2564188211
 30
0.0
 10
50.3857962793
 20
87.0237889963
 30
0.0
 10
50.8822699154
 20
86.3124971936
 30
0.0
 10
51.1567753885
 20
86.0005994178
 30
0.0
  0
SPLINE
  5
482
100
AcDbEntity
  8
0
100
AcDbSpline
 62
7
  6
BYLAYER
 70
0
 71
3
 72
9
 73
5
 74
0
 42
0.0000001
 43
0.0000001
 44
0.0000000001
 40
0.0
 40
0.0
 40
0.0
 40
0.0
 40
0.2525642381
 40
1.0
 40
1.0
 40
1.0
 40
1.0
 10
51.1567753885
 20
86.0005994178
 30
0.0
 10
51.201591522
 20
85.9496785666
 30
0.0
 10
51.3826895843
 20
85.7513150998
 30
0.0
 10
51.5785220754
 20
85.5663492689
 30
0.0
 10
51.7322687868
 20
85.4372714189
 30
0.0
  0
SPLINE
  5
483
100
AcDbEntity
  8
0
100
AcDbSpline
 62
7
  6
BYLAYER
 70
0
 71
3
 72
9
 73
5
 74
0
 42
0.0000001
 43
0.0000001
 44
0.0000000001
 40
0.0
 40
0.0
 40
0.0
 40
0.0
 40
0.251165571
 40
1.0
 40
1.0
 40
1.0
 40
1.0
 10
51.7322687868
 20
85.4372714189
 30
0.0
 10
51.7827530118
 20
85.394887454
 30
0.0
 10
51.9869631281
 20
85.2300013112
 30
0.0
 10
52.2039731364
 20
85.0809539007
 30
0.0
 10
52.3722380386
 20
84.979415712
 30
0.0
  0
SPLINE
  5
484
100
AcDbEntity
  8
0
100
AcDbSpline
 62
7
  6
BYLAYER
 70
0
 71
3
 72
9
 73
5
 74
0
 42
0.0000001
 43
0.0000001
 44
0.0000000001
 40
0.0
 40
0.0
 40
0.0
 40
0.0
 40
0.2494603608
 40
1.0
 40
1.0
 40
1.0
 40
1.0
 10
63.1595151709
 20
113.4708072023
 30
0.0
 10
63.1116172134
 20
113.4971831717
 30
0.0
 10
62.9178973041
 20
113.5997753476
 30
0.0
 10
62.7174596841
 20
113.6896645074
 30
0.0
 10
62.5642723094
 20
113.749649799
 30
0.0
  0
SPLINE
  5
485
100
AcDbEntity
  8
0
100
AcDbSpline
 62
7
  6
BYLAYER
 70
0
 71
3
 72
12
 73
8
 74
0
 42
0.0000001
 43
0.0000001
 44
0.0000000001
 40
0.0
 40
0.0
 40
0.0
 40
0.0
 40
0.1078799327
 40
0.2189353654
 40
0.4546647851
 40
0.7141930712
 40
1.0
 40
1.0
 40
1.0
 40
1.0
 10
62.4567451293
 20
113.7903709155
 30
0.0
 10
62.219462498
 20
113.8772100361
 30
0.0
 10
61.7242192231
 20
114.018076985
 30
0.0
 10
60.6666336827
 20
114.1649162114
 30
0.0
 10
59.2338850965
 20
114.0774737781
 30
0.0
 10
57.4643168062
 20
113.5734633996
 30
0.0
 10
56.3103276208
 20
113.0110197526
 30
0.0
 10
55.7306004141
 20
112.6763160917
 30
0.0
  0
SPLINE
  5
486
100
AcDbEntity
  8
0
100
AcDbSpline
 62
7
  6
BYLAYER
 70
0
 71
3
 72
15
 73
11
 74
0
 42
0.0000001
 43
0.0000001
 44
0.0000000001
 40
0.0
 40
0.0
 40
0.0
 40
0.0
 40
0.1080135653
 40
0.218062278
 40
0.3320002446
 40
0.451362204
 40
0.5772759503
 40
0.7104919649
 40
0.8514277307
 40
1.0
 40
1.0
 40
1.0
 40
1.0
 10
112.1621392501
 20
92.7497720089
 30
0.0
 10
111.8081714171
 20
92.9541299698
 30
0.0
 10
111.0566185178
 20
93.3060076078
 30
0.0
 10
109.8406193686
 20
93.6422865743
 30
0.0
 10
108.5443076278
 20
93.7868960283
 30
0.0
 10
107.1815386102
 20
93.739392289
 30
0.0
 10
105.7654221094
 20
93.5019090476
 30
0.0
 10
104.3090706455
 20
93.0773394712
 30
0.0
 10
102.8263804477
 20
92.470400492
 30
0.0
 10
101.8543082221
 20
91.961573582
 30
0.0
 10
101.3674292721
 20
91.6804755671
 30
0.0
  0
SPLINE
  5
487
100
AcDbEntity
  8
0
100
AcDbSpline
 62
7
  6
BYLAYER
 70
0
 71
3
 72
23
 73
19
 74
0
 42
0.0000001
 43
0.0000001
 44
0.0000000001
 40
0.0
 40
0.0
 40
0.0
 40
0.0
 40
0.0606123215
 40
0.1248045223
 40
0.1919891756
 40
0.2614970899
 40
0.3325366574
 40
0.4042656255
 40
0.4758154537
 40
0.5463241955
 40
0.6149688238
 40
0.6809983292
 40
0.7437722471
 40
0.8028022012
 40
0.8578004998
 40
0.9087383306
 40
0.9559121201
 40
1.0
 40
1.0
 40
1.0
 40
1.0
 10
59.2359849978
 20
110.6176475487
 30
0.0
 10
58.7419980174
 20
110.3308194368
 30
0.0
 10
57.7596597549
 20
109.678893221
 30
0.0
 10
56.3599665424
 20
108.5282276845
 30
0.0
 10
55.0127838131
 20
107.1945207666
 30
0.0
 10
53.7423000544
 20
105.7021597876
 30
0.0
 10
52.5712487733
 20
104.0776098907
 30
0.0
 10
51.5206833566
 20
102.3501817831
 30
0.0
 10
50.6094670218
 20
100.5509472132
 30
0.0
 10
49.8539920243
 20
98.7122593965
 30
0.0
 10
49.2678453386
 20
96.8671291595
 30
0.0
 10
48.8616025772
 20
95.0485696169
 30
0.0
 10
48.6425796362
 20
93.2889615942
 30
0.0
 10
48.614949796
 20
91.619344907
 30
0.0
 10
48.7798075507
 20
90.0689686814
 30
0.0
 10
49.1358615113
 20
88.6646595757
 30
0.0
 10
49.6786865541
 20
87.4320297508
 30
0.0
 10
50.1751601902
 20
86.7207379481
 30
0.0
 10
50.4496656634
 20
86.4088401723
 30
0.0
  0
SPLINE
  5
488
100
AcDbEntity
  8
0
100
AcDbSpline
 62
7
  6
BYLAYER
 70
0
 71
3
 72
9
 73
5
 74
0
 42
0.0000001
 43
0.0000001
 44
0.0000000001
 40
0.0
 40
0.0
 40
0.0
 40
0.0
 40
0.2525642381
 40
1.0
 40
1.0
 40
1.0
 40
1.0
 10
50.4496656634
 20
86.4088401723
 30
0.0
 10
50.4944817969
 20
86.3579193211
 30
0.0
 10
50.6755798591
 20
86.1595558543
 30
0.0
 10
50.8714123502
 20
85.9745900234
 30
0.0
 10
51.0251590617
 20
85.8455121734
 30
0.0
  0
SPLINE
  5
489
100
AcDbEntity
  8
0
100
AcDbSpline
 62
7
  6
BYLAYER
 70
0
 71
3
 72
9
 73
5
 74
0
 42
0.0000001
 43
0.0000001
 44
0.0000000001
 40
0.0
 40
0.0
 40
0.0
 40
0.0
 40
0.251165571
 40
1.0
 40
1.0
 40
1.0
 40
1.0
 10
51.0251590617
 20
85.8455121734
 30
0.0
 10
51.0756432867
 20
85.8031282085
 30
0.0
 10
51.2798534029
 20
85.6382420658
 30
0.0
 10
51.4968634113
 20
85.4891946552
 30
0.0
 10
51.6651283135
 20
85.3876564665
 30
0.0
  0
SPLINE
  5
48A
100
AcDbEntity
  8
0
100
AcDbSpline
 62
7
  6
BYLAYER
 70
0
 71
3
 72
9
 73
5
 74
0
 42
0.0000001
 43
0.0000001
 44
0.0000000001
 40
0.0
 40
0.0
 40
0.0
 40
0.0
 40
0.2494603608
 40
1.0
 40
1.0
 40
1.0
 40
1.0
 10
51.8457595686
 20
120.0026592746
 30
0.0
 10
51.797861611
 20
120.029035244
 30
0.0
 10
51.6041417017
 20
120.13162742
 30
0.0
 10
51.4037040818
 20
120.2215165797
 30
0.0
 10
51.250516707
 20
120.2815018713
 30
0.0
  0
SPLINE
  5
48B
100
AcDbEntity
  8
0
100
AcDbSpline
 62
7
  6
BYLAYER
 70
0
 71
3
 72
12
 73
8
 74
0
 42
0.0000001
 43
0.0000001
 44
0.0000000001
 40
0.0
 40
0.0
 40
0.0
 40
0.0
 40
0.1078799327
 40
0.2189353654
 40
0.4546647851
 40
0.7141930712
 40
1.0
 40
1.0
 40
1.0
 40
1.0
 10
51.142989527
 20
120.3222229879
 30
0.0
 10
50.9057068957
 20
120.4090621084
 30
0.0
 10
50.4104636207
 20
120.5499290573
 30
0.0
 10
49.3528780803
 20
120.6967682837
 30
0.0
 10
47.9201294941
 20
120.6093258504
 30
0.0
 10
46.1505612039
 20
120.1053154719
 30
0.0
 10
44.9965720185
 20
119.5428718249
 30
0.0
 10
44.4168448117
 20
119.208168164
 30
0.0
  0
SPLINE
  5
48C
100
AcDbEntity
  8
0
100
AcDbSpline
 62
7
  6
BYLAYER
 70
0
 71
3
 72
9
 73
5
 74
0
 42
0.0000001
 43
0.0000001
 44
0.0000000001
 40
0.0
 40
0.0
 40
0.0
 40
0.0
 40
0.2494603608
 40
1.0
 40
1.0
 40
1.0
 40
1.0
 10
63.8666248961
 20
113.0625664478
 30
0.0
 10
63.8187269385
 20
113.0889424172
 30
0.0
 10
63.6250070292
 20
113.1915345931
 30
0.0
 10
63.4245694093
 20
113.2814237529
 30
0.0
 10
63.2713820345
 20
113.3414090445
 30
0.0
  0
SPLINE
  5
48D
100
AcDbEntity
  8
0
100
AcDbSpline
 62
7
  6
BYLAYER
 70
0
 71
3
 72
12
 73
8
 74
0
 42
0.0000001
 43
0.0000001
 44
0.0000000001
 40
0.0
 40
0.0
 40
0.0
 40
0.0
 40
0.1078799327
 40
0.2189353654
 40
0.4546647851
 40
0.7141930712
 40
1.0
 40
1.0
 40
1.0
 40
1.0
 10
63.1638548545
 20
113.382130161
 30
0.0
 10
62.9265722232
 20
113.4689692815
 30
0.0
 10
62.4313289482
 20
113.6098362305
 30
0.0
 10
61.3737434078
 20
113.7566754569
 30
0.0
 10
59.9409948216
 20
113.6692330236
 30
0.0
 10
58.1714265314
 20
113.165222645
 30
0.0
 10
57.017437346
 20
112.6027789981
 30
0.0
 10
56.4377101392
 20
112.2680753371
 30
0.0
  0
SPLINE
  5
48E
100
AcDbEntity
  8
0
100
AcDbSpline
 62
7
  6
BYLAYER
 70
0
 71
3
 72
9
 73
5
 74
0
 42
0.0000001
 43
0.0000001
 44
0.0000000001
 40
0.0
 40
0.0
 40
0.0
 40
0.0
 40
0.2480199144
 40
1.0
 40
1.0
 40
1.0
 40
1.0
 10
68.2048933785
 20
105.99725377
 30
0.0
 10
68.1666190967
 20
105.9770657769
 30
0.0
 10
68.0126983844
 20
105.8949151205
 30
0.0
 10
67.8603725279
 20
105.8097793134
 30
0.0
 10
67.7467513827
 20
105.7441805062
 30
0.0
  0
SPLINE
  5
48F
100
AcDbEntity
  8
0
100
AcDbSpline
 62
7
  6
BYLAYER
 70
0
 71
3
 72
23
 73
19
 74
0
 42
0.0000001
 43
0.0000001
 44
0.0000000001
 40
0.0
 40
0.0
 40
0.0
 40
0.0
 40
0.0606123215
 40
0.1248045223
 40
0.1919891756
 40
0.2614970899
 40
0.3325366574
 40
0.4042656255
 40
0.4758154537
 40
0.5463241955
 40
0.6149688238
 40
0.6809983292
 40
0.7437722471
 40
0.8028022012
 40
0.8578004998
 40
0.9087383306
 40
0.9559121201
 40
1.0
 40
1.0
 40
1.0
 40
1.0
 10
58.5288752727
 20
111.0258883033
 30
0.0
 10
58.0348882922
 20
110.7390601914
 30
0.0
 10
57.0525500297
 20
110.0871339755
 30
0.0
 10
55.6528568173
 20
108.936468439
 30
0.0
 10
54.3056740879
 20
107.6027615211
 30
0.0
 10
53.0351903293
 20
106.1104005421
 30
0.0
 10
51.8641390482
 20
104.4858506452
 30
0.0
 10
50.8135736314
 20
102.7584225376
 30
0.0
 10
49.9023572967
 20
100.9591879677
 30
0.0
 10
49.1468822992
 20
99.1205001511
 30
0.0
 10
48.5607356134
 20
97.275369914
 30
0.0
 10
48.1544928521
 20
95.4568103714
 30
0.0
 10
47.9354699111
 20
93.6972023487
 30
0.0
 10
47.9078400708
 20
92.0275856616
 30
0.0
 10
48.0726978256
 20
90.477209436
 30
0.0
 10
48.4287517862
 20
89.0729003302
 30
0.0
 10
48.971576829
 20
87.8402705053
 30
0.0
 10
49.4680504651
 20
87.1289787026
 30
0.0
 10
49.7425559382
 20
86.8170809268
 30
0.0
  0
SPLINE
  5
490
100
AcDbEntity
  8
0
100
AcDbSpline
 62
7
  6
BYLAYER
 70
0
 71
3
 72
9
 73
5
 74
0
 42
0.0000001
 43
0.0000001
 44
0.0000000001
 40
0.0
 40
0.0
 40
0.0
 40
0.0
 40
0.2525642381
 40
1.0
 40
1.0
 40
1.0
 40
1.0
 10
49.7425559382
 20
86.8170809268
 30
0.0
 10
49.7873720717
 20
86.7661600756
 30
0.0
 10
49.968470134
 20
86.5677966088
 30
0.0
 10
50.1643026251
 20
86.382830778
 30
0.0
 10
50.3180493365
 20
86.2537529279
 30
0.0
  0
SPLINE
  5
491
100
AcDbEntity
  8
0
100
AcDbSpline
 62
7
  6
BYLAYER
 70
0
 71
3
 72
9
 73
5
 74
0
 42
0.0000001
 43
0.0000001
 44
0.0000000001
 40
0.0
 40
0.0
 40
0.0
 40
0.0
 40
0.251165571
 40
1.0
 40
1.0
 40
1.0
 40
1.0
 10
50.3180493365
 20
86.2537529279
 30
0.0
 10
50.3685335615
 20
86.211368963
 30
0.0
 10
50.5727436778
 20
86.0464828203
 30
0.0
 10
50.7897536861
 20
85.8974354097
 30
0.0
 10
50.9580185883
 20
85.795897221
 30
0.0
  0
SPLINE
  5
492
100
AcDbEntity
  8
0
100
AcDbSpline
 62
7
  6
BYLAYER
 70
0
 71
3
 72
18
 73
14
 74
0
 42
0.0000001
 43
0.0000001
 44
0.0000000001
 40
0.0
 40
0.0
 40
0.0
 40
0.0
 40
0.0577531306
 40
0.1184969788
 40
0.2472104309
 40
0.3824456065
 40
0.5196079318
 40
0.6539014109
 40
0.7185895133
 40
0.7809388328
 40
0.8405303209
 40
0.8970433543
 40
1.0
 40
1.0
 40
1.0
 40
1.0
 10
67.009477622
 20
106.1349565153
 30
0.0
 10
66.5903997466
 20
105.8916241404
 30
0.0
 10
65.755537001
 20
105.3483211746
 30
0.0
 10
64.1224098598
 20
104.0660318816
 30
0.0
 10
62.1939201062
 20
102.1252163685
 30
0.0
 10
60.1718515161
 20
99.4225084881
 30
0.0
 10
58.4992842954
 20
96.4370285827
 30
0.0
 10
57.4541698545
 20
93.8066244855
 30
0.0
 10
56.8709469601
 20
91.6909182081
 30
0.0
 10
56.5722037738
 20
90.1520659945
 30
0.0
 10
56.4107442754
 20
88.6610246378
 30
0.0
 10
56.3821273505
 20
86.822293355
 30
0.0
 10
56.5629342627
 20
85.4800606096
 30
0.0
 10
56.797171429
 20
84.6485251578
 30
0.0
  0
SPLINE
  5
493
100
AcDbEntity
  8
0
100
AcDbSpline
 62
7
  6
BYLAYER
 70
0
 71
3
 72
9
 73
5
 74
0
 42
0.0000001
 43
0.0000001
 44
0.0000000001
 40
0.0
 40
0.0
 40
0.0
 40
0.0
 40
0.4807021686
 40
1.0
 40
1.0
 40
1.0
 40
1.0
 10
69.9677523486
 20
107.368363479
 30
0.0
 10
69.4732950083
 20
107.2463950557
 30
0.0
 10
68.4654228329
 20
106.9048031605
 30
0.0
 10
67.5161021053
 20
106.4275041865
 30
0.0
 10
67.0396416576
 20
106.1524212607
 30
0.0
  0
SPLINE
  5
494
100
AcDbEntity
  8
0
100
AcDbSpline
 62
7
  6
BYLAYER
 70
0
 71
3
 72
9
 73
5
 74
0
 42
0.0000001
 43
0.0000001
 44
0.0000000001
 40
0.0
 40
0.0
 40
0.0
 40
0.0
 40
0.2494603608
 40
1.0
 40
1.0
 40
1.0
 40
1.0
 10
64.5737346212
 20
112.6543256932
 30
0.0
 10
64.5258366637
 20
112.6807016627
 30
0.0
 10
64.3321167544
 20
112.7832938386
 30
0.0
 10
64.1316791344
 20
112.8731829983
 30
0.0
 10
63.9784917597
 20
112.9331682899
 30
0.0
  0
SPLINE
  5
495
100
AcDbEntity
  8
0
100
AcDbSpline
 62
7
  6
BYLAYER
 70
0
 71
3
 72
12
 73
8
 74
0
 42
0.0000001
 43
0.0000001
 44
0.0000000001
 40
0.0
 40
0.0
 40
0.0
 40
0.0
 40
0.1078799327
 40
0.2189353654
 40
0.4546647851
 40
0.7141930712
 40
1.0
 40
1.0
 40
1.0
 40
1.0
 10
63.8709645796
 20
112.9738894065
 30
0.0
 10
63.6336819483
 20
113.060728527
 30
0.0
 10
63.1384386734
 20
113.201595476
 30
0.0
 10
62.080853133
 20
113.3484347024
 30
0.0
 10
60.6481045468
 20
113.2609922691
 30
0.0
 10
58.8785362565
 20
112.7569818905
 30
0.0
 10
57.7245470711
 20
112.1945382436
 30
0.0
 10
57.1448198644
 20
111.8598345826
 30
0.0
  0
SPLINE
  5
496
100
AcDbEntity
  8
0
100
AcDbSpline
 62
7
  6
BYLAYER
 70
0
 71
3
 72
10
 73
6
 74
0
 42
0.0000001
 43
0.0000001
 44
0.0000000001
 40
0.0
 40
0.0
 40
0.0
 40
0.0
 40
0.468848543
 40
0.7266575808
 40
1.0
 40
1.0
 40
1.0
 40
1.0
 10
70.7967952214
 20
108.0038042606
 30
0.0
 10
70.0585026451
 20
107.9717988955
 30
0.0
 10
68.9187911771
 20
107.7382211139
 30
0.0
 10
67.4507797056
 20
107.1620776545
 30
0.0
 10
66.705646271
 20
106.7760783933
 30
0.0
 10
66.3325319324
 20
106.5606620153
 30
0.0
  0
SPLINE
  5
497
100
AcDbEntity
  8
0
100
AcDbSpline
 62
7
  6
BYLAYER
 70
0
 71
3
 72
23
 73
19
 74
0
 42
0.0000001
 43
0.0000001
 44
0.0000000001
 40
0.0
 40
0.0
 40
0.0
 40
0.0
 40
0.0606123215
 40
0.1248045223
 40
0.1919891756
 40
0.2614970899
 40
0.3325366574
 40
0.4042656255
 40
0.4758154537
 40
0.5463241955
 40
0.6149688238
 40
0.6809983292
 40
0.7437722471
 40
0.8028022012
 40
0.8578004998
 40
0.9087383306
 40
0.9559121201
 40
1.0
 40
1.0
 40
1.0
 40
1.0
 10
57.8217655476
 20
111.4341290578
 30
0.0
 10
57.3277785671
 20
111.1473009459
 30
0.0
 10
56.3454403046
 20
110.49537473
 30
0.0
 10
54.9457470921
 20
109.3447091935
 30
0.0
 10
53.5985643628
 20
108.0110022756
 30
0.0
 10
52.3280806041
 20
106.5186412966
 30
0.0
 10
51.157029323
 20
104.8940913997
 30
0.0
 10
50.1064639063
 20
103.1666632921
 30
0.0
 10
49.1952475715
 20
101.3674287222
 30
0.0
 10
48.439772574
 20
99.5287409056
 30
0.0
 10
47.8536258883
 20
97.6836106686
 30
0.0
 10
47.4473831269
 20
95.8650511259
 30
0.0
 10
47.2283601859
 20
94.1054431032
 30
0.0
 10
47.2007303457
 20
92.4358264161
 30
0.0
 10
47.3655881004
 20
90.8854501905
 30
0.0
 10
47.721642061
 20
89.4811410847
 30
0.0
 10
48.2644671038
 20
88.2485112598
 30
0.0
 10
48.76094074
 20
87.5372194571
 30
0.0
 10
49.0354462131
 20
87.2253216814
 30
0.0
  0
SPLINE
  5
498
100
AcDbEntity
  8
0
100
AcDbSpline
 62
7
  6
BYLAYER
 70
0
 71
3
 72
9
 73
5
 74
0
 42
0.0000001
 43
0.0000001
 44
0.0000000001
 40
0.0
 40
0.0
 40
0.0
 40
0.0
 40
0.2525642381
 40
1.0
 40
1.0
 40
1.0
 40
1.0
 10
49.0354462131
 20
87.2253216814
 30
0.0
 10
49.0802623466
 20
87.1744008301
 30
0.0
 10
49.2613604088
 20
86.9760373633
 30
0.0
 10
49.4571928999
 20
86.7910715325
 30
0.0
 10
49.6109396114
 20
86.6619936824
 30
0.0
  0
SPLINE
  5
499
100
AcDbEntity
  8
0
100
AcDbSpline
 62
7
  6
BYLAYER
 70
0
 71
3
 72
9
 73
5
 74
0
 42
0.0000001
 43
0.0000001
 44
0.0000000001
 40
0.0
 40
0.0
 40
0.0
 40
0.0
 40
0.251165571
 40
1.0
 40
1.0
 40
1.0
 40
1.0
 10
49.6109396114
 20
86.6619936824
 30
0.0
 10
49.6614238364
 20
86.6196097176
 30
0.0
 10
49.8656339526
 20
86.4547235748
 30
0.0
 10
50.082643961
 20
86.3056761642
 30
0.0
 10
50.2509088632
 20
86.2041379756
 30
0.0
  0
SPLINE
  5
49A
100
AcDbEntity
  8
0
100
AcDbSpline
 62
7
  6
BYLAYER
 70
0
 71
3
 72
9
 73
5
 74
0
 42
0.0000001
 43
0.0000001
 44
0.0000000001
 40
0.0
 40
0.0
 40
0.0
 40
0.0
 40
0.2494603608
 40
1.0
 40
1.0
 40
1.0
 40
1.0
 10
52.5528692937
 20
119.5944185201
 30
0.0
 10
52.5049713362
 20
119.6207944895
 30
0.0
 10
52.3112514269
 20
119.7233866654
 30
0.0
 10
52.1108138069
 20
119.8132758252
 30
0.0
 10
51.9576264322
 20
119.8732611168
 30
0.0
  0
SPLINE
  5
49B
100
AcDbEntity
  8
0
100
AcDbSpline
 62
7
  6
BYLAYER
 70
0
 71
3
 72
12
 73
8
 74
0
 42
0.0000001
 43
0.0000001
 44
0.0000000001
 40
0.0
 40
0.0
 40
0.0
 40
0.0
 40
0.1078799327
 40
0.2189353654
 40
0.4546647851
 40
0.7141930712
 40
1.0
 40
1.0
 40
1.0
 40
1.0
 10
51.8500992521
 20
119.9139822333
 30
0.0
 10
51.6128166208
 20
120.0008213539
 30
0.0
 10
51.1175733459
 20
120.1416883028
 30
0.0
 10
50.0599878055
 20
120.2885275292
 30
0.0
 10
48.6272392193
 20
120.2010850959
 30
0.0
 10
46.857670929
 20
119.6970747174
 30
0.0
 10
45.7036817436
 20
119.1346310704
 30
0.0
 10
45.1239545369
 20
118.7999274095
 30
0.0
  0
SPLINE
  5
49C
100
AcDbEntity
  8
0
100
AcDbSpline
 62
7
  6
BYLAYER
 70
0
 71
3
 72
9
 73
5
 74
0
 42
0.0000001
 43
0.0000001
 44
0.0000000001
 40
0.0
 40
0.0
 40
0.0
 40
0.0
 40
0.2494603608
 40
1.0
 40
1.0
 40
1.0
 40
1.0
 10
65.2808443464
 20
112.2460849387
 30
0.0
 10
65.2329463888
 20
112.2724609082
 30
0.0
 10
65.0392264795
 20
112.3750530841
 30
0.0
 10
64.8387888596
 20
112.4649422438
 30
0.0
 10
64.6856014848
 20
112.5249275354
 30
0.0
  0
SPLINE
  5
49D
100
AcDbEntity
  8
0
100
AcDbSpline
 62
7
  6
BYLAYER
 70
0
 71
3
 72
12
 73
8
 74
0
 42
0.0000001
 43
0.0000001
 44
0.0000000001
 40
0.0
 40
0.0
 40
0.0
 40
0.0
 40
0.1078799327
 40
0.2189353654
 40
0.4546647851
 40
0.7141930712
 40
1.0
 40
1.0
 40
1.0
 40
1.0
 10
64.5780743048
 20
112.565648652
 30
0.0
 10
64.3407916735
 20
112.6524877725
 30
0.0
 10
63.8455483985
 20
112.7933547215
 30
0.0
 10
62.7879628581
 20
112.9401939479
 30
0.0
 10
61.3552142719
 20
112.8527515145
 30
0.0
 10
59.5856459817
 20
112.348741136
 30
0.0
 10
58.4316567963
 20
111.786297489
 30
0.0
 10
57.8519295895
 20
111.4515938281
 30
0.0
  0
SPLINE
  5
49E
100
AcDbEntity
  8
0
100
AcDbSpline
 62
7
  6
BYLAYER
 70
0
 71
3
 72
23
 73
19
 74
0
 42
0.0000001
 43
0.0000001
 44
0.0000000001
 40
0.0
 40
0.0
 40
0.0
 40
0.0
 40
0.0606123215
 40
0.1248045223
 40
0.1919891756
 40
0.2614970899
 40
0.3325366574
 40
0.4042656255
 40
0.4758154537
 40
0.5463241955
 40
0.6149688238
 40
0.6809983292
 40
0.7437722471
 40
0.8028022012
 40
0.8578004998
 40
0.9087383306
 40
0.9559121201
 40
1.0
 40
1.0
 40
1.0
 40
1.0
 10
57.1146558224
 20
111.8423698123
 30
0.0
 10
56.6206688419
 20
111.5555417004
 30
0.0
 10
55.6383305794
 20
110.9036154846
 30
0.0
 10
54.238637367
 20
109.752949948
 30
0.0
 10
52.8914546376
 20
108.4192430302
 30
0.0
 10
51.620970879
 20
106.9268820511
 30
0.0
 10
50.4499195979
 20
105.3023321542
 30
0.0
 10
49.3993541811
 20
103.5749040467
 30
0.0
 10
48.4881378464
 20
101.7756694767
 30
0.0
 10
47.7326628489
 20
99.9369816601
 30
0.0
 10
47.1465161631
 20
98.0918514231
 30
0.0
 10
46.7402734018
 20
96.2732918805
 30
0.0
 10
46.5212504608
 20
94.5136838578
 30
0.0
 10
46.4936206205
 20
92.8440671706
 30
0.0
 10
46.6584783753
 20
91.293690945
 30
0.0
 10
47.0145323359
 20
89.8893818392
 30
0.0
 10
47.5573573787
 20
88.6567520144
 30
0.0
 10
48.0538310148
 20
87.9454602116
 30
0.0
 10
48.3283364879
 20
87.6335624359
 30
0.0
  0
SPLINE
  5
49F
100
AcDbEntity
  8
0
100
AcDbSpline
 62
7
  6
BYLAYER
 70
0
 71
3
 72
9
 73
5
 74
0
 42
0.0000001
 43
0.0000001
 44
0.0000000001
 40
0.0
 40
0.0
 40
0.0
 40
0.0
 40
0.2525642381
 40
1.0
 40
1.0
 40
1.0
 40
1.0
 10
48.3283364879
 20
87.6335624359
 30
0.0
 10
48.3731526214
 20
87.5826415847
 30
0.0
 10
48.5542506837
 20
87.3842781179
 30
0.0
 10
48.7500831748
 20
87.199312287
 30
0.0
 10
48.9038298862
 20
87.070234437
 30
0.0
  0
SPLINE
  5
4A0
100
AcDbEntity
  8
0
100
AcDbSpline
 62
7
  6
BYLAYER
 70
0
 71
3
 72
9
 73
5
 74
0
 42
0.0000001
 43
0.0000001
 44
0.0000000001
 40
0.0
 40
0.0
 40
0.0
 40
0.0
 40
0.251165571
 40
1.0
 40
1.0
 40
1.0
 40
1.0
 10
48.9038298862
 20
87.070234437
 30
0.0
 10
48.9543141112
 20
87.0278504721
 30
0.0
 10
49.1585242275
 20
86.8629643293
 30
0.0
 10
49.3755342358
 20
86.7139169187
 30
0.0
 10
49.543799138
 20
86.6123787301
 30
0.0
  0
SPLINE
  5
4A1
100
AcDbEntity
  8
0
100
AcDbSpline
 62
7
  6
BYLAYER
 70
0
 71
3
 72
12
 73
8
 74
0
 42
0.0000001
 43
0.0000001
 44
0.0000000001
 40
0.0
 40
0.0
 40
0.0
 40
0.0
 40
0.1079144376
 40
0.2190659383
 40
0.4550047441
 40
0.7145333065
 40
1.0
 40
1.0
 40
1.0
 40
1.0
 10
71.5819522854
 20
108.5151014978
 30
0.0
 10
71.3456904406
 20
108.5979871709
 30
0.0
 10
70.8531887365
 20
108.7315399432
 30
0.0
 10
69.8034422391
 20
108.8665257749
 30
0.0
 10
68.3845540146
 20
108.7704940708
 30
0.0
 10
66.6337788452
 20
108.2659056231
 30
0.0
 10
65.4919073352
 20
107.708306692
 30
0.0
 10
64.9183124788
 20
107.3771435241
 30
0.0
  0
SPLINE
  5
4A2
100
AcDbEntity
  8
0
100
AcDbSpline
 62
7
  6
BYLAYER
 70
0
 71
3
 72
9
 73
5
 74
0
 42
0.0000001
 43
0.0000001
 44
0.0000000001
 40
0.0
 40
0.0
 40
0.0
 40
0.0
 40
0.2494603702
 40
1.0
 40
1.0
 40
1.0
 40
1.0
 10
71.6433236799
 20
108.5801933197
 30
0.0
 10
71.5954023682
 20
108.6065826883
 30
0.0
 10
71.4015878644
 20
108.7092268343
 30
0.0
 10
71.2010517991
 20
108.7991609123
 30
0.0
 10
71.0477890127
 20
108.8591757337
 30
0.0
  0
SPLINE
  5
4A3
100
AcDbEntity
  8
0
100
AcDbSpline
 62
7
  6
BYLAYER
 70
0
 71
3
 72
12
 73
8
 74
0
 42
0.0000001
 43
0.0000001
 44
0.0000000001
 40
0.0
 40
0.0
 40
0.0
 40
0.0
 40
0.1078797859
 40
0.2189347667
 40
0.4546631789
 40
0.7141914511
 40
1.0
 40
1.0
 40
1.0
 40
1.0
 10
70.9405288272
 20
108.8997997098
 30
0.0
 10
70.7031397526
 20
108.9866951718
 30
0.0
 10
70.2076713357
 20
109.1276579039
 30
0.0
 10
69.1495953136
 20
109.2746175322
 30
0.0
 10
67.7161663888
 20
109.1871794559
 30
0.0
 10
65.9457496202
 20
108.6829562098
 30
0.0
 10
64.7912077865
 20
108.1202483532
 30
0.0
 10
64.2112027306
 20
107.7853842769
 30
0.0
  0
SPLINE
  5
4A4
100
AcDbEntity
  8
0
100
AcDbSpline
 62
7
  6
BYLAYER
 70
0
 71
3
 72
22
 73
18
 74
0
 42
0.0000001
 43
0.0000001
 44
0.0000000001
 40
0.0
 40
0.0
 40
0.0
 40
0.0
 40
0.1435842915
 40
0.2097638024
 40
0.2723701343
 40
0.331796927
 40
0.3886294892
 40
0.4436395698
 40
0.4977487592
 40
0.5519576879
 40
0.6072567358
 40
0.6645430367
 40
0.7245568276
 40
0.7878382469
 40
0.8547474707
 40
0.9254837393
 40
1.0
 40
1.0
 40
1.0
 40
1.0
 10
116.6309005426
 20
82.8852040778
 30
0.0
 10
116.6133135059
 20
83.9366955423
 30
0.0
 10
116.4638036387
 20
85.4784139762
 30
0.0
 10
115.9533602975
 20
87.4104691559
 30
0.0
 10
115.445097256
 20
88.6958355299
 30
0.0
 10
114.8053308665
 20
89.843825619
 30
0.0
 10
114.0389221361
 20
90.8430176692
 30
0.0
 10
113.1525371914
 20
91.6825277759
 30
0.0
 10
112.15494126
 20
92.3529296972
 30
0.0
 10
111.0567008559
 20
92.8464072277
 30
0.0
 10
109.8700685191
 20
93.1582393006
 30
0.0
 10
108.607650923
 20
93.2861685412
 30
0.0
 10
107.2821416934
 20
93.2300546312
 30
0.0
 10
105.9060459592
 20
92.9919462757
 30
0.0
 10
104.4917626426
 20
92.5746063144
 30
0.0
 10
103.0525037251
 20
91.9825205924
 30
0.0
 10
102.1087833971
 20
91.4879575403
 30
0.0
 10
101.6361309677
 20
91.2150731619
 30
0.0
  0
SPLINE
  5
4A5
100
AcDbEntity
  8
0
100
AcDbSpline
 62
7
  6
BYLAYER
 70
0
 71
3
 72
9
 73
5
 74
0
 42
0.0000001
 43
0.0000001
 44
0.0000000001
 40
0.0
 40
0.0
 40
0.0
 40
0.0
 40
0.2494603608
 40
1.0
 40
1.0
 40
1.0
 40
1.0
 10
65.9879540715
 20
111.8378441842
 30
0.0
 10
65.940056114
 20
111.8642201536
 30
0.0
 10
65.7463362047
 20
111.9668123296
 30
0.0
 10
65.5458985847
 20
112.0567014893
 30
0.0
 10
65.39271121
 20
112.1166867809
 30
0.0
  0
SPLINE
  5
4A6
100
AcDbEntity
  8
0
100
AcDbSpline
 62
7
  6
BYLAYER
 70
0
 71
3
 72
12
 73
8
 74
0
 42
0.0000001
 43
0.0000001
 44
0.0000000001
 40
0.0
 40
0.0
 40
0.0
 40
0.0
 40
0.1078799327
 40
0.2189353654
 40
0.4546647851
 40
0.7141930712
 40
1.0
 40
1.0
 40
1.0
 40
1.0
 10
65.2851840299
 20
112.1574078975
 30
0.0
 10
65.0479013986
 20
112.244247018
 30
0.0
 10
64.5526581236
 20
112.3851139669
 30
0.0
 10
63.4950725832
 20
112.5319531933
 30
0.0
 10
62.062323997
 20
112.44451076
 30
0.0
 10
60.2927557068
 20
111.9405003815
 30
0.0
 10
59.1387665214
 20
111.3780567345
 30
0.0
 10
58.5590393147
 20
111.0433530736
 30
0.0
  0
SPLINE
  5
4A7
100
AcDbEntity
  8
0
100
AcDbSpline
 62
7
  6
BYLAYER
 70
0
 71
3
 72
23
 73
19
 74
0
 42
0.0000001
 43
0.0000001
 44
0.0000000001
 40
0.0
 40
0.0
 40
0.0
 40
0.0
 40
0.0606123215
 40
0.1248045223
 40
0.1919891756
 40
0.2614970899
 40
0.3325366574
 40
0.4042656255
 40
0.4758154537
 40
0.5463241955
 40
0.6149688238
 40
0.6809983292
 40
0.7437722471
 40
0.8028022012
 40
0.8578004998
 40
0.9087383306
 40
0.9559121201
 40
1.0
 40
1.0
 40
1.0
 40
1.0
 10
56.4075460973
 20
112.2506105668
 30
0.0
 10
55.9135591168
 20
111.9637824549
 30
0.0
 10
54.9312208543
 20
111.3118562391
 30
0.0
 10
53.5315276418
 20
110.1611907026
 30
0.0
 10
52.1843449125
 20
108.8274837847
 30
0.0
 10
50.9138611538
 20
107.3351228057
 30
0.0
 10
49.7428098727
 20
105.7105729087
 30
0.0
 10
48.692244456
 20
103.9831448012
 30
0.0
 10
47.7810281212
 20
102.1839102312
 30
0.0
 10
47.0255531237
 20
100.3452224146
 30
0.0
 10
46.439406438
 20
98.5000921776
 30
0.0
 10
46.0331636766
 20
96.681532635
 30
0.0
 10
45.8141407356
 20
94.9219246123
 30
0.0
 10
45.7865108954
 20
93.2523079251
 30
0.0
 10
45.9513686501
 20
91.7019316995
 30
0.0
 10
46.3074226107
 20
90.2976225937
 30
0.0
 10
46.8502476535
 20
89.0649927689
 30
0.0
 10
47.3467212897
 20
88.3537009662
 30
0.0
 10
47.6212267628
 20
88.0418031904
 30
0.0
  0
SPLINE
  5
4A8
100
AcDbEntity
  8
0
100
AcDbSpline
 62
7
  6
BYLAYER
 70
0
 71
3
 72
9
 73
5
 74
0
 42
0.0000001
 43
0.0000001
 44
0.0000000001
 40
0.0
 40
0.0
 40
0.0
 40
0.0
 40
0.2525642381
 40
1.0
 40
1.0
 40
1.0
 40
1.0
 10
47.6212267628
 20
88.0418031904
 30
0.0
 10
47.6660428963
 20
87.9908823392
 30
0.0
 10
47.8471409586
 20
87.7925188724
 30
0.0
 10
48.0429734496
 20
87.6075530415
 30
0.0
 10
48.1967201611
 20
87.4784751915
 30
0.0
  0
SPLINE
  5
4A9
100
AcDbEntity
  8
0
100
AcDbSpline
 62
7
  6
BYLAYER
 70
0
 71
3
 72
9
 73
5
 74
0
 42
0.0000001
 43
0.0000001
 44
0.0000000001
 40
0.0
 40
0.0
 40
0.0
 40
0.0
 40
0.251165571
 40
1.0
 40
1.0
 40
1.0
 40
1.0
 10
48.1967201611
 20
87.4784751915
 30
0.0
 10
48.2472043861
 20
87.4360912266
 30
0.0
 10
48.4514145023
 20
87.2712050838
 30
0.0
 10
48.6684245107
 20
87.1221576733
 30
0.0
 10
48.8366894129
 20
87.0206194846
 30
0.0
  0
SPLINE
  5
4AA
100
AcDbEntity
  8
0
100
AcDbSpline
 62
7
  6
BYLAYER
 70
0
 71
3
 72
9
 73
5
 74
0
 42
0.0000001
 43
0.0000001
 44
0.0000000001
 40
0.0
 40
0.0
 40
0.0
 40
0.0
 40
0.2494603702
 40
1.0
 40
1.0
 40
1.0
 40
1.0
 10
70.9362136965
 20
108.9884340536
 30
0.0
 10
70.8882923853
 20
109.0148234219
 30
0.0
 10
70.6944778837
 20
109.1174675667
 30
0.0
 10
70.4939418206
 20
109.2074016437
 30
0.0
 10
70.3406790359
 20
109.2674164644
 30
0.0
  0
SPLINE
  5
4AB
100
AcDbEntity
  8
0
100
AcDbSpline
 62
7
  6
BYLAYER
 70
0
 71
3
 72
12
 73
8
 74
0
 42
0.0000001
 43
0.0000001
 44
0.0000000001
 40
0.0
 40
0.0
 40
0.0
 40
0.0
 40
0.1078797867
 40
0.2189347698
 40
0.454663187
 40
0.7141914593
 40
1.0
 40
1.0
 40
1.0
 40
1.0
 10
70.233417269
 20
109.3080410193
 30
0.0
 10
69.9960282233
 20
109.3949363828
 30
0.0
 10
69.5005598817
 20
109.535898933
 30
0.0
 10
68.4424840695
 20
109.6828582675
 30
0.0
 10
67.0090555093
 20
109.5954199814
 30
0.0
 10
65.2386392325
 20
109.0911967297
 30
0.0
 10
64.084097716
 20
108.5284890017
 30
0.0
 10
63.5040928206
 20
108.1936250181
 30
0.0
  0
SPLINE
  5
4AC
100
AcDbEntity
  8
0
100
AcDbSpline
 62
7
  6
BYLAYER
 70
0
 71
3
 72
9
 73
5
 74
0
 42
0.0000001
 43
0.0000001
 44
0.0000000001
 40
0.0
 40
0.0
 40
0.0
 40
0.0
 40
0.2494603608
 40
1.0
 40
1.0
 40
1.0
 40
1.0
 10
53.2599790189
 20
119.1861777656
 30
0.0
 10
53.2120810613
 20
119.212553735
 30
0.0
 10
53.018361152
 20
119.3151459109
 30
0.0
 10
52.8179235321
 20
119.4050350707
 30
0.0
 10
52.6647361573
 20
119.4650203623
 30
0.0
  0
SPLINE
  5
4AD
100
AcDbEntity
  8
0
100
AcDbSpline
 62
7
  6
BYLAYER
 70
0
 71
3
 72
12
 73
8
 74
0
 42
0.0000001
 43
0.0000001
 44
0.0000000001
 40
0.0
 40
0.0
 40
0.0
 40
0.0
 40
0.1078799327
 40
0.2189353654
 40
0.4546647851
 40
0.7141930712
 40
1.0
 40
1.0
 40
1.0
 40
1.0
 10
52.5572089773
 20
119.5057414788
 30
0.0
 10
52.319926346
 20
119.5925805994
 30
0.0
 10
51.824683071
 20
119.7334475483
 30
0.0
 10
50.7670975306
 20
119.8802867747
 30
0.0
 10
49.3343489444
 20
119.7928443414
 30
0.0
 10
47.5647806542
 20
119.2888339628
 30
0.0
 10
46.4107914688
 20
118.7263903159
 30
0.0
 10
45.831064262
 20
118.3916866549
 30
0.0
  0
SPLINE
  5
4AE
100
AcDbEntity
  8
0
100
AcDbSpline
 62
7
  6
BYLAYER
 70
0
 71
3
 72
20
 73
16
 74
0
 42
0.0000001
 43
0.0000001
 44
0.0000000001
 40
0.0
 40
0.0
 40
0.0
 40
0.0
 40
0.0591138863
 40
0.1215055755
 40
0.1866834818
 40
0.2541129113
 40
0.393001748
 40
0.532651342
 40
0.6010060854
 40
0.6674432824
 40
0.7313574705
 40
0.7922355158
 40
0.8496897067
 40
0.903491593
 40
1.0
 40
1.0
 40
1.0
 40
1.0
 10
66.3023678968
 20
106.5431972698
 30
0.0
 10
65.8461368916
 20
106.2782923906
 30
0.0
 10
64.9380506745
 20
105.6815511756
 30
0.0
 10
63.637560202
 20
104.6368138362
 30
0.0
 10
62.3787831213
 20
103.4320888294
 30
0.0
 10
60.7667530546
 20
101.6203379769
 30
0.0
 10
58.9830804916
 20
99.08569806
 30
0.0
 10
57.5719295472
 20
96.317361736
 30
0.0
 10
56.7079065845
 20
94.0233939407
 30
0.0
 10
56.212909539
 20
92.3185103594
 30
0.0
 10
55.874120297
 20
90.6436338075
 30
0.0
 10
55.6967411836
 20
89.0246282596
 30
0.0
 10
55.6839908404
 20
87.4847672512
 30
0.0
 10
55.8787656658
 20
85.6397744341
 30
0.0
 10
56.2753665832
 20
84.3301254405
 30
0.0
 10
56.6715004643
 20
83.5653401055
 30
0.0
  0
SPLINE
  5
4AF
100
AcDbEntity
  8
0
100
AcDbSpline
 62
7
  6
BYLAYER
 70
0
 71
3
 72
9
 73
5
 74
0
 42
0.0000001
 43
0.0000001
 44
0.0000000001
 40
0.0
 40
0.0
 40
0.0
 40
0.0
 40
0.2494603702
 40
1.0
 40
1.0
 40
1.0
 40
1.0
 10
70.229101905
 20
109.3966746431
 30
0.0
 10
70.1811805981
 20
109.4230640089
 30
0.0
 10
69.9873661138
 20
109.5257081442
 30
0.0
 10
69.7868300688
 20
109.6156422129
 30
0.0
 10
69.6335672979
 20
109.6756570282
 30
0.0
  0
SPLINE
  5
4B0
100
AcDbEntity
  8
0
100
AcDbSpline
 62
7
  6
BYLAYER
 70
0
 71
3
 72
12
 73
8
 74
0
 42
0.0000001
 43
0.0000001
 44
0.0000000001
 40
0.0
 40
0.0
 40
0.0
 40
0.0
 40
0.1078797926
 40
0.218934794
 40
0.454663252
 40
0.7141915249
 40
1.0
 40
1.0
 40
1.0
 40
1.0
 10
69.5262928793
 20
109.7162862142
 30
0.0
 10
69.2889040645
 20
109.8031807896
 30
0.0
 10
68.7934363254
 20
109.9441418837
 30
0.0
 10
67.7353621923
 20
110.0910988684
 30
0.0
 10
66.3019365488
 20
110.0036589037
 30
0.0
 10
64.5315242063
 20
109.4994356071
 30
0.0
 10
63.3769852285
 20
108.9367289082
 30
0.0
 10
62.7969816171
 20
108.6018656659
 30
0.0
  0
SPLINE
  5
4B1
100
AcDbEntity
  8
0
100
AcDbSpline
 62
7
  6
BYLAYER
 70
0
 71
3
 72
23
 73
19
 74
0
 42
0.0000001
 43
0.0000001
 44
0.0000000001
 40
0.0
 40
0.0
 40
0.0
 40
0.0
 40
0.0606123215
 40
0.1248045223
 40
0.1919891756
 40
0.2614970899
 40
0.3325366574
 40
0.4042656255
 40
0.4758154537
 40
0.5463241955
 40
0.6149688238
 40
0.6809983292
 40
0.7437722471
 40
0.8028022012
 40
0.8578004998
 40
0.9087383306
 40
0.9559121201
 40
1.0
 40
1.0
 40
1.0
 40
1.0
 10
55.7004363721
 20
112.6588513213
 30
0.0
 10
55.2064493916
 20
112.3720232094
 30
0.0
 10
54.2241111291
 20
111.7200969936
 30
0.0
 10
52.8244179167
 20
110.5694314571
 30
0.0
 10
51.4772351873
 20
109.2357245392
 30
0.0
 10
50.2067514287
 20
107.7433635602
 30
0.0
 10
49.0357001476
 20
106.1188136633
 30
0.0
 10
47.9851347308
 20
104.3913855557
 30
0.0
 10
47.0739183961
 20
102.5921509858
 30
0.0
 10
46.3184433986
 20
100.7534631691
 30
0.0
 10
45.7322967128
 20
98.9083329321
 30
0.0
 10
45.3260539515
 20
97.0897733895
 30
0.0
 10
45.1070310105
 20
95.3301653668
 30
0.0
 10
45.0794011702
 20
93.6605486796
 30
0.0
 10
45.244258925
 20
92.110172454
 30
0.0
 10
45.6003128856
 20
90.7058633483
 30
0.0
 10
46.1431379284
 20
89.4732335234
 30
0.0
 10
46.6396115645
 20
88.7619417207
 30
0.0
 10
46.9141170376
 20
88.4500439449
 30
0.0
  0
SPLINE
  5
4B2
100
AcDbEntity
  8
0
100
AcDbSpline
 62
7
  6
BYLAYER
 70
0
 71
3
 72
9
 73
5
 74
0
 42
0.0000001
 43
0.0000001
 44
0.0000000001
 40
0.0
 40
0.0
 40
0.0
 40
0.0
 40
0.2525642381
 40
1.0
 40
1.0
 40
1.0
 40
1.0
 10
46.9141170376
 20
88.4500439449
 30
0.0
 10
46.9589331712
 20
88.3991230937
 30
0.0
 10
47.1400312334
 20
88.2007596269
 30
0.0
 10
47.3358637245
 20
88.015793796
 30
0.0
 10
47.4896104359
 20
87.886715946
 30
0.0
  0
SPLINE
  5
4B3
100
AcDbEntity
  8
0
100
AcDbSpline
 62
7
  6
BYLAYER
 70
0
 71
3
 72
9
 73
5
 74
0
 42
0.0000001
 43
0.0000001
 44
0.0000000001
 40
0.0
 40
0.0
 40
0.0
 40
0.0
 40
0.251165571
 40
1.0
 40
1.0
 40
1.0
 40
1.0
 10
47.4896104359
 20
87.886715946
 30
0.0
 10
47.5400946609
 20
87.8443319811
 30
0.0
 10
47.7443047772
 20
87.6794458384
 30
0.0
 10
47.9613147855
 20
87.5303984278
 30
0.0
 10
48.1295796877
 20
87.4288602391
 30
0.0
  0
SPLINE
  5
4B4
100
AcDbEntity
  8
0
100
AcDbSpline
 62
7
  6
BYLAYER
 70
0
 71
3
 72
9
 73
5
 74
0
 42
0.0000001
 43
0.0000001
 44
0.0000000001
 40
0.0
 40
0.0
 40
0.0
 40
0.0
 40
0.2494603608
 40
1.0
 40
1.0
 40
1.0
 40
1.0
 10
66.6950637966
 20
111.4296034297
 30
0.0
 10
66.6471658391
 20
111.4559793991
 30
0.0
 10
66.4534459298
 20
111.558571575
 30
0.0
 10
66.2530083099
 20
111.6484607348
 30
0.0
 10
66.0998209351
 20
111.7084460264
 30
0.0
  0
SPLINE
  5
4B5
100
AcDbEntity
  8
0
100
AcDbSpline
 62
7
  6
BYLAYER
 70
0
 71
3
 72
12
 73
8
 74
0
 42
0.0000001
 43
0.0000001
 44
0.0000000001
 40
0.0
 40
0.0
 40
0.0
 40
0.0
 40
0.1078799327
 40
0.2189353654
 40
0.4546647851
 40
0.7141930712
 40
1.0
 40
1.0
 40
1.0
 40
1.0
 10
65.9922937551
 20
111.7491671429
 30
0.0
 10
65.7550111238
 20
111.8360062635
 30
0.0
 10
65.2597678488
 20
111.9768732124
 30
0.0
 10
64.2021823084
 20
112.1237124388
 30
0.0
 10
62.7694337222
 20
112.0362700055
 30
0.0
 10
60.999865432
 20
111.532259627
 30
0.0
 10
59.8458762465
 20
110.96981598
 30
0.0
 10
59.2661490398
 20
110.635112319
 30
0.0
  0
SPLINE
  5
4B6
100
AcDbEntity
  8
0
100
AcDbSpline
 62
7
  6
BYLAYER
 70
0
 71
3
 72
9
 73
5
 74
0
 42
0.0000001
 43
0.0000001
 44
0.0000000001
 40
0.0
 40
0.0
 40
0.0
 40
0.0
 40
0.2494603702
 40
1.0
 40
1.0
 40
1.0
 40
1.0
 10
69.5219756488
 20
109.8049140773
 30
0.0
 10
69.4740543762
 20
109.8313034234
 30
0.0
 10
69.2802400307
 20
109.9339474824
 30
0.0
 10
69.0797041301
 20
110.0238814853
 30
0.0
 10
68.9264414699
 20
110.0838962573
 30
0.0
  0
SPLINE
  5
4B7
100
AcDbEntity
  8
0
100
AcDbSpline
 62
7
  6
BYLAYER
 70
0
 71
3
 72
12
 73
8
 74
0
 42
0.0000001
 43
0.0000001
 44
0.0000000001
 40
0.0
 40
0.0
 40
0.0
 40
0.0
 40
0.1078801945
 40
0.2189364314
 40
0.454667644
 40
0.7141959545
 40
1.0
 40
1.0
 40
1.0
 40
1.0
 10
68.8183117665
 20
110.1248384279
 30
0.0
 10
68.5809374521
 20
110.2116801682
 30
0.0
 10
68.085508122
 20
110.3525435595
 30
0.0
 10
67.0275425098
 20
110.499342501
 30
0.0
 10
65.5943072524
 20
110.4117887378
 30
0.0
 10
63.8241524718
 20
109.907560078
 30
0.0
 10
62.6697796259
 20
109.3449202824
 30
0.0
 10
62.0898600653
 20
109.0101055666
 30
0.0
  0
SPLINE
  5
4B8
100
AcDbEntity
  8
0
100
AcDbSpline
 62
7
  6
BYLAYER
 70
0
 71
3
 72
14
 73
10
 74
0
 42
0.0000001
 43
0.0000001
 44
0.0000000001
 40
0.0
 40
0.0
 40
0.0
 40
0.0
 40
0.1079471539
 40
0.2180989323
 40
0.3322255632
 40
0.4517797096
 40
0.5778261155
 40
0.7110924179
 40
1.0
 40
1.0
 40
1.0
 40
1.0
 10
48.3102109428
 20
122.0438630472
 30
0.0
 10
48.0643024783
 20
122.1792774673
 30
0.0
 10
47.5433232906
 20
122.4113030482
 30
0.0
 10
46.7036282774
 20
122.6292455453
 30
0.0
 10
45.8104554483
 20
122.7177001099
 30
0.0
 10
44.873023369
 20
122.6764767253
 30
0.0
 10
43.8998898356
 20
122.5068968003
 30
0.0
 10
42.5305544639
 20
122.1016476837
 30
0.0
 10
41.5319714258
 20
121.625037219
 30
0.0
 10
40.881296186
 20
121.2493719366
 30
0.0
  0
SPLINE
  5
4B9
100
AcDbEntity
  8
0
100
AcDbSpline
 62
7
  6
BYLAYER
 70
0
 71
3
 72
9
 73
5
 74
0
 42
0.0000001
 43
0.0000001
 44
0.0000000001
 40
0.0
 40
0.0
 40
0.0
 40
0.0
 40
0.2492268551
 40
1.0
 40
1.0
 40
1.0
 40
1.0
 10
53.7776618306
 20
84.1607172673
 30
0.0
 10
53.7195996486
 20
84.1957686437
 30
0.0
 10
53.4894948921
 20
84.3411063493
 30
0.0
 10
53.2712500521
 20
84.5051734319
 30
0.0
 10
53.115532612
 20
84.6374367941
 30
0.0
  0
SPLINE
  5
4BA
100
AcDbEntity
  8
0
100
AcDbSpline
 62
7
  6
BYLAYER
 70
0
 71
3
 72
9
 73
5
 74
0
 42
0.0000001
 43
0.0000001
 44
0.0000000001
 40
0.0
 40
0.0
 40
0.0
 40
0.0
 40
0.2479034258
 40
1.0
 40
1.0
 40
1.0
 40
1.0
 10
53.115532612
 20
84.6374367941
 30
0.0
 10
53.0669362742
 20
84.6787135774
 30
0.0
 10
52.8739939467
 20
84.8488255368
 30
0.0
 10
52.6936050786
 20
85.0331129656
 30
0.0
 10
52.5656785287
 20
85.1782095031
 30
0.0
  0
SPLINE
  5
4BB
100
AcDbEntity
  8
0
100
AcDbSpline
 62
7
  6
BYLAYER
 70
0
 71
3
 72
23
 73
19
 74
0
 42
0.0000001
 43
0.0000001
 44
0.0000000001
 40
0.0
 40
0.0
 40
0.0
 40
0.0
 40
0.0440811959
 40
0.0912460063
 40
0.1421744105
 40
0.1971642021
 40
0.2561874748
 40
0.3189570394
 40
0.3849846996
 40
0.4536299231
 40
0.5241414593
 40
0.5956959129
 40
0.6674308753
 40
0.7384772847
 40
0.8079923594
 40
0.8751839719
 40
0.9393824435
 40
1.0
 40
1.0
 40
1.0
 40
1.0
 10
52.5656785287
 20
85.1782095031
 30
0.0
 10
52.2907793227
 20
85.4900050059
 30
0.0
 10
51.7935164099
 20
86.2012042636
 30
0.0
 10
51.2496574023
 20
87.434004372
 30
0.0
 10
50.8927261185
 20
88.8387240911
 30
0.0
 10
50.7271586372
 20
90.3897273952
 30
0.0
 10
50.7542549179
 20
92.0601636593
 30
0.0
 10
50.9729274532
 20
93.8207562121
 30
0.0
 10
51.3790063963
 20
95.6404334741
 30
0.0
 10
51.9651745574
 20
97.4867793689
 30
0.0
 10
52.7208503554
 20
99.3267431767
 30
0.0
 10
53.6324368368
 20
101.127274931
 30
0.0
 10
54.6835270695
 20
102.8559820394
 30
0.0
 10
55.8552390057
 20
104.481754359
 30
0.0
 10
57.1264967491
 20
105.975244786
 30
0.0
 10
58.4745417307
 20
107.3099546872
 30
0.0
 10
59.8751579991
 20
108.4614667406
 30
0.0
 10
60.8581612032
 20
109.1138552493
 30
0.0
 10
61.3524841144
 20
109.4008781386
 30
0.0
  0
SPLINE
  5
4BC
100
AcDbEntity
  8
0
100
AcDbSpline
 62
7
  6
BYLAYER
 70
0
 71
3
 72
23
 73
19
 74
0
 42
0.0000001
 43
0.0000001
 44
0.0000000001
 40
0.0
 40
0.0
 40
0.0
 40
0.0
 40
0.0606123215
 40
0.1248045223
 40
0.1919891756
 40
0.2614970899
 40
0.3325366574
 40
0.4042656255
 40
0.4758154537
 40
0.5463241955
 40
0.6149688238
 40
0.6809983292
 40
0.7437722471
 40
0.8028022012
 40
0.8578004998
 40
0.9087383306
 40
0.9559121201
 40
1.0
 40
1.0
 40
1.0
 40
1.0
 10
54.993326647
 20
113.0670920759
 30
0.0
 10
54.4993396665
 20
112.780263964
 30
0.0
 10
53.517001404
 20
112.1283377481
 30
0.0
 10
52.1173081916
 20
110.9776722116
 30
0.0
 10
50.7701254622
 20
109.6439652937
 30
0.0
 10
49.4996417035
 20
108.1516043147
 30
0.0
 10
48.3285904224
 20
106.5270544178
 30
0.0
 10
47.2780250057
 20
104.7996263102
 30
0.0
 10
46.3668086709
 20
103.0003917403
 30
0.0
 10
45.6113336734
 20
101.1617039237
 30
0.0
 10
45.0251869877
 20
99.3165736866
 30
0.0
 10
44.6189442263
 20
97.498014144
 30
0.0
 10
44.3999212853
 20
95.7384061213
 30
0.0
 10
44.3722914451
 20
94.0687894342
 30
0.0
 10
44.5371491998
 20
92.5184132086
 30
0.0
 10
44.8932031604
 20
91.1141041028
 30
0.0
 10
45.4360282032
 20
89.8814742779
 30
0.0
 10
45.9325018394
 20
89.1701824752
 30
0.0
 10
46.2070073125
 20
88.8582846995
 30
0.0
  0
SPLINE
  5
4BD
100
AcDbEntity
  8
0
100
AcDbSpline
 62
7
  6
BYLAYER
 70
0
 71
3
 72
9
 73
5
 74
0
 42
0.0000001
 43
0.0000001
 44
0.0000000001
 40
0.0
 40
0.0
 40
0.0
 40
0.0
 40
0.2525642381
 40
1.0
 40
1.0
 40
1.0
 40
1.0
 10
46.2070073125
 20
88.8582846995
 30
0.0
 10
46.251823446
 20
88.8073638482
 30
0.0
 10
46.4329215083
 20
88.6090003814
 30
0.0
 10
46.6287539993
 20
88.4240345506
 30
0.0
 10
46.7825007108
 20
88.2949567005
 30
0.0
  0
SPLINE
  5
4BE
100
AcDbEntity
  8
0
100
AcDbSpline
 62
7
  6
BYLAYER
 70
0
 71
3
 72
9
 73
5
 74
0
 42
0.0000001
 43
0.0000001
 44
0.0000000001
 40
0.0
 40
0.0
 40
0.0
 40
0.0
 40
0.251165571
 40
1.0
 40
1.0
 40
1.0
 40
1.0
 10
46.7825007108
 20
88.2949567005
 30
0.0
 10
46.8329849358
 20
88.2525727356
 30
0.0
 10
47.037195052
 20
88.0876865929
 30
0.0
 10
47.2542050604
 20
87.9386391823
 30
0.0
 10
47.4224699626
 20
87.8371009936
 30
0.0
  0
SPLINE
  5
4BF
100
AcDbEntity
  8
0
100
AcDbSpline
 62
7
  6
BYLAYER
 70
0
 71
3
 72
9
 73
5
 74
0
 42
0.0000001
 43
0.0000001
 44
0.0000000001
 40
0.0
 40
0.0
 40
0.0
 40
0.0
 40
0.2494603608
 40
1.0
 40
1.0
 40
1.0
 40
1.0
 10
67.4021735218
 20
111.0213626752
 30
0.0
 10
67.3542755643
 20
111.0477386446
 30
0.0
 10
67.160555655
 20
111.1503308205
 30
0.0
 10
66.960118035
 20
111.2402199803
 30
0.0
 10
66.8069306603
 20
111.3002052719
 30
0.0
  0
SPLINE
  5
4C0
100
AcDbEntity
  8
0
100
AcDbSpline
 62
7
  6
BYLAYER
 70
0
 71
3
 72
12
 73
8
 74
0
 42
0.0000001
 43
0.0000001
 44
0.0000000001
 40
0.0
 40
0.0
 40
0.0
 40
0.0
 40
0.1078799327
 40
0.2189353654
 40
0.4546647851
 40
0.7141930712
 40
1.0
 40
1.0
 40
1.0
 40
1.0
 10
66.6994034802
 20
111.3409263884
 30
0.0
 10
66.4621208489
 20
111.4277655089
 30
0.0
 10
65.9668775739
 20
111.5686324579
 30
0.0
 10
64.9092920335
 20
111.7154716843
 30
0.0
 10
63.4765434473
 20
111.628029251
 30
0.0
 10
61.7069751571
 20
111.1240188724
 30
0.0
 10
60.5529859717
 20
110.5615752255
 30
0.0
 10
59.973258765
 20
110.2268715645
 30
0.0
  0
SPLINE
  5
4C1
100
AcDbEntity
  8
0
100
AcDbSpline
 62
7
  6
BYLAYER
 70
0
 71
3
 72
9
 73
5
 74
0
 42
0.0000001
 43
0.0000001
 44
0.0000000001
 40
0.0
 40
0.0
 40
0.0
 40
0.0
 40
0.2492801346
 40
1.0
 40
1.0
 40
1.0
 40
1.0
 10
53.0463044757
 20
84.585607105
 30
0.0
 10
52.9929142674
 20
84.6182150499
 30
0.0
 10
52.7811935238
 20
84.7530084284
 30
0.0
 10
52.5796043643
 20
84.9036827689
 30
0.0
 10
52.4351249113
 20
85.0246025498
 30
0.0
  0
SPLINE
  5
4C2
100
AcDbEntity
  8
0
100
AcDbSpline
 62
7
  6
BYLAYER
 70
0
 71
3
 72
9
 73
5
 74
0
 42
0.0000001
 43
0.0000001
 44
0.0000000001
 40
0.0
 40
0.0
 40
0.0
 40
0.0
 40
0.2478551764
 40
1.0
 40
1.0
 40
1.0
 40
1.0
 10
52.4351249113
 20
85.0246025498
 30
0.0
 10
52.3841454111
 20
85.0672690318
 30
0.0
 10
52.1818006812
 20
85.2433705783
 30
0.0
 10
51.9930515032
 20
85.4350189889
 30
0.0
 10
51.8595180171
 20
85.5862339873
 30
0.0
  0
SPLINE
  5
4C3
100
AcDbEntity
  8
0
100
AcDbSpline
 62
7
  6
BYLAYER
 70
0
 71
3
 72
23
 73
19
 74
0
 42
0.0000001
 43
0.0000001
 44
0.0000000001
 40
0.0
 40
0.0
 40
0.0
 40
0.0
 40
0.0440751278
 40
0.0912317495
 40
0.142151509
 40
0.1971334403
 40
0.2561504678
 40
0.3189158729
 40
0.3849416415
 40
0.4535872005
 40
0.5241011022
 40
0.5956596393
 40
0.6674000043
 40
0.738452679
 40
0.8079744159
 40
0.8751726239
 40
0.9393771772
 40
1.0
 40
1.0
 40
1.0
 40
1.0
 10
51.8595180171
 20
85.5862339873
 30
0.0
 10
51.5844016024
 20
85.8977792738
 30
0.0
 10
51.0866754897
 20
86.6085341587
 30
0.0
 10
50.5421530202
 20
87.8408624588
 30
0.0
 10
50.1846036511
 20
89.2452399465
 30
0.0
 10
50.0184711414
 20
90.7960224587
 30
0.0
 10
50.0450626483
 20
92.4663518096
 30
0.0
 10
50.263297691
 20
94.2269418184
 30
0.0
 10
50.6690118983
 20
96.0467085114
 30
0.0
 10
51.2548909343
 20
97.8932209489
 30
0.0
 10
52.0103535816
 20
99.7334117154
 30
0.0
 10
52.9218012235
 20
101.5342127084
 30
0.0
 10
53.9728224895
 20
103.2632125733
 30
0.0
 10
55.1445284195
 20
104.8892825535
 30
0.0
 10
56.4158339833
 20
106.3830577617
 30
0.0
 10
57.7639700048
 20
107.7180227672
 30
0.0
 10
59.1647085745
 20
108.8697456805
 30
0.0
 10
60.1478145262
 20
109.5222435767
 30
0.0
 10
60.642191256
 20
109.8093091394
 30
0.0
  0
SPLINE
  5
4C4
100
AcDbEntity
  8
0
100
AcDbSpline
 62
7
  6
BYLAYER
 70
0
 71
3
 72
9
 73
5
 74
0
 42
0.0000001
 43
0.0000001
 44
0.0000000001
 40
0.0
 40
0.0
 40
0.0
 40
0.0
 40
0.2494603608
 40
1.0
 40
1.0
 40
1.0
 40
1.0
 10
53.967088744
 20
118.7779370111
 30
0.0
 10
53.9191907865
 20
118.8043129805
 30
0.0
 10
53.7254708772
 20
118.9069051564
 30
0.0
 10
53.5250332572
 20
118.9967943161
 30
0.0
 10
53.3718458825
 20
119.0567796077
 30
0.0
  0
SPLINE
  5
4C5
100
AcDbEntity
  8
0
100
AcDbSpline
 62
7
  6
BYLAYER
 70
0
 71
3
 72
12
 73
8
 74
0
 42
0.0000001
 43
0.0000001
 44
0.0000000001
 40
0.0
 40
0.0
 40
0.0
 40
0.0
 40
0.1078799327
 40
0.2189353654
 40
0.4546647851
 40
0.7141930712
 40
1.0
 40
1.0
 40
1.0
 40
1.0
 10
53.2643187024
 20
119.0975007243
 30
0.0
 10
53.0270360711
 20
119.1843398448
 30
0.0
 10
52.5317927961
 20
119.3252067938
 30
0.0
 10
51.4742072557
 20
119.4720460202
 30
0.0
 10
50.0414586695
 20
119.3846035869
 30
0.0
 10
48.2718903793
 20
118.8805932083
 30
0.0
 10
47.1179011939
 20
118.3181495614
 30
0.0
 10
46.5381739872
 20
117.9834459004
 30
0.0
  0
ENDSEC
  0
SECTION
  2
OBJECTS
  0
DICTIONARY
  5
C
100
AcDbDictionary
280
0
281
1
  3
ACAD_GROUP
350
D
  3
ACAD_MLINESTYLE
350
17
  3
ACAD_LAYOUT
350
1A
  3
ACAD_PLOTSETTINGS
350
19
  3
ACAD_PLOTSTYLENAME
350
E
  0
DICTIONARY
  5
D
102
{ACAD_REACTORS
330
C
102
}
100
AcDbDictionary
280
0
281
1
  0
ACDBDICTIONARYWDFLT
  5
E
102
{ACAD_REACTORS
330
C
102
}
100
AcDbDictionary
281
1
  3
Normal
350
F
100
AcDbDictionaryWithDefault
340
F
  0
DICTIONARY
  5
17
102
{ACAD_REACTORS
330
C
102
}
100
AcDbDictionary
280
0
281
1
  3
Standard
350
18
  0
DICTIONARY
  5
19
102
{ACAD_REACTORS
330
C
102
}
100
AcDbDictionary
281
1
  0
DICTIONARY
  5
1A
102
{ACAD_REACTORS
330
C
102
}
100
AcDbDictionary
281
1
  3
Model
350
4C6
  3
Layout1
350
4C7
  0
ACDBPLACEHOLDER
  5
F
102
{ACAD_REACTORS
330
E
102
}
  0
MLINESTYLE
  5
18
102
{ACAD_REACTORS
330
17
102
}
100
AcDbMlineStyle
  2
STANDARD
 70
0
  3

 62
256
 51
90.0
 52
90.0
 71
2
 49
0.5
 62
256
  6
BYLAYER
 49
-0.5
 62
256
  6
BYLAYER
  0
LAYOUT
  5
4C6
102
{ACAD_REACTORS
330
1A
102
}
100
AcDbPlotSettings
  1

  2
none_device
  4

  6

 40
0.0
 41
0.0
 42
0.0
 43
0.0
 44
210.0
 45
297.0
 46
0.0
 47
0.0
 48
0.0
 49
0.0
140
0.0
141
0.0
142
1.0
143
1.0
 70
1024
 72
1
 73
0
 74
0
  7

 75
0
147
1.0
148
0.0
149
0.0
100
AcDbLayout
  1
Model
 70
0
 71
0
 10
0.0
 20
0.0
 11
210.0
 21
297.0
 12
0.0
 22
0.0
 32
0.0
 14
0.0
 24
0.0
 34
0.0
 15
0.0
 25
0.0
 35
0.0
146
0.0
 13
0.0
 23
0.0
 33
0.0
 16
1.0
 26
0.0
 36
0.0
 17
0.0
 27
1.0
 37
0.0
 76
0
330
215
345
0
346
0
  0
LAYOUT
  5
4C7
102
{ACAD_REACTORS
330
1A
102
}
100
AcDbPlotSettings
  1

  2
none_device
  4

  6

 40
0.0
 41
0.0
 42
0.0
 43
0.0
 44
210.0
 45
297.0
 46
0.0
 47
0.0
 48
0.0
 49
0.0
140
0.0
141
0.0
142
1.0
143
1.0
 70
0
 72
1
 73
0
 74
0
  7

 75
0
147
1.0
148
0.0
149
0.0
100
AcDbLayout
  1
Layout1
 70
0
 71
1
 10
0.0
 20
0.0
 11
210.0
 21
297.0
 12
0.0
 22
0.0
 32
0.0
 14
0.0
 24
0.0
 34
0.0
 15
0.0
 25
0.0
 35
0.0
146
0.0
 13
0.0
 23
0.0
 33
0.0
 16
1.0
 26
0.0
 36
0.0
 17
0.0
 27
1.0
 37
0.0
 76
0
330
216
345
0
346
0
  0
ENDSEC
  0
EOF
