999
DXF file: C:\2D\Gen2D\CAD\LC1G3304KUEN\drw0001_2.dxf
999
Pro/ENGINEER 2019471 by Parametric Technology Corporation
  0
SECTION
  2
HEADER
  9
$ACADVER
  1
AC1024
  9
$DWGCODEPAGE
  3
ANSI_1252
  9
$EXTMAX
 10
232.8326859229
 20
329.2919415196
 30
0.0
  9
$EXTMIN
 10
0.0
 20
0.0
 30
0.0
  9
$LIMMIN
 10
0.0
 20
0.0
  9
$LIMMAX
 10
232.8326859229
 20
329.2919415196
  9
$VIEWCTR
 10
116.4163429615
 20
164.6459707598
  9
$VIEWSIZE
 40
329.2919415196
  9
$CLAYER
  8
0
  9
$LTSCALE
 40
21.4649561879
  9
$CELTYPE
  6
BYLAYER
  9
$DIMSCALE
 40
1.0
  9
$DIMASZ
 40
2.7718176896
  9
$DIMEXO
 40
1.0
  9
$DIMDLI
 40
14.8303333662
  9
$DIMEXE
 40
1.0
  9
$DIMCEN
 40
3.5124473762
  9
$DIMLFAC
 40
1.0
  9
$DIMBLK
  1
_FILLED
  9
$DIMALT
 70
0
  9
$DIMALTF
 40
0.0393700787
  9
$DIMTXT
 40
3.8805447654
  9
$DIMTOL
 70
1
  9
$DIMLIM
 70
0
  9
$DIMTFAC
 40
1.0
  9
$DIMTP
 40
0.01
  9
$DIMTM
 40
0.01
  9
$DIMGAP
 40
0.625
  9
$DIMDSEP
 70
46
  9
$AUNITS
 70
0
  9
$PDMODE
 70
3
  9
$PDSIZE
 40
0.3125
  9
$HANDSEED
  5
331
  9
$TILEMODE
 70
1
  9
$MEASUREMENT
 70
1
  9
$INSUNITS
 70
4
  0
ENDSEC
  0
SECTION
  2
CLASSES
  0
CLASS
  1
ACDBDICTIONARYWDFLT
  2
AcDbDictionaryWithDefault
  3
AutoCAD 2000
 90
0
 91
1
280
0
281
0
  0
CLASS
  1
ACDBPLACEHOLDER
  2
AcDbPlaceHolder
  3
AutoCAD 2000
 90
0
 91
1
280
0
281
0
  0
CLASS
  1
LAYOUT
  2
AcDbLayout
  3
AutoCAD 2000
 90
0
 91
0
280
0
281
0
  0
ENDSEC
  0
SECTION
  2
TABLES
  0
TABLE
  2
VPORT
  5
8
100
AcDbSymbolTable
 70
2
  0
VPORT
  5
1F4
100
AcDbSymbolTableRecord
100
AcDbViewportTableRecord
  2
*ACTIVE
 70
0
 10
0.0
 20
0.0
 11
1.0
 21
1.0
 12
116.4163429615
 22
164.6459707598
 13
0.0
 23
0.0
 14
1.0
 24
1.0
 15
0.0
 25
0.0
 16
0.0
 26
0.0
 36
1.0
 17
0.0
 27
0.0
 37
0.0
 40
329.2919415196
 41
0.7070707071
 42
50.0
 43
0.0
 44
0.0
 50
0.0
 51
0.0
 71
0
 72
100
 73
1
 74
1
 75
0
 76
0
 77
0
 78
0
  0
ENDTAB
  0
TABLE
  2
LTYPE
  5
5
100
AcDbSymbolTable
 70
6
  0
LTYPE
  5
14
100
AcDbSymbolTableRecord
100
AcDbLinetypeTableRecord
  2
BYBLOCK
 70
0
  3

 72
65
 73
0
 40
0.0
  0
LTYPE
  5
15
100
AcDbSymbolTableRecord
100
AcDbLinetypeTableRecord
  2
BYLAYER
 70
0
  3

 72
65
 73
0
 40
0.0
  0
LTYPE
  5
16
100
AcDbSymbolTableRecord
100
AcDbLinetypeTableRecord
  2
CONTINUOUS
 70
64
  3
Solid line
 72
65
 73
0
 40
0.0
  0
LTYPE
  5
1F5
100
AcDbSymbolTableRecord
100
AcDbLinetypeTableRecord
  2
CENTER
 70
64
  3
____ _ ____ _ ____ _ ____ _ ____ _ ____ _ ____
 72
65
 73
4
 40
0.6
 49
0.375
 74
0
 49
-0.075
 74
0
 49
0.075
 74
0
 49
-0.075
 74
0
  0
LTYPE
  5
1F6
100
AcDbSymbolTableRecord
100
AcDbLinetypeTableRecord
  2
HIDDEN
 70
64
  3
- - - - - - - - - - - - - - - - - - - -
 72
65
 73
2
 40
0.2
 49
0.1
 74
0
 49
-0.1
 74
0
  0
LTYPE
  5
1F7
100
AcDbSymbolTableRecord
100
AcDbLinetypeTableRecord
  2
PHANTOM
 70
64
  3
_____ _ _ _____ _ _ _____ _ _ _____
 72
65
 73
6
 40
0.8
 49
0.45
 74
0
 49
-0.05
 74
0
 49
0.1
 74
0
 49
-0.05
 74
0
 49
0.1
 74
0
 49
-0.05
 74
0
  0
LTYPE
  5
1F8
100
AcDbSymbolTableRecord
100
AcDbLinetypeTableRecord
  2
DOT
 70
64
  3
. . . . . . . . . . . . . . . . . . . .
 72
65
 73
2
 40
0.2
 49
0.1
 74
0
 49
-0.1
 74
0
  0
LTYPE
  5
1F9
100
AcDbSymbolTableRecord
100
AcDbLinetypeTableRecord
  2
DASHED
 70
64
  3
- - - - - - - - - - - - - - - - - - - -
 72
65
 73
2
 40
0.2
 49
0.1
 74
0
 49
-0.1
 74
0
  0
ENDTAB
  0
TABLE
  2
LAYER
  5
2
100
AcDbSymbolTable
 70
36
  0
LAYER
  5
10
100
AcDbSymbolTableRecord
100
AcDbLayerTableRecord
  2
0
 70
0
 62
7
  6
CONTINUOUS
370
-3
390
F
  0
LAYER
  5
1FA
100
AcDbSymbolTableRecord
100
AcDbLayerTableRecord
  2
DEFAULT_1
 70
0
 62
7
  6
CENTER
370
-3
390
F
  0
LAYER
  5
1FB
100
AcDbSymbolTableRecord
100
AcDbLayerTableRecord
  2
DEFAULT_2
 70
0
 62
8
  6
HIDDEN
370
-3
390
F
  0
LAYER
  5
1FC
100
AcDbSymbolTableRecord
100
AcDbLayerTableRecord
  2
DEFAULT_3
 70
0
 62
7
  6
PHANTOM
370
-3
390
F
  0
LAYER
  5
1FD
100
AcDbSymbolTableRecord
100
AcDbLayerTableRecord
  2
00_COMPONENTS
 70
0
 62
7
  6
CONTINUOUS
370
-3
390
F
  0
LAYER
  5
1FE
100
AcDbSymbolTableRecord
100
AcDbLayerTableRecord
  2
01_1_DEFAULT_DATUMS
 70
0
 62
7
  6
CONTINUOUS
370
-3
390
F
  0
LAYER
  5
1FF
100
AcDbSymbolTableRecord
100
AcDbLayerTableRecord
  2
01_PLANES
 70
0
 62
7
  6
CONTINUOUS
370
-3
390
F
  0
LAYER
  5
200
100
AcDbSymbolTableRecord
100
AcDbLayerTableRecord
  2
02_COORD_SYS
 70
0
 62
7
  6
CONTINUOUS
370
-3
390
F
  0
LAYER
  5
201
100
AcDbSymbolTableRecord
100
AcDbLayerTableRecord
  2
03_AXES
 70
0
 62
7
  6
CONTINUOUS
370
-3
390
F
  0
LAYER
  5
202
100
AcDbSymbolTableRecord
100
AcDbLayerTableRecord
  2
04_POINTS
 70
0
 62
7
  6
CONTINUOUS
370
-3
390
F
  0
LAYER
  5
203
100
AcDbSymbolTableRecord
100
AcDbLayerTableRecord
  2
05_CURVES
 70
0
 62
7
  6
CONTINUOUS
370
-3
390
F
  0
LAYER
  5
204
100
AcDbSymbolTableRecord
100
AcDbLayerTableRecord
  2
06_SURFS
 70
0
 62
7
  6
CONTINUOUS
370
-3
390
F
  0
LAYER
  5
205
100
AcDbSymbolTableRecord
100
AcDbLayerTableRecord
  2
07_COSMETICS
 70
0
 62
7
  6
CONTINUOUS
370
-3
390
F
  0
LAYER
  5
206
100
AcDbSymbolTableRecord
100
AcDbLayerTableRecord
  2
10_NOTES
 70
0
 62
7
  6
CONTINUOUS
370
-3
390
F
  0
LAYER
  5
207
100
AcDbSymbolTableRecord
100
AcDbLayerTableRecord
  2
11_NOTES_PUB
 70
0
 62
7
  6
CONTINUOUS
370
-3
390
F
  0
LAYER
  5
208
100
AcDbSymbolTableRecord
100
AcDbLayerTableRecord
  2
13_REF_GTOL
 70
0
 62
7
  6
CONTINUOUS
370
-3
390
F
  0
LAYER
  5
209
100
AcDbSymbolTableRecord
100
AcDbLayerTableRecord
  2
16_MISC
 70
0
 62
7
  6
CONTINUOUS
370
-3
390
F
  0
LAYER
  5
20A
100
AcDbSymbolTableRecord
100
AcDbLayerTableRecord
  2
17_NO_PRINT
 70
0
 62
7
  6
CONTINUOUS
370
-3
390
F
  0
LAYER
  5
20B
100
AcDbSymbolTableRecord
100
AcDbLayerTableRecord
  2
18_DATUM_CAMS_JOINTS
 70
0
 62
7
  6
CONTINUOUS
370
-3
390
F
  0
LAYER
  5
20C
100
AcDbSymbolTableRecord
100
AcDbLayerTableRecord
  2
19_DATUM_FUNCTIONAL
 70
0
 62
7
  6
CONTINUOUS
370
-3
390
F
  0
LAYER
  5
20D
100
AcDbSymbolTableRecord
100
AcDbLayerTableRecord
  2
20_DATUM_KINEMATIC_SCHEME
 70
0
 62
7
  6
CONTINUOUS
370
-3
390
F
  0
LAYER
  5
20E
100
AcDbSymbolTableRecord
100
AcDbLayerTableRecord
  2
INTFCLR_9
 70
0
 62
7
  6
CONTINUOUS
370
-3
390
F
  0
LAYER
  5
20F
100
AcDbSymbolTableRecord
100
AcDbLayerTableRecord
  2
INTF_BLANK
 70
0
 62
7
  6
CONTINUOUS
370
-3
390
F
  0
LAYER
  5
210
100
AcDbSymbolTableRecord
100
AcDbLayerTableRecord
  2
_BLACK_HOLE
 70
0
 62
7
  6
CONTINUOUS
370
-3
390
F
  0
ENDTAB
  0
TABLE
  2
STYLE
  5
3
100
AcDbSymbolTable
 70
1
  0
STYLE
  5
11
100
AcDbSymbolTableRecord
100
AcDbTextStyleTableRecord
  2
STANDARD
 70
0
 40
0.0
 41
0.8
 50
0.0
 71
0
 42
0.2
  3
txt
  4

  0
STYLE
  5
211
100
AcDbSymbolTableRecord
100
AcDbTextStyleTableRecord
  2
TEXTSTYLE_1
 70
0
 40
0.0
 41
0.8
 50
0.0
 71
0
 42
0.2
  3
gdt
  4

  0
ENDTAB
  0
TABLE
  2
VIEW
  5
6
100
AcDbSymbolTable
 70
0
  0
ENDTAB
  0
TABLE
  2
UCS
  5
7
100
AcDbSymbolTable
 70
0
  0
ENDTAB
  0
TABLE
  2
APPID
  5
9
100
AcDbSymbolTable
 70
1
  0
APPID
  5
212
100
AcDbSymbolTableRecord
100
AcDbRegAppTableRecord
  2
ACAD
 70
0
  0
ENDTAB
  0
TABLE
  2
BLOCK_RECORD
  5
1
100
AcDbSymbolTable
 70
0
  0
BLOCK_RECORD
  5
213
100
AcDbSymbolTableRecord
100
AcDbBlockTableRecord
  2
*Model_Space
  0
BLOCK_RECORD
  5
214
100
AcDbSymbolTableRecord
100
AcDbBlockTableRecord
  2
*Paper_Space
  0
BLOCK_RECORD
  5
215
100
AcDbSymbolTableRecord
100
AcDbBlockTableRecord
  2
_FILLED
  0
ENDTAB
  0
TABLE
  2
DIMSTYLE
  5
A
100
AcDbSymbolTable
 70
1
100
AcDbDimStyleTable
 71
0
  0
DIMSTYLE
105
216
100
AcDbSymbolTableRecord
100
AcDbDimStyleTableRecord
  2
STANDARD
 70
0
  3

  4

 40
1.0
 41
2.7718176896
 42
1.0
 43
0.38
 44
1.0
 45
0.0
 46
0.0
 47
0.01
 48
0.01
140
3.8805447654
141
0.09
142
0.0
143
25.4
144
1.0
145
0.0
146
1.0
147
0.625
 71
1
 72
0
 73
0
 74
0
 75
0
 76
0
 77
1
 78
8
 79
2
170
0
171
1
172
0
173
0
174
0
175
0
176
0
177
0
178
0
270
2
179
2
271
2
272
2
273
2
274
2
275
0
280
0
281
0
282
0
283
1
284
8
285
0
286
0
287
3
288
0
340
11
278
46
341
215
342
215
343
215
344
215
  0
ENDTAB
  0
ENDSEC
  0
SECTION
  2
BLOCKS
  0
BLOCK
  5
20
100
AcDbEntity
  8
0
100
AcDbBlockBegin
  2
*Model_Space
 70
0
 10
0.0
 20
0.0
 30
0.0
  3
*Model_Space
  1

  0
ENDBLK
  5
21
100
AcDbEntity
  8
0
100
AcDbBlockEnd
  0
BLOCK
  5
1C
100
AcDbEntity
  8
0
100
AcDbBlockBegin
  2
*Paper_Space
 70
0
 10
0.0
 20
0.0
 30
0.0
  3
*Paper_Space
  1

  0
ENDBLK
  5
1D
100
AcDbEntity
  8
0
100
AcDbBlockEnd
  0
BLOCK
  5
217
100
AcDbEntity
  8
0
100
AcDbBlockBegin
  2
_FILLED
 70
64
 10
0.0
 20
0.0
  3
_FILLED
  1

  0
SOLID
  5
218
100
AcDbEntity
  8
0
  6
BYBLOCK
 62
0
100
AcDbTrace
 10
0.0
 20
0.0
 11
-1.0
 21
0.25
 12
-1.0
 22
-0.25
 13
-1.0
 23
-0.25
  0
ENDBLK
  5
219
100
AcDbEntity
  8
0
  6
BYBLOCK
 62
0
100
AcDbBlockEnd
  0
ENDSEC
  0
SECTION
  2
ENTITIES
  0
LINE
  5
21A
100
AcDbEntity
  8
0
100
AcDbLine
 62
7
  6
CONTINUOUS
 10
164.7548319722
 20
52.1193320456
 11
165.2544078243
 21
52.1399225298
  0
LINE
  5
21B
100
AcDbEntity
  8
0
100
AcDbLine
 62
7
  6
CONTINUOUS
 10
119.754831894
 20
52.1193323789
 11
120.2544077461
 21
52.1399228631
  0
LINE
  5
21C
100
AcDbEntity
  8
0
100
AcDbLine
 62
7
  6
CONTINUOUS
 10
74.7548318603
 20
52.1193321115
 11
75.2544157356
 21
52.1399229264
  0
LINE
  5
21D
100
AcDbEntity
  8
0
100
AcDbLine
 62
7
  6
CONTINUOUS
 10
28.0324381794
 20
52.1388047662
 11
28.5324191408
 21
52.1431680358
  0
LINE
  5
21E
100
AcDbEntity
  8
0
100
AcDbLine
 62
7
  6
CONTINUOUS
 10
207.4233495304
 20
51.5440406718
 11
165.3543228475
 21
51.5440406718
  0
LINE
  5
21F
100
AcDbEntity
  8
0
100
AcDbLine
 62
7
  6
CONTINUOUS
 10
160.7027625054
 20
51.5440406718
 11
120.354403663
 21
51.5440406718
  0
LINE
  5
220
100
AcDbEntity
  8
0
100
AcDbLine
 62
7
  6
CONTINUOUS
 10
115.7028980419
 20
51.5440406718
 11
75.3543228047
 21
51.5440406718
  0
LINE
  5
221
100
AcDbEntity
  8
0
100
AcDbLine
 62
7
  6
CONTINUOUS
 10
70.7027624695
 20
51.5440406718
 11
28.6324333248
 21
51.5440406718
  0
LINE
  5
222
100
AcDbEntity
  8
0
100
AcDbLine
 62
7
  6
CONTINUOUS
 10
207.4243746349
 20
52.0440407064
 11
165.3543229059
 21
52.0440407411
  0
LINE
  5
223
100
AcDbEntity
  8
0
100
AcDbLine
 62
7
  6
CONTINUOUS
 10
160.7012720777
 20
52.0440406742
 11
120.3543308633
 21
52.0440405627
  0
LINE
  5
224
100
AcDbEntity
  8
0
100
AcDbLine
 62
7
  6
CONTINUOUS
 10
115.7027545974
 20
52.0440405497
 11
75.3543228629
 21
52.0440407061
  0
LINE
  5
225
100
AcDbEntity
  8
0
100
AcDbLine
 62
7
  6
CONTINUOUS
 10
70.7012720421
 20
52.0440407064
 11
28.6324153131
 21
52.0440407411
  0
LINE
  5
226
100
AcDbEntity
  8
0
100
AcDbLine
 62
7
  6
CONTINUOUS
 10
206.6162023047
 20
57.108523326
 11
203.2408831469
 21
57.108523326
  0
LINE
  5
227
100
AcDbEntity
  8
0
100
AcDbLine
 62
7
  6
CONTINUOUS
 10
32.8183412267
 20
57.108523326
 11
29.4386702743
 21
57.108523326
  0
LINE
  5
228
100
AcDbEntity
  8
0
100
AcDbLine
 62
7
  6
CONTINUOUS
 10
207.5246663046
 20
52.143168036
 11
208.024647266
 21
52.1388047672
  0
LINE
  5
229
100
AcDbEntity
  8
0
100
AcDbLine
 62
7
  6
CONTINUOUS
 10
70.8026772226
 20
52.1399226118
 11
71.3022534143
 21
52.1193321239
  0
LINE
  5
22A
100
AcDbEntity
  8
0
100
AcDbLine
 62
7
  6
CONTINUOUS
 10
115.8026777161
 20
52.1399228316
 11
116.3022535686
 21
52.1193323577
  0
LINE
  5
22B
100
AcDbEntity
  8
0
100
AcDbLine
 62
7
  6
CONTINUOUS
 10
160.8026775956
 20
52.1399225961
 11
161.3022534481
 21
52.1193321221
  0
LINE
  5
22C
100
AcDbEntity
  8
0
100
AcDbLine
 62
7
  6
CONTINUOUS
 10
207.6232875495
 20
63.4440406513
 11
208.1233522828
 21
63.4492766913
  0
LINE
  5
22D
100
AcDbEntity
  8
0
100
AcDbLine
 62
7
  6
CONTINUOUS
 10
206.6182492566
 20
63.4439744007
 11
207.6232875495
 21
63.4440406513
  0
LINE
  5
22E
100
AcDbEntity
  8
0
100
AcDbLine
 62
7
  6
CONTINUOUS
 10
164.7303979428
 20
63.4431473355
 11
203.2388232489
 21
63.4438541758
  0
LINE
  5
22F
100
AcDbEntity
  8
0
100
AcDbLine
 62
7
  6
CONTINUOUS
 10
77.977269357
 20
63.4441250911
 11
116.3264942324
 21
63.4429046482
  0
LINE
  5
230
100
AcDbEntity
  8
0
100
AcDbLine
 62
7
  6
CONTINUOUS
 10
119.7303863315
 20
63.4431567896
 11
161.3263441935
 21
63.4427789764
  0
LINE
  5
231
100
AcDbEntity
  8
0
100
AcDbLine
 62
7
  6
CONTINUOUS
 10
28.4337978762
 20
63.4440406892
 11
29.4386702743
 21
63.4440393028
  0
LINE
  5
232
100
AcDbEntity
  8
0
100
AcDbLine
 62
7
  6
CONTINUOUS
 10
32.818259117
 20
63.4440444968
 11
68.0798055529
 21
63.4440406722
  0
LINE
  5
233
100
AcDbEntity
  8
0
100
AcDbLine
 62
7
  6
CONTINUOUS
 10
162.5260498477
 20
64.0440406721
 11
118.5310357898
 21
64.0440406721
  0
LINE
  5
234
100
AcDbEntity
  8
0
100
AcDbLine
 62
7
  6
CONTINUOUS
 10
117.5260495421
 20
64.0440406721
 11
77.0285427121
 21
64.0440406723
  0
LINE
  5
235
100
AcDbEntity
  8
0
100
AcDbLine
 62
7
  6
CONTINUOUS
 10
25.5285427126
 20
64.0440406723
 11
69.028542738
 21
64.0440406723
  0
LINE
  5
236
100
AcDbEntity
  8
0
100
AcDbLine
 62
7
  6
CONTINUOUS
 10
163.5310360963
 20
64.0440406723
 11
210.5285427126
 21
64.0440406723
  0
LINE
  5
237
100
AcDbEntity
  8
0
100
AcDbLine
 62
7
  6
CONTINUOUS
 10
28.0285427126
 20
66.5440406718
 11
31.3285427126
 21
66.5440406718
  0
LINE
  5
238
100
AcDbEntity
  8
0
100
AcDbLine
 62
7
  6
CONTINUOUS
 10
114.4746351366
 20
66.7901330958
 11
121.5824502885
 21
66.7901330958
  0
LINE
  5
239
100
AcDbEntity
  8
0
100
AcDbLine
 62
7
  6
CONTINUOUS
 10
204.7285427126
 20
67.0440406718
 11
208.0285427126
 21
67.0440406718
  0
LINE
  5
23A
100
AcDbEntity
  8
0
100
AcDbLine
 62
7
  6
CONTINUOUS
 10
27.9337331426
 20
63.4492767598
 11
28.433797876
 21
63.4440407122
  0
LINE
  5
23B
100
AcDbEntity
  8
0
100
AcDbLine
 62
7
  6
CONTINUOUS
 10
71.1478899216
 20
56.4110069424
 11
71.4592069624
 21
55.9274136124
  0
LINE
  5
23C
100
AcDbEntity
  8
0
100
AcDbLine
 62
7
  6
CONTINUOUS
 10
28.0324267568
 20
52.1401136781
 11
27.9337331436
 21
63.4492766532
  0
LINE
  5
23D
100
AcDbEntity
  8
0
100
AcDbLine
 62
7
  6
CONTINUOUS
 10
28.5324165621
 20
52.1434635254
 11
28.4337978762
 21
63.4440406892
  0
LINE
  5
23E
100
AcDbEntity
  8
0
100
AcDbLine
 62
7
  6
CONTINUOUS
 10
25.5285427126
 20
64.0440406723
 11
25.5285427126
 21
264.0440406713
  0
LINE
  5
23F
100
AcDbEntity
  8
0
100
AcDbLine
 62
7
  6
CONTINUOUS
 10
26.0285427126
 20
264.0440406713
 11
26.0285427126
 21
64.0440406723
  0
LINE
  5
240
100
AcDbEntity
  8
0
100
AcDbLine
 62
7
  6
CONTINUOUS
 10
27.5285427126
 20
260.5440406718
 11
27.5285427126
 21
246.6940406718
  0
LINE
  5
241
100
AcDbEntity
  8
0
100
AcDbLine
 62
7
  6
CONTINUOUS
 10
27.5285427126
 20
81.3940406718
 11
27.5285427126
 21
67.0440406718
  0
LINE
  5
242
100
AcDbEntity
  8
0
100
AcDbLine
 62
7
  6
CONTINUOUS
 10
28.4329251896
 20
264.5440406713
 11
28.4329251896
 21
264.0440406713
  0
LINE
  5
243
100
AcDbEntity
  8
0
100
AcDbLine
 62
7
  6
CONTINUOUS
 10
28.4337978765
 20
64.0440406723
 11
28.4337978765
 21
63.4440406723
  0
LINE
  5
244
100
AcDbEntity
  8
0
100
AcDbLine
 62
7
  6
CONTINUOUS
 10
28.6324152464
 20
276.5440406718
 11
28.6324152464
 21
276.0440406199
  0
LINE
  5
245
100
AcDbEntity
  8
0
100
AcDbLine
 62
7
  6
CONTINUOUS
 10
28.6324152463
 20
52.0440407238
 11
28.6324152463
 21
51.5440406718
  0
LINE
  5
246
100
AcDbEntity
  8
0
100
AcDbLine
 62
7
  6
CONTINUOUS
 10
29.4386702742
 20
270.9795580175
 11
29.4386702743
 21
264.6440438033
  0
LINE
  5
247
100
AcDbEntity
  8
0
100
AcDbLine
 62
7
  6
CONTINUOUS
 10
29.4386702743
 20
57.108523326
 11
29.4386702743
 21
63.4440393028
  0
LINE
  5
248
100
AcDbEntity
  8
0
100
AcDbLine
 62
7
  6
CONTINUOUS
 10
31.8285427126
 20
67.0440406718
 11
31.8285427126
 21
81.3940406718
  0
LINE
  5
249
100
AcDbEntity
  8
0
100
AcDbLine
 62
7
  6
CONTINUOUS
 10
31.8285427126
 20
246.6940406718
 11
31.8285427126
 21
260.5440406718
  0
LINE
  5
24A
100
AcDbEntity
  8
0
100
AcDbLine
 62
7
  6
CONTINUOUS
 10
27.9328680721
 20
264.539677362
 11
28.0324381795
 21
275.9492765849
  0
LINE
  5
24B
100
AcDbEntity
  8
0
100
AcDbLine
 62
7
  6
CONTINUOUS
 10
28.4329251896
 20
264.5440406713
 11
28.5324191409
 21
275.9449133076
  0
LINE
  5
24C
100
AcDbEntity
  8
0
100
AcDbLine
 62
7
  6
CONTINUOUS
 10
121.5824502885
 20
74.7979482477
 11
114.4746351366
 21
74.7979482477
  0
LINE
  5
24D
100
AcDbEntity
  8
0
100
AcDbLine
 62
7
  6
CONTINUOUS
 10
32.8182590104
 20
63.4440444968
 11
32.8183412268
 21
57.108523326
  0
LINE
  5
24E
100
AcDbEntity
  8
0
100
AcDbLine
 62
7
  6
CONTINUOUS
 10
32.8182590103
 20
264.6440319286
 11
32.8183412268
 21
270.9795580175
  0
LINE
  5
24F
100
AcDbEntity
  8
0
100
AcDbLine
 62
7
  6
CONTINUOUS
 10
114.5252498905
 20
78.3407478497
 11
121.5318355346
 21
78.3407478497
  0
LINE
  5
250
100
AcDbEntity
  8
0
100
AcDbLine
 62
7
  6
CONTINUOUS
 10
208.0285427126
 20
81.8940406718
 11
204.7285427126
 21
81.8940406718
  0
LINE
  5
251
100
AcDbEntity
  8
0
100
AcDbLine
 62
7
  6
CONTINUOUS
 10
31.3285427126
 20
81.8940406718
 11
28.0285427126
 21
81.8940406718
  0
LINE
  5
252
100
AcDbEntity
  8
0
100
AcDbLine
 62
7
  6
CONTINUOUS
 10
121.5318355346
 20
86.2473334938
 11
114.5252498905
 21
86.2473334938
  0
LINE
  5
253
100
AcDbEntity
  8
0
100
AcDbLine
 62
7
  6
CONTINUOUS
 10
74.9092866786
 20
56.4112443095
 11
75.09737169
 21
55.9479386755
  0
LINE
  5
254
100
AcDbEntity
  8
0
100
AcDbLine
 62
7
  6
CONTINUOUS
 10
74.7548318604
 20
52.1193321115
 11
74.2746875487
 21
63.7688154857
  0
LINE
  5
255
100
AcDbEntity
  8
0
100
AcDbLine
 62
7
  6
CONTINUOUS
 10
75.2543591268
 20
52.1414120985
 11
75.0974588126
 21
55.9479687026
  0
LINE
  5
256
100
AcDbEntity
  8
0
100
AcDbLine
 62
7
  6
CONTINUOUS
 10
69.8785427126
 20
251.9270128663
 11
69.8785427126
 21
256.5498979824
  0
LINE
  5
257
100
AcDbEntity
  8
0
100
AcDbLine
 62
7
  6
CONTINUOUS
 10
70.2785427126
 20
65.2198639082
 11
70.2785427126
 21
69.0078115222
  0
LINE
  5
258
100
AcDbEntity
  8
0
100
AcDbLine
 62
7
  6
CONTINUOUS
 10
70.7027624777
 20
51.5440406718
 11
70.7027624777
 21
52.0440407238
  0
LINE
  5
259
100
AcDbEntity
  8
0
100
AcDbLine
 62
7
  6
CONTINUOUS
 10
70.7027624777
 20
276.0440406199
 11
70.7027624777
 21
276.5440406718
  0
LINE
  5
25A
100
AcDbEntity
  8
0
100
AcDbLine
 62
7
  6
CONTINUOUS
 10
74.2746875486
 20
264.3192658578
 11
74.7548318604
 21
275.9687492321
  0
LINE
  5
25B
100
AcDbEntity
  8
0
100
AcDbLine
 62
7
  6
CONTINUOUS
 10
74.790845703
 20
264.7010028625
 11
75.2544077123
 21
275.9481587477
  0
LINE
  5
25C
100
AcDbEntity
  8
0
100
AcDbLine
 62
7
  6
CONTINUOUS
 10
70.8027389365
 20
275.9466696463
 11
71.2662393048
 21
264.7010036865
  0
LINE
  5
25D
100
AcDbEntity
  8
0
100
AcDbLine
 62
7
  6
CONTINUOUS
 10
71.3022534143
 20
275.9687492199
 11
71.7823974651
 21
264.3192663372
  0
LINE
  5
25E
100
AcDbEntity
  8
0
100
AcDbLine
 62
7
  6
CONTINUOUS
 10
75.3543227964
 20
276.5440406718
 11
75.3543227964
 21
276.044040733
  0
LINE
  5
25F
100
AcDbEntity
  8
0
100
AcDbLine
 62
7
  6
CONTINUOUS
 10
75.3543227965
 20
52.0440406279
 11
75.3543227965
 21
51.5440406718
  0
LINE
  5
260
100
AcDbEntity
  8
0
100
AcDbLine
 62
7
  6
CONTINUOUS
 10
75.7785427126
 20
69.0078115222
 11
75.7785427126
 21
65.2198734148
  0
LINE
  5
261
100
AcDbEntity
  8
0
100
AcDbLine
 62
7
  6
CONTINUOUS
 10
76.1785427126
 20
251.9270128565
 11
76.1785427126
 21
256.5498979824
  0
LINE
  5
262
100
AcDbEntity
  8
0
100
AcDbLine
 62
7
  6
CONTINUOUS
 10
70.9596305791
 20
55.9480042418
 11
70.8026774196
 21
52.1399226035
  0
LINE
  5
263
100
AcDbEntity
  8
0
100
AcDbLine
 62
7
  6
CONTINUOUS
 10
71.7823974651
 20
63.7688150064
 11
71.3022534143
 21
52.1193321239
  0
LINE
  5
264
100
AcDbEntity
  8
0
100
AcDbLine
 62
7
  6
CONTINUOUS
 10
119.754831894
 20
52.119332379
 11
119.2746876007
 21
63.768815306
  0
LINE
  5
265
100
AcDbEntity
  8
0
100
AcDbLine
 62
7
  6
CONTINUOUS
 10
120.2544077461
 20
52.1399228635
 11
119.7908457606
 21
63.387078169
  0
LINE
  5
266
100
AcDbEntity
  8
0
100
AcDbLine
 62
7
  6
CONTINUOUS
 10
114.4746351366
 20
261.2979482477
 11
114.4746351366
 21
253.2901330958
  0
LINE
  5
267
100
AcDbEntity
  8
0
100
AcDbLine
 62
7
  6
CONTINUOUS
 10
114.4746351366
 20
74.7979482477
 11
114.4746351366
 21
66.7901330958
  0
LINE
  5
268
100
AcDbEntity
  8
0
100
AcDbLine
 62
7
  6
CONTINUOUS
 10
114.5252498905
 20
249.7473334939
 11
114.5252498905
 21
241.8407478497
  0
LINE
  5
269
100
AcDbEntity
  8
0
100
AcDbLine
 62
7
  6
CONTINUOUS
 10
114.5252498905
 20
86.2473334938
 11
114.5252498905
 21
78.3407478497
  0
LINE
  5
26A
100
AcDbEntity
  8
0
100
AcDbLine
 62
7
  6
CONTINUOUS
 10
115.7027545974
 20
51.5440406718
 11
115.7027545974
 21
52.0440406279
  0
LINE
  5
26B
100
AcDbEntity
  8
0
100
AcDbLine
 62
7
  6
CONTINUOUS
 10
115.7027545989
 20
276.044040733
 11
115.7027545989
 21
276.5440406718
  0
LINE
  5
26C
100
AcDbEntity
  8
0
100
AcDbLine
 62
7
  6
CONTINUOUS
 10
119.2746876007
 20
264.3192660376
 11
119.754831894
 21
275.9687489648
  0
LINE
  5
26D
100
AcDbEntity
  8
0
100
AcDbLine
 62
7
  6
CONTINUOUS
 10
119.7908457606
 20
264.7010031746
 11
120.2544077461
 21
275.9481584804
  0
LINE
  5
26E
100
AcDbEntity
  8
0
100
AcDbLine
 62
7
  6
CONTINUOUS
 10
71.1478625166
 20
56.4112199818
 11
70.9597944577
 21
55.9479377727
  0
LINE
  5
26F
100
AcDbEntity
  8
0
100
AcDbLine
 62
7
  6
CONTINUOUS
 10
115.8026777162
 20
275.9481585088
 11
116.2662394664
 21
264.701003275
  0
LINE
  5
270
100
AcDbEntity
  8
0
100
AcDbLine
 62
7
  6
CONTINUOUS
 10
116.3022535687
 20
275.9687489828
 11
116.7823976194
 21
264.3192661002
  0
LINE
  5
271
100
AcDbEntity
  8
0
100
AcDbLine
 62
7
  6
CONTINUOUS
 10
120.3543308647
 20
276.5440406718
 11
120.3543308647
 21
276.0440407077
  0
LINE
  5
272
100
AcDbEntity
  8
0
100
AcDbLine
 62
7
  6
CONTINUOUS
 10
120.3543308613
 20
52.0440406185
 11
120.3543308613
 21
51.5440406718
  0
LINE
  5
273
100
AcDbEntity
  8
0
100
AcDbLine
 62
7
  6
CONTINUOUS
 10
121.5318355346
 20
78.3407478497
 11
121.5318355346
 21
86.2473334938
  0
LINE
  5
274
100
AcDbEntity
  8
0
100
AcDbLine
 62
7
  6
CONTINUOUS
 10
121.5318355346
 20
241.8407478497
 11
121.5318355346
 21
249.7473334939
  0
LINE
  5
275
100
AcDbEntity
  8
0
100
AcDbLine
 62
7
  6
CONTINUOUS
 10
121.5824502885
 20
66.7901330958
 11
121.5824502885
 21
74.7979482477
  0
LINE
  5
276
100
AcDbEntity
  8
0
100
AcDbLine
 62
7
  6
CONTINUOUS
 10
121.5824502885
 20
253.2901330958
 11
121.5824502885
 21
261.2979482477
  0
LINE
  5
277
100
AcDbEntity
  8
0
100
AcDbLine
 62
7
  6
CONTINUOUS
 10
116.2662394664
 20
63.3870780686
 11
115.8026777162
 21
52.1399228335
  0
LINE
  5
278
100
AcDbEntity
  8
0
100
AcDbLine
 62
7
  6
CONTINUOUS
 10
116.7823976194
 20
63.7688152434
 11
116.3022535686
 21
52.119332359
  0
LINE
  5
279
100
AcDbEntity
  8
0
100
AcDbLine
 62
7
  6
CONTINUOUS
 10
74.9092815824
 20
56.4111393046
 11
74.5978783005
 21
55.927411976
  0
LINE
  5
27A
100
AcDbEntity
  8
0
100
AcDbLine
 62
7
  6
CONTINUOUS
 10
164.7548319722
 20
52.1193320455
 11
164.2746876595
 21
63.7688154442
  0
LINE
  5
27B
100
AcDbEntity
  8
0
100
AcDbLine
 62
7
  6
CONTINUOUS
 10
165.2543464497
 20
52.1414116291
 11
164.7908458152
 21
63.3870784089
  0
LINE
  5
27C
100
AcDbEntity
  8
0
100
AcDbLine
 62
7
  6
CONTINUOUS
 10
160.8027389702
 20
275.946669648
 11
161.2662393385
 21
264.7010036894
  0
LINE
  5
27D
100
AcDbEntity
  8
0
100
AcDbLine
 62
7
  6
CONTINUOUS
 10
161.302253448
 20
275.9687492217
 11
161.7823974988
 21
264.3192663389
  0
LINE
  5
27E
100
AcDbEntity
  8
0
100
AcDbLine
 62
7
  6
CONTINUOUS
 10
160.2785427126
 20
252.2198667243
 11
160.2785427126
 21
255.7141992341
  0
LINE
  5
27F
100
AcDbEntity
  8
0
100
AcDbLine
 62
7
  6
CONTINUOUS
 10
160.7027625137
 20
51.5440406718
 11
160.7027625137
 21
52.0440406185
  0
LINE
  5
280
100
AcDbEntity
  8
0
100
AcDbLine
 62
7
  6
CONTINUOUS
 10
160.7027625137
 20
276.0440407077
 11
160.7027625137
 21
276.5440406718
  0
LINE
  5
281
100
AcDbEntity
  8
0
100
AcDbLine
 62
7
  6
CONTINUOUS
 10
165.3543228392
 20
276.5440406718
 11
165.3543228392
 21
276.0440406199
  0
LINE
  5
282
100
AcDbEntity
  8
0
100
AcDbLine
 62
7
  6
CONTINUOUS
 10
165.3543228392
 20
52.0440407238
 11
165.3543228392
 21
51.5440406718
  0
LINE
  5
283
100
AcDbEntity
  8
0
100
AcDbLine
 62
7
  6
CONTINUOUS
 10
165.7785427126
 20
252.2160382607
 11
165.7785427126
 21
255.7141992341
  0
LINE
  5
284
100
AcDbEntity
  8
0
100
AcDbLine
 62
7
  6
CONTINUOUS
 10
164.2746876595
 20
264.3192658994
 11
164.7548319722
 21
275.968749298
  0
LINE
  5
285
100
AcDbEntity
  8
0
100
AcDbLine
 62
7
  6
CONTINUOUS
 10
164.7908458152
 20
264.7010029347
 11
165.2544078243
 21
275.9481588138
  0
LINE
  5
286
100
AcDbEntity
  8
0
100
AcDbLine
 62
7
  6
CONTINUOUS
 10
161.2662393385
 20
63.3870776541
 11
160.8026775956
 21
52.1399225961
  0
LINE
  5
287
100
AcDbEntity
  8
0
100
AcDbLine
 62
7
  6
CONTINUOUS
 10
161.7823974988
 20
63.7688150047
 11
161.302253448
 21
52.1193321221
  0
LINE
  5
288
100
AcDbEntity
  8
0
100
AcDbLine
 62
7
  6
CONTINUOUS
 10
114.5252498905
 20
241.8407478497
 11
121.5318355346
 21
241.8407478497
  0
LINE
  5
289
100
AcDbEntity
  8
0
100
AcDbLine
 62
7
  6
CONTINUOUS
 10
164.3285427126
 20
242.6179046434
 11
161.7285427126
 21
242.6179046434
  0
LINE
  5
28A
100
AcDbEntity
  8
0
100
AcDbLine
 62
7
  6
CONTINUOUS
 10
74.1285427126
 20
242.6179046434
 11
71.9285427126
 21
242.6179046434
  0
LINE
  5
28B
100
AcDbEntity
  8
0
100
AcDbLine
 62
7
  6
CONTINUOUS
 10
203.2408831469
 20
57.108523326
 11
203.2388362486
 21
63.44385418
  0
LINE
  5
28C
100
AcDbEntity
  8
0
100
AcDbLine
 62
7
  6
CONTINUOUS
 10
206.6182492379
 20
264.6441921492
 11
206.6162023047
 21
270.9795580175
  0
LINE
  5
28D
100
AcDbEntity
  8
0
100
AcDbLine
 62
7
  6
CONTINUOUS
 10
204.2285427126
 20
260.5440406718
 11
204.2285427126
 21
246.6940406718
  0
LINE
  5
28E
100
AcDbEntity
  8
0
100
AcDbLine
 62
7
  6
CONTINUOUS
 10
204.2285427126
 20
81.3940406718
 11
204.2285427126
 21
67.5440406718
  0
LINE
  5
28F
100
AcDbEntity
  8
0
100
AcDbLine
 62
7
  6
CONTINUOUS
 10
203.2408831469
 20
270.9795580175
 11
203.2388362399
 21
264.6441920469
  0
LINE
  5
290
100
AcDbEntity
  8
0
100
AcDbLine
 62
7
  6
CONTINUOUS
 10
206.6182492654
 20
63.4439744007
 11
206.6162023047
 21
57.108523326
  0
LINE
  5
291
100
AcDbEntity
  8
0
100
AcDbLine
 62
7
  6
CONTINUOUS
 10
28.0285427126
 20
246.1940406718
 11
31.3285427126
 21
246.1940406718
  0
LINE
  5
292
100
AcDbEntity
  8
0
100
AcDbLine
 62
7
  6
CONTINUOUS
 10
204.7285427126
 20
246.1940406718
 11
208.0285427126
 21
246.1940406718
  0
LINE
  5
293
100
AcDbEntity
  8
0
100
AcDbLine
 62
7
  6
CONTINUOUS
 10
121.5318355346
 20
249.7473334939
 11
114.5252498905
 21
249.7473334939
  0
LINE
  5
294
100
AcDbEntity
  8
0
100
AcDbLine
 62
7
  6
CONTINUOUS
 10
207.5246688833
 20
275.944617818
 11
207.6242365093
 21
264.5353279362
  0
LINE
  5
295
100
AcDbEntity
  8
0
100
AcDbLine
 62
7
  6
CONTINUOUS
 10
208.0246586886
 20
275.9479676725
 11
208.1242173534
 21
264.5396774045
  0
LINE
  5
296
100
AcDbEntity
  8
0
100
AcDbLine
 62
7
  6
CONTINUOUS
 10
207.4246701986
 20
51.5440406718
 11
207.4246701986
 21
52.0440407238
  0
LINE
  5
297
100
AcDbEntity
  8
0
100
AcDbLine
 62
7
  6
CONTINUOUS
 10
207.4246701986
 20
276.0440406199
 11
207.4246701986
 21
276.5440406718
  0
LINE
  5
298
100
AcDbEntity
  8
0
100
AcDbLine
 62
7
  6
CONTINUOUS
 10
207.6232875495
 20
63.4440406723
 11
207.6232875495
 21
64.0440406723
  0
LINE
  5
299
100
AcDbEntity
  8
0
100
AcDbLine
 62
7
  6
CONTINUOUS
 10
208.5285427126
 20
67.5440406718
 11
208.5285427126
 21
81.3940406718
  0
LINE
  5
29A
100
AcDbEntity
  8
0
100
AcDbLine
 62
7
  6
CONTINUOUS
 10
208.5285427126
 20
246.6940406718
 11
208.5285427126
 21
260.5440406718
  0
LINE
  5
29B
100
AcDbEntity
  8
0
100
AcDbLine
 62
7
  6
CONTINUOUS
 10
210.0285427126
 20
64.0440406723
 11
210.0285427126
 21
264.0440406713
  0
LINE
  5
29C
100
AcDbEntity
  8
0
100
AcDbLine
 62
7
  6
CONTINUOUS
 10
210.5285427126
 20
264.0440406713
 11
210.5285427126
 21
64.0440406723
  0
LINE
  5
29D
100
AcDbEntity
  8
0
100
AcDbLine
 62
7
  6
CONTINUOUS
 10
207.6232875495
 20
63.4440406513
 11
207.5246663045
 21
52.143168036
  0
LINE
  5
29E
100
AcDbEntity
  8
0
100
AcDbLine
 62
7
  6
CONTINUOUS
 10
208.1233522819
 20
63.4492765914
 11
208.0246472661
 21
52.1388047777
  0
LINE
  5
29F
100
AcDbEntity
  8
0
100
AcDbLine
 62
7
  6
CONTINUOUS
 10
114.4746351366
 20
253.2901330958
 11
121.5824502885
 21
253.2901330958
  0
LINE
  5
2A0
100
AcDbEntity
  8
0
100
AcDbLine
 62
7
  6
CONTINUOUS
 10
208.0285427126
 20
261.0440406718
 11
204.7285427126
 21
261.0440406718
  0
LINE
  5
2A1
100
AcDbEntity
  8
0
100
AcDbLine
 62
7
  6
CONTINUOUS
 10
31.3285427126
 20
261.0440406718
 11
28.0285427126
 21
261.0440406718
  0
LINE
  5
2A2
100
AcDbEntity
  8
0
100
AcDbLine
 62
7
  6
CONTINUOUS
 10
121.5824502885
 20
261.2979482477
 11
114.4746351366
 21
261.2979482477
  0
LINE
  5
2A3
100
AcDbEntity
  8
0
100
AcDbLine
 62
7
  6
CONTINUOUS
 10
207.6242365109
 20
264.5353141367
 11
208.1242173534
 21
264.5396774045
  0
LINE
  5
2A4
100
AcDbEntity
  8
0
100
AcDbLine
 62
7
  6
CONTINUOUS
 10
28.4329251881
 20
264.5440408305
 11
27.9328680757
 21
264.5396775608
  0
LINE
  5
2A5
100
AcDbEntity
  8
0
100
AcDbLine
 62
7
  6
CONTINUOUS
 10
71.4374565477
 20
264.5491201266
 11
32.8098687887
 21
264.5440406713
  0
LINE
  5
2A6
100
AcDbEntity
  8
0
100
AcDbLine
 62
7
  6
CONTINUOUS
 10
210.5285427126
 20
264.0440406713
 11
163.5310360965
 21
264.0440406713
  0
LINE
  5
2A7
100
AcDbEntity
  8
0
100
AcDbLine
 62
7
  6
CONTINUOUS
 10
162.5260498467
 20
264.0440406713
 11
118.5310357908
 21
264.0440406713
  0
LINE
  5
2A8
100
AcDbEntity
  8
0
100
AcDbLine
 62
7
  6
CONTINUOUS
 10
117.5260495412
 20
264.0440406713
 11
73.5310360595
 21
264.0440406713
  0
LINE
  5
2A9
100
AcDbEntity
  8
0
100
AcDbLine
 62
7
  6
CONTINUOUS
 10
72.5260498099
 20
264.0440406713
 11
25.5285427126
 21
264.0440406713
  0
LINE
  5
2AA
100
AcDbEntity
  8
0
100
AcDbLine
 62
7
  6
CONTINUOUS
 10
28.4329251896
 20
264.5440406713
 11
29.4470707219
 21
264.5440406713
  0
LINE
  5
2AB
100
AcDbEntity
  8
0
100
AcDbLine
 62
7
  6
CONTINUOUS
 10
161.4374565826
 20
264.5491201279
 11
119.6181108527
 21
264.5491000016
  0
LINE
  5
2AC
100
AcDbEntity
  8
0
100
AcDbLine
 62
7
  6
CONTINUOUS
 10
116.4374563184
 20
264.5491201097
 11
74.6181110988
 21
264.5490999887
  0
LINE
  5
2AD
100
AcDbEntity
  8
0
100
AcDbLine
 62
7
  6
CONTINUOUS
 10
206.6162023047
 20
270.9795580175
 11
203.2408831469
 21
270.9795580175
  0
LINE
  5
2AE
100
AcDbEntity
  8
0
100
AcDbLine
 62
7
  6
CONTINUOUS
 10
32.8183412268
 20
270.9795580175
 11
29.4386702742
 21
270.9795580175
  0
LINE
  5
2AF
100
AcDbEntity
  8
0
100
AcDbLine
 62
7
  6
CONTINUOUS
 10
203.2472194212
 20
264.5440406713
 11
164.6181111357
 21
264.5490999875
  0
LINE
  5
2B0
100
AcDbEntity
  8
0
100
AcDbLine
 62
7
  6
CONTINUOUS
 10
161.302253448
 20
275.9687492214
 11
160.8026775956
 21
275.9481587475
  0
LINE
  5
2B1
100
AcDbEntity
  8
0
100
AcDbLine
 62
7
  6
CONTINUOUS
 10
116.3022535687
 20
275.9687489828
 11
115.8026777162
 21
275.9481585089
  0
LINE
  5
2B2
100
AcDbEntity
  8
0
100
AcDbLine
 62
7
  6
CONTINUOUS
 10
71.3022534143
 20
275.9687492197
 11
70.8026775619
 21
275.9481587458
  0
LINE
  5
2B3
100
AcDbEntity
  8
0
100
AcDbLine
 62
7
  6
CONTINUOUS
 10
208.024647266
 20
275.9492765764
 11
207.5246664235
 21
275.9449133086
  0
LINE
  5
2B4
100
AcDbEntity
  8
0
100
AcDbLine
 62
7
  6
CONTINUOUS
 10
28.6327108103
 20
276.0440406372
 11
70.7027624113
 21
276.0440406027
  0
LINE
  5
2B5
100
AcDbEntity
  8
0
100
AcDbLine
 62
7
  6
CONTINUOUS
 10
75.3558132329
 20
276.0440406721
 11
115.7027545979
 21
276.0440407939
  0
LINE
  5
2B6
100
AcDbEntity
  8
0
100
AcDbLine
 62
7
  6
CONTINUOUS
 10
120.3543308645
 20
276.0440407808
 11
160.702762447
 21
276.0440406346
  0
LINE
  5
2B7
100
AcDbEntity
  8
0
100
AcDbLine
 62
7
  6
CONTINUOUS
 10
165.3558132749
 20
276.0440406372
 11
207.4246701321
 21
276.0440406027
  0
LINE
  5
2B8
100
AcDbEntity
  8
0
100
AcDbLine
 62
7
  6
CONTINUOUS
 10
28.6337621519
 20
276.5440406718
 11
70.7027624694
 21
276.5440406718
  0
LINE
  5
2B9
100
AcDbEntity
  8
0
100
AcDbLine
 62
7
  6
CONTINUOUS
 10
75.3543228045
 20
276.5440406718
 11
115.7028979983
 21
276.5440406718
  0
LINE
  5
2BA
100
AcDbEntity
  8
0
100
AcDbLine
 62
7
  6
CONTINUOUS
 10
120.3544036651
 20
276.5440406718
 11
160.7027625053
 21
276.5440406718
  0
LINE
  5
2BB
100
AcDbEntity
  8
0
100
AcDbLine
 62
7
  6
CONTINUOUS
 10
165.3543228473
 20
276.5440406718
 11
207.4246599985
 21
276.5440406718
  0
LINE
  5
2BC
100
AcDbEntity
  8
0
100
AcDbLine
 62
7
  6
CONTINUOUS
 10
28.532419141
 20
275.9449133078
 11
28.0324381795
 21
275.9492765775
  0
LINE
  5
2BD
100
AcDbEntity
  8
0
100
AcDbLine
 62
7
  6
CONTINUOUS
 10
75.2544077123
 20
275.9481587479
 11
74.7548318603
 21
275.9687492322
  0
LINE
  5
2BE
100
AcDbEntity
  8
0
100
AcDbLine
 62
7
  6
CONTINUOUS
 10
120.2544077461
 20
275.9481584811
 11
119.754831894
 21
275.9687489653
  0
LINE
  5
2BF
100
AcDbEntity
  8
0
100
AcDbLine
 62
7
  6
CONTINUOUS
 10
165.2544078243
 20
275.9481588138
 11
164.7548319722
 21
275.968749298
  0
ARC
  5
2C0
100
AcDbEntity
  8
0
100
AcDbCircle
 62
7
  6
CONTINUOUS
 10
30.0387183318
 20
63.443986789
 40
0.6000480596
100
AcDbArc
 50
89.9990916222
 51
179.9950573085
  0
ARC
  5
2C1
100
AcDbEntity
  8
0
100
AcDbCircle
 62
7
  6
CONTINUOUS
 10
27.3337559903
 20
63.4440406723
 40
0.6
100
AcDbArc
 50
0.5000002181
 51
90.0000525342
  0
ARC
  5
2C2
100
AcDbEntity
  8
0
100
AcDbCircle
 62
7
  6
CONTINUOUS
 10
70.7027624777
 20
52.1440406891
 40
0.5999999136
100
AcDbArc
 50
269.9999906572
 51
357.639838076
  0
ARC
  5
2C3
100
AcDbEntity
  8
0
100
AcDbCircle
 62
7
  6
CONTINUOUS
 10
28.6324152464
 20
52.144040689
 40
0.5999999131
100
AcDbArc
 50
180.4375080233
 51
270.0069711932
  0
ARC
  5
2C4
100
AcDbEntity
  8
0
100
AcDbCircle
 62
7
  6
CONTINUOUS
 10
32.2183253464
 20
63.444102812
 40
0.5999336673
100
AcDbArc
 50
359.9940654429
 51
89.9941589717
  0
CIRCLE
  5
2C5
100
AcDbEntity
  8
0
100
AcDbCircle
 62
7
  6
CONTINUOUS
 10
29.9285427126
 20
74.5440406718
 40
1.175
  0
ARC
  5
2C6
100
AcDbEntity
  8
0
100
AcDbCircle
 62
7
  6
CONTINUOUS
 10
28.0285427126
 20
81.3940406718
 40
0.5
100
AcDbArc
 50
90.0
 51
180.0
  0
ARC
  5
2C7
100
AcDbEntity
  8
0
100
AcDbCircle
 62
7
  6
CONTINUOUS
 10
28.0285427126
 20
67.0440406718
 40
0.5
100
AcDbArc
 50
180.0
 51
270.0
  0
ARC
  5
2C8
100
AcDbEntity
  8
0
100
AcDbCircle
 62
7
  6
CONTINUOUS
 10
31.3285427126
 20
67.0440406718
 40
0.5
100
AcDbArc
 50
270.0
 51
360.0
  0
ARC
  5
2C9
100
AcDbEntity
  8
0
100
AcDbCircle
 62
7
  6
CONTINUOUS
 10
31.3285427126
 20
81.3940406718
 40
0.5
100
AcDbArc
 50
0.0
 51
90.0
  0
ARC
  5
2CA
100
AcDbEntity
  8
0
100
AcDbCircle
 62
7
  6
CONTINUOUS
 10
73.0285427126
 20
61.0440406718
 40
5.5000280812
100
AcDbArc
 50
292.0962922567
 51
25.8729352859
  0
ARC
  5
2CB
100
AcDbEntity
  8
0
100
AcDbCircle
 62
7
  6
CONTINUOUS
 10
73.0285419344
 20
61.0440413985
 40
5.4999989352
100
AcDbArc
 50
154.1279070664
 51
247.9036171231
  0
ARC
  5
2CC
100
AcDbEntity
  8
0
100
AcDbCircle
 62
7
  6
CONTINUOUS
 10
73.0285427126
 20
61.0440406718
 40
5.0
100
AcDbArc
 50
292.0951243664
 51
43.0406786663
  0
ARC
  5
2CD
100
AcDbEntity
  8
0
100
AcDbCircle
 62
7
  6
CONTINUOUS
 10
73.0285419344
 20
61.0440413985
 40
4.9999989352
100
AcDbArc
 50
123.3670103271
 51
247.9060768583
  0
ARC
  5
2CE
100
AcDbEntity
  8
0
100
AcDbCircle
 62
7
  6
CONTINUOUS
 10
74.5859031202
 20
62.8893616658
 40
2.6179522932
100
AcDbArc
 50
36.7740651591
 51
62.8988996312
  0
ARC
  5
2CF
100
AcDbEntity
  8
0
100
AcDbCircle
 62
7
  6
CONTINUOUS
 10
73.0285429348
 20
61.5440406171
 40
2.5499999245
100
AcDbArc
 50
60.7458670311
 51
119.254155009
  0
ARC
  5
2D0
100
AcDbEntity
  8
0
100
AcDbCircle
 62
7
  6
CONTINUOUS
 10
115.7027558838
 20
52.1440474393
 40
0.6000069244
100
AcDbArc
 50
269.9998771613
 51
357.6392427056
  0
ARC
  5
2D1
100
AcDbEntity
  8
0
100
AcDbCircle
 62
7
  6
CONTINUOUS
 10
75.3543227964
 20
52.144040689
 40
0.5999999135
100
AcDbArc
 50
182.3601630983
 51
270.0000072303
  0
CIRCLE
  5
2D2
100
AcDbEntity
  8
0
100
AcDbCircle
 62
7
  6
CONTINUOUS
 10
73.0285427126
 20
70.5440406718
 40
3.15
  0
CIRCLE
  5
2D3
100
AcDbEntity
  8
0
100
AcDbCircle
 62
7
  6
CONTINUOUS
 10
29.9285427126
 20
253.5440406718
 40
1.175
  0
ARC
  5
2D4
100
AcDbEntity
  8
0
100
AcDbCircle
 62
7
  6
CONTINUOUS
 10
28.0285427126
 20
246.6940406718
 40
0.5
100
AcDbArc
 50
180.0
 51
270.0
  0
ARC
  5
2D5
100
AcDbEntity
  8
0
100
AcDbCircle
 62
7
  6
CONTINUOUS
 10
31.3285427126
 20
246.6940406718
 40
0.5
100
AcDbArc
 50
270.0
 51
360.0
  0
ARC
  5
2D6
100
AcDbEntity
  8
0
100
AcDbCircle
 62
7
  6
CONTINUOUS
 10
30.0387183318
 20
264.6440945546
 40
0.6000480596
100
AcDbArc
 50
180.0048460002
 51
270.0009084155
  0
ARC
  5
2D7
100
AcDbEntity
  8
0
100
AcDbCircle
 62
7
  6
CONTINUOUS
 10
70.7027624777
 20
275.9440406545
 40
0.5999999136
100
AcDbArc
 50
2.3601619342
 51
90.000009343
  0
ARC
  5
2D8
100
AcDbEntity
  8
0
100
AcDbCircle
 62
7
  6
CONTINUOUS
 10
28.6324152464
 20
275.9440406546
 40
0.5999999131
100
AcDbArc
 50
89.9230141785
 51
179.4999967597
  0
ARC
  5
2D9
100
AcDbEntity
  8
0
100
AcDbCircle
 62
7
  6
CONTINUOUS
 10
32.2183393699
 20
264.6439527569
 40
0.5999078913
100
AcDbArc
 50
270.0045019524
 51
350.4129603232
  0
ARC
  5
2DA
100
AcDbEntity
  8
0
100
AcDbCircle
 62
7
  6
CONTINUOUS
 10
27.4328871089
 20
264.5440406733
 40
0.5000000021
100
AcDbArc
 50
269.9999497742
 51
359.4999974146
  0
ARC
  5
2DB
100
AcDbEntity
  8
0
100
AcDbCircle
 62
7
  6
CONTINUOUS
 10
28.0285427126
 20
260.5440406718
 40
0.5
100
AcDbArc
 50
90.0
 51
180.0
  0
ARC
  5
2DC
100
AcDbEntity
  8
0
100
AcDbCircle
 62
7
  6
CONTINUOUS
 10
31.3285427126
 20
260.5440406718
 40
0.5
100
AcDbArc
 50
0.0
 51
90.0
  0
ARC
  5
2DD
100
AcDbEntity
  8
0
100
AcDbCircle
 62
7
  6
CONTINUOUS
 10
73.0285427126
 20
248.0440406718
 40
5.5
100
AcDbArc
 50
289.2111708088
 51
55.0593734164
  0
ARC
  5
2DE
100
AcDbEntity
  8
0
100
AcDbCircle
 62
7
  6
CONTINUOUS
 10
73.0285427126
 20
248.0440406718
 40
5.5
100
AcDbArc
 50
124.9406265836
 51
250.7888291878
  0
ARC
  5
2DF
100
AcDbEntity
  8
0
100
AcDbCircle
 62
7
  6
CONTINUOUS
 10
73.0285427126
 20
248.0440406718
 40
5.0
100
AcDbArc
 50
297.1143875025
 51
50.9498568445
  0
ARC
  5
2E0
100
AcDbEntity
  8
0
100
AcDbCircle
 62
7
  6
CONTINUOUS
 10
73.0285427126
 20
248.0440406718
 40
5.0
100
AcDbArc
 50
129.0501430967
 51
242.8856123829
  0
CIRCLE
  5
2E1
100
AcDbEntity
  8
0
100
AcDbCircle
 62
7
  6
CONTINUOUS
 10
73.0285427126
 20
257.5440406718
 40
3.3031529918
  0
ARC
  5
2E2
100
AcDbEntity
  8
0
100
AcDbCircle
 62
7
  6
CONTINUOUS
 10
74.1285427126
 20
243.8179046434
 40
1.2
100
AcDbArc
 50
270.0
 51
349.2244506597
  0
ARC
  5
2E3
100
AcDbEntity
  8
0
100
AcDbCircle
 62
7
  6
CONTINUOUS
 10
71.9285427126
 20
243.8179046434
 40
1.2
100
AcDbArc
 50
190.7755489077
 51
270.0
  0
ARC
  5
2E4
100
AcDbEntity
  8
0
100
AcDbCircle
 62
7
  6
CONTINUOUS
 10
73.0285429348
 20
266.5440407265
 40
2.5499999245
100
AcDbArc
 50
231.4187958635
 51
308.555481833
  0
ARC
  5
2E5
100
AcDbEntity
  8
0
100
AcDbCircle
 62
7
  6
CONTINUOUS
 10
115.702755132
 20
275.9440331208
 40
0.6000077078
100
AcDbArc
 50
2.360828631
 51
90.0000508296
  0
ARC
  5
2E6
100
AcDbEntity
  8
0
100
AcDbCircle
 62
7
  6
CONTINUOUS
 10
75.3543227965
 20
275.9440406545
 40
0.5999999136
100
AcDbArc
 50
89.9999927874
 51
177.6398368953
  0
CIRCLE
  5
2E7
100
AcDbEntity
  8
0
100
AcDbCircle
 62
7
  6
CONTINUOUS
 10
163.0285427126
 20
70.5440406718
 40
2.6129880095
  0
ARC
  5
2E8
100
AcDbEntity
  8
0
100
AcDbCircle
 62
7
  6
CONTINUOUS
 10
118.028542666
 20
61.5440406171
 40
2.5499999245
100
AcDbArc
 50
48.1279733897
 51
131.8517057414
  0
ARC
  5
2E9
100
AcDbEntity
  8
0
100
AcDbCircle
 62
7
  6
CONTINUOUS
 10
163.0285429715
 20
61.5440406171
 40
2.5499999245
100
AcDbArc
 50
48.1465780999
 51
131.8709837381
  0
CIRCLE
  5
2EA
100
AcDbEntity
  8
0
100
AcDbCircle
 62
7
  6
CONTINUOUS
 10
206.1285427126
 20
74.5440406718
 40
1.175
  0
ARC
  5
2EB
100
AcDbEntity
  8
0
100
AcDbCircle
 62
7
  6
CONTINUOUS
 10
120.3543296
 20
52.1440474767
 40
0.6000069463
100
AcDbArc
 50
182.3607586152
 51
270.0001202471
  0
ARC
  5
2EC
100
AcDbEntity
  8
0
100
AcDbCircle
 62
7
  6
CONTINUOUS
 10
208.7233294358
 20
63.4440406723
 40
0.6
100
AcDbArc
 50
89.9997879553
 51
179.49999988
  0
ARC
  5
2ED
100
AcDbEntity
  8
0
100
AcDbCircle
 62
7
  6
CONTINUOUS
 10
207.4246701986
 20
52.144040689
 40
0.5999999135
100
AcDbArc
 50
269.933143632
 51
359.5000035014
  0
ARC
  5
2EE
100
AcDbEntity
  8
0
100
AcDbCircle
 62
7
  6
CONTINUOUS
 10
160.7027625137
 20
52.1440406872
 40
0.5999999113
100
AcDbArc
 50
269.9999906146
 51
357.6398380833
  0
ARC
  5
2EF
100
AcDbEntity
  8
0
100
AcDbCircle
 62
7
  6
CONTINUOUS
 10
165.3543228392
 20
52.1440406202
 40
0.5999998443
100
AcDbArc
 50
182.3601630989
 51
270.0000072662
  0
ARC
  5
2F0
100
AcDbEntity
  8
0
100
AcDbCircle
 62
7
  6
CONTINUOUS
 10
206.0183139895
 20
63.444143305
 40
0.5999352864
100
AcDbArc
 50
359.9901982473
 51
89.3557687182
  0
ARC
  5
2F1
100
AcDbEntity
  8
0
100
AcDbCircle
 62
7
  6
CONTINUOUS
 10
203.8387682314
 20
63.4441451505
 40
0.5999320821
100
AcDbArc
 50
89.3674522777
 51
180.06148615
  0
ARC
  5
2F2
100
AcDbEntity
  8
0
100
AcDbCircle
 62
7
  6
CONTINUOUS
 10
208.0285427126
 20
67.5440406718
 40
0.5
100
AcDbArc
 50
270.0
 51
360.0
  0
ARC
  5
2F3
100
AcDbEntity
  8
0
100
AcDbCircle
 62
7
  6
CONTINUOUS
 10
208.0285427126
 20
81.3940406718
 40
0.5
100
AcDbArc
 50
0.0
 51
90.0
  0
ARC
  5
2F4
100
AcDbEntity
  8
0
100
AcDbCircle
 62
7
  6
CONTINUOUS
 10
204.7285427126
 20
81.3940406718
 40
0.5
100
AcDbArc
 50
90.0
 51
180.0
  0
ARC
  5
2F5
100
AcDbEntity
  8
0
100
AcDbCircle
 62
7
  6
CONTINUOUS
 10
204.7285427126
 20
67.5440406718
 40
0.5
100
AcDbArc
 50
180.0
 51
270.0
  0
ARC
  5
2F6
100
AcDbEntity
  8
0
100
AcDbCircle
 62
7
  6
CONTINUOUS
 10
163.0285427126
 20
248.0440406718
 40
5.5000024243
100
AcDbArc
 50
119.9999854193
 51
248.3754687761
  0
ARC
  5
2F7
100
AcDbEntity
  8
0
100
AcDbCircle
 62
7
  6
CONTINUOUS
 10
163.0356575361
 20
248.0440406718
 40
5.4928835874
100
AcDbArc
 50
291.6547794985
 51
60.0428287172
  0
ARC
  5
2F8
100
AcDbEntity
  8
0
100
AcDbCircle
 62
7
  6
CONTINUOUS
 10
163.0285427126
 20
248.0440406718
 40
5.0000024243
100
AcDbArc
 50
123.3669953316
 51
242.6150166138
  0
ARC
  5
2F9
100
AcDbEntity
  8
0
100
AcDbCircle
 62
7
  6
CONTINUOUS
 10
163.0356575361
 20
248.0440406718
 40
4.9928835874
100
AcDbArc
 50
297.3369339269
 51
56.6764612091
  0
CIRCLE
  5
2FA
100
AcDbEntity
  8
0
100
AcDbCircle
 62
7
  6
CONTINUOUS
 10
163.0285427126
 20
257.5440406718
 40
3.3031529918
  0
ARC
  5
2FB
100
AcDbEntity
  8
0
100
AcDbCircle
 62
7
  6
CONTINUOUS
 10
161.7285427126
 20
243.6179046434
 40
1.0
100
AcDbArc
 50
180.7638645038
 51
270.0
  0
ARC
  5
2FC
100
AcDbEntity
  8
0
100
AcDbCircle
 62
7
  6
CONTINUOUS
 10
118.028542666
 20
266.5440407265
 40
2.5499999245
100
AcDbArc
 50
231.4189950013
 51
308.5554825285
  0
ARC
  5
2FD
100
AcDbEntity
  8
0
100
AcDbCircle
 62
7
  6
CONTINUOUS
 10
163.0285429715
 20
266.5440407265
 40
2.5499999245
100
AcDbArc
 50
231.4189940915
 51
308.555280032
  0
ARC
  5
2FE
100
AcDbEntity
  8
0
100
AcDbCircle
 62
7
  6
CONTINUOUS
 10
120.3543303579
 20
275.9440330771
 40
0.600007736
100
AcDbArc
 50
89.9999515961
 51
177.6391689187
  0
ARC
  5
2FF
100
AcDbEntity
  8
0
100
AcDbCircle
 62
7
  6
CONTINUOUS
 10
160.7027625136
 20
275.9440406564
 40
0.5999999114
100
AcDbArc
 50
2.3601619302
 51
90.0000093817
  0
CIRCLE
  5
300
100
AcDbEntity
  8
0
100
AcDbCircle
 62
7
  6
CONTINUOUS
 10
206.1285427126
 20
253.5440406718
 40
1.175
  0
ARC
  5
301
100
AcDbEntity
  8
0
100
AcDbCircle
 62
7
  6
CONTINUOUS
 10
164.3285427126
 20
243.6179046434
 40
1.0
100
AcDbArc
 50
270.0
 51
359.4757800883
  0
ARC
  5
302
100
AcDbEntity
  8
0
100
AcDbCircle
 62
7
  6
CONTINUOUS
 10
208.0285427126
 20
246.6940406718
 40
0.5
100
AcDbArc
 50
270.0
 51
360.0
  0
ARC
  5
303
100
AcDbEntity
  8
0
100
AcDbCircle
 62
7
  6
CONTINUOUS
 10
204.7285427126
 20
246.6940406718
 40
0.5
100
AcDbArc
 50
180.0
 51
270.0
  0
ARC
  5
304
100
AcDbEntity
  8
0
100
AcDbCircle
 62
7
  6
CONTINUOUS
 10
208.624198317
 20
264.5440406733
 40
0.9999992893
100
AcDbArc
 50
180.4992094946
 51
210.0000260032
  0
ARC
  5
305
100
AcDbEntity
  8
0
100
AcDbCircle
 62
7
  6
CONTINUOUS
 10
207.4246701985
 20
275.9440406545
 40
0.5999999137
100
AcDbArc
 50
0.4375108746
 51
90.0038168009
  0
ARC
  5
306
100
AcDbEntity
  8
0
100
AcDbCircle
 62
7
  6
CONTINUOUS
 10
165.3543228392
 20
275.9440407233
 40
0.5999998444
100
AcDbArc
 50
89.9999927489
 51
177.6398369025
  0
ARC
  5
307
100
AcDbEntity
  8
0
100
AcDbCircle
 62
7
  6
CONTINUOUS
 10
203.8387543466
 20
264.6439101892
 40
0.5999062332
100
AcDbArc
 50
189.5829433109
 51
270.6339011667
  0
ARC
  5
308
100
AcDbEntity
  8
0
100
AcDbCircle
 62
7
  6
CONTINUOUS
 10
208.0285427126
 20
260.5440406718
 40
0.5
100
AcDbArc
 50
0.0
 51
90.0
  0
ARC
  5
309
100
AcDbEntity
  8
0
100
AcDbCircle
 62
7
  6
CONTINUOUS
 10
204.7285427126
 20
260.5440406718
 40
0.5
100
AcDbArc
 50
90.0
 51
180.0
  0
ARC
  5
30A
100
AcDbEntity
  8
0
100
AcDbCircle
 62
7
  6
CONTINUOUS
 10
208.624198317
 20
264.5440406733
 40
0.4999992893
100
AcDbArc
 50
180.5000001143
 51
269.9999999973
  0
SPLINE
  5
30B
100
AcDbEntity
  8
0
100
AcDbSpline
 62
7
  6
CONTINUOUS
 70
0
 71
3
 72
9
 73
5
 74
0
 42
0.0000001
 43
0.0000001
 44
0.0000000001
 40
0.0
 40
0.0
 40
0.0
 40
0.0
 40
0.5000443764
 40
1.0
 40
1.0
 40
1.0
 40
1.0
 10
28.6324153131
 20
52.0440407411
 30
0.0
 10
28.6069913058
 20
52.0440407242
 30
0.0
 10
28.5540169894
 20
52.0652314113
 30
0.0
 10
28.5326383863
 20
52.1180449986
 30
0.0
 10
28.5324165621
 20
52.1434635254
 30
0.0
  0
SPLINE
  5
30C
100
AcDbEntity
  8
0
100
AcDbSpline
 62
7
  6
CONTINUOUS
 70
0
 71
3
 72
9
 73
5
 74
0
 42
0.0000001
 43
0.0000001
 44
0.0000000001
 40
0.0
 40
0.0
 40
0.0
 40
0.0
 40
0.5000010169
 40
1.0
 40
1.0
 40
1.0
 40
1.0
 10
120.2544077461
 20
275.9481584804
 30
0.0
 10
120.255427065
 20
275.9728445087
 30
0.0
 10
120.2795918811
 20
276.0219218138
 30
0.0
 10
120.3296239011
 20
276.0440399427
 30
0.0
 10
120.3543308645
 20
276.0440408131
 30
0.0
  0
SPLINE
  5
30D
100
AcDbEntity
  8
0
100
AcDbSpline
 62
7
  6
CONTINUOUS
 70
0
 71
3
 72
9
 73
5
 74
0
 42
0.0000001
 43
0.0000001
 44
0.0000000001
 40
0.0
 40
0.0
 40
0.0
 40
0.0
 40
0.4999810878
 40
1.0
 40
1.0
 40
1.0
 40
1.0
 10
160.702762447
 20
276.0440406346
 30
0.0
 10
160.7278735203
 20
276.0440406513
 30
0.0
 10
160.7803371392
 20
276.0234977113
 30
0.0
 10
160.8017047941
 20
275.9717613177
 30
0.0
 10
160.8027389702
 20
275.946669648
 30
0.0
  0
SPLINE
  5
30E
100
AcDbEntity
  8
0
100
AcDbSpline
 62
7
  6
CONTINUOUS
 70
0
 71
3
 72
8
 73
4
 74
0
 42
0.0000001
 43
0.0000001
 44
0.0000000001
 40
0.0
 40
0.0
 40
0.0
 40
0.0
 40
1.0
 40
1.0
 40
1.0
 40
1.0
 10
161.4374565826
 20
264.5491201279
 30
0.0
 10
161.3974913815
 20
264.5798503141
 30
0.0
 10
161.3599190806
 20
264.6136636499
 30
0.0
 10
161.3231317467
 20
264.648134706
 30
0.0
  0
LINE
  5
30F
100
AcDbEntity
  8
0
100
AcDbLine
 62
7
  6
CONTINUOUS
 10
161.3231317467
 20
264.648134706
 11
161.2662393385
 21
264.7010036894
  0
SPLINE
  5
310
100
AcDbEntity
  8
0
100
AcDbSpline
 62
7
  6
CONTINUOUS
 70
0
 71
3
 72
8
 73
4
 74
0
 42
0.0000001
 43
0.0000001
 44
0.0000000001
 40
0.0
 40
0.0
 40
0.0
 40
0.0
 40
1.0
 40
1.0
 40
1.0
 40
1.0
 10
116.4374563184
 20
264.5491201097
 30
0.0
 10
116.3974912167
 20
264.5798502226
 30
0.0
 10
116.3599190014
 20
264.6136634673
 30
0.0
 10
116.323131749
 20
264.6481344298
 30
0.0
  0
LINE
  5
311
100
AcDbEntity
  8
0
100
AcDbLine
 62
7
  6
CONTINUOUS
 10
116.323131749
 20
264.6481344298
 11
116.2662394664
 21
264.701003275
  0
SPLINE
  5
312
100
AcDbEntity
  8
0
100
AcDbSpline
 62
7
  6
CONTINUOUS
 70
0
 71
3
 72
8
 73
4
 74
0
 42
0.0000001
 43
0.0000001
 44
0.0000000001
 40
0.0
 40
0.0
 40
0.0
 40
0.0
 40
1.0
 40
1.0
 40
1.0
 40
1.0
 10
119.7908457606
 20
264.7010031746
 30
0.0
 10
119.734942256
 20
264.648525554
 30
0.0
 10
119.67926201
 20
264.5953562277
 30
0.0
 10
119.6181108527
 20
264.5491000016
 30
0.0
  0
SPLINE
  5
313
100
AcDbEntity
  8
0
100
AcDbSpline
 62
7
  6
CONTINUOUS
 70
0
 71
3
 72
11
 73
7
 74
0
 42
0.0000001
 43
0.0000001
 44
0.0000000001
 40
0.0
 40
0.0
 40
0.0
 40
0.0
 40
0.304203445
 40
0.4383811716
 40
0.5580278898
 40
1.0
 40
1.0
 40
1.0
 40
1.0
 10
77.9774903885
 20
63.4435153502
 30
0.0
 10
77.9387904466
 20
63.5231445624
 30
0.0
 10
77.8979682755
 20
63.650386904
 30
0.0
 10
77.9200258287
 20
63.814212082
 30
0.0
 10
78.0205252186
 20
63.9962949717
 30
0.0
 10
78.2112199603
 20
64.0440406721
 30
0.0
 10
78.3398514009
 20
64.0440406723
 30
0.0
  0
SPLINE
  5
314
100
AcDbEntity
  8
0
100
AcDbSpline
 62
7
  6
CONTINUOUS
 70
0
 71
3
 72
11
 73
7
 74
0
 42
0.0000001
 43
0.0000001
 44
0.0000000001
 40
0.0
 40
0.0
 40
0.0
 40
0.0
 40
0.304175739
 40
0.4383216861
 40
0.5579569095
 40
1.0
 40
1.0
 40
1.0
 40
1.0
 10
68.0798055529
 20
63.4440406723
 30
0.0
 10
68.1184114817
 20
63.5236450984
 30
0.0
 10
68.1591699937
 20
63.6508084971
 30
0.0
 10
68.1369588466
 20
63.8144945079
 30
0.0
 10
68.0363608867
 20
63.9963707888
 30
0.0
 10
67.8458057615
 20
64.0440406792
 30
0.0
 10
67.7172340172
 20
64.0440406723
 30
0.0
  0
SPLINE
  5
315
100
AcDbEntity
  8
0
100
AcDbSpline
 62
7
  6
CONTINUOUS
 70
0
 71
3
 72
16
 73
12
 74
0
 42
0.0000001
 43
0.0000001
 44
0.0000000001
 40
0.0
 40
0.0
 40
0.0
 40
0.0
 40
0.3821233676
 40
0.5555906462
 40
0.707147097
 40
0.8315225127
 40
0.9237477012
 40
0.9567220711
 40
0.9805904149
 40
0.9950984627
 40
1.0
 40
1.0
 40
1.0
 40
1.0
 10
75.0974621758
 20
55.9480027909
 30
0.0
 10
75.033835046
 20
55.945198357
 30
0.0
 10
74.9412976865
 20
55.941427745
 30
0.0
 10
74.8235602525
 20
55.9367688701
 30
0.0
 10
74.7486482975
 20
55.9336670426
 30
0.0
 10
74.6875384759
 20
55.9313102075
 30
0.0
 10
74.6455502068
 20
55.9290675671
 30
0.0
 10
74.6213279822
 20
55.9284904624
 30
0.0
 10
74.6084411165
 20
55.9270224012
 30
0.0
 10
74.6030382607
 20
55.9284284758
 30
0.0
 10
74.5979119431
 20
55.9265957247
 30
0.0
 10
74.5978783005
 20
55.927411976
 30
0.0
  0
SPLINE
  5
316
100
AcDbEntity
  8
0
100
AcDbSpline
 62
7
  6
CONTINUOUS
 70
0
 71
3
 72
9
 73
5
 74
0
 42
0.0000001
 43
0.0000001
 44
0.0000000001
 40
0.0
 40
0.0
 40
0.0
 40
0.0
 40
0.4999983317
 40
1.0
 40
1.0
 40
1.0
 40
1.0
 10
115.8026777162
 20
52.1399228335
 30
0.0
 10
115.8016584206
 20
52.1152369114
 30
0.0
 10
115.7774940188
 20
52.0661592863
 30
0.0
 10
115.7274617191
 20
52.0440414741
 30
0.0
 10
115.7027545974
 20
52.0440405149
 30
0.0
  0
SPLINE
  5
317
100
AcDbEntity
  8
0
100
AcDbSpline
 62
7
  6
CONTINUOUS
 70
0
 71
3
 72
9
 73
5
 74
0
 42
0.0000001
 43
0.0000001
 44
0.0000000001
 40
0.0
 40
0.0
 40
0.0
 40
0.0
 40
0.4999809383
 40
1.0
 40
1.0
 40
1.0
 40
1.0
 10
75.2544077123
 20
275.9481587477
 30
0.0
 10
75.2554418105
 20
275.9732485149
 30
0.0
 10
75.2781278076
 20
276.0248216386
 30
0.0
 10
75.3307002494
 20
276.0440406721
 30
0.0
 10
75.3558132329
 20
276.0440406721
 30
0.0
  0
SPLINE
  5
318
100
AcDbEntity
  8
0
100
AcDbSpline
 62
7
  6
CONTINUOUS
 70
0
 71
3
 72
8
 73
4
 74
0
 42
0.0000001
 43
0.0000001
 44
0.0000000001
 40
0.0
 40
0.0
 40
0.0
 40
0.0
 40
1.0
 40
1.0
 40
1.0
 40
1.0
 10
119.7303863315
 20
63.4431567896
 30
0.0
 10
119.7509029302
 20
63.4248635703
 30
0.0
 10
119.7709466249
 20
63.4060412144
 30
0.0
 10
119.7908457606
 20
63.387078169
 30
0.0
  0
SPLINE
  5
319
100
AcDbEntity
  8
0
100
AcDbSpline
 62
7
  6
CONTINUOUS
 70
0
 71
3
 72
9
 73
5
 74
0
 42
0.0000001
 43
0.0000001
 44
0.0000000001
 40
0.0
 40
0.0
 40
0.0
 40
0.0
 40
0.5000447769
 40
1.0
 40
1.0
 40
1.0
 40
1.0
 10
115.7027545979
 20
276.0440408288
 30
0.0
 10
115.7274638234
 20
276.0440390066
 30
0.0
 10
115.77749562
 20
276.0219198905
 30
0.0
 10
115.8016594495
 20
275.972842315
 30
0.0
 10
115.8026777164
 20
275.9481585088
 30
0.0
  0
SPLINE
  5
31A
100
AcDbEntity
  8
0
100
AcDbSpline
 62
7
  6
CONTINUOUS
 70
0
 71
3
 72
8
 73
4
 74
0
 42
0.0000001
 43
0.0000001
 44
0.0000000001
 40
0.0
 40
0.0
 40
0.0
 40
0.0
 40
1.0
 40
1.0
 40
1.0
 40
1.0
 10
74.790845703
 20
264.7010028625
 30
0.0
 10
74.7349422939
 20
264.6485253475
 30
0.0
 10
74.67926214
 20
264.5953561329
 30
0.0
 10
74.6181110988
 20
264.5490999887
 30
0.0
  0
SPLINE
  5
31B
100
AcDbEntity
  8
0
100
AcDbSpline
 62
7
  6
CONTINUOUS
 70
0
 71
3
 72
9
 73
5
 74
0
 42
0.0000001
 43
0.0000001
 44
0.0000000001
 40
0.0
 40
0.0
 40
0.0
 40
0.0
 40
0.4999927767
 40
1.0
 40
1.0
 40
1.0
 40
1.0
 10
75.3543228629
 20
52.0440407061
 30
0.0
 10
75.3292118362
 20
52.0440406894
 30
0.0
 10
75.276742701
 20
52.0645784034
 30
0.0
 10
75.255393253
 20
52.1163216485
 30
0.0
 10
75.2543591268
 20
52.1414120985
 30
0.0
  0
SPLINE
  5
31C
100
AcDbEntity
  8
0
100
AcDbSpline
 62
7
  6
CONTINUOUS
 70
0
 71
3
 72
8
 73
4
 74
0
 42
0.0000001
 43
0.0000001
 44
0.0000000001
 40
0.0
 40
0.0
 40
0.0
 40
0.0
 40
1.0
 40
1.0
 40
1.0
 40
1.0
 10
116.2662394664
 20
63.3870780686
 30
0.0
 10
116.2860569769
 20
63.4059714546
 30
0.0
 10
116.3060308093
 20
63.4247128349
 30
0.0
 10
116.3264942324
 20
63.4429046482
 30
0.0
  0
SPLINE
  5
31D
100
AcDbEntity
  8
0
100
AcDbSpline
 62
7
  6
CONTINUOUS
 70
0
 71
3
 72
8
 73
4
 74
0
 42
0.0000001
 43
0.0000001
 44
0.0000000001
 40
0.0
 40
0.0
 40
0.0
 40
0.0
 40
1.0
 40
1.0
 40
1.0
 40
1.0
 10
71.4374565477
 20
264.5491201266
 30
0.0
 10
71.3974913471
 20
264.5798503123
 30
0.0
 10
71.3599190464
 20
264.6136636476
 30
0.0
 10
71.3231317129
 20
264.6481347031
 30
0.0
  0
LINE
  5
31E
100
AcDbEntity
  8
0
100
AcDbLine
 62
7
  6
CONTINUOUS
 10
71.3231317129
 20
264.6481347031
 11
71.2662393048
 21
264.7010036865
  0
SPLINE
  5
31F
100
AcDbEntity
  8
0
100
AcDbSpline
 62
7
  6
CONTINUOUS
 70
0
 71
3
 72
9
 73
5
 74
0
 42
0.0000001
 43
0.0000001
 44
0.0000000001
 40
0.0
 40
0.0
 40
0.0
 40
0.0
 40
0.5000442914
 40
1.0
 40
1.0
 40
1.0
 40
1.0
 10
28.5324191409
 20
275.9449133076
 30
0.0
 10
28.5326410045
 20
275.9703363438
 30
0.0
 10
28.5542931791
 20
276.0231237028
 30
0.0
 10
28.6072913099
 20
276.0440406371
 30
0.0
 10
28.6327108103
 20
276.0440406372
 30
0.0
  0
SPLINE
  5
320
100
AcDbEntity
  8
0
100
AcDbSpline
 62
7
  6
CONTINUOUS
 70
0
 71
3
 72
9
 73
5
 74
0
 42
0.0000001
 43
0.0000001
 44
0.0000000001
 40
0.0
 40
0.0
 40
0.0
 40
0.0
 40
0.499981055
 40
1.0
 40
1.0
 40
1.0
 40
1.0
 10
70.7027624113
 20
276.0440406027
 30
0.0
 10
70.7278734818
 20
276.0440406194
 30
0.0
 10
70.7803371184
 20
276.0234977262
 30
0.0
 10
70.8017047604
 20
275.9717613166
 30
0.0
 10
70.8027389365
 20
275.9466696463
 30
0.0
  0
SPLINE
  5
321
100
AcDbEntity
  8
0
100
AcDbSpline
 62
7
  6
CONTINUOUS
 70
0
 71
3
 72
9
 73
5
 74
0
 42
0.0000001
 43
0.0000001
 44
0.0000000001
 40
0.0
 40
0.0
 40
0.0
 40
0.0
 40
0.4999809405
 40
1.0
 40
1.0
 40
1.0
 40
1.0
 10
160.8026775956
 20
52.1399225961
 30
0.0
 10
160.801643498
 20
52.1148328292
 30
0.0
 10
160.7789575028
 20
52.0632597047
 30
0.0
 10
160.7263850606
 20
52.0440406742
 30
0.0
 10
160.7012720777
 20
52.0440406742
 30
0.0
  0
SPLINE
  5
322
100
AcDbEntity
  8
0
100
AcDbSpline
 62
7
  6
CONTINUOUS
 70
0
 71
3
 72
9
 73
5
 74
0
 42
0.0000001
 43
0.0000001
 44
0.0000000001
 40
0.0
 40
0.0
 40
0.0
 40
0.0
 40
0.5000421711
 40
1.0
 40
1.0
 40
1.0
 40
1.0
 10
120.3543308633
 20
52.0440405302
 30
0.0
 10
120.3296217389
 20
52.0440423415
 30
0.0
 10
120.2795896417
 20
52.0661610369
 30
0.0
 10
120.2554261097
 20
52.1152389046
 30
0.0
 10
120.2544077459
 20
52.1399228635
 30
0.0
  0
SPLINE
  5
323
100
AcDbEntity
  8
0
100
AcDbSpline
 62
7
  6
CONTINUOUS
 70
0
 71
3
 72
8
 73
4
 74
0
 42
0.0000001
 43
0.0000001
 44
0.0000000001
 40
0.0
 40
0.0
 40
0.0
 40
0.0
 40
1.0
 40
1.0
 40
1.0
 40
1.0
 10
164.7303979428
 20
63.4431473355
 30
0.0
 10
164.7509102441
 20
63.4248568423
 30
0.0
 10
164.7709503393
 20
63.4060380156
 30
0.0
 10
164.7908458152
 20
63.3870784089
 30
0.0
  0
SPLINE
  5
324
100
AcDbEntity
  8
0
100
AcDbSpline
 62
7
  6
CONTINUOUS
 70
0
 71
3
 72
9
 73
5
 74
0
 42
0.0000001
 43
0.0000001
 44
0.0000000001
 40
0.0
 40
0.0
 40
0.0
 40
0.0
 40
0.5000442917
 40
1.0
 40
1.0
 40
1.0
 40
1.0
 10
207.5246663045
 20
52.143168036
 30
0.0
 10
207.5244444409
 20
52.1177449997
 30
0.0
 10
207.5027922665
 20
52.0649576404
 30
0.0
 10
207.4497941354
 20
52.0440407064
 30
0.0
 10
207.4243746349
 20
52.0440407064
 30
0.0
  0
SPLINE
  5
325
100
AcDbEntity
  8
0
100
AcDbSpline
 62
7
  6
CONTINUOUS
 70
0
 71
3
 72
9
 73
5
 74
0
 42
0.0000001
 43
0.0000001
 44
0.0000000001
 40
0.0
 40
0.0
 40
0.0
 40
0.0
 40
0.4999810551
 40
1.0
 40
1.0
 40
1.0
 40
1.0
 10
165.3543229059
 20
52.0440407411
 30
0.0
 10
165.3292118528
 20
52.0440407244
 30
0.0
 10
165.2767482529
 20
52.0645836032
 30
0.0
 10
165.2553806255
 20
52.1163199763
 30
0.0
 10
165.2543464497
 20
52.1414116291
 30
0.0
  0
SPLINE
  5
326
100
AcDbEntity
  8
0
100
AcDbSpline
 62
7
  6
CONTINUOUS
 70
0
 71
3
 72
16
 73
12
 74
0
 42
0.0000001
 43
0.0000001
 44
0.0000000001
 40
0.0
 40
0.0
 40
0.0
 40
0.0
 40
0.0049011313
 40
0.0194093051
 40
0.0432778163
 40
0.0762523209
 40
0.1684775948
 40
0.2928533017
 40
0.4444097303
 40
0.6178762725
 40
1.0
 40
1.0
 40
1.0
 40
1.0
 10
71.4592069624
 20
55.9274136124
 30
0.0
 10
71.4591733231
 20
55.9265974416
 30
0.0
 10
71.4540470056
 20
55.9284393272
 30
0.0
 10
71.4486445319
 20
55.9270265367
 30
0.0
 10
71.4357576028
 20
55.9284975392
 30
0.0
 10
71.4115356513
 20
55.9290693181
 30
0.0
 10
71.369547765
 20
55.9313104634
 30
0.0
 10
71.3084388784
 20
55.9336662599
 30
0.0
 10
71.233528236
 20
55.9367696265
 30
0.0
 10
71.1157928888
 20
55.9414319631
 30
0.0
 10
71.023257116
 20
55.9452035173
 30
0.0
 10
70.9596307706
 20
55.9480041003
 30
0.0
  0
SPLINE
  5
327
100
AcDbEntity
  8
0
100
AcDbSpline
 62
7
  6
CONTINUOUS
 70
0
 71
3
 72
9
 73
5
 74
0
 42
0.0000001
 43
0.0000001
 44
0.0000000001
 40
0.0
 40
0.0
 40
0.0
 40
0.0
 40
0.4999809698
 40
1.0
 40
1.0
 40
1.0
 40
1.0
 10
165.2544078243
 20
275.9481588138
 30
0.0
 10
165.2554419217
 20
275.9732485635
 30
0.0
 10
165.2781278898
 20
276.0248216673
 30
0.0
 10
165.330700312
 20
276.0440406372
 30
0.0
 10
165.3558132749
 20
276.0440406372
 30
0.0
  0
SPLINE
  5
328
100
AcDbEntity
  8
0
100
AcDbSpline
 62
7
  6
CONTINUOUS
 70
0
 71
3
 72
9
 73
5
 74
0
 42
0.0000001
 43
0.0000001
 44
0.0000000001
 40
0.0
 40
0.0
 40
0.0
 40
0.0
 40
0.5000443763
 40
1.0
 40
1.0
 40
1.0
 40
1.0
 10
207.4246701321
 20
276.0440406027
 30
0.0
 10
207.4500941395
 20
276.0440406196
 30
0.0
 10
207.5030684562
 20
276.0228499326
 30
0.0
 10
207.5244470591
 20
275.9700363449
 30
0.0
 10
207.5246688833
 20
275.944617818
 30
0.0
  0
SPLINE
  5
329
100
AcDbEntity
  8
0
100
AcDbSpline
 62
7
  6
CONTINUOUS
 70
0
 71
3
 72
8
 73
4
 74
0
 42
0.0000001
 43
0.0000001
 44
0.0000000001
 40
0.0
 40
0.0
 40
0.0
 40
0.0
 40
1.0
 40
1.0
 40
1.0
 40
1.0
 10
164.7908458152
 20
264.7010029347
 30
0.0
 10
164.7349423825
 20
264.6485253937
 30
0.0
 10
164.6792622055
 20
264.595356152
 30
0.0
 10
164.6181111357
 20
264.5490999875
 30
0.0
  0
SPLINE
  5
32A
100
AcDbEntity
  8
0
100
AcDbSpline
 62
7
  6
CONTINUOUS
 70
0
 71
3
 72
8
 73
4
 74
0
 42
0.0000001
 43
0.0000001
 44
0.0000000001
 40
0.0
 40
0.0
 40
0.0
 40
0.0
 40
1.0
 40
1.0
 40
1.0
 40
1.0
 10
161.2662393385
 20
63.3870776541
 30
0.0
 10
161.2860128138
 20
63.4059229836
 30
0.0
 10
161.3059338696
 20
63.4246253144
 30
0.0
 10
161.3263441935
 20
63.4427789764
 30
0.0
  0
SPLINE
  5
32B
100
AcDbEntity
  8
0
100
AcDbSpline
 62
7
  6
CONTINUOUS
 70
0
 71
3
 72
9
 73
5
 74
0
 42
0.0000001
 43
0.0000001
 44
0.0000000001
 40
0.0
 40
0.0
 40
0.0
 40
0.0
 40
0.4999808256
 40
1.0
 40
1.0
 40
1.0
 40
1.0
 10
70.8026774196
 20
52.1399226035
 30
0.0
 10
70.8016433226
 20
52.1148328504
 30
0.0
 10
70.7789575447
 20
52.0632596286
 30
0.0
 10
70.7263850228
 20
52.0440407064
 30
0.0
 10
70.7012720421
 20
52.0440407064
 30
0.0
  0
ELLIPSE
  5
32C
100
AcDbEntity
  8
0
100
AcDbEllipse
 62
7
  6
CONTINUOUS
 10
206.0183768049
 20
264.6439982929
 30
0.0
 11
-0.0000964426
 21
0.599994841
 31
0.0
 40
0.999796024
 41
-3.1415228898
 42
-1.5706339365
  0
ELLIPSE
  5
32D
100
AcDbEntity
  8
0
100
AcDbEllipse
 62
7
  6
CONTINUOUS
 10
203.8387086702
 20
264.6439982875
 30
0.0
 11
0.0000964426
 21
0.599994841
 31
0.0
 40
0.999796024
 41
1.5706340978
 42
1.7383349216
  0
ELLIPSE
  5
32E
100
AcDbEntity
  8
0
100
AcDbEllipse
 62
7
  6
CONTINUOUS
 10
32.2183865462
 20
264.6440397162
 30
0.0
 11
0.000003099
 21
0.5999948488
 31
0.0
 40
0.999796024
 41
-1.7382390788
 42
-1.5708041422
  0
ENDSEC
  0
SECTION
  2
OBJECTS
  0
DICTIONARY
  5
C
100
AcDbDictionary
280
0
281
1
  3
ACAD_GROUP
350
D
  3
ACAD_MLINESTYLE
350
17
  3
ACAD_LAYOUT
350
1A
  3
ACAD_PLOTSETTINGS
350
19
  3
ACAD_PLOTSTYLENAME
350
E
  0
DICTIONARY
  5
D
102
{ACAD_REACTORS
330
C
102
}
100
AcDbDictionary
280
0
281
1
  0
ACDBDICTIONARYWDFLT
  5
E
102
{ACAD_REACTORS
330
C
102
}
100
AcDbDictionary
281
1
  3
Normal
350
F
100
AcDbDictionaryWithDefault
340
F
  0
DICTIONARY
  5
17
102
{ACAD_REACTORS
330
C
102
}
100
AcDbDictionary
280
0
281
1
  3
Standard
350
18
  0
DICTIONARY
  5
19
102
{ACAD_REACTORS
330
C
102
}
100
AcDbDictionary
281
1
  0
DICTIONARY
  5
1A
102
{ACAD_REACTORS
330
C
102
}
100
AcDbDictionary
281
1
  3
Model
350
32F
  3
Layout1
350
330
  0
ACDBPLACEHOLDER
  5
F
102
{ACAD_REACTORS
330
E
102
}
  0
MLINESTYLE
  5
18
102
{ACAD_REACTORS
330
17
102
}
100
AcDbMlineStyle
  2
STANDARD
 70
0
  3

 62
256
 51
90.0
 52
90.0
 71
2
 49
0.5
 62
256
  6
BYLAYER
 49
-0.5
 62
256
  6
BYLAYER
  0
LAYOUT
  5
32F
102
{ACAD_REACTORS
330
1A
102
}
100
AcDbPlotSettings
  1

  2
none_device
  4

  6

 40
0.0
 41
0.0
 42
0.0
 43
0.0
 44
210.0
 45
297.0
 46
0.0
 47
0.0
 48
0.0
 49
0.0
140
0.0
141
0.0
142
1.0
143
1.0
 70
1024
 72
1
 73
0
 74
0
  7

 75
0
147
1.0
148
0.0
149
0.0
100
AcDbLayout
  1
Model
 70
0
 71
0
 10
0.0
 20
0.0
 11
210.0
 21
297.0
 12
0.0
 22
0.0
 32
0.0
 14
0.0
 24
0.0
 34
0.0
 15
0.0
 25
0.0
 35
0.0
146
0.0
 13
0.0
 23
0.0
 33
0.0
 16
1.0
 26
0.0
 36
0.0
 17
0.0
 27
1.0
 37
0.0
 76
0
330
213
345
0
346
0
  0
LAYOUT
  5
330
102
{ACAD_REACTORS
330
1A
102
}
100
AcDbPlotSettings
  1

  2
none_device
  4

  6

 40
0.0
 41
0.0
 42
0.0
 43
0.0
 44
210.0
 45
297.0
 46
0.0
 47
0.0
 48
0.0
 49
0.0
140
0.0
141
0.0
142
1.0
143
1.0
 70
0
 72
1
 73
0
 74
0
  7

 75
0
147
1.0
148
0.0
149
0.0
100
AcDbLayout
  1
Layout1
 70
0
 71
1
 10
0.0
 20
0.0
 11
210.0
 21
297.0
 12
0.0
 22
0.0
 32
0.0
 14
0.0
 24
0.0
 34
0.0
 15
0.0
 25
0.0
 35
0.0
146
0.0
 13
0.0
 23
0.0
 33
0.0
 16
1.0
 26
0.0
 36
0.0
 17
0.0
 27
1.0
 37
0.0
 76
0
330
214
345
0
346
0
  0
ENDSEC
  0
EOF
