  0
SECTION
  2
HEADER
  9
$ACADVER
  1
AC1012
  9
$DWGCODEPAGE
  3
ANSI_1252
  9
$INSBASE
 10
0.0
 20
0.0
 30
0.0
  9
$EXTMIN
 10
-7.265531928958238
 20
-5.516638739748369
 30
-1.756668450391018
  9
$EXTMAX
 10
-0.7514775879143167
 20
-1.014808108121304
 30
2.524281768967226
  9
$LIMMIN
 10
0.0
 20
0.0
  9
$LIMMAX
 10
12.0
 20
9.0
  9
$ORTHOMODE
 70
     0
  9
$REGENMODE
 70
     1
  9
$FILLMODE
 70
     1
  9
$QTEXTMODE
 70
     0
  9
$MIRRTEXT
 70
     1
  9
$DRAGMODE
 70
     2
  9
$LTSCALE
 40
0.2090522693554228
  9
$OSMODE
 70
   547
  9
$ATTMODE
 70
     1
  9
$TEXTSIZE
 40
0.2
  9
$TRACEWID
 40
0.05
  9
$TEXTSTYLE
  7
STANDARD
  9
$CLAYER
  8
0
  9
$CELTYPE
  6
BYLAYER
  9
$CECOLOR
 62
   256
  9
$CELTSCALE
 40
1.0
  9
$DELOBJ
 70
     1
  9
$DISPSILH
 70
     0
  9
$DIMSCALE
 40
1.0
  9
$DIMASZ
 40
0.18
  9
$DIMEXO
 40
0.0625
  9
$DIMDLI
 40
0.38
  9
$DIMRND
 40
0.0
  9
$DIMDLE
 40
0.0
  9
$DIMEXE
 40
0.18
  9
$DIMTP
 40
0.0
  9
$DIMTM
 40
0.0
  9
$DIMTXT
 40
0.18
  9
$DIMCEN
 40
0.09
  9
$DIMTSZ
 40
0.0
  9
$DIMTOL
 70
     0
  9
$DIMLIM
 70
     0
  9
$DIMTIH
 70
     1
  9
$DIMTOH
 70
     1
  9
$DIMSE1
 70
     0
  9
$DIMSE2
 70
     0
  9
$DIMTAD
 70
     0
  9
$DIMZIN
 70
     0
  9
$DIMBLK
  1

  9
$DIMASO
 70
     1
  9
$DIMSHO
 70
     1
  9
$DIMPOST
  1

  9
$DIMAPOST
  1

  9
$DIMALT
 70
     1
  9
$DIMALTD
 70
     1
  9
$DIMALTF
 40
25.4
  9
$DIMLFAC
 40
1.0
  9
$DIMTOFL
 70
     0
  9
$DIMTVP
 40
0.0
  9
$DIMTIX
 70
     0
  9
$DIMSOXD
 70
     0
  9
$DIMSAH
 70
     0
  9
$DIMBLK1
  1

  9
$DIMBLK2
  1

  9
$DIMSTYLE
  2
STANDARD
  9
$DIMCLRD
 70
     0
  9
$DIMCLRE
 70
     0
  9
$DIMCLRT
 70
     0
  9
$DIMTFAC
 40
1.0
  9
$DIMGAP
 40
0.09
  9
$DIMJUST
 70
     0
  9
$DIMSD1
 70
     0
  9
$DIMSD2
 70
     0
  9
$DIMTOLJ
 70
     1
  9
$DIMTZIN
 70
     0
  9
$DIMALTZ
 70
     0
  9
$DIMALTTZ
 70
     0
  9
$DIMFIT
 70
     3
  9
$DIMUPT
 70
     0
  9
$DIMUNIT
 70
     2
  9
$DIMDEC
 70
     4
  9
$DIMTDEC
 70
     4
  9
$DIMALTU
 70
     2
  9
$DIMALTTD
 70
     2
  9
$DIMTXSTY
  7
STANDARD
  9
$DIMAUNIT
 70
     0
  9
$LUNITS
 70
     2
  9
$LUPREC
 70
     4
  9
$SKETCHINC
 40
0.1
  9
$FILLETRAD
 40
0.0
  9
$AUNITS
 70
     0
  9
$AUPREC
 70
     0
  9
$MENU
  1
acad
  9
$ELEVATION
 40
0.0
  9
$PELEVATION
 40
0.0
  9
$THICKNESS
 40
0.0
  9
$LIMCHECK
 70
     0
  9
$BLIPMODE
 70
     0
  9
$CHAMFERA
 40
0.0
  9
$CHAMFERB
 40
0.0
  9
$CHAMFERC
 40
0.0
  9
$CHAMFERD
 40
0.0
  9
$SKPOLY
 70
     0
  9
$TDCREATE
 40
2450409.625372720
  9
$TDUPDATE
 40
2453944.472888946
  9
$TDINDWG
 40
0.0010637616
  9
$TDUSRTIMER
 40
0.0010633912
  9
$USRTIMER
 70
     1
  9
$ANGBASE
 50
0.0
  9
$ANGDIR
 70
     0
  9
$PDMODE
 70
     0
  9
$PDSIZE
 40
0.0
  9
$PLINEWID
 40
0.0
  9
$COORDS
 70
     1
  9
$SPLFRAME
 70
     0
  9
$SPLINETYPE
 70
     6
  9
$SPLINESEGS
 70
     8
  9
$ATTDIA
 70
     0
  9
$ATTREQ
 70
     1
  9
$HANDLING
 70
  4097
  9
$HANDSEED
  5
6B7
  9
$SURFTAB1
 70
     6
  9
$SURFTAB2
 70
     6
  9
$SURFTYPE
 70
     6
  9
$SURFU
 70
     6
  9
$SURFV
 70
     6
  9
$UCSNAME
  2

  9
$UCSORG
 10
0.0
 20
0.0
 30
0.0
  9
$UCSXDIR
 10
1.0
 20
0.0
 30
0.0
  9
$UCSYDIR
 10
0.0
 20
1.0
 30
0.0
  9
$PUCSNAME
  2

  9
$PUCSORG
 10
0.0
 20
0.0
 30
0.0
  9
$PUCSXDIR
 10
1.0
 20
0.0
 30
0.0
  9
$PUCSYDIR
 10
0.0
 20
1.0
 30
0.0
  9
$USERI1
 70
     0
  9
$USERI2
 70
     0
  9
$USERI3
 70
     0
  9
$USERI4
 70
     0
  9
$USERI5
 70
     0
  9
$USERR1
 40
0.0
  9
$USERR2
 40
0.0
  9
$USERR3
 40
0.0
  9
$USERR4
 40
0.0
  9
$USERR5
 40
0.0
  9
$WORLDVIEW
 70
     1
  9
$SHADEDGE
 70
     3
  9
$SHADEDIF
 70
    70
  9
$TILEMODE
 70
     1
  9
$MAXACTVP
 70
    16
  9
$PINSBASE
 10
0.0
 20
0.0
 30
0.0
  9
$PLIMCHECK
 70
     0
  9
$PEXTMIN
 10
1.000000000000000E+20
 20
1.000000000000000E+20
 30
1.000000000000000E+20
  9
$PEXTMAX
 10
-1.000000000000000E+20
 20
-1.000000000000000E+20
 30
-1.000000000000000E+20
  9
$PLIMMIN
 10
0.0
 20
0.0
  9
$PLIMMAX
 10
12.0
 20
9.0
  9
$UNITMODE
 70
     0
  9
$VISRETAIN
 70
     0
  9
$PLINEGEN
 70
     0
  9
$PSLTSCALE
 70
     1
  9
$TREEDEPTH
 70
  3020
  9
$PICKSTYLE
 70
     1
  9
$CMLSTYLE
  2
STANDARD
  9
$CMLJUST
 70
     0
  9
$CMLSCALE
 40
1.0
  9
$SAVEIMAGES
 70
     1
  0
ENDSEC
  0
SECTION
  2
CLASSES
  0
CLASS
  1
ACDBDICTIONARYWDFLT
  2
AcDbDictionaryWithDefault
  3
AutoCAD 2000
 90
    32768
280
     0
281
     0
  0
CLASS
  1
ACDBPLACEHOLDER
  2
AcDbPlaceHolder
  3
AutoCAD 2000
 90
    32768
280
     0
281
     0
  0
CLASS
  1
LAYOUT
  2
AcDbLayout
  3
AutoCAD 2000
 90
    32768
280
     0
281
     0
  0
CLASS
  1
LONG_TRANSACTION
  2
AcDbLongTransaction
  3
AutoCAD 2000
 90
    32768
280
     0
281
     0
  0
CLASS
  1
LWPOLYLINE
  2
AcDbPolyline
  3
AutoCAD 2000
 90
    32768
280
     0
281
     1
  0
CLASS
  1
HATCH
  2
AcDbHatch
  3
AutoCAD 2000
 90
    32768
280
     0
281
     1
  0
CLASS
  1
XRECORD
  2
AcDbXrecord
  3
AutoCAD 2000
 90
    32768
280
     0
281
     0
  0
CLASS
  1
LONG_TRANSACTION
  2
AcDbLongTransaction
  3
AutoCAD 2000
 90
    32768
280
     0
281
     0
  0
CLASS
  1
LWPOLYLINE
  2
AcDbPolyline
  3
AutoCAD 2000
 90
    32768
280
     0
281
     1
  0
CLASS
  1
HATCH
  2
AcDbHatch
  3
AutoCAD 2000
 90
    32768
280
     0
281
     1
  0
CLASS
  1
XRECORD
  2
AcDbXrecord
  3
AutoCAD 2000
 90
    32768
280
     0
281
     0
  0
ENDSEC
  0
SECTION
  2
TABLES
  0
TABLE
  2
VPORT
  5
630
330
0
100
AcDbSymbolTable
 70
     3
  0
VPORT
  5
6B4
330
630
100
AcDbSymbolTableRecord
100
AcDbViewportTableRecord
  2
*ACTIVE
 70
     0
 10
0.0
 20
0.0
 11
1.0
 21
1.0
 12
-3.289645527039561
 22
-3.649699123238635
 13
0.0
 23
0.0
 14
1.0
 24
1.0
 15
0.0
 25
0.0
 16
0.0
 26
0.0
 36
1.0
 17
-0.6775740426984429
 27
0.3841746715103959
 37
1.896148496731886
 40
4.53791935908386
 41
1.647569444444444
 42
50.0
 43
0.0
 44
0.0
 50
0.0
 51
0.0
 71
     0
 72
   100
 73
     1
 74
     1
 75
     0
 76
     0
 77
     0
 78
     0
  0
ENDTAB
  0
TABLE
  2
LTYPE
  5
62D
330
0
100
AcDbSymbolTable
 70
     1
  0
LTYPE
  5
63A
330
62D
100
AcDbSymbolTableRecord
100
AcDbLinetypeTableRecord
  2
BYBLOCK
 70
     0
  3

 72
    65
 73
     0
 40
0.0
  0
LTYPE
  5
63B
330
62D
100
AcDbSymbolTableRecord
100
AcDbLinetypeTableRecord
  2
BYLAYER
 70
     0
  3

 72
    65
 73
     0
 40
0.0
  0
LTYPE
  5
63C
330
62D
100
AcDbSymbolTableRecord
100
AcDbLinetypeTableRecord
  2
CONTINUOUS
 70
     0
  3
Solid line
 72
    65
 73
     0
 40
0.0
  0
ENDTAB
  0
TABLE
  2
LAYER
  5
62A
330
0
100
AcDbSymbolTable
 70
     5
  0
LAYER
  5
637
330
62A
100
AcDbSymbolTableRecord
100
AcDbLayerTableRecord
  2
0
 70
     0
 62
     7
  6
CONTINUOUS
  0
LAYER
  5
659
330
62A
100
AcDbSymbolTableRecord
100
AcDbLayerTableRecord
  2
IGES_FRZ
 70
     1
 62
     7
  6
CONTINUOUS
  0
LAYER
  5
65A
330
62A
100
AcDbSymbolTableRecord
100
AcDbLayerTableRecord
  2
1
 70
     0
 62
     7
  6
CONTINUOUS
  0
LAYER
  5
65B
330
62A
100
AcDbSymbolTableRecord
100
AcDbLayerTableRecord
  2
1_TOP
 70
     0
 62
     7
  6
CONTINUOUS
  0
LAYER
  5
65C
330
62A
100
AcDbSymbolTableRecord
100
AcDbLayerTableRecord
  2
DEFPOINTS
 70
     0
 62
     7
  6
CONTINUOUS
  0
ENDTAB
  0
TABLE
  2
STYLE
  5
62B
330
0
100
AcDbSymbolTable
 70
     1
  0
STYLE
  5
638
330
62B
100
AcDbSymbolTableRecord
100
AcDbTextStyleTableRecord
  2
STANDARD
 70
     0
 40
0.0
 41
1.0
 50
0.0
 71
     0
 42
0.2
  3
txt
  4

  0
ENDTAB
  0
TABLE
  2
VIEW
  5
62E
330
0
100
AcDbSymbolTable
 70
     7
  0
VIEW
  5
64F
330
62E
100
AcDbSymbolTableRecord
100
AcDbViewTableRecord
  2
FRONT
 70
     0
 40
4.612499999999998
 10
0.0
 20
0.0
 41
2.81875
 11
0.0
 21
-1.0
 31
0.0
 12
0.0
 22
0.0
 32
2.25
 42
50.0
 43
0.0
 44
0.0
 50
0.0
 71
    16
  0
VIEW
  5
650
330
62E
100
AcDbSymbolTableRecord
100
AcDbViewTableRecord
  2
RIGHT
 70
     0
 40
4.612499999999998
 10
0.0
 20
0.0
 41
0.858697418915257
 11
1.0
 21
0.0
 31
0.0
 12
0.0
 22
-0.1672630685585935
 32
2.25
 42
50.0
 43
0.0
 44
0.0
 50
0.0
 71
    16
  0
VIEW
  5
651
330
62E
100
AcDbSymbolTableRecord
100
AcDbViewTableRecord
  2
BACK
 70
     0
 40
4.612499999999998
 10
0.0
 20
0.0
 41
2.81875
 11
0.0
 21
1.0
 31
0.0
 12
0.0
 22
0.0
 32
2.25
 42
50.0
 43
0.0
 44
0.0
 50
0.0
 71
    16
  0
VIEW
  5
652
330
62E
100
AcDbSymbolTableRecord
100
AcDbViewTableRecord
  2
BOTTOM
 70
     0
 40
0.858697418915257
 10
0.0
 20
0.0
 41
2.81875
 11
0.0
 21
0.0
 31
-1.0
 12
0.0
 22
-0.1672630685585935
 32
0.0
 42
50.0
 43
0.0
 44
0.0
 50
180.0
 71
    16
  0
VIEW
  5
653
330
62E
100
AcDbSymbolTableRecord
100
AcDbViewTableRecord
  2
LEFT
 70
     0
 40
4.612499999999998
 10
0.0
 20
0.0
 41
0.858697418915257
 11
-1.0
 21
0.0
 31
0.0
 12
0.0
 22
-0.1672630685585935
 32
2.25
 42
50.0
 43
0.0
 44
0.0
 50
0.0
 71
    16
  0
VIEW
  5
654
330
62E
100
AcDbSymbolTableRecord
100
AcDbViewTableRecord
  2
TFR-ISO
 70
     0
 40
5.267402101572034
 10
0.0
 20
0.0
 41
2.600348007371941
 11
0.577350269189626
 21
-0.577350269189626
 31
0.577350269189626
 12
-0.8057543561861953
 22
0.6384912876276047
 32
1.444245643813798
 42
50.0
 43
0.0
 44
0.0
 50
0.0
 71
    16
  0
VIEW
  5
655
330
62E
100
AcDbSymbolTableRecord
100
AcDbViewTableRecord
  2
TFR-TRI
 70
     0
 40
5.299361098928472
 10
-0.0000000000000003
 20
0.0
 41
2.445258392150069
 11
0.7188730927569429
 21
-0.5850486126764432
 31
0.3754192287502549
 12
-0.6775740426984429
 22
0.3841746715103959
 32
1.896148496731886
 42
50.0
 43
0.0
 44
0.0
 50
0.0000000000000095
 71
    16
  0
ENDTAB
  0
TABLE
  2
UCS
  5
62F
330
0
100
AcDbSymbolTable
 70
     0
  0
ENDTAB
  0
TABLE
  2
APPID
  5
631
330
0
100
AcDbSymbolTable
 70
     2
  0
APPID
  5
639
330
631
100
AcDbSymbolTableRecord
100
AcDbRegAppTableRecord
  2
ACAD
 70
     0
  0
APPID
  5
657
330
631
100
AcDbSymbolTableRecord
100
AcDbRegAppTableRecord
  2
ACADIGES
 70
     0
  0
ENDTAB
  0
TABLE
  2
DIMSTYLE
  5
632
330
0
100
AcDbSymbolTable
 70
     1
  0
DIMSTYLE
105
658
330
632
100
AcDbSymbolTableRecord
100
AcDbDimStyleTableRecord
  2
STANDARD
 70
     0
  3

  4

  5

  6

  7

 40
1.0
 41
0.18
 42
0.0625
 43
0.38
 44
0.18
 45
0.0
 46
0.0
 47
0.0
 48
0.0
140
0.18
141
0.09
142
0.0
143
25.4
144
1.0
145
0.0
146
1.0
147
0.09
 71
     0
 72
     0
 73
     1
 74
     1
 75
     0
 76
     0
 77
     0
 78
     0
170
     0
171
     2
172
     0
173
     0
174
     0
175
     0
176
     0
177
     0
178
     0
270
     2
271
     4
272
     4
273
     2
274
     2
340
638
275
     0
280
     0
281
     0
282
     0
283
     1
284
     0
285
     0
286
     0
287
     5
288
     0
  0
ENDTAB
  0
TABLE
  2
BLOCK_RECORD
  5
629
330
0
100
AcDbSymbolTable
 70
     6
  0
BLOCK_RECORD
  5
640
102
{ACAD_XDICTIONARY
360
69A
102
}
330
629
100
AcDbSymbolTableRecord
100
AcDbBlockTableRecord
  2
*MODEL_SPACE
  0
BLOCK_RECORD
  5
63D
102
{ACAD_XDICTIONARY
360
698
102
}
330
629
100
AcDbSymbolTableRecord
100
AcDbBlockTableRecord
  2
*PAPER_SPACE
  0
BLOCK_RECORD
  5
644
330
629
100
AcDbSymbolTableRecord
100
AcDbBlockTableRecord
  2
DVIEWBLOCK
  0
BLOCK_RECORD
  5
649
330
629
100
AcDbSymbolTableRecord
100
AcDbBlockTableRecord
  2
NOTES
  0
ENDTAB
  0
ENDSEC
  0
SECTION
  2
BLOCKS
  0
BLOCK
  5
65F
330
640
100
AcDbEntity
  8
0
100
AcDbBlockBegin
  2
*MODEL_SPACE
 70
     0
 10
0.0
 20
0.0
 30
0.0
  3
*MODEL_SPACE
  1

  0
ENDBLK
  5
660
330
640
100
AcDbEntity
  8
0
100
AcDbBlockEnd
  0
BLOCK
  5
65D
330
63D
100
AcDbEntity
 67
     1
  8
0
100
AcDbBlockBegin
  2
*PAPER_SPACE
 70
     0
 10
0.0
 20
0.0
 30
0.0
  3
*PAPER_SPACE
  1

  0
ENDBLK
  5
65E
330
63D
100
AcDbEntity
 67
     1
  8
0
100
AcDbBlockEnd
  0
BLOCK
  5
370
330
644
100
AcDbEntity
  8
0
100
AcDbBlockBegin
  2
DVIEWBLOCK
 70
     0
 10
0.0
 20
0.0
 30
0.0
  3
DVIEWBLOCK
  1

  0
3DFACE
  5
371
330
644
100
AcDbEntity
  8
IGES_FRZ
 62
     4
100
AcDbFace
 10
0.1
 20
0.1
 30
0.0
 11
0.9
 21
0.1
 31
0.0
 12
0.9
 22
0.9
 32
0.0
 13
0.1
 23
0.9
 33
0.0
  0
3DFACE
  5
372
330
644
100
AcDbEntity
  8
IGES_FRZ
 62
     4
100
AcDbFace
 10
0.1
 20
0.1
 30
0.0
 11
0.1
 21
0.1
 31
0.595
 12
0.2
 22
0.1
 32
0.4
 13
0.2
 23
0.1
 33
0.0
 70
    10
  0
3DFACE
  5
373
330
644
100
AcDbEntity
  8
IGES_FRZ
 62
     4
100
AcDbFace
 10
0.2
 20
0.1
 30
0.4
 11
0.1
 21
0.1
 31
0.595
 12
0.9
 22
0.1
 32
0.595
 13
0.4
 23
0.1
 33
0.4
 70
     5
  0
3DFACE
  5
374
330
644
100
AcDbEntity
  8
IGES_FRZ
 62
     4
100
AcDbFace
 10
0.4
 20
0.1
 30
0.0
 11
0.4
 21
0.1
 31
0.4
 12
0.9
 22
0.1
 32
0.595
 13
0.9
 23
0.1
 33
0.0
 70
    14
  0
3DFACE
  5
375
330
644
100
AcDbEntity
  8
IGES_FRZ
 62
     7
100
AcDbFace
 10
0.2
 20
0.1
 30
0.005
 11
0.2
 21
0.1
 31
0.4
 12
0.34
 22
0.24
 32
0.4
 13
0.34
 23
0.24
 33
0.005
 70
     1
  0
3DFACE
  5
376
330
644
100
AcDbEntity
  8
IGES_FRZ
 62
     4
100
AcDbFace
 10
0.9
 20
0.1
 30
0.0
 11
0.9
 21
0.1
 31
0.595
 12
0.9
 22
0.5
 32
0.9949999999999999
 13
0.9
 23
0.3
 33
0.4
 70
    12
  0
3DFACE
  5
377
330
644
100
AcDbEntity
  8
IGES_FRZ
 62
     4
100
AcDbFace
 10
0.9
 20
0.3
 30
0.4
 11
0.9
 21
0.5
 31
0.9949999999999999
 12
0.9
 22
0.9
 32
0.595
 13
0.9
 23
0.7000000000000001
 33
0.4
 70
     5
  0
3DFACE
  5
378
330
644
100
AcDbEntity
  8
IGES_FRZ
 62
     4
100
AcDbFace
 10
0.9
 20
0.7000000000000001
 30
0.4
 11
0.9
 21
0.9
 31
0.595
 12
0.9
 22
0.9
 32
0.0
 13
0.9
 23
0.7000000000000001
 33
0.2
 70
     7
  0
3DFACE
  5
379
330
644
100
AcDbEntity
  8
IGES_FRZ
 62
     4
100
AcDbFace
 10
0.9
 20
0.7000000000000001
 30
0.2
 11
0.9
 21
0.9
 31
0.0
 12
0.9
 22
0.1
 32
0.0
 13
0.9
 23
0.3
 33
0.2
 70
     7
  0
3DFACE
  5
37A
330
644
100
AcDbEntity
  8
IGES_FRZ
 62
     4
100
AcDbFace
 10
0.9
 20
0.3
 30
0.2
 11
0.9
 21
0.3
 31
0.2
 12
0.9
 22
0.1
 32
0.0
 13
0.9
 23
0.3
 33
0.4
 70
     7
  0
3DFACE
  5
37B
330
644
100
AcDbEntity
  8
IGES_FRZ
 62
     4
100
AcDbFace
 10
0.9
 20
0.9
 30
0.0
 11
0.9
 21
0.9
 31
0.595
 12
0.1
 22
0.9
 32
0.595
 13
0.1
 23
0.9
 33
0.0
 70
    12
  0
3DFACE
  5
37C
330
644
100
AcDbEntity
  8
IGES_FRZ
 62
     4
100
AcDbFace
 10
0.1
 20
0.9
 30
0.0
 11
0.1
 21
0.9
 31
0.595
 12
0.1
 22
0.5
 32
0.9949999999999999
 13
0.1
 23
0.5
 33
0.0
 70
    12
  0
3DFACE
  5
37D
330
644
100
AcDbEntity
  8
IGES_FRZ
 62
     4
100
AcDbFace
 10
0.1
 20
0.5
 30
0.0
 11
0.1
 21
0.5
 31
0.9949999999999999
 12
0.1
 22
0.1
 32
0.595
 13
0.1
 23
0.1
 33
0.0
 70
    13
  0
3DFACE
  5
37E
330
644
100
AcDbEntity
  8
IGES_FRZ
 62
     1
100
AcDbFace
 10
0.2
 20
0.6
 30
0.9
 11
0.2
 21
0.6
 31
1.0
 12
0.3
 22
0.6
 32
1.0
 13
0.3
 23
0.6
 33
0.9
 70
     4
  0
3DFACE
  5
37F
330
644
100
AcDbEntity
  8
IGES_FRZ
 62
     1
100
AcDbFace
 10
0.3
 20
0.6
 30
0.9
 11
0.3
 21
0.6
 31
1.0
 12
0.3
 22
0.7000000000000001
 32
1.0
 13
0.3
 23
0.7000000000000001
 33
0.8
 70
     4
  0
3DFACE
  5
380
330
644
100
AcDbEntity
  8
IGES_FRZ
 62
     1
100
AcDbFace
 10
0.3
 20
0.7000000000000001
 30
0.8
 11
0.3
 21
0.7000000000000001
 31
1.0
 12
0.2
 22
0.7000000000000001
 32
1.0
 13
0.2
 23
0.7000000000000001
 33
0.8
 70
     4
  0
3DFACE
  5
381
330
644
100
AcDbEntity
  8
IGES_FRZ
 62
     1
100
AcDbFace
 10
0.2
 20
0.7000000000000001
 30
0.8
 11
0.2
 21
0.7000000000000001
 31
1.0
 12
0.2
 22
0.6
 32
1.0
 13
0.2
 23
0.6
 33
0.9
 70
     4
  0
3DFACE
  5
382
330
644
100
AcDbEntity
  8
IGES_FRZ
 62
     4
100
AcDbFace
 10
0.0
 20
0.0
 30
0.5
 11
1.0
 21
0.0
 31
0.5
 12
1.0
 22
0.5
 32
1.0
 13
0.0
 23
0.5
 33
1.0
  0
3DFACE
  5
383
330
644
100
AcDbEntity
  8
IGES_FRZ
 62
     4
100
AcDbFace
 10
0.0
 20
0.5
 30
1.0
 11
1.0
 21
0.5
 31
1.0
 12
1.0
 22
1.0
 32
0.5
 13
0.0
 23
1.0
 33
0.5
 70
     1
  0
ENDBLK
  5
384
330
644
100
AcDbEntity
  8
0
100
AcDbBlockEnd
  0
BLOCK
  5
3D6
330
649
100
AcDbEntity
  8
0
100
AcDbBlockBegin
  2
NOTES
 70
     0
 10
0.0
 20
0.0
 30
0.0
  3
NOTES
  1

  0
TEXT
  5
3D3
330
649
100
AcDbEntity
  8
0
  6
CONTINUOUS
100
AcDbText
 10
0.0684721909189179
 20
-1.719478924633133
 30
0.0
 40
0.18
  1
USE OF THIS DRAWING IS SUBECT
100
AcDbText
  0
TEXT
  5
625
330
649
100
AcDbEntity
  8
0
  6
CONTINUOUS
100
AcDbText
 10
0.0684721909189179
 20
-2.019478924633133
 30
0.0
 40
0.18
  1
TO THE TERMS OF THE PANDUIT 
100
AcDbText
1001
ACAD
1000
R13OBJECT
1002
{
1005
3D3
1002
}
  0
TEXT
  5
626
330
649
100
AcDbEntity
  8
0
  6
CONTINUOUS
100
AcDbText
 10
0.0684721909189179
 20
-2.319478924633133
 30
0.0
 40
0.18
  1
PAN-CAD  SOFTWARE LICENSE AGREEMENT.
100
AcDbText
1001
ACAD
1000
R13OBJECT
1002
{
1005
3D3
1002
}
  0
TEXT
  5
3D4
330
649
100
AcDbEntity
  8
0
  6
CONTINUOUS
100
AcDbText
 10
0.0684721909189179
 20
-0.2342106407305138
 30
0.0
 40
0.2
  1
CBX6**-A
100
AcDbText
  0
TEXT
  5
627
330
649
100
AcDbEntity
  8
0
  6
CONTINUOUS
100
AcDbText
 10
0.0684721909189179
 20
-0.5675439740638472
 30
0.0
 40
0.2
  1
MINI-COM 6 POSITION BOX
100
AcDbText
1001
ACAD
1000
R13OBJECT
1002
{
1005
3D4
1002
}
  0
TEXT
  5
628
330
649
100
AcDbEntity
  8
0
  6
CONTINUOUS
100
AcDbText
 10
0.0684721909189179
 20
-0.9008773073971806
 30
0.0
 40
0.2
  1
LATEST ISSUE:  10-16-96
100
AcDbText
1001
ACAD
1000
R13OBJECT
1002
{
1005
3D4
1002
}
  0
TEXT
  5
3D5
330
649
100
AcDbEntity
  8
0
  6
CONTINUOUS
100
AcDbText
 10
1.35232625226942
 20
-2.232638581470858
 30
0.0
 40
0.1
  1
TM
100
AcDbText
  0
ENDBLK
  5
3D7
330
649
100
AcDbEntity
  8
0
100
AcDbBlockEnd
  0
ENDSEC
  0
SECTION
  2
ENTITIES
  0
LINE
  5
102
330
640
100
AcDbEntity
  8
1_TOP
  6
CONTINUOUS
 62
     7
100
AcDbLine
 10
-1.308054497553714
 20
-5.462256330301547
 30
0.0097959753214707
 11
-1.002336266520903
 21
-5.483634231550686
 31
0.0311738765706009
  0
LINE
  5
104
330
640
100
AcDbEntity
  8
1_TOP
  6
CONTINUOUS
 62
     7
100
AcDbLine
 10
-1.002336266520903
 20
-5.483634231550686
 30
0.0311738765706009
 11
-1.002336266520903
 21
-2.24457081772817
 31
0.0311738765706009
  0
LINE
  5
105
330
640
100
AcDbEntity
  8
1_TOP
  6
CONTINUOUS
 62
     7
100
AcDbLine
 10
-1.002336266520903
 20
-2.859918367773116
 30
-0.0618261234293995
 11
-1.002336266520903
 21
-1.014808108121305
 31
-0.0618261234293995
  0
LINE
  5
106
330
640
100
AcDbEntity
  8
1_TOP
  6
CONTINUOUS
 62
     7
100
AcDbLine
 10
-1.002336266520903
 20
-5.514808108121306
 30
-0.0000000000000195
 11
-1.308054497553714
 21
-5.493430206872167
 31
-0.0213779012491497
  0
LINE
  5
107
330
640
100
AcDbEntity
  8
1_TOP
  6
CONTINUOUS
 62
     7
100
AcDbLine
 10
-1.308054497553732
 20
-1.036186009370442
 30
-0.0213779012491497
 11
-1.002336266520903
 21
-1.014808108121304
 31
-0.0000000000000195
  0
LINE
  5
108
330
640
100
AcDbEntity
  8
1_TOP
  6
CONTINUOUS
 62
     7
100
AcDbLine
 10
-0.8988690871428776
 20
-2.405193446675716
 30
-1.129392911550789
 11
-0.898869087142879
 21
-2.405193446675716
 31
-0.923259335308009
  0
LINE
  5
109
330
640
100
AcDbEntity
  8
1_TOP
  6
CONTINUOUS
 62
     7
100
AcDbLine
 10
-0.898869087142879
 20
-2.405193446675716
 30
-0.923259335308009
 11
-0.8988835473809931
 21
-2.405193446675716
 31
-0.9232585774790395
  0
LINE
  5
10A
330
640
100
AcDbEntity
  8
1_TOP
  6
CONTINUOUS
 62
     7
100
AcDbLine
 10
-0.8863797009996069
 20
-2.365336160794355
 30
-1.128738370558409
 11
-0.8863797009996069
 21
-2.365336160794355
 31
-0.9239138763003895
  0
LINE
  5
10B
330
640
100
AcDbEntity
  8
1_TOP
  6
CONTINUOUS
 62
     7
100
AcDbLine
 10
-0.8863797009996057
 20
-2.344387402648545
 30
-1.128738370558409
 11
-0.8863797009996057
 21
-2.344387402648545
 31
-0.9239138763003895
  0
LINE
  5
10C
330
640
100
AcDbEntity
  8
1_TOP
  6
CONTINUOUS
 62
     7
100
AcDbLine
 10
-0.8912488162580668
 20
-2.339389116023665
 30
-1.128993550076178
 11
-0.8912488162580668
 21
-2.339389116023665
 31
-0.9236586967826195
  0
LINE
  5
10D
330
640
100
AcDbEntity
  8
1_TOP
  6
CONTINUOUS
 62
     7
100
AcDbLine
 10
-0.8988835473809931
 20
-2.405193446675716
 30
-1.129393669379749
 11
-0.8988835473809931
 21
-2.405193446675716
 31
-0.9232585774790395
  0
LINE
  5
10E
330
640
100
AcDbEntity
  8
1_TOP
  6
CONTINUOUS
 62
     7
100
AcDbLine
 10
-0.8977269055785029
 20
-2.401995228771066
 30
-1.129333052351458
 11
-0.8977269055785036
 21
-2.401995228771066
 31
-0.9233191945073391
  0
LINE
  5
10F
330
640
100
AcDbEntity
  8
1_TOP
  6
CONTINUOUS
 62
     7
100
AcDbLine
 10
-0.8863797009996069
 20
-2.365336160794355
 30
-1.128738370558409
 11
-0.8863797009996057
 21
-2.344387402648545
 31
-1.128738370558409
  0
LINE
  5
110
330
640
100
AcDbEntity
  8
1_TOP
  6
CONTINUOUS
 62
     7
100
AcDbLine
 10
-0.8988690871428776
 20
-2.405193446675716
 30
-1.129392911550789
 11
-0.8988835473809931
 21
-2.405193446675716
 31
-1.129393669379749
  0
LINE
  5
111
330
640
100
AcDbEntity
  8
1_TOP
  6
CONTINUOUS
 62
     7
100
AcDbLine
 10
-0.8863797009996069
 20
-2.365336160794355
 30
-0.9239138763003895
 11
-0.8863797009996057
 21
-2.344387402648545
 31
-0.9239138763003895
  0
LINE
  5
112
330
640
100
AcDbEntity
  8
1_TOP
  6
CONTINUOUS
 62
     7
100
AcDbLine
 10
-0.8912488162580668
 20
-2.339389116023665
 30
-0.9236586967826195
 11
-1.002336266520903
 21
-2.336480188763767
 31
-0.9178368502081294
  0
LINE
  5
113
330
640
100
AcDbEntity
  8
1_TOP
  6
CONTINUOUS
 62
     7
100
AcDbLine
 10
-1.002336266520903
 20
-2.265377806839565
 30
-0.9815269332173194
 11
-0.7653332421985441
 21
-2.281950672751396
 31
-0.9773900300395895
  0
LINE
  5
114
330
640
100
AcDbEntity
  8
1_TOP
  6
CONTINUOUS
 62
     7
100
AcDbLine
 10
-1.002336266520903
 20
-2.265377806839565
 30
-0.9346860640687495
 11
-0.8063797009996067
 21
-2.279080424745866
 31
-0.9381064986430294
  0
LINE
  5
115
330
640
100
AcDbEntity
  8
1_TOP
  6
CONTINUOUS
 62
     7
100
AcDbLine
 10
-0.8063797009996067
 20
-2.279080424745866
 30
-0.9781064986430294
 11
-0.8063797009996067
 21
-2.267598586495855
 31
-0.9781064986430294
  0
LINE
  5
116
330
640
100
AcDbEntity
  8
1_TOP
  6
CONTINUOUS
 62
     7
100
AcDbLine
 10
-1.002336266520903
 20
-2.24457081772817
 30
-0.9815269332173194
 11
-0.8156821362621649
 21
-2.257622945993253
 31
-0.9782688732545295
  0
LINE
  5
117
330
640
100
AcDbEntity
  8
1_TOP
  6
CONTINUOUS
 62
     7
100
AcDbLine
 10
-1.002336266520903
 20
-2.24457081772817
 30
-0.9346860640687495
 11
-0.8156821362621649
 21
-2.257622945993253
 31
-0.9379441240315294
  0
LINE
  5
118
330
640
100
AcDbEntity
  8
1_TOP
  6
CONTINUOUS
 62
     7
100
AcDbLine
 10
-0.8156821362621649
 20
-2.257622945993253
 30
-0.9379441240315294
 11
-0.8156821362621649
 21
-2.257622945993253
 31
-0.9782688732545295
  0
LINE
  5
119
330
640
100
AcDbEntity
  8
1_TOP
  6
CONTINUOUS
 62
     7
100
AcDbLine
 10
-0.8063797009996067
 20
-2.267598586495855
 30
-0.9381064986430294
 11
-0.8063797009996067
 21
-2.267598586495855
 31
-0.9781064986430294
  0
LINE
  5
11A
330
640
100
AcDbEntity
  8
1_TOP
  6
CONTINUOUS
 62
     7
100
AcDbLine
 10
-0.8063797009996067
 20
-2.279080424745866
 30
-0.9381064986430294
 11
-0.8063797009996067
 21
-2.267598586495855
 31
-0.9381064986430294
  0
LINE
  5
11B
330
640
100
AcDbEntity
  8
1_TOP
  6
CONTINUOUS
 62
     7
100
AcDbLine
 10
-0.8063797009996067
 20
-2.279080424745866
 30
-0.9381064986430294
 11
-0.8063797009996067
 21
-2.279080424745866
 31
-0.9781064986430294
  0
LINE
  5
11C
330
640
100
AcDbEntity
  8
1_TOP
  6
CONTINUOUS
 62
     7
100
AcDbLine
 10
-0.8063797009996067
 20
-2.279080424745866
 30
-1.074545748215768
 11
-0.8063797009996067
 21
-2.267598586495855
 31
-1.074545748215768
  0
LINE
  5
11D
330
640
100
AcDbEntity
  8
1_TOP
  6
CONTINUOUS
 62
     7
100
AcDbLine
 10
-1.002336266520903
 20
-2.24457081772817
 30
-1.071125313641479
 11
-0.8156821362621649
 21
-2.257622945993253
 31
-1.074383373604268
  0
LINE
  5
11E
330
640
100
AcDbEntity
  8
1_TOP
  6
CONTINUOUS
 62
     7
100
AcDbLine
 10
-0.8156821362621649
 20
-2.257622945993253
 30
-1.114708122827259
 11
-0.8156821362621649
 21
-2.257622945993253
 31
-1.074383373604268
  0
LINE
  5
11F
330
640
100
AcDbEntity
  8
1_TOP
  6
CONTINUOUS
 62
     7
100
AcDbLine
 10
-0.8063797009996067
 20
-2.267598586495855
 30
-1.114545748215769
 11
-0.8063797009996067
 21
-2.267598586495855
 31
-1.074545748215768
  0
LINE
  5
120
330
640
100
AcDbEntity
  8
1_TOP
  6
CONTINUOUS
 62
     7
100
AcDbLine
 10
-0.8063797009996067
 20
-2.279080424745866
 30
-1.114545748215769
 11
-0.8063797009996067
 21
-2.267598586495855
 31
-1.114545748215769
  0
LINE
  5
121
330
640
100
AcDbEntity
  8
1_TOP
  6
CONTINUOUS
 62
     7
100
AcDbLine
 10
-0.8063797009996067
 20
-2.279080424745866
 30
-1.074545748215768
 11
-1.002336266520903
 21
-2.265377806839565
 31
-1.071125313641479
  0
LINE
  5
122
330
640
100
AcDbEntity
  8
1_TOP
  6
CONTINUOUS
 62
     7
100
AcDbLine
 10
-0.8063797009996067
 20
-2.279080424745866
 30
-1.074545748215768
 11
-0.8063797009996067
 21
-2.279080424745866
 31
-1.114545748215769
  0
LINE
  5
123
330
640
100
AcDbEntity
  8
1_TOP
  6
CONTINUOUS
 62
     7
100
AcDbLine
 10
-0.8567387724865337
 20
-2.411648970764247
 30
-0.9254672915396492
 11
-0.7697178114867369
 21
-2.340450002673506
 31
-0.9300278668567194
  0
LINE
  5
124
330
640
100
AcDbEntity
  8
1_TOP
  6
CONTINUOUS
 62
     7
100
AcDbLine
 10
-0.8988835473809931
 20
-2.415336160794356
 30
-0.9232585774790395
 11
-0.8567387724865337
 21
-2.411648970764247
 31
-0.9254672915396492
  0
LINE
  5
125
330
640
100
AcDbEntity
  8
1_TOP
  6
CONTINUOUS
 62
     7
100
AcDbLine
 10
-0.8988835473809931
 20
-2.415336160794356
 30
-0.9232585774790395
 11
-0.8988835473809931
 21
-2.405573437837037
 31
-0.9232585774790395
  0
LINE
  5
126
330
640
100
AcDbEntity
  8
1_TOP
  6
CONTINUOUS
 62
     7
100
AcDbLine
 10
-0.8988835473809931
 20
-2.415336160794356
 30
-1.129393669379749
 11
-0.8988835473809931
 21
-2.405573437837037
 31
-1.129393669379749
  0
LINE
  5
127
330
640
100
AcDbEntity
  8
1_TOP
  6
CONTINUOUS
 62
     7
100
AcDbLine
 10
-0.8988835473809931
 20
-2.415336160794356
 30
-1.129393669379749
 11
-0.8567387724865337
 21
-2.411648970764247
 31
-1.127184955319149
  0
LINE
  5
128
330
640
100
AcDbEntity
  8
1_TOP
  6
CONTINUOUS
 62
     7
100
AcDbLine
 10
-0.8567387724865337
 20
-2.411648970764247
 30
-1.127184955319149
 11
-0.7697178114867369
 21
-2.340450002673506
 31
-1.122624380002079
  0
LINE
  5
129
330
640
100
AcDbEntity
  8
1_TOP
  6
CONTINUOUS
 62
     7
100
AcDbLine
 10
-0.7653333538934352
 20
-2.281950664940926
 30
-1.122394600316249
 11
-0.7653333538934352
 21
-2.281950664940926
 31
-0.9302576465425495
  0
LINE
  5
12A
330
640
100
AcDbEntity
  8
1_TOP
  6
CONTINUOUS
 62
     7
100
AcDbLine
 10
-0.7514775879143221
 20
-2.298624980917717
 30
-1.121668450391019
 11
-0.7514775879143221
 21
-2.298624980917717
 31
-0.9309837964677791
  0
LINE
  5
12B
330
640
100
AcDbEntity
  8
1_TOP
  6
CONTINUOUS
 62
     7
100
AcDbLine
 10
-0.7697178114867369
 20
-2.340450002673506
 30
-1.122624380002079
 11
-0.7697178114867369
 21
-2.340450002673506
 31
-0.9300278668567194
  0
LINE
  5
12C
330
640
100
AcDbEntity
  8
1_TOP
  6
CONTINUOUS
 62
     7
100
AcDbLine
 10
-0.8567387724865337
 20
-2.411648970764247
 30
-1.127184955319149
 11
-0.8567387724865337
 21
-2.411648970764247
 31
-0.9254672915396492
  0
LINE
  5
12D
330
640
100
AcDbEntity
  8
1_TOP
  6
CONTINUOUS
 62
     7
100
AcDbLine
 10
-0.8988835473809931
 20
-2.415336160794356
 30
-1.129393669379749
 11
-0.8988835473809931
 21
-2.415336160794356
 31
-0.9232585774790395
  0
LINE
  5
12E
330
640
100
AcDbEntity
  8
1_TOP
  6
CONTINUOUS
 62
     7
100
AcDbLine
 10
-0.8988835473809931
 20
-2.405573437837037
 30
-1.129393669379749
 11
-0.8988835473809931
 21
-2.405573437837037
 31
-0.9232585774790395
  0
LINE
  5
12F
330
640
100
AcDbEntity
  8
1_TOP
  6
CONTINUOUS
 62
     7
100
AcDbLine
 10
-0.7514775879143221
 20
-2.298624980917717
 30
-1.565983796467778
 11
-0.7514775879143209
 21
-2.298624980917717
 31
-1.756668450391016
  0
LINE
  5
130
330
640
100
AcDbEntity
  8
1_TOP
  6
CONTINUOUS
 62
     7
100
AcDbLine
 10
-0.8567387724865337
 20
-2.411648970764247
 30
-1.560467291539645
 11
-0.7697178114867369
 21
-2.340450002673506
 31
-1.565027866856721
  0
LINE
  5
131
330
640
100
AcDbEntity
  8
1_TOP
  6
CONTINUOUS
 62
     7
100
AcDbLine
 10
-0.8988835473809938
 20
-2.415336160794356
 30
-1.558258577479043
 11
-0.8567387724865337
 21
-2.411648970764247
 31
-1.560467291539645
  0
LINE
  5
132
330
640
100
AcDbEntity
  8
1_TOP
  6
CONTINUOUS
 62
     7
100
AcDbLine
 10
-0.8988835473809938
 20
-2.415336160794356
 30
-1.558258577479043
 11
-0.8988835473809931
 21
-2.405573437837037
 31
-1.558258577479043
  0
LINE
  5
133
330
640
100
AcDbEntity
  8
1_TOP
  6
CONTINUOUS
 62
     7
100
AcDbLine
 10
-0.8063797009996067
 20
-2.279080424745866
 30
-1.613106498643031
 11
-0.8063797009996067
 21
-2.279080424745866
 31
-1.573106498643031
  0
LINE
  5
134
330
640
100
AcDbEntity
  8
1_TOP
  6
CONTINUOUS
 62
     7
100
AcDbLine
 10
-0.8063797009996067
 20
-2.279080424745866
 30
-1.573106498643031
 11
-0.8063797009996067
 21
-2.267598586495855
 31
-1.573106498643032
  0
LINE
  5
135
330
640
100
AcDbEntity
  8
1_TOP
  6
CONTINUOUS
 62
     7
100
AcDbLine
 10
-0.8063797009996067
 20
-2.267598586495855
 30
-1.573106498643032
 11
-0.8063797009996056
 21
-2.267598586495855
 31
-1.613106498643031
  0
LINE
  5
136
330
640
100
AcDbEntity
  8
1_TOP
  6
CONTINUOUS
 62
     7
100
AcDbLine
 10
-0.8156821362621649
 20
-2.257622945993253
 30
-1.572944124031533
 11
-0.8156821362621649
 21
-2.257622945993253
 31
-1.613268873254531
  0
LINE
  5
137
330
640
100
AcDbEntity
  8
1_TOP
  6
CONTINUOUS
 62
     7
100
AcDbLine
 10
-0.8063797009996067
 20
-2.279080424745866
 30
-1.613106498643031
 11
-0.8063797009996056
 21
-2.267598586495855
 31
-1.613106498643031
  0
LINE
  5
138
330
640
100
AcDbEntity
  8
1_TOP
  6
CONTINUOUS
 62
     7
100
AcDbLine
 10
-0.8988690871428776
 20
-2.405193446675716
 30
-1.558259335308011
 11
-0.8988835473809938
 21
-2.405193446675716
 31
-1.558258577479043
  0
LINE
  5
139
330
640
100
AcDbEntity
  8
1_TOP
  6
CONTINUOUS
 62
     7
100
AcDbLine
 10
-0.8863797009996069
 20
-2.365336160794355
 30
-1.558913876300389
 11
-0.8863797009996057
 21
-2.344387402648545
 31
-1.558913876300389
  0
LINE
  5
13A
330
640
100
AcDbEntity
  8
1_TOP
  6
CONTINUOUS
 62
     7
100
AcDbLine
 10
-0.8988835473809931
 20
-3.556038049118606
 30
-1.129393669379749
 11
-0.8988835473809931
 21
-3.556038049118606
 31
-0.9232585774790395
  0
LINE
  5
13B
330
640
100
AcDbEntity
  8
1_TOP
  6
CONTINUOUS
 62
     7
100
AcDbLine
 10
-0.8988835473809931
 20
-3.565800772075926
 30
-1.129393669379749
 11
-0.8988835473809931
 21
-3.565800772075926
 31
-0.9232585774790395
  0
LINE
  5
13C
330
640
100
AcDbEntity
  8
1_TOP
  6
CONTINUOUS
 62
     7
100
AcDbLine
 10
-0.8567387724865337
 20
-3.562113582045806
 30
-1.127184955319149
 11
-0.8567387724865337
 21
-3.562113582045806
 31
-0.9254672915396492
  0
LINE
  5
13D
330
640
100
AcDbEntity
  8
1_TOP
  6
CONTINUOUS
 62
     7
100
AcDbLine
 10
-0.7697178114867369
 20
-3.490914613955077
 30
-1.122624380002079
 11
-0.7697178114867369
 21
-3.490914613955077
 31
-0.9300278668567194
  0
LINE
  5
13E
330
640
100
AcDbEntity
  8
1_TOP
  6
CONTINUOUS
 62
     7
100
AcDbLine
 10
-0.7514775879143221
 20
-3.449089592199286
 30
-1.121668450391019
 11
-0.7514775879143221
 21
-3.449089592199286
 31
-0.9309837964677791
  0
LINE
  5
13F
330
640
100
AcDbEntity
  8
1_TOP
  6
CONTINUOUS
 62
     7
100
AcDbLine
 10
-0.7653333538934352
 20
-3.432415276222486
 30
-1.122394600316249
 11
-0.7653333538934352
 21
-3.432415276222486
 31
-0.9302576465425495
  0
LINE
  5
140
330
640
100
AcDbEntity
  8
1_TOP
  6
CONTINUOUS
 62
     7
100
AcDbLine
 10
-0.7653333538934352
 20
-3.432415276222486
 30
-1.122394600316249
 11
-1.002336266520903
 21
-3.415842418121136
 31
-1.134815396650668
  0
LINE
  5
141
330
640
100
AcDbEntity
  8
1_TOP
  6
CONTINUOUS
 62
     7
100
AcDbLine
 10
-0.8567387724865337
 20
-3.562113582045806
 30
-1.127184955319149
 11
-0.7697178114867369
 21
-3.490914613955077
 31
-1.122624380002079
  0
LINE
  5
142
330
640
100
AcDbEntity
  8
1_TOP
  6
CONTINUOUS
 62
     7
100
AcDbLine
 10
-0.8988835473809931
 20
-3.565800772075926
 30
-1.129393669379749
 11
-0.8567387724865337
 21
-3.562113582045806
 31
-1.127184955319149
  0
LINE
  5
143
330
640
100
AcDbEntity
  8
1_TOP
  6
CONTINUOUS
 62
     7
100
AcDbLine
 10
-0.8988835473809931
 20
-3.565800772075926
 30
-1.129393669379749
 11
-0.8988835473809931
 21
-3.556038049118606
 31
-1.129393669379749
  0
LINE
  5
144
330
640
100
AcDbEntity
  8
1_TOP
  6
CONTINUOUS
 62
     7
100
AcDbLine
 10
-0.8988835473809931
 20
-3.565800772075926
 30
-0.9232585774790395
 11
-0.8988835473809931
 21
-3.556038049118606
 31
-0.9232585774790395
  0
LINE
  5
145
330
640
100
AcDbEntity
  8
1_TOP
  6
CONTINUOUS
 62
     7
100
AcDbLine
 10
-0.8988835473809931
 20
-3.565800772075926
 30
-0.9232585774790395
 11
-0.8567387724865337
 21
-3.562113582045806
 31
-0.9254672915396492
  0
LINE
  5
146
330
640
100
AcDbEntity
  8
1_TOP
  6
CONTINUOUS
 62
     7
100
AcDbLine
 10
-0.8567387724865337
 20
-3.562113582045806
 30
-0.9254672915396492
 11
-0.7697178114867369
 21
-3.490914613955077
 31
-0.9300278668567194
  0
LINE
  5
147
330
640
100
AcDbEntity
  8
1_TOP
  6
CONTINUOUS
 62
     7
100
AcDbLine
 10
-0.7653333538934352
 20
-3.432415276222486
 30
-0.9302576465425495
 11
-1.002336266520905
 21
-3.415842418121136
 31
-0.9178368502081294
  0
LINE
  5
148
330
640
100
AcDbEntity
  8
1_TOP
  6
CONTINUOUS
 62
     7
100
AcDbLine
 10
-0.8063797009996067
 20
-3.429545036027425
 30
-1.074545748215768
 11
-0.8063797009996067
 21
-3.429545036027425
 31
-1.114545748215769
  0
LINE
  5
149
330
640
100
AcDbEntity
  8
1_TOP
  6
CONTINUOUS
 62
     7
100
AcDbLine
 10
-0.8063797009996067
 20
-3.429545036027425
 30
-1.074545748215768
 11
-1.002336266520905
 21
-3.415842418121136
 31
-1.071125313641479
  0
LINE
  5
14A
330
640
100
AcDbEntity
  8
1_TOP
  6
CONTINUOUS
 62
     7
100
AcDbLine
 10
-0.8063797009996067
 20
-3.429545036027425
 30
-1.114545748215769
 11
-0.8063797009996067
 21
-3.418063197777416
 31
-1.114545748215769
  0
LINE
  5
14B
330
640
100
AcDbEntity
  8
1_TOP
  6
CONTINUOUS
 62
     7
100
AcDbLine
 10
-0.8063797009996067
 20
-3.418063197777416
 30
-1.114545748215769
 11
-0.8063797009996067
 21
-3.418063197777416
 31
-1.074545748215768
  0
LINE
  5
14C
330
640
100
AcDbEntity
  8
1_TOP
  6
CONTINUOUS
 62
     7
100
AcDbLine
 10
-0.8156821362621649
 20
-3.408087557274816
 30
-1.114708122827259
 11
-0.8156821362621649
 21
-3.408087557274816
 31
-1.074383373604268
  0
LINE
  5
14D
330
640
100
AcDbEntity
  8
1_TOP
  6
CONTINUOUS
 62
     7
100
AcDbLine
 10
-1.002336266520903
 20
-3.395035429009736
 30
-1.071125313641479
 11
-0.8156821362621649
 21
-3.408087557274816
 31
-1.074383373604268
  0
LINE
  5
14E
330
640
100
AcDbEntity
  8
1_TOP
  6
CONTINUOUS
 62
     7
100
AcDbLine
 10
-0.8063797009996067
 20
-3.429545036027425
 30
-1.074545748215768
 11
-0.8063797009996067
 21
-3.418063197777416
 31
-1.074545748215768
  0
LINE
  5
14F
330
640
100
AcDbEntity
  8
1_TOP
  6
CONTINUOUS
 62
     7
100
AcDbLine
 10
-0.8063797009996067
 20
-3.429545036027425
 30
-0.9381064986430294
 11
-0.8063797009996067
 21
-3.429545036027425
 31
-0.9781064986430294
  0
LINE
  5
150
330
640
100
AcDbEntity
  8
1_TOP
  6
CONTINUOUS
 62
     7
100
AcDbLine
 10
-0.8063797009996067
 20
-3.429545036027425
 30
-0.9381064986430294
 11
-0.8063797009996067
 21
-3.418063197777416
 31
-0.9381064986430294
  0
LINE
  5
151
330
640
100
AcDbEntity
  8
1_TOP
  6
CONTINUOUS
 62
     7
100
AcDbLine
 10
-0.8063797009996067
 20
-3.418063197777416
 30
-0.9381064986430294
 11
-0.8063797009996067
 21
-3.418063197777416
 31
-0.9781064986430294
  0
LINE
  5
152
330
640
100
AcDbEntity
  8
1_TOP
  6
CONTINUOUS
 62
     7
100
AcDbLine
 10
-0.8156821362621649
 20
-3.408087557274816
 30
-0.9379441240315294
 11
-0.8156821362621649
 21
-3.408087557274816
 31
-0.9782688732545295
  0
LINE
  5
153
330
640
100
AcDbEntity
  8
1_TOP
  6
CONTINUOUS
 62
     7
100
AcDbLine
 10
-1.002336266520903
 20
-3.395035429009736
 30
-0.9815269332173194
 11
-0.8156821362621649
 21
-3.408087557274816
 31
-0.9782688732545295
  0
LINE
  5
154
330
640
100
AcDbEntity
  8
1_TOP
  6
CONTINUOUS
 62
     7
100
AcDbLine
 10
-0.8063797009996067
 20
-3.429545036027425
 30
-0.9781064986430294
 11
-0.8063797009996067
 21
-3.418063197777416
 31
-0.9781064986430294
  0
LINE
  5
155
330
640
100
AcDbEntity
  8
1_TOP
  6
CONTINUOUS
 62
     7
100
AcDbLine
 10
-1.002336266520903
 20
-3.415842418121136
 30
-0.9346860640687495
 11
-0.8063797009996067
 21
-3.429545036027425
 31
-0.9381064986430294
  0
LINE
  5
156
330
640
100
AcDbEntity
  8
1_TOP
  6
CONTINUOUS
 62
     7
100
AcDbLine
 10
-1.002336266520905
 20
-3.415842418121136
 30
-0.9815269332173194
 11
-0.8063797009996067
 21
-3.429545036027425
 31
-0.9781064986430294
  0
LINE
  5
157
330
640
100
AcDbEntity
  8
1_TOP
  6
CONTINUOUS
 62
     7
100
AcDbLine
 10
-0.8912488162580668
 20
-3.489853727305226
 30
-0.9236586967826195
 11
-1.002336266520905
 21
-3.486944800045327
 31
-0.9178368502081294
  0
LINE
  5
158
330
640
100
AcDbEntity
  8
1_TOP
  6
CONTINUOUS
 62
     7
100
AcDbLine
 10
-0.8863797009996069
 20
-3.515800772075926
 30
-0.9239138763003895
 11
-0.8863797009996057
 21
-3.494852013930106
 31
-0.9239138763003895
  0
LINE
  5
159
330
640
100
AcDbEntity
  8
1_TOP
  6
CONTINUOUS
 62
     7
100
AcDbLine
 10
-0.8988690871428776
 20
-3.555658057957276
 30
-1.129392911550789
 11
-0.8988835473809931
 21
-3.555658057957276
 31
-1.129393669379749
  0
LINE
  5
15A
330
640
100
AcDbEntity
  8
1_TOP
  6
CONTINUOUS
 62
     7
100
AcDbLine
 10
-0.8863797009996069
 20
-3.515800772075926
 30
-1.128738370558409
 11
-0.8863797009996057
 21
-3.494852013930106
 31
-1.128738370558409
  0
LINE
  5
15B
330
640
100
AcDbEntity
  8
1_TOP
  6
CONTINUOUS
 62
     7
100
AcDbLine
 10
-0.8977269055785036
 20
-3.552459840052626
 30
-1.129333052351458
 11
-0.8977269055785036
 21
-3.552459840052626
 31
-0.9233191945073391
  0
LINE
  5
15C
330
640
100
AcDbEntity
  8
1_TOP
  6
CONTINUOUS
 62
     7
100
AcDbLine
 10
-0.8988835473809931
 20
-3.555658057957276
 30
-1.129393669379749
 11
-0.8988835473809931
 21
-3.555658057957276
 31
-0.9232585774790395
  0
LINE
  5
15D
330
640
100
AcDbEntity
  8
1_TOP
  6
CONTINUOUS
 62
     7
100
AcDbLine
 10
-0.8912488162580668
 20
-3.489853727305226
 30
-1.128993550076178
 11
-0.8912488162580668
 21
-3.489853727305226
 31
-0.9236586967826195
  0
LINE
  5
15E
330
640
100
AcDbEntity
  8
1_TOP
  6
CONTINUOUS
 62
     7
100
AcDbLine
 10
-0.8863797009996057
 20
-3.494852013930106
 30
-1.128738370558409
 11
-0.8863797009996057
 21
-3.494852013930106
 31
-0.9239138763003895
  0
LINE
  5
15F
330
640
100
AcDbEntity
  8
1_TOP
  6
CONTINUOUS
 62
     7
100
AcDbLine
 10
-0.8863797009996069
 20
-3.515800772075926
 30
-1.128738370558409
 11
-0.8863797009996069
 21
-3.515800772075926
 31
-0.9239138763003895
  0
LINE
  5
160
330
640
100
AcDbEntity
  8
1_TOP
  6
CONTINUOUS
 62
     7
100
AcDbLine
 10
-0.8988690871428776
 20
-3.555658057957276
 30
-0.923259335308009
 11
-0.8988835473809931
 21
-3.555658057957276
 31
-0.9232585774790395
  0
LINE
  5
161
330
640
100
AcDbEntity
  8
1_TOP
  6
CONTINUOUS
 62
     7
100
AcDbLine
 10
-0.8988690871428776
 20
-3.555658057957276
 30
-1.129392911550789
 11
-0.8988690871428776
 21
-3.555658057957276
 31
-0.923259335308009
  0
LINE
  5
162
330
640
100
AcDbEntity
  8
1_TOP
  6
CONTINUOUS
 62
     7
100
AcDbLine
 10
-0.8863797009996069
 20
-3.515800772075926
 30
-1.558913876300389
 11
-0.8863797009996057
 21
-3.494852013930106
 31
-1.558913876300389
  0
LINE
  5
163
330
640
100
AcDbEntity
  8
1_TOP
  6
CONTINUOUS
 62
     7
100
AcDbLine
 10
-0.8988690871428776
 20
-3.555658057957276
 30
-1.558259335308011
 11
-0.8988835473809931
 21
-3.555658057957276
 31
-1.558258577479043
  0
LINE
  5
164
330
640
100
AcDbEntity
  8
1_TOP
  6
CONTINUOUS
 62
     7
100
AcDbLine
 10
-0.8063797009996067
 20
-3.429545036027425
 30
-1.613106498643031
 11
-0.8063797009996067
 21
-3.418063197777416
 31
-1.613106498643031
  0
LINE
  5
165
330
640
100
AcDbEntity
  8
1_TOP
  6
CONTINUOUS
 62
     7
100
AcDbLine
 10
-0.8156821362621656
 20
-3.408087557274816
 30
-1.572944124031534
 11
-0.8156821362621649
 21
-3.408087557274816
 31
-1.613268873254531
  0
LINE
  5
166
330
640
100
AcDbEntity
  8
1_TOP
  6
CONTINUOUS
 62
     7
100
AcDbLine
 10
-0.8063797009996056
 20
-3.418063197777416
 30
-1.573106498643031
 11
-0.8063797009996067
 21
-3.418063197777416
 31
-1.613106498643031
  0
LINE
  5
167
330
640
100
AcDbEntity
  8
1_TOP
  6
CONTINUOUS
 62
     7
100
AcDbLine
 10
-0.8063797009996067
 20
-3.429545036027425
 30
-1.573106498643032
 11
-0.8063797009996056
 21
-3.418063197777416
 31
-1.573106498643031
  0
LINE
  5
168
330
640
100
AcDbEntity
  8
1_TOP
  6
CONTINUOUS
 62
     7
100
AcDbLine
 10
-0.8063797009996067
 20
-3.429545036027425
 30
-1.613106498643031
 11
-0.8063797009996067
 21
-3.429545036027425
 31
-1.573106498643032
  0
LINE
  5
169
330
640
100
AcDbEntity
  8
1_TOP
  6
CONTINUOUS
 62
     7
100
AcDbLine
 10
-0.8988835473809931
 20
-3.565800772075926
 30
-1.558258577479043
 11
-0.8988835473809931
 21
-3.556038049118606
 31
-1.558258577479043
  0
LINE
  5
16A
330
640
100
AcDbEntity
  8
1_TOP
  6
CONTINUOUS
 62
     7
100
AcDbLine
 10
-0.8988835473809931
 20
-3.565800772075926
 30
-1.558258577479043
 11
-0.8567387724865337
 21
-3.562113582045806
 31
-1.560467291539645
  0
LINE
  5
16B
330
640
100
AcDbEntity
  8
1_TOP
  6
CONTINUOUS
 62
     7
100
AcDbLine
 10
-0.8567387724865337
 20
-3.562113582045806
 30
-1.560467291539645
 11
-0.7697178114867369
 21
-3.490914613955077
 31
-1.565027866856721
  0
LINE
  5
16C
330
640
100
AcDbEntity
  8
1_TOP
  6
CONTINUOUS
 62
     7
100
AcDbLine
 10
-0.7514775879143221
 20
-3.449089592199286
 30
-1.565983796467778
 11
-0.7514775879143221
 21
-3.449089592199286
 31
-1.756668450391018
  0
LINE
  5
16D
330
640
100
AcDbEntity
  8
1_TOP
  6
CONTINUOUS
 62
     7
100
AcDbLine
 10
-7.212980151138478
 20
-5.485950530302125
 30
2.278301421609999
 11
-4.568083706777987
 21
-5.485950530302125
 31
2.278301421610009
  0
LINE
  5
16E
330
640
100
AcDbEntity
  8
1_TOP
  6
CONTINUOUS
 62
     7
100
AcDbLine
 10
-4.515531928958238
 20
-5.500439879130626
 30
1.94428176896719
 11
-4.515531928958238
 21
-1.062787632271867
 31
1.94428176896719
  0
LINE
  5
16F
330
640
100
AcDbEntity
  8
1_TOP
  6
CONTINUOUS
 62
     7
100
AcDbLine
 10
-4.568083706777987
 20
-5.510235854452115
 30
2.25
 11
-7.212980151138478
 21
-5.510235854452115
 31
2.25
  0
LINE
  5
170
330
640
100
AcDbEntity
  8
1_TOP
  6
CONTINUOUS
 62
     7
100
AcDbLine
 10
-4.568083706777987
 20
-1.077276981100373
 30
2.27830142161002
 11
-7.212980151138478
 21
-1.077276981100373
 31
2.27830142161002
  0
LINE
  5
171
330
640
100
AcDbEntity
  8
1_TOP
  6
CONTINUOUS
 62
     7
100
AcDbLine
 10
-4.546705805528858
 20
-1.031613755701247
 30
1.94428176896719
 11
-7.234358052387616
 21
-1.031613755701247
 31
1.94428176896719
  0
LINE
  5
172
330
640
100
AcDbEntity
  8
1_TOP
  6
CONTINUOUS
 62
     7
100
AcDbLine
 10
-4.984319942941907
 20
-1.84711375570121
 30
2.352325203445889
 11
-6.796743756867307
 21
-1.84711375570121
 31
2.352325203445889
  0
LINE
  5
173
330
640
100
AcDbEntity
  8
1_TOP
  6
CONTINUOUS
 62
     7
100
AcDbLine
 10
-5.026756376175658
 20
-1.846066451805517
 30
2.29232520344589
 11
-6.762956437681219
 21
-1.846066451805517
 31
2.29232520344589
  0
LINE
  5
174
330
640
100
AcDbEntity
  8
1_TOP
  6
CONTINUOUS
 62
     7
100
AcDbLine
 10
-4.890531928957337
 20
-1.435113755701209
 30
2.352325203445889
 11
-6.890531928959128
 21
-1.435113755701209
 31
2.352325203445889
  0
LINE
  5
175
330
640
100
AcDbEntity
  8
1_TOP
  6
CONTINUOUS
 62
     7
100
AcDbLine
 10
-5.953031928958719
 20
-4.768714625278785
 30
2.292325203446039
 11
-5.828031928957747
 21
-4.768714625278795
 31
2.29232520344589
  0
LINE
  5
176
330
640
100
AcDbEntity
  8
1_TOP
  6
CONTINUOUS
 62
     7
100
AcDbLine
 10
-5.828031928957747
 20
-5.075512886123726
 30
2.292325203446039
 11
-5.953031928958719
 21
-5.075512886123726
 31
2.292325203446039
  0
LINE
  5
177
330
640
100
AcDbEntity
  8
1_TOP
  6
CONTINUOUS
 62
     7
100
AcDbLine
 10
-4.984319865036238
 20
-4.716113755701286
 30
2.352325203445889
 11
-6.796743934879548
 21
-4.716113755701286
 31
2.352325203445889
  0
LINE
  5
178
330
640
100
AcDbEntity
  8
1_TOP
  6
CONTINUOUS
 62
     7
100
AcDbLine
 10
-5.018107420235257
 20
-5.127066451805585
 30
2.29232520344589
 11
-6.762956437681219
 21
-5.127066451805585
 31
2.29232520344589
  0
LINE
  5
179
330
640
100
AcDbEntity
  8
1_TOP
  6
CONTINUOUS
 62
     7
100
AcDbLine
 10
-4.890531928957337
 20
-5.128113755701286
 30
2.352325203445889
 11
-6.890531928959128
 21
-5.128113755701286
 31
2.352325203445889
  0
LINE
  5
17A
330
640
100
AcDbEntity
  8
1_TOP
  6
CONTINUOUS
 62
     7
100
AcDbLine
 10
-5.953031928958719
 20
-5.075512886123726
 30
2.292325203446039
 11
-5.953031928958719
 21
-5.070277553723394
 31
2.142404898809999
  0
LINE
  5
17B
330
640
100
AcDbEntity
  8
1_TOP
  6
CONTINUOUS
 62
     7
100
AcDbLine
 10
-5.828031928957747
 20
-5.075512886123726
 30
2.292325203446039
 11
-5.828031928957747
 21
-5.071828737914645
 31
2.186825002199038
  0
LINE
  5
17C
330
640
100
AcDbEntity
  8
1_TOP
  6
CONTINUOUS
 62
     7
100
AcDbLine
 10
-5.953031928958719
 20
-4.999131034232014
 30
2.092895013071719
 11
-5.953031928958719
 21
-4.999594811984165
 31
2.119464822697469
  0
LINE
  5
17D
330
640
100
AcDbEntity
  8
1_TOP
  6
CONTINUOUS
 62
     7
100
AcDbLine
 10
-5.928390980652058
 20
-4.999131034232014
 30
2.092895013071719
 11
-5.953031928958719
 21
-4.999131034232014
 31
2.092895013071719
  0
LINE
  5
17E
330
640
100
AcDbEntity
  8
1_TOP
  6
CONTINUOUS
 62
     7
100
AcDbLine
 10
-4.953031928957337
 20
-1.466330465834509
 30
2.352325203445889
 11
-4.953031928957337
 21
-1.815897045567913
 31
2.352325203445889
  0
LINE
  5
17F
330
640
100
AcDbEntity
  8
1_TOP
  6
CONTINUOUS
 62
     7
100
AcDbLine
 10
-6.828031928959128
 20
-1.815897045567913
 30
2.352325203445889
 11
-6.825934124600816
 21
-1.815373393620066
 31
2.32232520344589
  0
LINE
  5
180
330
640
100
AcDbEntity
  8
1_TOP
  6
CONTINUOUS
 62
     7
100
AcDbLine
 10
-6.825934124600816
 20
-1.466854117782355
 30
2.32232520344589
 11
-6.828031928959128
 21
-1.466330465834509
 31
2.352325203445889
  0
LINE
  5
181
330
640
100
AcDbEntity
  8
1_TOP
  6
CONTINUOUS
 62
     7
100
AcDbLine
 10
-6.765581097586988
 20
-1.846590103753364
 30
2.32232520344589
 11
-6.794645952508997
 21
-1.846590103753364
 31
2.32232520344589
  0
LINE
  5
182
330
640
100
AcDbEntity
  8
1_TOP
  6
CONTINUOUS
 62
     7
100
AcDbLine
 10
-6.825934124600816
 20
-1.815373393620066
 30
2.32232520344589
 11
-6.825934124600816
 21
-1.466854117782355
 31
2.32232520344589
  0
LINE
  5
183
330
640
100
AcDbEntity
  8
1_TOP
  6
CONTINUOUS
 62
     7
100
AcDbLine
 10
-6.762956437681219
 20
-1.846066451805519
 30
2.29232520344589
 11
-6.765581097586988
 21
-1.846590103753364
 31
2.32232520344589
  0
LINE
  5
184
330
640
100
AcDbEntity
  8
1_TOP
  6
CONTINUOUS
 62
     7
100
AcDbLine
 10
-6.794645952508997
 20
-1.846590103753364
 30
2.32232520344589
 11
-6.796743756867307
 21
-1.847113755701212
 31
2.352325203445889
  0
LINE
  5
185
330
640
100
AcDbEntity
  8
1_TOP
  6
CONTINUOUS
 62
     7
100
AcDbLine
 10
-6.762956437681219
 20
-1.43511375570121
 30
2.29232520344589
 11
-6.762956437681219
 21
-1.846066451805519
 31
2.29232520344589
  0
LINE
  5
186
330
640
100
AcDbEntity
  8
1_TOP
  6
CONTINUOUS
 62
     7
100
AcDbLine
 10
-4.984320101049157
 20
-5.128113755701286
 30
2.352325203445889
 11
-4.986417905407468
 21
-5.127590103753434
 31
2.32232520344589
  0
LINE
  5
187
330
640
100
AcDbEntity
  8
1_TOP
  6
CONTINUOUS
 62
     7
100
AcDbLine
 10
-6.762956437681219
 20
-5.127066451805585
 30
2.29232520344589
 11
-6.765581097586988
 21
-5.127590103753434
 31
2.32232520344589
  0
LINE
  5
188
330
640
100
AcDbEntity
  8
1_TOP
  6
CONTINUOUS
 62
     7
100
AcDbLine
 10
-6.825934124600816
 20
-4.747854117782424
 30
2.32232520344589
 11
-6.825934124600816
 21
-5.096373393620134
 31
2.32232520344589
  0
LINE
  5
189
330
640
100
AcDbEntity
  8
1_TOP
  6
CONTINUOUS
 62
     7
100
AcDbLine
 10
-6.794645952508997
 20
-5.127590103753434
 30
2.32232520344589
 11
-6.765581097586988
 21
-5.127590103753434
 31
2.32232520344589
  0
LINE
  5
18A
330
640
100
AcDbEntity
  8
1_TOP
  6
CONTINUOUS
 62
     7
100
AcDbLine
 10
-6.796743756867307
 20
-5.128113755701286
 30
2.352325203445889
 11
-6.794645952508997
 21
-5.127590103753434
 31
2.32232520344589
  0
LINE
  5
18B
330
640
100
AcDbEntity
  8
1_TOP
  6
CONTINUOUS
 62
     7
100
AcDbLine
 10
-6.762956437681219
 20
-5.127066451805585
 30
2.29232520344589
 11
-6.762956437681206
 21
-4.716113755701286
 31
2.29232520344589
  0
LINE
  5
18C
330
640
100
AcDbEntity
  8
1_TOP
  6
CONTINUOUS
 62
     7
100
AcDbLine
 10
-6.521580230406297
 20
-3.070162057149305
 30
2.352325203445889
 11
-5.259483627510177
 21
-3.070162057149305
 31
2.352325203445889
  0
LINE
  5
18D
330
640
100
AcDbEntity
  8
1_TOP
  6
CONTINUOUS
 62
     7
100
AcDbLine
 10
-5.259483627510177
 20
-2.408065454253184
 30
2.352325203445889
 11
-5.259483627510177
 21
-3.070162057149305
 31
2.352325203445889
  0
LINE
  5
18E
330
640
100
AcDbEntity
  8
1_TOP
  6
CONTINUOUS
 62
     7
100
AcDbLine
 10
-5.818031928958238
 20
-2.409113755701245
 30
2.292268053709058
 11
-5.818031928958238
 21
-2.381138852201314
 31
2.292268053709058
  0
LINE
  5
18F
330
640
100
AcDbEntity
  8
1_TOP
  6
CONTINUOUS
 62
     7
100
AcDbLine
 10
-5.818606948548499
 20
-2.402277915128165
 30
2.25932520344589
 11
-5.818606948548499
 21
-2.408538736110985
 31
2.25932520344589
  0
LINE
  5
190
330
640
100
AcDbEntity
  8
1_TOP
  6
CONTINUOUS
 62
     7
100
AcDbLine
 10
-5.818031928958238
 20
-2.409113755701245
 30
2.292268053709058
 11
-5.818606948548499
 21
-2.408538736110985
 31
2.25932520344589
  0
LINE
  5
191
330
640
100
AcDbEntity
  8
1_TOP
  6
CONTINUOUS
 62
     7
100
AcDbLine
 10
-5.819080230406297
 20
-2.408065454253184
 30
2.352325203445889
 11
-5.819080230406297
 21
-2.342600842971624
 31
2.352325203445889
  0
LINE
  5
192
330
640
100
AcDbEntity
  8
1_TOP
  6
CONTINUOUS
 62
     7
100
AcDbLine
 10
-5.326983627510178
 20
-2.342600842971624
 30
2.352325203445889
 11
-5.326983627510167
 21
-2.408065454253184
 31
2.352325203445889
  0
LINE
  5
193
330
640
100
AcDbEntity
  8
1_TOP
  6
CONTINUOUS
 62
     7
100
AcDbLine
 10
-5.326983627510178
 20
-2.342600842971624
 30
2.352325203445889
 11
-5.819080230406297
 21
-2.342600842971624
 31
2.352325203445889
  0
LINE
  5
194
330
640
100
AcDbEntity
  8
1_TOP
  6
CONTINUOUS
 62
     7
100
AcDbLine
 10
-6.521580230406297
 20
-2.408065454253184
 30
2.352325203445889
 11
-6.454080230406286
 21
-2.408065454253184
 31
2.352325203445889
  0
LINE
  5
195
330
640
100
AcDbEntity
  8
1_TOP
  6
CONTINUOUS
 62
     7
100
AcDbLine
 10
-6.454080230406286
 20
-2.342600842971624
 30
2.352325203445889
 11
-5.961983627510178
 21
-2.342600842971624
 31
2.352325203445889
  0
LINE
  5
196
330
640
100
AcDbEntity
  8
1_TOP
  6
CONTINUOUS
 62
     7
100
AcDbLine
 10
-6.454080230406298
 20
-2.342600842971624
 30
2.352325203445889
 11
-6.454080230406298
 21
-2.408065454253184
 31
2.352325203445889
  0
LINE
  5
197
330
640
100
AcDbEntity
  8
1_TOP
  6
CONTINUOUS
 62
     7
100
AcDbLine
 10
-5.961983627510178
 20
-2.408065454253184
 30
2.352325203445889
 11
-5.961983627510178
 21
-2.342600842971624
 31
2.352325203445889
  0
LINE
  5
198
330
640
100
AcDbEntity
  8
1_TOP
  6
CONTINUOUS
 62
     7
100
AcDbLine
 10
-6.353031928958237
 20
-3.069113755701244
 30
2.292268053709058
 11
-6.520531928958228
 21
-3.069113755701244
 31
2.292268053709058
  0
LINE
  5
199
330
640
100
AcDbEntity
  8
1_TOP
  6
CONTINUOUS
 62
     7
100
AcDbLine
 10
-6.453031928958228
 20
-2.409113755701245
 30
2.292268053709058
 11
-6.453606948548499
 21
-2.408538736110985
 31
2.25932520344589
  0
LINE
  5
19A
330
640
100
AcDbEntity
  8
1_TOP
  6
CONTINUOUS
 62
     7
100
AcDbLine
 10
-6.453606948548499
 20
-2.402277915128165
 30
2.25932520344589
 11
-6.453606948548499
 21
-2.408538736110985
 31
2.25932520344589
  0
LINE
  5
19B
330
640
100
AcDbEntity
  8
1_TOP
  6
CONTINUOUS
 62
     7
100
AcDbLine
 10
-6.453031928958238
 20
-2.409113755701245
 30
2.292268053709058
 11
-6.453031928958228
 21
-2.381138852201314
 31
2.292268053709058
  0
LINE
  5
19C
330
640
100
AcDbEntity
  8
1_TOP
  6
CONTINUOUS
 62
     7
100
AcDbLine
 10
-6.521580230406297
 20
-2.408065454253184
 30
2.352325203445889
 11
-6.521580230406297
 21
-3.070162057149305
 31
2.352325203445889
  0
LINE
  5
19D
330
640
100
AcDbEntity
  8
1_TOP
  6
CONTINUOUS
 62
     7
100
AcDbLine
 10
-6.453031928958228
 20
-2.409113755701245
 30
2.292268053709058
 11
-6.454080230406286
 21
-2.408065454253184
 31
2.352325203445889
  0
LINE
  5
19E
330
640
100
AcDbEntity
  8
1_TOP
  6
CONTINUOUS
 62
     7
100
AcDbLine
 10
-5.428031928958228
 20
-4.219578366982815
 30
2.292268053709058
 11
-5.428031928958228
 21
-4.223792413194734
 31
2.26836901004033
  0
LINE
  5
19F
330
640
100
AcDbEntity
  8
1_TOP
  6
CONTINUOUS
 62
     7
100
AcDbLine
 10
-5.326983627510178
 20
-3.493065454253184
 30
2.352325203445889
 11
-5.819080230406297
 21
-3.493065454253184
 31
2.352325203445889
  0
LINE
  5
1A0
330
640
100
AcDbEntity
  8
1_TOP
  6
CONTINUOUS
 62
     7
100
AcDbLine
 10
-6.063031928958229
 20
-4.219578366982815
 30
2.292268053709058
 11
-5.718031928958238
 21
-4.219578366982815
 31
2.292268053709058
  0
LINE
  5
1A1
330
640
100
AcDbEntity
  8
1_TOP
  6
CONTINUOUS
 62
     7
100
AcDbLine
 10
-5.326983627510178
 20
-3.493065454253184
 30
2.352325203445889
 11
-5.326983627510178
 21
-3.558530065534756
 31
2.352325203445889
  0
LINE
  5
1A2
330
640
100
AcDbEntity
  8
1_TOP
  6
CONTINUOUS
 62
     7
100
AcDbLine
 10
-5.819080230406297
 20
-3.558530065534756
 30
2.352325203445889
 11
-5.819080230406297
 21
-3.493065454253184
 31
2.352325203445889
  0
LINE
  5
1A3
330
640
100
AcDbEntity
  8
1_TOP
  6
CONTINUOUS
 62
     7
100
AcDbLine
 10
-5.718031928958238
 20
-4.219774190005114
 30
2.303486747143108
 11
-5.428031928958228
 21
-4.219774190005114
 31
2.303486747143108
  0
LINE
  5
1A4
330
640
100
AcDbEntity
  8
1_TOP
  6
CONTINUOUS
 62
     7
100
AcDbLine
 10
-5.428031928958228
 20
-4.219774190005114
 30
2.303486747143108
 11
-5.428031928958228
 21
-4.200978644983475
 31
2.303486747143108
  0
LINE
  5
1A5
330
640
100
AcDbEntity
  8
1_TOP
  6
CONTINUOUS
 62
     7
100
AcDbLine
 10
-5.428031928958228
 20
-4.219578366982815
 30
2.292268053709058
 11
-5.333278296941108
 21
-4.219578366982815
 31
2.292268053709058
  0
LINE
  5
1A6
330
640
100
AcDbEntity
  8
1_TOP
  6
CONTINUOUS
 62
     7
100
AcDbLine
 10
-5.818031928958238
 20
-3.559578366982814
 30
2.292268053709058
 11
-5.818606948548499
 21
-3.559003347392544
 31
2.25932520344589
  0
LINE
  5
1A7
330
640
100
AcDbEntity
  8
1_TOP
  6
CONTINUOUS
 62
     7
100
AcDbLine
 10
-5.818031928958238
 20
-3.559578366982814
 30
2.292268053709058
 11
-5.818031928958238
 21
-3.531603463482876
 31
2.292268053709058
  0
LINE
  5
1A8
330
640
100
AcDbEntity
  8
1_TOP
  6
CONTINUOUS
 62
     7
100
AcDbLine
 10
-5.259483627510177
 20
-3.558530065534756
 30
2.352325203445889
 11
-5.259483627510177
 21
-4.220626668430877
 31
2.352325203445889
  0
LINE
  5
1A9
330
640
100
AcDbEntity
  8
1_TOP
  6
CONTINUOUS
 62
     7
100
AcDbLine
 10
-5.428031928958238
 20
-4.190955849330014
 30
2.292268053709058
 11
-5.718031928958238
 21
-4.190955849330014
 31
2.292268053709058
  0
LINE
  5
1AA
330
640
100
AcDbEntity
  8
1_TOP
  6
CONTINUOUS
 62
     7
100
AcDbLine
 10
-5.428031928958228
 20
-4.190980168031906
 30
2.293661271207478
 11
-5.428031928958228
 21
-4.190955849330014
 31
2.292268053709058
  0
LINE
  5
1AB
330
640
100
AcDbEntity
  8
1_TOP
  6
CONTINUOUS
 62
     7
100
AcDbLine
 10
-5.428031928958228
 20
-4.219578366982815
 30
2.292268053709058
 11
-5.428031928958228
 21
-4.219774190005114
 31
2.303486747143108
  0
LINE
  5
1AC
330
640
100
AcDbEntity
  8
1_TOP
  6
CONTINUOUS
 62
     7
100
AcDbLine
 10
-5.718031928958238
 20
-4.192812074042024
 30
2.27715031660628
 11
-5.718031928958238
 21
-4.190955849330014
 31
2.292268053709058
  0
LINE
  5
1AD
330
640
100
AcDbEntity
  8
1_TOP
  6
CONTINUOUS
 62
     7
100
AcDbLine
 10
-6.521580230406287
 20
-4.220626668430877
 30
2.352325203445889
 11
-5.259483627510169
 21
-4.220626668430877
 31
2.352325203445889
  0
LINE
  5
1AE
330
640
100
AcDbEntity
  8
1_TOP
  6
CONTINUOUS
 62
     7
100
AcDbLine
 10
-5.428031928958228
 20
-4.190955849330014
 30
2.292268053709058
 11
-5.428031928958228
 21
-4.219578366982815
 31
2.292268053709058
  0
LINE
  5
1AF
330
640
100
AcDbEntity
  8
1_TOP
  6
CONTINUOUS
 62
     7
100
AcDbLine
 10
-5.428031928958228
 20
-4.223792413194734
 30
2.26836901004033
 11
-5.428031928958238
 21
-4.202737535558434
 31
2.26836901004033
  0
LINE
  5
1B0
330
640
100
AcDbEntity
  8
1_TOP
  6
CONTINUOUS
 62
     7
100
AcDbLine
 10
-5.428031928958238
 20
-4.192812074042024
 30
2.27715031660628
 11
-5.428031928958238
 21
-4.190955849330014
 31
2.292268053709058
  0
LINE
  5
1B1
330
640
100
AcDbEntity
  8
1_TOP
  6
CONTINUOUS
 62
     7
100
AcDbLine
 10
-5.718031928958238
 20
-4.219774190005114
 30
2.303486747143108
 11
-5.718031928958238
 21
-4.200978644983475
 31
2.303486747143108
  0
LINE
  5
1B2
330
640
100
AcDbEntity
  8
1_TOP
  6
CONTINUOUS
 62
     7
100
AcDbLine
 10
-5.718031928958238
 20
-4.190980168031906
 30
2.293661271207478
 11
-5.718031928958238
 21
-4.190955849330014
 31
2.292268053709058
  0
LINE
  5
1B3
330
640
100
AcDbEntity
  8
1_TOP
  6
CONTINUOUS
 62
     7
100
AcDbLine
 10
-5.718031928958238
 20
-4.200978644983475
 30
2.303486747143108
 11
-5.428031928958228
 21
-4.200978644983475
 31
2.303486747143108
  0
LINE
  5
1B4
330
640
100
AcDbEntity
  8
1_TOP
  6
CONTINUOUS
 62
     7
100
AcDbLine
 10
-5.961983627510178
 20
-3.558530065534756
 30
2.352325203445889
 11
-5.819080230406297
 21
-3.558530065534756
 31
2.352325203445889
  0
LINE
  5
1B5
330
640
100
AcDbEntity
  8
1_TOP
  6
CONTINUOUS
 62
     7
100
AcDbLine
 10
-5.259483627510177
 20
-3.558530065534756
 30
2.352325203445889
 11
-5.326983627510178
 21
-3.558530065534756
 31
2.352325203445889
  0
LINE
  5
1B6
330
640
100
AcDbEntity
  8
1_TOP
  6
CONTINUOUS
 62
     7
100
AcDbLine
 10
-5.818031928958238
 20
-3.559578366982814
 30
2.292268053709058
 11
-5.819080230406297
 21
-3.558530065534756
 31
2.352325203445889
  0
LINE
  5
1B7
330
640
100
AcDbEntity
  8
1_TOP
  6
CONTINUOUS
 62
     7
100
AcDbLine
 10
-6.353031928958237
 20
-4.192812074042024
 30
2.27715031660628
 11
-6.353031928958237
 21
-4.190955849330014
 31
2.292268053709058
  0
LINE
  5
1B8
330
640
100
AcDbEntity
  8
1_TOP
  6
CONTINUOUS
 62
     7
100
AcDbLine
 10
-6.063031928958229
 20
-4.192812074042024
 30
2.27715031660628
 11
-6.063031928958237
 21
-4.190955849330014
 31
2.292268053709058
  0
LINE
  5
1B9
330
640
100
AcDbEntity
  8
1_TOP
  6
CONTINUOUS
 62
     7
100
AcDbLine
 10
-6.063031928958229
 20
-4.223792413194734
 30
2.26836901004033
 11
-6.063031928958229
 21
-4.202737535558434
 31
2.26836901004033
  0
LINE
  5
1BA
330
640
100
AcDbEntity
  8
1_TOP
  6
CONTINUOUS
 62
     7
100
AcDbLine
 10
-6.353031928958237
 20
-4.190980168031906
 30
2.293661271207478
 11
-6.353031928958237
 21
-4.190955849330014
 31
2.292268053709058
  0
LINE
  5
1BB
330
640
100
AcDbEntity
  8
1_TOP
  6
CONTINUOUS
 62
     7
100
AcDbLine
 10
-6.353031928958237
 20
-4.190955849330014
 30
2.292268053709058
 11
-6.063031928958237
 21
-4.190955849330014
 31
2.292268053709058
  0
LINE
  5
1BC
330
640
100
AcDbEntity
  8
1_TOP
  6
CONTINUOUS
 62
     7
100
AcDbLine
 10
-6.063031928958229
 20
-4.219578366982815
 30
2.292268053709058
 11
-6.063031928958229
 21
-4.223792413194734
 31
2.26836901004033
  0
LINE
  5
1BD
330
640
100
AcDbEntity
  8
1_TOP
  6
CONTINUOUS
 62
     7
100
AcDbLine
 10
-6.453031928958228
 20
-3.559578366982814
 30
2.292268053709058
 11
-6.454080230406298
 21
-3.558530065534756
 31
2.352325203445889
  0
LINE
  5
1BE
330
640
100
AcDbEntity
  8
1_TOP
  6
CONTINUOUS
 62
     7
100
AcDbLine
 10
-6.521580230406297
 20
-3.558530065534756
 30
2.352325203445889
 11
-6.521580230406297
 21
-4.220626668430877
 31
2.352325203445889
  0
LINE
  5
1BF
330
640
100
AcDbEntity
  8
1_TOP
  6
CONTINUOUS
 62
     7
100
AcDbLine
 10
-6.453031928958228
 20
-3.559578366982814
 30
2.292268053709058
 11
-6.453031928958238
 21
-3.531603463482876
 31
2.292268053709058
  0
LINE
  5
1C0
330
640
100
AcDbEntity
  8
1_TOP
  6
CONTINUOUS
 62
     7
100
AcDbLine
 10
-6.453606948548499
 20
-3.552742526409724
 30
2.25932520344589
 11
-6.453606948548499
 21
-3.559003347392544
 31
2.25932520344589
  0
LINE
  5
1C1
330
640
100
AcDbEntity
  8
1_TOP
  6
CONTINUOUS
 62
     7
100
AcDbLine
 10
-6.453031928958228
 20
-3.559578366982814
 30
2.292268053709058
 11
-6.453606948548499
 21
-3.559003347392544
 31
2.25932520344589
  0
LINE
  5
1C2
330
640
100
AcDbEntity
  8
1_TOP
  6
CONTINUOUS
 62
     7
100
AcDbLine
 10
-6.366816795157188
 20
-4.219578366982815
 30
2.292268053709058
 11
-6.520531928958238
 21
-4.219578366982815
 31
2.292268053709058
  0
LINE
  5
1C3
330
640
100
AcDbEntity
  8
1_TOP
  6
CONTINUOUS
 62
     7
100
AcDbLine
 10
-6.353031928958237
 20
-4.219774190005114
 30
2.303486747143108
 11
-6.353031928958237
 21
-4.200978644983475
 31
2.303486747143108
  0
LINE
  5
1C4
330
640
100
AcDbEntity
  8
1_TOP
  6
CONTINUOUS
 62
     7
100
AcDbLine
 10
-6.063031928958229
 20
-4.219774190005114
 30
2.303486747143108
 11
-6.353031928958237
 21
-4.219774190005114
 31
2.303486747143108
  0
LINE
  5
1C5
330
640
100
AcDbEntity
  8
1_TOP
  6
CONTINUOUS
 62
     7
100
AcDbLine
 10
-5.961983627510178
 20
-3.558530065534756
 30
2.352325203445889
 11
-5.961983627510178
 21
-3.493065454253184
 31
2.352325203445889
  0
LINE
  5
1C6
330
640
100
AcDbEntity
  8
1_TOP
  6
CONTINUOUS
 62
     7
100
AcDbLine
 10
-6.454080230406298
 20
-3.493065454253184
 30
2.352325203445889
 11
-6.454080230406298
 21
-3.558530065534756
 31
2.352325203445889
  0
LINE
  5
1C7
330
640
100
AcDbEntity
  8
1_TOP
  6
CONTINUOUS
 62
     7
100
AcDbLine
 10
-6.454080230406298
 20
-3.493065454253184
 30
2.352325203445889
 11
-5.961983627510178
 21
-3.493065454253184
 31
2.352325203445889
  0
LINE
  5
1C8
330
640
100
AcDbEntity
  8
1_TOP
  6
CONTINUOUS
 62
     7
100
AcDbLine
 10
-6.521580230406287
 20
-3.558530065534756
 30
2.352325203445889
 11
-6.454080230406298
 21
-3.558530065534756
 31
2.352325203445889
  0
LINE
  5
1C9
330
640
100
AcDbEntity
  8
1_TOP
  6
CONTINUOUS
 62
     7
100
AcDbLine
 10
-6.063031928958229
 20
-4.200978644983475
 30
2.303486747143108
 11
-6.353031928958237
 21
-4.200978644983475
 31
2.303486747143108
  0
LINE
  5
1CA
330
640
100
AcDbEntity
  8
1_TOP
  6
CONTINUOUS
 62
     7
100
AcDbLine
 10
-6.063031928958229
 20
-4.190955849330014
 30
2.292268053709058
 11
-6.063031928958229
 21
-4.219578366982815
 31
2.292268053709058
  0
LINE
  5
1CB
330
640
100
AcDbEntity
  8
1_TOP
  6
CONTINUOUS
 62
     7
100
AcDbLine
 10
-6.063031928958229
 20
-4.219578366982815
 30
2.292268053709058
 11
-6.063031928958229
 21
-4.219774190005114
 31
2.303486747143108
  0
LINE
  5
1CC
330
640
100
AcDbEntity
  8
1_TOP
  6
CONTINUOUS
 62
     7
100
AcDbLine
 10
-6.063031928958229
 20
-4.190980168031906
 30
2.293661271207478
 11
-6.063031928958229
 21
-4.190955849330014
 31
2.292268053709058
  0
LINE
  5
1CD
330
640
100
AcDbEntity
  8
1_TOP
  6
CONTINUOUS
 62
     7
100
AcDbLine
 10
-6.063031928958229
 20
-4.219774190005114
 30
2.303486747143108
 11
-6.063031928958229
 21
-4.200978644983475
 31
2.303486747143108
  0
LINE
  5
1CE
330
640
100
AcDbEntity
  8
1_TOP
  6
CONTINUOUS
 62
     7
100
AcDbLine
 10
-5.818031928958238
 20
-2.409113755701245
 30
2.292268053709058
 11
-5.819080230406297
 21
-2.408065454253184
 31
2.352325203445889
  0
LINE
  5
1CF
330
640
100
AcDbEntity
  8
1_TOP
  6
CONTINUOUS
 62
     7
100
AcDbLine
 10
-5.259483627510177
 20
-2.408065454253184
 30
2.352325203445889
 11
-5.326983627510178
 21
-2.408065454253184
 31
2.352325203445889
  0
LINE
  5
1D0
330
640
100
AcDbEntity
  8
1_TOP
  6
CONTINUOUS
 62
     7
100
AcDbLine
 10
-5.961983627510178
 20
-2.408065454253184
 30
2.352325203445889
 11
-5.819080230406297
 21
-2.408065454253184
 31
2.352325203445889
  0
LINE
  5
1D1
330
640
100
AcDbEntity
  8
1_TOP
  6
CONTINUOUS
 62
     7
100
AcDbLine
 10
-6.063031928958229
 20
-3.069309578723545
 30
2.303486747143108
 11
-6.063031928958229
 21
-3.050514033701915
 31
2.303486747143108
  0
LINE
  5
1D2
330
640
100
AcDbEntity
  8
1_TOP
  6
CONTINUOUS
 62
     7
100
AcDbLine
 10
-6.063031928958229
 20
-3.040515556750345
 30
2.293661271207478
 11
-6.063031928958229
 21
-3.040491238048455
 31
2.292268053709058
  0
LINE
  5
1D3
330
640
100
AcDbEntity
  8
1_TOP
  6
CONTINUOUS
 62
     7
100
AcDbLine
 10
-6.063031928958229
 20
-3.069113755701244
 30
2.292268053709058
 11
-6.063031928958229
 21
-3.069309578723545
 31
2.303486747143108
  0
LINE
  5
1D4
330
640
100
AcDbEntity
  8
1_TOP
  6
CONTINUOUS
 62
     7
100
AcDbLine
 10
-6.063031928958229
 20
-3.040491238048455
 30
2.292268053709058
 11
-6.063031928958229
 21
-3.069113755701244
 31
2.292268053709058
  0
LINE
  5
1D5
330
640
100
AcDbEntity
  8
1_TOP
  6
CONTINUOUS
 62
     7
100
AcDbLine
 10
-6.063031928958229
 20
-3.050514033701915
 30
2.303486747143108
 11
-6.353031928958237
 21
-3.050514033701915
 31
2.303486747143108
  0
LINE
  5
1D6
330
640
100
AcDbEntity
  8
1_TOP
  6
CONTINUOUS
 62
     7
100
AcDbLine
 10
-5.906156928958238
 20
-3.074922469024084
 30
2.25932520344589
 11
-5.906156928958238
 21
-3.074922469024084
 31
2.24932520344589
  0
LINE
  5
1D7
330
640
100
AcDbEntity
  8
1_TOP
  6
CONTINUOUS
 62
     7
100
AcDbLine
 10
-6.063031928958229
 20
-3.069309578723545
 30
2.303486747143108
 11
-6.353031928958237
 21
-3.069309578723545
 31
2.303486747143108
  0
LINE
  5
1D8
330
640
100
AcDbEntity
  8
1_TOP
  6
CONTINUOUS
 62
     7
100
AcDbLine
 10
-6.353031928958237
 20
-3.069309578723545
 30
2.303486747143108
 11
-6.353031928958237
 21
-3.050514033701915
 31
2.303486747143108
  0
LINE
  5
1D9
330
640
100
AcDbEntity
  8
1_TOP
  6
CONTINUOUS
 62
     7
100
AcDbLine
 10
-6.063031928958229
 20
-3.069113755701244
 30
2.292268053709058
 11
-6.063031928958229
 21
-3.073327801913174
 31
2.26836901004033
  0
LINE
  5
1DA
330
640
100
AcDbEntity
  8
1_TOP
  6
CONTINUOUS
 62
     7
100
AcDbLine
 10
-6.353031928958237
 20
-3.040491238048455
 30
2.292268053709058
 11
-6.063031928958229
 21
-3.040491238048455
 31
2.292268053709058
  0
LINE
  5
1DB
330
640
100
AcDbEntity
  8
1_TOP
  6
CONTINUOUS
 62
     7
100
AcDbLine
 10
-6.353031928958237
 20
-3.040515556750345
 30
2.293661271207478
 11
-6.353031928958237
 21
-3.040491238048455
 31
2.292268053709058
  0
LINE
  5
1DC
330
640
100
AcDbEntity
  8
1_TOP
  6
CONTINUOUS
 62
     7
100
AcDbLine
 10
-6.121092928099038
 20
-3.042347462760464
 30
2.27715031660628
 11
-6.063031928958237
 21
-3.042347462760464
 31
2.27715031660628
  0
LINE
  5
1DD
330
640
100
AcDbEntity
  8
1_TOP
  6
CONTINUOUS
 62
     7
100
AcDbLine
 10
-6.063031928958229
 20
-3.073327801913174
 30
2.26836901004033
 11
-6.063031928958237
 21
-3.052272924276875
 31
2.26836901004033
  0
LINE
  5
1DE
330
640
100
AcDbEntity
  8
1_TOP
  6
CONTINUOUS
 62
     7
100
AcDbLine
 10
-6.063031928958237
 20
-3.042347462760464
 30
2.27715031660628
 11
-6.063031928958229
 21
-3.040491238048455
 31
2.292268053709058
  0
LINE
  5
1DF
330
640
100
AcDbEntity
  8
1_TOP
  6
CONTINUOUS
 62
     7
100
AcDbLine
 10
-6.294970929817427
 20
-3.042347462760464
 30
2.27715031660628
 11
-6.353031928958237
 21
-3.042347462760464
 31
2.27715031660628
  0
LINE
  5
1E0
330
640
100
AcDbEntity
  8
1_TOP
  6
CONTINUOUS
 62
     7
100
AcDbLine
 10
-6.353031928958237
 20
-3.042347462760464
 30
2.27715031660628
 11
-6.353031928958237
 21
-3.040491238048455
 31
2.292268053709058
  0
LINE
  5
1E1
330
640
100
AcDbEntity
  8
1_TOP
  6
CONTINUOUS
 62
     7
100
AcDbLine
 10
-5.874906928958227
 20
-3.074922469024084
 30
2.25932520344589
 11
-5.874906928958227
 21
-3.074922469024084
 31
2.24932520344589
  0
LINE
  5
1E2
330
640
100
AcDbEntity
  8
1_TOP
  6
CONTINUOUS
 62
     7
100
AcDbLine
 10
-5.718031928958238
 20
-3.050514033701915
 30
2.303486747143108
 11
-5.428031928958228
 21
-3.050514033701915
 31
2.303486747143108
  0
LINE
  5
1E3
330
640
100
AcDbEntity
  8
1_TOP
  6
CONTINUOUS
 62
     7
100
AcDbLine
 10
-5.718031928958238
 20
-3.040515556750345
 30
2.293661271207478
 11
-5.718031928958238
 21
-3.040491238048455
 31
2.292268053709058
  0
LINE
  5
1E4
330
640
100
AcDbEntity
  8
1_TOP
  6
CONTINUOUS
 62
     7
100
AcDbLine
 10
-5.718031928958238
 20
-3.069309578723545
 30
2.303486747143108
 11
-5.718031928958238
 21
-3.050514033701915
 31
2.303486747143108
  0
LINE
  5
1E5
330
640
100
AcDbEntity
  8
1_TOP
  6
CONTINUOUS
 62
     7
100
AcDbLine
 10
-5.428031928958228
 20
-3.042347462760464
 30
2.27715031660628
 11
-5.428031928958238
 21
-3.040491238048455
 31
2.292268053709058
  0
LINE
  5
1E6
330
640
100
AcDbEntity
  8
1_TOP
  6
CONTINUOUS
 62
     7
100
AcDbLine
 10
-5.428031928958228
 20
-3.073327801913174
 30
2.26836901004033
 11
-5.428031928958228
 21
-3.052272924276875
 31
2.26836901004033
  0
LINE
  5
1E7
330
640
100
AcDbEntity
  8
1_TOP
  6
CONTINUOUS
 62
     7
100
AcDbLine
 10
-5.486092928099038
 20
-3.042347462760464
 30
2.27715031660628
 11
-5.428031928958228
 21
-3.042347462760464
 31
2.27715031660628
  0
LINE
  5
1E8
330
640
100
AcDbEntity
  8
1_TOP
  6
CONTINUOUS
 62
     7
100
AcDbLine
 10
-5.428031928958228
 20
-3.040491238048455
 30
2.292268053709058
 11
-5.428031928958228
 21
-3.069113755701244
 31
2.292268053709058
  0
LINE
  5
1E9
330
640
100
AcDbEntity
  8
1_TOP
  6
CONTINUOUS
 62
     7
100
AcDbLine
 10
-5.718031928958238
 20
-3.042347462760464
 30
2.27715031660628
 11
-5.718031928958238
 21
-3.040491238048455
 31
2.292268053709058
  0
LINE
  5
1EA
330
640
100
AcDbEntity
  8
1_TOP
  6
CONTINUOUS
 62
     7
100
AcDbLine
 10
-5.659970929817426
 20
-3.042347462760464
 30
2.27715031660628
 11
-5.718031928958238
 21
-3.042347462760464
 31
2.27715031660628
  0
LINE
  5
1EB
330
640
100
AcDbEntity
  8
1_TOP
  6
CONTINUOUS
 62
     7
100
AcDbLine
 10
-5.428031928958228
 20
-3.069113755701244
 30
2.292268053709058
 11
-5.428031928958228
 21
-3.069309578723545
 31
2.303486747143108
  0
LINE
  5
1EC
330
640
100
AcDbEntity
  8
1_TOP
  6
CONTINUOUS
 62
     7
100
AcDbLine
 10
-5.428031928958228
 20
-3.040515556750345
 30
2.293661271207478
 11
-5.428031928958228
 21
-3.040491238048455
 31
2.292268053709058
  0
LINE
  5
1ED
330
640
100
AcDbEntity
  8
1_TOP
  6
CONTINUOUS
 62
     7
100
AcDbLine
 10
-5.428031928958238
 20
-3.040491238048455
 30
2.292268053709058
 11
-5.718031928958238
 21
-3.040491238048455
 31
2.292268053709058
  0
LINE
  5
1EE
330
640
100
AcDbEntity
  8
1_TOP
  6
CONTINUOUS
 62
     7
100
AcDbLine
 10
-5.428031928958228
 20
-3.069113755701244
 30
2.292268053709058
 11
-5.333278296941108
 21
-3.069113755701244
 31
2.292268053709058
  0
LINE
  5
1EF
330
640
100
AcDbEntity
  8
1_TOP
  6
CONTINUOUS
 62
     7
100
AcDbLine
 10
-5.428031928958228
 20
-3.069309578723545
 30
2.303486747143108
 11
-5.428031928958228
 21
-3.050514033701915
 31
2.303486747143108
  0
LINE
  5
1F0
330
640
100
AcDbEntity
  8
1_TOP
  6
CONTINUOUS
 62
     7
100
AcDbLine
 10
-5.718031928958238
 20
-3.069309578723545
 30
2.303486747143108
 11
-5.428031928958228
 21
-3.069309578723545
 31
2.303486747143108
  0
LINE
  5
1F1
330
640
100
AcDbEntity
  8
1_TOP
  6
CONTINUOUS
 62
     7
100
AcDbLine
 10
-6.063031928958229
 20
-3.069113755701244
 30
2.292268053709058
 11
-5.731816795157188
 21
-3.069113755701244
 31
2.292268053709058
  0
LINE
  5
1F2
330
640
100
AcDbEntity
  8
1_TOP
  6
CONTINUOUS
 62
     7
100
AcDbLine
 10
-5.428031928958228
 20
-3.069113755701244
 30
2.292268053709058
 11
-5.428031928958228
 21
-3.073327801913174
 31
2.26836901004033
  0
LINE
  5
1F3
330
640
100
AcDbEntity
  8
1_TOP
  6
CONTINUOUS
 62
     7
100
AcDbLine
 10
-5.953031928958727
 20
-4.768714625278795
 30
2.292325203446039
 11
-5.953031928958727
 21
-4.773949957679125
 31
2.142404898809999
  0
LINE
  5
1F4
330
640
100
AcDbEntity
  8
1_TOP
  6
CONTINUOUS
 62
     7
100
AcDbLine
 10
-5.953031928958719
 20
-4.845096477170494
 30
2.092895013071719
 11
-5.953031928958719
 21
-4.844632699418355
 31
2.119464822697469
  0
LINE
  5
1F5
330
640
100
AcDbEntity
  8
1_TOP
  6
CONTINUOUS
 62
     7
100
AcDbLine
 10
-5.953031928958719
 20
-4.789565439351295
 30
2.12732520344597
 11
-5.828031928957747
 21
-4.789565439351295
 31
2.12732520344597
  0
LINE
  5
1F6
330
640
100
AcDbEntity
  8
1_TOP
  6
CONTINUOUS
 62
     7
100
AcDbLine
 10
-5.953031928958719
 20
-4.836633917857096
 30
2.12732520344597
 11
-5.828031928957747
 21
-4.836633917857096
 31
2.12732520344597
  0
LINE
  5
1F7
330
640
100
AcDbEntity
  8
1_TOP
  6
CONTINUOUS
 62
     7
100
AcDbLine
 10
-5.953031928958719
 20
-4.845096477170494
 30
2.092895013071719
 11
-5.828031928957747
 21
-4.845096477170494
 31
2.092895013071719
  0
LINE
  5
1F8
330
640
100
AcDbEntity
  8
1_TOP
  6
CONTINUOUS
 62
     7
100
AcDbLine
 10
-5.953031928958719
 20
-4.999131034232014
 30
2.092895013071719
 11
-5.828031928957747
 21
-4.999131034232014
 31
2.092895013071719
  0
LINE
  5
1F9
330
640
100
AcDbEntity
  8
1_TOP
  6
CONTINUOUS
 62
     7
100
AcDbLine
 10
-5.953031928958719
 20
-5.007593593545416
 30
2.12732520344597
 11
-5.828031928957747
 21
-5.007593593545416
 31
2.12732520344597
  0
LINE
  5
1FA
330
640
100
AcDbEntity
  8
1_TOP
  6
CONTINUOUS
 62
     7
100
AcDbLine
 10
-5.953031928958719
 20
-5.054662072051224
 30
2.12732520344597
 11
-5.828031928957747
 21
-5.054662072051224
 31
2.12732520344597
  0
LINE
  5
1FB
330
640
100
AcDbEntity
  8
1_TOP
  6
CONTINUOUS
 62
     7
100
AcDbLine
 10
-5.828031928957747
 20
-5.075512886123726
 30
2.292325203446039
 11
-5.828031928957747
 21
-5.070277553723394
 31
2.142404898809999
  0
LINE
  5
1FC
330
640
100
AcDbEntity
  8
1_TOP
  6
CONTINUOUS
 62
     7
100
AcDbLine
 10
-5.828031928957747
 20
-4.999131034232014
 30
2.092895013071719
 11
-5.828031928957747
 21
-4.999594811984165
 31
2.119464822697469
  0
LINE
  5
1FD
330
640
100
AcDbEntity
  8
1_TOP
  6
CONTINUOUS
 62
     7
100
AcDbLine
 10
-5.828031928957738
 20
-4.768714625278795
 30
2.292325203446039
 11
-5.828031928957738
 21
-4.773949957679125
 31
2.142404898809999
  0
LINE
  5
1FE
330
640
100
AcDbEntity
  8
1_TOP
  6
CONTINUOUS
 62
     7
100
AcDbLine
 10
-5.828031928957747
 20
-4.845096477170494
 30
2.092895013071719
 11
-5.828031928957747
 21
-4.844632699418355
 31
2.119464822697469
  0
LINE
  5
1FF
330
640
100
AcDbEntity
  8
1_TOP
  6
CONTINUOUS
 62
     7
100
AcDbLine
 10
-5.953031928958719
 20
-1.782000094997149
 30
2.292325203446039
 11
-5.828031928957747
 21
-1.782000094997144
 31
2.29232520344589
  0
LINE
  5
200
330
640
100
AcDbEntity
  8
1_TOP
  6
CONTINUOUS
 62
     7
100
AcDbLine
 10
-5.828031928957747
 20
-1.475201834152215
 30
2.292325203446039
 11
-5.953031928958719
 21
-1.475201834152215
 31
2.292325203446039
  0
LINE
  5
201
330
640
100
AcDbEntity
  8
1_TOP
  6
CONTINUOUS
 62
     7
100
AcDbLine
 10
-5.953031928958719
 20
-1.475201834152215
 30
2.292325203446039
 11
-5.953031928958719
 21
-1.480437166552543
 31
2.142404898809999
  0
LINE
  5
202
330
640
100
AcDbEntity
  8
1_TOP
  6
CONTINUOUS
 62
     7
100
AcDbLine
 10
-5.828031928957747
 20
-1.475201834152215
 30
2.292325203446039
 11
-5.828031928957747
 21
-1.478885982361295
 31
2.186825002199038
  0
LINE
  5
203
330
640
100
AcDbEntity
  8
1_TOP
  6
CONTINUOUS
 62
     7
100
AcDbLine
 10
-5.953031928958719
 20
-1.551583686043922
 30
2.092895013071719
 11
-5.953031928958719
 21
-1.551119908291774
 31
2.119464822697469
  0
LINE
  5
204
330
640
100
AcDbEntity
  8
1_TOP
  6
CONTINUOUS
 62
     7
100
AcDbLine
 10
-5.928390980652058
 20
-1.551583686043922
 30
2.092895013071719
 11
-5.953031928958719
 21
-1.551583686043922
 31
2.092895013071719
  0
LINE
  5
205
330
640
100
AcDbEntity
  8
1_TOP
  6
CONTINUOUS
 62
     7
100
AcDbLine
 10
-5.953031928958727
 20
-1.782000094997147
 30
2.292325203446039
 11
-5.953031928958727
 21
-1.776764762596819
 31
2.142404898809999
  0
LINE
  5
206
330
640
100
AcDbEntity
  8
1_TOP
  6
CONTINUOUS
 62
     7
100
AcDbLine
 10
-5.953031928958719
 20
-1.70561824310544
 30
2.092895013071719
 11
-5.953031928958719
 21
-1.706082020857589
 31
2.119464822697469
  0
LINE
  5
207
330
640
100
AcDbEntity
  8
1_TOP
  6
CONTINUOUS
 62
     7
100
AcDbLine
 10
-5.953031928958719
 20
-1.761149280924646
 30
2.12732520344597
 11
-5.828031928957747
 21
-1.761149280924646
 31
2.12732520344597
  0
LINE
  5
208
330
640
100
AcDbEntity
  8
1_TOP
  6
CONTINUOUS
 62
     7
100
AcDbLine
 10
-5.953031928958719
 20
-1.71408080241884
 30
2.12732520344597
 11
-5.828031928957747
 21
-1.71408080241884
 31
2.12732520344597
  0
LINE
  5
209
330
640
100
AcDbEntity
  8
1_TOP
  6
CONTINUOUS
 62
     7
100
AcDbLine
 10
-5.953031928958719
 20
-1.705618243105441
 30
2.092895013071719
 11
-5.828031928957747
 21
-1.70561824310544
 31
2.092895013071719
  0
LINE
  5
20A
330
640
100
AcDbEntity
  8
1_TOP
  6
CONTINUOUS
 62
     7
100
AcDbLine
 10
-5.953031928958719
 20
-1.551583686043922
 30
2.092895013071719
 11
-5.828031928957747
 21
-1.55158368604392
 31
2.092895013071719
  0
LINE
  5
20B
330
640
100
AcDbEntity
  8
1_TOP
  6
CONTINUOUS
 62
     7
100
AcDbLine
 10
-5.953031928958719
 20
-1.543121126730523
 30
2.12732520344597
 11
-5.828031928957747
 21
-1.543121126730523
 31
2.12732520344597
  0
LINE
  5
20C
330
640
100
AcDbEntity
  8
1_TOP
  6
CONTINUOUS
 62
     7
100
AcDbLine
 10
-5.953031928958719
 20
-1.496052648224715
 30
2.127325203445979
 11
-5.828031928957747
 21
-1.496052648224714
 31
2.12732520344597
  0
LINE
  5
20D
330
640
100
AcDbEntity
  8
1_TOP
  6
CONTINUOUS
 62
     7
100
AcDbLine
 10
-5.828031928957747
 20
-1.475201834152215
 30
2.292325203446039
 11
-5.828031928957747
 21
-1.480437166552543
 31
2.142404898809999
  0
LINE
  5
20E
330
640
100
AcDbEntity
  8
1_TOP
  6
CONTINUOUS
 62
     7
100
AcDbLine
 10
-5.828031928957747
 20
-1.55158368604392
 30
2.092895013071719
 11
-5.828031928957747
 21
-1.551119908291774
 31
2.119464822697469
  0
LINE
  5
20F
330
640
100
AcDbEntity
  8
1_TOP
  6
CONTINUOUS
 62
     7
100
AcDbLine
 10
-5.828031928957738
 20
-1.782000094997147
 30
2.292325203446039
 11
-5.828031928957738
 21
-1.776764762596819
 31
2.142404898809999
  0
LINE
  5
210
330
640
100
AcDbEntity
  8
1_TOP
  6
CONTINUOUS
 62
     7
100
AcDbLine
 10
-5.828031928957747
 20
-1.70561824310544
 30
2.092895013071719
 11
-5.828031928957747
 21
-1.706082020857589
 31
2.119464822697469
  0
LINE
  5
211
330
640
100
AcDbEntity
  8
1_TOP
  6
CONTINUOUS
 62
     7
100
AcDbLine
 10
-5.026756376175669
 20
-1.435113755701209
 30
2.29232520344589
 11
-5.026756376175658
 21
-1.846066451805517
 31
2.29232520344589
  0
LINE
  5
212
330
640
100
AcDbEntity
  8
1_TOP
  6
CONTINUOUS
 62
     7
100
AcDbLine
 10
-4.955129733315648
 20
-4.747854117782436
 30
2.32232520344589
 11
-4.955129733315648
 21
-5.096373393620146
 31
2.32232520344589
  0
LINE
  5
213
330
640
100
AcDbEntity
  8
1_TOP
  6
CONTINUOUS
 62
     7
100
AcDbLine
 10
-5.018107420235257
 20
-5.127066451805594
 30
2.29232520344589
 11
-5.018107420235248
 21
-4.716113755701286
 31
2.29232520344589
  0
LINE
  5
214
330
640
100
AcDbEntity
  8
1_TOP
  6
CONTINUOUS
 62
     7
100
AcDbLine
 10
-7.265531928958238
 20
-5.500439879130626
 30
1.94428176896719
 11
-7.265531928958238
 21
-1.062787632271867
 31
1.94428176896719
  0
LINE
  5
215
330
640
100
AcDbEntity
  8
1_TOP
  6
CONTINUOUS
 62
     7
100
AcDbLine
 10
-6.104965140836847
 20
-3.572463705537214
 30
1.840814589589159
 11
-6.311098717079619
 21
-3.572463705537214
 31
1.840814589589159
  0
LINE
  5
216
330
640
100
AcDbEntity
  8
1_TOP
  6
CONTINUOUS
 62
     7
100
AcDbLine
 10
-6.333031928958238
 20
-3.488305042378414
 30
2.25932520344589
 11
-6.334758390583777
 21
-3.494113755701245
 31
2.292268053709058
  0
LINE
  5
217
330
640
100
AcDbEntity
  8
1_TOP
  6
CONTINUOUS
 62
     7
100
AcDbLine
 10
-6.311098717079619
 20
-3.572463705537214
 30
1.840814589589159
 11
-6.311099474908587
 21
-3.572463705537214
 31
1.840829049827279
  0
LINE
  5
218
330
640
100
AcDbEntity
  8
1_TOP
  6
CONTINUOUS
 62
     7
100
AcDbLine
 10
-6.105619681829228
 20
-3.532606419655865
 30
1.828325203445889
 11
-6.310444176087238
 21
-3.532606419655865
 31
1.828325203445889
  0
LINE
  5
219
330
640
100
AcDbEntity
  8
1_TOP
  6
CONTINUOUS
 62
     7
100
AcDbLine
 10
-6.105619681829228
 20
-3.511657661510055
 30
1.828325203445889
 11
-6.310444176087238
 21
-3.511657661510055
 31
1.828325203445889
  0
LINE
  5
21A
330
640
100
AcDbEntity
  8
1_TOP
  6
CONTINUOUS
 62
     7
100
AcDbLine
 10
-6.105364502311457
 20
-3.506659374885174
 30
1.833194318704349
 11
-6.310699355605008
 21
-3.506659374885174
 31
1.833194318704349
  0
LINE
  5
21B
330
640
100
AcDbEntity
  8
1_TOP
  6
CONTINUOUS
 62
     7
100
AcDbLine
 10
-6.104964383007879
 20
-3.572463705537214
 30
1.840829049827279
 11
-6.311099474908587
 21
-3.572463705537214
 31
1.840829049827279
  0
LINE
  5
21C
330
640
100
AcDbEntity
  8
1_TOP
  6
CONTINUOUS
 62
     7
100
AcDbLine
 10
-6.105025000036177
 20
-3.569265487632566
 30
1.839672408024789
 11
-6.311038857880286
 21
-3.569265487632566
 31
1.839672408024789
  0
LINE
  5
21D
330
640
100
AcDbEntity
  8
1_TOP
  6
CONTINUOUS
 62
     7
100
AcDbLine
 10
-6.105619681829228
 20
-3.532606419655865
 30
1.828325203445889
 11
-6.105619681829228
 21
-3.511657661510055
 31
1.828325203445889
  0
LINE
  5
21E
330
640
100
AcDbEntity
  8
1_TOP
  6
CONTINUOUS
 62
     7
100
AcDbLine
 10
-6.105364502311457
 20
-3.506659374885174
 30
1.833194318704349
 11
-6.081305467332687
 21
-3.494638106065866
 31
2.292268053709058
  0
LINE
  5
21F
330
640
100
AcDbEntity
  8
1_TOP
  6
CONTINUOUS
 62
     7
100
AcDbLine
 10
-6.104965140836847
 20
-3.572463705537214
 30
1.840814589589159
 11
-6.104964383007879
 21
-3.572463705537214
 31
1.840829049827279
  0
LINE
  5
220
330
640
100
AcDbEntity
  8
1_TOP
  6
CONTINUOUS
 62
     7
100
AcDbLine
 10
-6.310444176087238
 20
-3.532606419655865
 30
1.828325203445889
 11
-6.310444176087238
 21
-3.511657661510055
 31
1.828325203445889
  0
LINE
  5
221
330
640
100
AcDbEntity
  8
1_TOP
  6
CONTINUOUS
 62
     7
100
AcDbLine
 10
-6.310699355605008
 20
-3.506659374885174
 30
1.833194318704349
 11
-6.334758390583777
 21
-3.494638106065866
 31
2.292268053709058
  0
LINE
  5
222
330
640
100
AcDbEntity
  8
1_TOP
  6
CONTINUOUS
 62
     7
100
AcDbLine
 10
-6.308890760847987
 20
-3.578919229625756
 30
1.79868427493282
 11
-6.304330185530909
 21
-3.507720261535014
 31
1.711663313933019
  0
LINE
  5
223
330
640
100
AcDbEntity
  8
1_TOP
  6
CONTINUOUS
 62
     7
100
AcDbLine
 10
-6.311099474908587
 20
-3.582606419655865
 30
1.840829049827279
 11
-6.308890760847987
 21
-3.578919229625756
 31
1.79868427493282
  0
LINE
  5
224
330
640
100
AcDbEntity
  8
1_TOP
  6
CONTINUOUS
 62
     7
100
AcDbLine
 10
-6.311099474908587
 20
-3.582606419655865
 30
1.840829049827279
 11
-6.311099474908587
 21
-3.572843696698545
 31
1.840829049827279
  0
LINE
  5
225
330
640
100
AcDbEntity
  8
1_TOP
  6
CONTINUOUS
 62
     7
100
AcDbLine
 10
-6.104964383007879
 20
-3.582606419655865
 30
1.840829049827279
 11
-6.104964383007879
 21
-3.572843696698545
 31
1.840829049827279
  0
LINE
  5
226
330
640
100
AcDbEntity
  8
1_TOP
  6
CONTINUOUS
 62
     7
100
AcDbLine
 10
-6.104964383007879
 20
-3.582606419655865
 30
1.840829049827279
 11
-6.107173097068478
 21
-3.578919229625756
 31
1.79868427493282
  0
LINE
  5
227
330
640
100
AcDbEntity
  8
1_TOP
  6
CONTINUOUS
 62
     7
100
AcDbLine
 10
-6.107173097068478
 20
-3.578919229625756
 30
1.79868427493282
 11
-6.111733672385558
 21
-3.507720261535014
 31
1.711663313933019
  0
LINE
  5
228
330
640
100
AcDbEntity
  8
1_TOP
  6
CONTINUOUS
 62
     7
100
AcDbLine
 10
-6.111733672385558
 20
-3.507720261535014
 30
1.711663313933019
 11
-6.304330185530909
 21
-3.507720261535014
 31
1.711663313933019
  0
LINE
  5
229
330
640
100
AcDbEntity
  8
1_TOP
  6
CONTINUOUS
 62
     7
100
AcDbLine
 10
-6.107173097068478
 20
-3.578919229625756
 30
1.79868427493282
 11
-6.308890760847987
 21
-3.578919229625756
 31
1.79868427493282
  0
LINE
  5
22A
330
640
100
AcDbEntity
  8
1_TOP
  6
CONTINUOUS
 62
     7
100
AcDbLine
 10
-6.104964383007879
 20
-3.582606419655865
 30
1.840829049827279
 11
-6.311099474908587
 21
-3.582606419655865
 31
1.840829049827279
  0
LINE
  5
22B
330
640
100
AcDbEntity
  8
1_TOP
  6
CONTINUOUS
 62
     7
100
AcDbLine
 10
-6.104964383007879
 20
-3.572843696698545
 30
1.840829049827279
 11
-6.311099474908587
 21
-3.572843696698545
 31
1.840829049827279
  0
LINE
  5
22C
330
640
100
AcDbEntity
  8
1_TOP
  6
CONTINUOUS
 62
     7
100
AcDbLine
 10
-5.676099474908587
 20
-3.572843696698545
 30
1.840829049827279
 11
-5.469964383007877
 21
-3.572843696698545
 31
1.840829049827279
  0
LINE
  5
22D
330
640
100
AcDbEntity
  8
1_TOP
  6
CONTINUOUS
 62
     7
100
AcDbLine
 10
-5.676099474908587
 20
-3.582606419655865
 30
1.840829049827279
 11
-5.469964383007877
 21
-3.582606419655865
 31
1.840829049827279
  0
LINE
  5
22E
330
640
100
AcDbEntity
  8
1_TOP
  6
CONTINUOUS
 62
     7
100
AcDbLine
 10
-5.673890760847988
 20
-3.578919229625756
 30
1.79868427493282
 11
-5.472173097068479
 21
-3.578919229625756
 31
1.79868427493282
  0
LINE
  5
22F
330
640
100
AcDbEntity
  8
1_TOP
  6
CONTINUOUS
 62
     7
100
AcDbLine
 10
-5.669330185530909
 20
-3.507720261535014
 30
1.711663313933019
 11
-5.476733672385559
 21
-3.507720261535014
 31
1.711663313933019
  0
LINE
  5
230
330
640
100
AcDbEntity
  8
1_TOP
  6
CONTINUOUS
 62
     7
100
AcDbLine
 10
-5.673890760847988
 20
-3.578919229625756
 30
1.79868427493282
 11
-5.669330185530909
 21
-3.507720261535014
 31
1.711663313933019
  0
LINE
  5
231
330
640
100
AcDbEntity
  8
1_TOP
  6
CONTINUOUS
 62
     7
100
AcDbLine
 10
-5.676099474908587
 20
-3.582606419655865
 30
1.840829049827279
 11
-5.673890760847988
 21
-3.578919229625756
 31
1.79868427493282
  0
LINE
  5
232
330
640
100
AcDbEntity
  8
1_TOP
  6
CONTINUOUS
 62
     7
100
AcDbLine
 10
-5.676099474908587
 20
-3.582606419655865
 30
1.840829049827279
 11
-5.676099474908587
 21
-3.572843696698545
 31
1.840829049827279
  0
LINE
  5
233
330
640
100
AcDbEntity
  8
1_TOP
  6
CONTINUOUS
 62
     7
100
AcDbLine
 10
-5.469964383007877
 20
-3.582606419655865
 30
1.840829049827279
 11
-5.469964383007877
 21
-3.572843696698545
 31
1.840829049827279
  0
LINE
  5
234
330
640
100
AcDbEntity
  8
1_TOP
  6
CONTINUOUS
 62
     7
100
AcDbLine
 10
-5.469964383007877
 20
-3.582606419655865
 30
1.840829049827279
 11
-5.472173097068479
 21
-3.578919229625756
 31
1.79868427493282
  0
LINE
  5
235
330
640
100
AcDbEntity
  8
1_TOP
  6
CONTINUOUS
 62
     7
100
AcDbLine
 10
-5.472173097068479
 20
-3.578919229625756
 30
1.79868427493282
 11
-5.476733672385559
 21
-3.507720261535014
 31
1.711663313933019
  0
LINE
  5
236
330
640
100
AcDbEntity
  8
1_TOP
  6
CONTINUOUS
 62
     7
100
AcDbLine
 10
-5.470364502311458
 20
-3.506659374885174
 30
1.833194318704349
 11
-5.446305467332688
 21
-3.494638106065866
 31
2.292268053709058
  0
LINE
  5
237
330
640
100
AcDbEntity
  8
1_TOP
  6
CONTINUOUS
 62
     7
100
AcDbLine
 10
-5.470619681829228
 20
-3.532606419655865
 30
1.828325203445889
 11
-5.470619681829228
 21
-3.511657661510055
 31
1.828325203445889
  0
LINE
  5
238
330
640
100
AcDbEntity
  8
1_TOP
  6
CONTINUOUS
 62
     7
100
AcDbLine
 10
-5.676098717079619
 20
-3.572463705537214
 30
1.840814589589159
 11
-5.676099474908587
 21
-3.572463705537214
 31
1.840829049827279
  0
LINE
  5
239
330
640
100
AcDbEntity
  8
1_TOP
  6
CONTINUOUS
 62
     7
100
AcDbLine
 10
-5.675699355605008
 20
-3.506659374885174
 30
1.833194318704349
 11
-5.699758390583777
 21
-3.494638106065866
 31
2.292268053709058
  0
LINE
  5
23A
330
640
100
AcDbEntity
  8
1_TOP
  6
CONTINUOUS
 62
     7
100
AcDbLine
 10
-5.675444176087238
 20
-3.532606419655865
 30
1.828325203445889
 11
-5.675444176087238
 21
-3.511657661510055
 31
1.828325203445889
  0
LINE
  5
23B
330
640
100
AcDbEntity
  8
1_TOP
  6
CONTINUOUS
 62
     7
100
AcDbLine
 10
-5.676038857880297
 20
-3.569265487632566
 30
1.839672408024789
 11
-5.470025000036177
 21
-3.569265487632566
 31
1.839672408024789
  0
LINE
  5
23C
330
640
100
AcDbEntity
  8
1_TOP
  6
CONTINUOUS
 62
     7
100
AcDbLine
 10
-5.676099474908587
 20
-3.572463705537214
 30
1.840829049827279
 11
-5.469964383007877
 21
-3.572463705537214
 31
1.840829049827279
  0
LINE
  5
23D
330
640
100
AcDbEntity
  8
1_TOP
  6
CONTINUOUS
 62
     7
100
AcDbLine
 10
-5.675699355605008
 20
-3.506659374885174
 30
1.833194318704349
 11
-5.470364502311458
 21
-3.506659374885174
 31
1.833194318704349
  0
LINE
  5
23E
330
640
100
AcDbEntity
  8
1_TOP
  6
CONTINUOUS
 62
     7
100
AcDbLine
 10
-5.675444176087238
 20
-3.511657661510055
 30
1.828325203445889
 11
-5.470619681829228
 21
-3.511657661510055
 31
1.828325203445889
  0
LINE
  5
23F
330
640
100
AcDbEntity
  8
1_TOP
  6
CONTINUOUS
 62
     7
100
AcDbLine
 10
-5.675444176087238
 20
-3.532606419655865
 30
1.828325203445889
 11
-5.470619681829228
 21
-3.532606419655865
 31
1.828325203445889
  0
LINE
  5
240
330
640
100
AcDbEntity
  8
1_TOP
  6
CONTINUOUS
 62
     7
100
AcDbLine
 10
-5.469965140836849
 20
-3.572463705537214
 30
1.840814589589159
 11
-5.469964383007877
 21
-3.572463705537214
 31
1.840829049827279
  0
LINE
  5
241
330
640
100
AcDbEntity
  8
1_TOP
  6
CONTINUOUS
 62
     7
100
AcDbLine
 10
-5.448031928958238
 20
-3.488305042378414
 30
2.25932520344589
 11
-5.446305467332688
 21
-3.494113755701245
 31
2.292268053709058
  0
LINE
  5
242
330
640
100
AcDbEntity
  8
1_TOP
  6
CONTINUOUS
 62
     7
100
AcDbLine
 10
-5.698031928958236
 20
-3.488305042378414
 30
2.25932520344589
 11
-5.699758390583777
 21
-3.494113755701245
 31
2.292268053709058
  0
LINE
  5
243
330
640
100
AcDbEntity
  8
1_TOP
  6
CONTINUOUS
 62
     7
100
AcDbLine
 10
-5.676098717079619
 20
-3.572463705537214
 30
1.840814589589159
 11
-5.469965140836849
 21
-3.572463705537214
 31
1.840814589589159
  0
LINE
  5
244
330
640
100
AcDbEntity
  8
1_TOP
  6
CONTINUOUS
 62
     7
100
AcDbLine
 10
-5.818031928958238
 20
-3.494638106065866
 30
2.292268053709058
 11
-5.699758390583777
 21
-3.494638106065866
 31
2.292268053709058
  0
LINE
  5
245
330
640
100
AcDbEntity
  8
1_TOP
  6
CONTINUOUS
 62
     7
100
AcDbLine
 10
-5.818031928958238
 20
-3.494113755701245
 30
2.292268053709058
 11
-5.699758390583777
 21
-3.494113755701245
 31
2.292268053709058
  0
LINE
  5
246
330
640
100
AcDbEntity
  8
1_TOP
  6
CONTINUOUS
 62
     7
100
AcDbLine
 10
-5.676098717079619
 20
-2.421999094255655
 30
1.840814589589159
 11
-5.469965140836849
 21
-2.421999094255655
 31
1.840814589589159
  0
LINE
  5
247
330
640
100
AcDbEntity
  8
1_TOP
  6
CONTINUOUS
 62
     7
100
AcDbLine
 10
-5.698031928958227
 20
-2.337840431096845
 30
2.25932520344589
 11
-5.699758390583777
 21
-2.343649144419685
 31
2.292268053709058
  0
LINE
  5
248
330
640
100
AcDbEntity
  8
1_TOP
  6
CONTINUOUS
 62
     7
100
AcDbLine
 10
-5.448031928958238
 20
-2.337840431096845
 30
2.25932520344589
 11
-5.446305467332688
 21
-2.343649144419685
 31
2.292268053709058
  0
LINE
  5
249
330
640
100
AcDbEntity
  8
1_TOP
  6
CONTINUOUS
 62
     7
100
AcDbLine
 10
-5.469965140836849
 20
-2.421999094255655
 30
1.840814589589159
 11
-5.469964383007877
 21
-2.421999094255655
 31
1.840829049827279
  0
LINE
  5
24A
330
640
100
AcDbEntity
  8
1_TOP
  6
CONTINUOUS
 62
     7
100
AcDbLine
 10
-5.675444176087238
 20
-2.382141808374306
 30
1.828325203445889
 11
-5.470619681829228
 21
-2.382141808374306
 31
1.828325203445889
  0
LINE
  5
24B
330
640
100
AcDbEntity
  8
1_TOP
  6
CONTINUOUS
 62
     7
100
AcDbLine
 10
-5.675444176087238
 20
-2.361193050228485
 30
1.828325203445889
 11
-5.470619681829228
 21
-2.361193050228485
 31
1.828325203445889
  0
LINE
  5
24C
330
640
100
AcDbEntity
  8
1_TOP
  6
CONTINUOUS
 62
     7
100
AcDbLine
 10
-5.675699355605008
 20
-2.356194763603605
 30
1.833194318704349
 11
-5.470364502311458
 21
-2.356194763603605
 31
1.833194318704349
  0
LINE
  5
24D
330
640
100
AcDbEntity
  8
1_TOP
  6
CONTINUOUS
 62
     7
100
AcDbLine
 10
-5.676099474908587
 20
-2.421999094255655
 30
1.840829049827279
 11
-5.469964383007877
 21
-2.421999094255655
 31
1.840829049827279
  0
LINE
  5
24E
330
640
100
AcDbEntity
  8
1_TOP
  6
CONTINUOUS
 62
     7
100
AcDbLine
 10
-5.676038857880297
 20
-2.418800876351004
 30
1.839672408024789
 11
-5.470025000036177
 21
-2.418800876351004
 31
1.839672408024789
  0
LINE
  5
24F
330
640
100
AcDbEntity
  8
1_TOP
  6
CONTINUOUS
 62
     7
100
AcDbLine
 10
-5.675444176087238
 20
-2.382141808374306
 30
1.828325203445889
 11
-5.675444176087238
 21
-2.361193050228485
 31
1.828325203445889
  0
LINE
  5
250
330
640
100
AcDbEntity
  8
1_TOP
  6
CONTINUOUS
 62
     7
100
AcDbLine
 10
-5.675699355605008
 20
-2.356194763603605
 30
1.833194318704349
 11
-5.699758390583777
 21
-2.344173494784305
 31
2.292268053709058
  0
LINE
  5
251
330
640
100
AcDbEntity
  8
1_TOP
  6
CONTINUOUS
 62
     7
100
AcDbLine
 10
-5.676098717079619
 20
-2.421999094255655
 30
1.840814589589159
 11
-5.676099474908587
 21
-2.421999094255655
 31
1.840829049827279
  0
LINE
  5
252
330
640
100
AcDbEntity
  8
1_TOP
  6
CONTINUOUS
 62
     7
100
AcDbLine
 10
-5.470619681829228
 20
-2.382141808374306
 30
1.828325203445889
 11
-5.470619681829228
 21
-2.361193050228485
 31
1.828325203445889
  0
LINE
  5
253
330
640
100
AcDbEntity
  8
1_TOP
  6
CONTINUOUS
 62
     7
100
AcDbLine
 10
-5.470364502311458
 20
-2.356194763603605
 30
1.833194318704349
 11
-5.446305467332688
 21
-2.344173494784305
 31
2.292268053709058
  0
LINE
  5
254
330
640
100
AcDbEntity
  8
1_TOP
  6
CONTINUOUS
 62
     7
100
AcDbLine
 10
-5.472173097068479
 20
-2.428454618344185
 30
1.79868427493282
 11
-5.476733672385559
 21
-2.357255650253454
 31
1.711663313933019
  0
LINE
  5
255
330
640
100
AcDbEntity
  8
1_TOP
  6
CONTINUOUS
 62
     7
100
AcDbLine
 10
-5.469964383007877
 20
-2.432141808374304
 30
1.840829049827279
 11
-5.472173097068479
 21
-2.428454618344185
 31
1.79868427493282
  0
LINE
  5
256
330
640
100
AcDbEntity
  8
1_TOP
  6
CONTINUOUS
 62
     7
100
AcDbLine
 10
-5.469964383007877
 20
-2.432141808374304
 30
1.840829049827279
 11
-5.469964383007877
 21
-2.422379085416984
 31
1.840829049827279
  0
LINE
  5
257
330
640
100
AcDbEntity
  8
1_TOP
  6
CONTINUOUS
 62
     7
100
AcDbLine
 10
-5.676099474908587
 20
-2.432141808374304
 30
1.840829049827279
 11
-5.676099474908587
 21
-2.422379085416984
 31
1.840829049827279
  0
LINE
  5
258
330
640
100
AcDbEntity
  8
1_TOP
  6
CONTINUOUS
 62
     7
100
AcDbLine
 10
-5.676099474908587
 20
-2.432141808374304
 30
1.840829049827279
 11
-5.673890760847988
 21
-2.428454618344185
 31
1.79868427493282
  0
LINE
  5
259
330
640
100
AcDbEntity
  8
1_TOP
  6
CONTINUOUS
 62
     7
100
AcDbLine
 10
-5.673890760847988
 20
-2.428454618344185
 30
1.79868427493282
 11
-5.669330185530909
 21
-2.357255650253454
 31
1.711663313933019
  0
LINE
  5
25A
330
640
100
AcDbEntity
  8
1_TOP
  6
CONTINUOUS
 62
     7
100
AcDbLine
 10
-5.669330185530909
 20
-2.357255650253454
 30
1.711663313933019
 11
-5.476733672385559
 21
-2.357255650253454
 31
1.711663313933019
  0
LINE
  5
25B
330
640
100
AcDbEntity
  8
1_TOP
  6
CONTINUOUS
 62
     7
100
AcDbLine
 10
-5.673890760847988
 20
-2.428454618344185
 30
1.79868427493282
 11
-5.472173097068479
 21
-2.428454618344185
 31
1.79868427493282
  0
LINE
  5
25C
330
640
100
AcDbEntity
  8
1_TOP
  6
CONTINUOUS
 62
     7
100
AcDbLine
 10
-5.676099474908587
 20
-2.432141808374304
 30
1.840829049827279
 11
-5.469964383007877
 21
-2.432141808374304
 31
1.840829049827279
  0
LINE
  5
25D
330
640
100
AcDbEntity
  8
1_TOP
  6
CONTINUOUS
 62
     7
100
AcDbLine
 10
-5.676099474908587
 20
-2.422379085416984
 30
1.840829049827279
 11
-5.469964383007877
 21
-2.422379085416984
 31
1.840829049827279
  0
LINE
  5
25E
330
640
100
AcDbEntity
  8
1_TOP
  6
CONTINUOUS
 62
     7
100
AcDbLine
 10
-6.104964383007879
 20
-2.422379085416984
 30
1.840829049827279
 11
-6.311099474908587
 21
-2.422379085416984
 31
1.840829049827279
  0
LINE
  5
25F
330
640
100
AcDbEntity
  8
1_TOP
  6
CONTINUOUS
 62
     7
100
AcDbLine
 10
-6.104964383007879
 20
-2.432141808374304
 30
1.840829049827279
 11
-6.311099474908587
 21
-2.432141808374304
 31
1.840829049827279
  0
LINE
  5
260
330
640
100
AcDbEntity
  8
1_TOP
  6
CONTINUOUS
 62
     7
100
AcDbLine
 10
-6.107173097068478
 20
-2.428454618344185
 30
1.79868427493282
 11
-6.308890760847987
 21
-2.428454618344185
 31
1.79868427493282
  0
LINE
  5
261
330
640
100
AcDbEntity
  8
1_TOP
  6
CONTINUOUS
 62
     7
100
AcDbLine
 10
-6.111733672385558
 20
-2.357255650253454
 30
1.711663313933019
 11
-6.304330185530909
 21
-2.357255650253454
 31
1.711663313933019
  0
LINE
  5
262
330
640
100
AcDbEntity
  8
1_TOP
  6
CONTINUOUS
 62
     7
100
AcDbLine
 10
-6.107173097068478
 20
-2.428454618344185
 30
1.79868427493282
 11
-6.111733672385558
 21
-2.357255650253454
 31
1.711663313933019
  0
LINE
  5
263
330
640
100
AcDbEntity
  8
1_TOP
  6
CONTINUOUS
 62
     7
100
AcDbLine
 10
-6.104964383007879
 20
-2.432141808374304
 30
1.840829049827279
 11
-6.107173097068478
 21
-2.428454618344185
 31
1.79868427493282
  0
LINE
  5
264
330
640
100
AcDbEntity
  8
1_TOP
  6
CONTINUOUS
 62
     7
100
AcDbLine
 10
-6.104964383007879
 20
-2.432141808374304
 30
1.840829049827279
 11
-6.104964383007879
 21
-2.422379085416984
 31
1.840829049827279
  0
LINE
  5
265
330
640
100
AcDbEntity
  8
1_TOP
  6
CONTINUOUS
 62
     7
100
AcDbLine
 10
-6.311099474908587
 20
-2.432141808374304
 30
1.840829049827279
 11
-6.311099474908587
 21
-2.422379085416984
 31
1.840829049827279
  0
LINE
  5
266
330
640
100
AcDbEntity
  8
1_TOP
  6
CONTINUOUS
 62
     7
100
AcDbLine
 10
-6.311099474908587
 20
-2.432141808374304
 30
1.840829049827279
 11
-6.308890760847987
 21
-2.428454618344185
 31
1.79868427493282
  0
LINE
  5
267
330
640
100
AcDbEntity
  8
1_TOP
  6
CONTINUOUS
 62
     7
100
AcDbLine
 10
-6.308890760847987
 20
-2.428454618344185
 30
1.79868427493282
 11
-6.304330185530909
 21
-2.357255650253454
 31
1.711663313933019
  0
LINE
  5
268
330
640
100
AcDbEntity
  8
1_TOP
  6
CONTINUOUS
 62
     7
100
AcDbLine
 10
-6.310699355605008
 20
-2.356194763603605
 30
1.833194318704349
 11
-6.334758390583777
 21
-2.344173494784305
 31
2.292268053709058
  0
LINE
  5
269
330
640
100
AcDbEntity
  8
1_TOP
  6
CONTINUOUS
 62
     7
100
AcDbLine
 10
-6.310444176087238
 20
-2.382141808374306
 30
1.828325203445889
 11
-6.310444176087238
 21
-2.361193050228485
 31
1.828325203445889
  0
LINE
  5
26A
330
640
100
AcDbEntity
  8
1_TOP
  6
CONTINUOUS
 62
     7
100
AcDbLine
 10
-6.104965140836847
 20
-2.421999094255655
 30
1.840814589589159
 11
-6.104964383007879
 21
-2.421999094255655
 31
1.840829049827279
  0
LINE
  5
26B
330
640
100
AcDbEntity
  8
1_TOP
  6
CONTINUOUS
 62
     7
100
AcDbLine
 10
-6.078158005484907
 20
-2.342600842971624
 30
2.352325203445869
 11
-6.081305467332687
 21
-2.344173494784305
 31
2.292268053709058
  0
LINE
  5
26C
330
640
100
AcDbEntity
  8
1_TOP
  6
CONTINUOUS
 62
     7
100
AcDbLine
 10
-6.105619681829228
 20
-2.382141808374306
 30
1.828325203445889
 11
-6.105619681829228
 21
-2.361193050228485
 31
1.828325203445889
  0
LINE
  5
26D
330
640
100
AcDbEntity
  8
1_TOP
  6
CONTINUOUS
 62
     7
100
AcDbLine
 10
-6.105025000036177
 20
-2.418800876351004
 30
1.839672408024789
 11
-6.311038857880286
 21
-2.418800876351004
 31
1.839672408024789
  0
LINE
  5
26E
330
640
100
AcDbEntity
  8
1_TOP
  6
CONTINUOUS
 62
     7
100
AcDbLine
 10
-6.104964383007879
 20
-2.421999094255655
 30
1.840829049827279
 11
-6.311099474908587
 21
-2.421999094255655
 31
1.840829049827279
  0
LINE
  5
26F
330
640
100
AcDbEntity
  8
1_TOP
  6
CONTINUOUS
 62
     7
100
AcDbLine
 10
-6.105364502311457
 20
-2.356194763603605
 30
1.833194318704349
 11
-6.310699355605008
 21
-2.356194763603605
 31
1.833194318704349
  0
LINE
  5
270
330
640
100
AcDbEntity
  8
1_TOP
  6
CONTINUOUS
 62
     7
100
AcDbLine
 10
-6.105619681829228
 20
-2.361193050228485
 30
1.828325203445889
 11
-6.310444176087238
 21
-2.361193050228485
 31
1.828325203445889
  0
LINE
  5
271
330
640
100
AcDbEntity
  8
1_TOP
  6
CONTINUOUS
 62
     7
100
AcDbLine
 10
-6.105619681829228
 20
-2.382141808374306
 30
1.828325203445889
 11
-6.310444176087238
 21
-2.382141808374306
 31
1.828325203445889
  0
LINE
  5
272
330
640
100
AcDbEntity
  8
1_TOP
  6
CONTINUOUS
 62
     7
100
AcDbLine
 10
-6.311098717079619
 20
-2.421999094255655
 30
1.840814589589168
 11
-6.311099474908587
 21
-2.421999094255655
 31
1.840829049827279
  0
LINE
  5
273
330
640
100
AcDbEntity
  8
1_TOP
  6
CONTINUOUS
 62
     7
100
AcDbLine
 10
-6.333031928958238
 20
-2.337840431096845
 30
2.25932520344589
 11
-6.334758390583777
 21
-2.343649144419685
 31
2.292268053709058
  0
LINE
  5
274
330
640
100
AcDbEntity
  8
1_TOP
  6
CONTINUOUS
 62
     7
100
AcDbLine
 10
-6.081617042740438
 20
-2.342600842971624
 30
2.286322840765199
 11
-6.081305467332687
 21
-2.343649144419685
 31
2.292268053709058
  0
LINE
  5
275
330
640
100
AcDbEntity
  8
1_TOP
  6
CONTINUOUS
 62
     7
100
AcDbLine
 10
-6.104965140836847
 20
-2.421999094255655
 30
1.840814589589159
 11
-6.311098717079619
 21
-2.421999094255655
 31
1.840814589589168
  0
ARC
  5
2B6
330
640
100
AcDbEntity
  8
1_TOP
  6
CONTINUOUS
 62
     7
100
AcDbCircle
 10
-2.477817908905363
 20
-0.0990543924007135
 30
5.039108687198488
 40
0.0312499999999984
210
0.2204074947909894
220
-0.975286108979532
230
0.0154123934391897
100
AcDbArc
 50
93.90145357592178
 51
180.0
  0
ARC
  5
2B8
330
640
100
AcDbEntity
  8
1_TOP
  6
CONTINUOUS
 62
     7
100
AcDbCircle
 10
-5.540043756201558
 20
0.0428102263555523
 30
-0.9209192079856167
 40
0.0312499999999977
210
0.9951458157835093
220
-0.0695873743166646
230
0.0695873743166531
100
AcDbArc
 50
90.27880039403273
 51
180.0
  0
ARC
  5
2B9
330
640
100
AcDbEntity
  8
1_TOP
  6
CONTINUOUS
 62
     7
100
AcDbCircle
 10
0.9736666431156475
 20
0.0745060925208754
 30
1.375298055769477
 40
0.0312500000000028
210
-0.9951458157835084
220
-0.0695873743166681
230
-0.0695873743166645
100
AcDbArc
 50
90.27880039403894
 51
180.0
  0
ARC
  5
2BA
330
640
100
AcDbEntity
  8
1_TOP
  6
CONTINUOUS
 62
     7
100
AcDbCircle
 10
-1.305874607749208
 20
-5.462256330301547
 30
-0.0213779012491595
 40
0.0312500000000004
100
AcDbArc
 50
192.7345062265727
 51
265.9999999999998
  0
ARC
  5
2BB
330
640
100
AcDbEntity
  8
1_TOP
  6
CONTINUOUS
 62
     7
100
AcDbCircle
 10
-1.305874607749228
 20
-1.067359885941062
 30
-0.0213779012491595
 40
0.0312499999999993
100
AcDbArc
 50
94.00000000000046
 51
167.2654937734288
  0
ARC
  5
2BC
330
640
100
AcDbEntity
  8
1_TOP
  6
CONTINUOUS
 62
     7
100
AcDbCircle
 10
-4.654087922188181
 20
3.384107963551408
 30
4.777811534684724
 40
0.0312499999999987
210
0.0154123934391897
220
-0.975286108979532
230
-0.2204074947909894
100
AcDbArc
 50
4.101018992390093
 51
90.19956541646825
  0
ARC
  5
2BD
330
640
100
AcDbEntity
  8
1_TOP
  6
CONTINUOUS
 62
     7
100
AcDbCircle
 10
-4.550382542618429
 20
1.937704026210168
 30
1.623213087258445
 40
0.0312499999999977
210
-0.0154123934391996
220
-0.9752861089795354
230
0.2204074947909742
100
AcDbArc
 50
4.101018992373155
 51
90.19956541646989
  0
ARC
  5
2BE
330
640
100
AcDbEntity
  8
1_TOP
  6
CONTINUOUS
 62
     7
100
AcDbCircle
 10
-7.104404845191818
 20
0.8622431901461711
 30
-2.173516191349393
 40
0.0312499999999979
210
0.069587374316653
220
-0.0695873743166645
230
-0.9951458157835093
100
AcDbArc
 50
45.13940019701093
 51
134.860599802976
  0
ARC
  5
2BF
330
640
100
AcDbEntity
  8
1_TOP
  6
CONTINUOUS
 62
     7
100
AcDbCircle
 10
-2.463502165409169
 20
-3.756131693098673
 30
2.630233960910863
 40
0.031250000000003
210
-0.0695873743166645
220
-0.0695873743166681
230
0.9951458157835084
100
AcDbArc
 50
45.13940019701808
 51
134.8605998029792
  0
ARC
  5
2C0
330
640
100
AcDbEntity
  8
1_TOP
  6
CONTINUOUS
 62
     7
100
AcDbCircle
 10
-5.479061977881494
 20
2.247820110195499
 30
-4.568083706777987
 40
0.0312499999999948
210
1.0
220
0.0
230
0.0
100
AcDbArc
 50
102.7345062265605
 51
176.0000000000075
  0
ARC
  5
2C1
330
640
100
AcDbEntity
  8
1_TOP
  6
CONTINUOUS
 62
     7
100
AcDbCircle
 10
-1.084165533521002
 20
2.247820110195519
 30
-4.568083706777987
 40
0.0312499999999959
210
1.0
220
0.0
230
0.0
100
AcDbArc
 50
3.999999999992393
 51
77.26549377342387
  0
ARC
  5
2C2
330
640
100
AcDbEntity
  8
1_TOP
  6
CONTINUOUS
 62
     7
100
AcDbCircle
 10
-1.084165533521002
 20
2.247820110195519
 30
-7.212980151138478
 40
0.0312499999999959
210
1.0
220
0.0
230
0.0
100
AcDbArc
 50
3.999999999992393
 51
77.26549377342387
  0
ARC
  5
2C3
330
640
100
AcDbEntity
  8
1_TOP
  6
CONTINUOUS
 62
     7
100
AcDbCircle
 10
-5.479061977881494
 20
2.247820110195499
 30
-7.212980151138478
 40
0.0312499999999948
210
1.0
220
0.0
230
0.0
100
AcDbArc
 50
102.7345062265605
 51
176.0000000000075
  0
ARC
  5
2C4
330
640
100
AcDbEntity
  8
1_TOP
  6
CONTINUOUS
 62
     7
100
AcDbCircle
 10
5.866967978115527
 20
4.53390081373895
 30
-1.810420660381504
 40
0.0312500000000028
210
-0.0695873743166646
220
0.0695873743166681
230
-0.9951458157835084
100
AcDbArc
 50
45.13940019701808
 51
134.8605998029789
  0
ARC
  5
2C5
330
640
100
AcDbEntity
  8
1_TOP
  6
CONTINUOUS
 62
     7
100
AcDbCircle
 10
1.226065298333333
 20
9.152275696983316
 30
1.353702890820164
 40
0.0312500000000032
210
0.0695873743166531
220
0.0695873743166645
230
0.9951458157835094
100
AcDbArc
 50
45.13940019701057
 51
134.8605998029755
  0
ARC
  5
2C6
330
640
100
AcDbEntity
  8
1_TOP
  6
CONTINUOUS
 62
     7
100
AcDbCircle
 10
7.229210530010023
 20
1.978733381668602
 30
-1.441638695947903
 40
0.0312499999999985
210
-0.0154123934391996
220
0.9752861089795354
230
-0.2204074947909742
100
AcDbArc
 50
4.101018992390093
 51
90.19956541646825
  0
ARC
  5
2C7
330
640
100
AcDbEntity
  8
1_TOP
  6
CONTINUOUS
 62
     7
100
AcDbCircle
 10
7.125505150440282
 20
3.425137319009825
 30
-4.959385925995157
 40
0.0312499999999975
210
0.0154123934391897
220
0.975286108979532
230
0.220407494790989
100
AcDbArc
 50
4.101018992372459
 51
90.19956541646825
  0
ARC
  5
2C8
330
640
100
AcDbEntity
  8
1_TOP
  6
CONTINUOUS
 62
     7
100
AcDbCircle
 10
-5.953031928958719
 20
-4.922113755701254
 30
2.292325203446039
 40
0.1533991304224704
100
AcDbArc
 50
90.0
 51
270.0
  0
ARC
  5
2C9
330
640
100
AcDbEntity
  8
1_TOP
  6
CONTINUOUS
 62
     7
100
AcDbCircle
 10
-5.828031928957747
 20
-4.922113755701254
 30
2.29232520344589
 40
0.15339913042246
100
AcDbArc
 50
270.0
 51
90.0
  0
ARC
  5
2CA
330
640
100
AcDbEntity
  8
1_TOP
  6
CONTINUOUS
 62
     7
100
AcDbCircle
 10
-5.953031928958719
 20
-4.922113755701254
 30
2.092895013071719
 40
0.0770172785307601
100
AcDbArc
 50
90.0
 51
270.0
  0
ARC
  5
2CB
330
640
100
AcDbEntity
  8
1_TOP
  6
CONTINUOUS
 62
     7
100
AcDbCircle
 10
-5.007593593545416
 20
2.11932520344597
 30
-5.953031928958719
 40
0.0079999999999997
210
1.0
220
0.0
230
0.0
100
AcDbArc
 50
1.000000000010647
 51
90.0
  0
ARC
  5
2CC
330
640
100
AcDbEntity
  8
1_TOP
  6
CONTINUOUS
 62
     7
100
AcDbCircle
 10
-5.953031928958719
 20
-4.922113755701254
 30
2.12732520344597
 40
0.0854798378441602
100
AcDbArc
 50
90.0
 51
270.0
  0
ARC
  5
2CD
330
640
100
AcDbEntity
  8
1_TOP
  6
CONTINUOUS
 62
     7
100
AcDbCircle
 10
-5.953031928958719
 20
-4.922113755701254
 30
2.12732520344597
 40
0.1325483163499648
100
AcDbArc
 50
90.0
 51
270.0
  0
ARC
  5
2CE
330
640
100
AcDbEntity
  8
1_TOP
  6
CONTINUOUS
 62
     7
100
AcDbCircle
 10
-5.054662072051224
 20
2.14295020344597
 30
-5.953031928958719
 40
0.015624999999998
210
1.0
220
0.0
230
0.0
100
AcDbArc
 50
181.9999999999764
 51
270.0
  0
ARC
  5
2CF
330
640
100
AcDbEntity
  8
1_TOP
  6
CONTINUOUS
 62
     7
100
AcDbCircle
 10
-4.202737535558434
 20
2.278369010040329
 30
-5.428031928958228
 40
0.0099999999999984
210
1.0
220
0.0
230
0.0
100
AcDbArc
 50
270.0
 51
353.0000000000093
  0
ARC
  5
2D0
330
640
100
AcDbEntity
  8
1_TOP
  6
CONTINUOUS
 62
     7
100
AcDbCircle
 10
-4.200978644983475
 20
2.293486747143099
 30
-5.428031928958228
 40
0.010000000000008
210
1.0
220
0.0
230
0.0
100
AcDbArc
 50
1.00000000003925
 51
90.0
  0
ARC
  5
2D1
330
640
100
AcDbEntity
  8
1_TOP
  6
CONTINUOUS
 62
     7
100
AcDbCircle
 10
-4.202737535558434
 20
2.278369010040329
 30
-5.718031928958227
 40
0.0099999999999947
210
1.0
220
0.0
230
0.0
100
AcDbArc
 50
301.6243183516484
 51
353.0000000000093
  0
ARC
  5
2D2
330
640
100
AcDbEntity
  8
1_TOP
  6
CONTINUOUS
 62
     7
100
AcDbCircle
 10
-4.200978644983475
 20
2.293486747143099
 30
-5.718031928958227
 40
0.010000000000008
210
1.0
220
0.0
230
0.0
100
AcDbArc
 50
1.00000000003925
 51
90.0
  0
ARC
  5
2D3
330
640
100
AcDbEntity
  8
1_TOP
  6
CONTINUOUS
 62
     7
100
AcDbCircle
 10
-4.202737535558434
 20
2.278369010040329
 30
-6.063031928958229
 40
0.0099999999999984
210
1.0
220
0.0
230
0.0
100
AcDbArc
 50
270.0
 51
353.0000000000093
  0
ARC
  5
2D4
330
640
100
AcDbEntity
  8
1_TOP
  6
CONTINUOUS
 62
     7
100
AcDbCircle
 10
-4.200978644983475
 20
2.293486747143099
 30
-6.353031928958229
 40
0.010000000000008
210
1.0
220
0.0
230
0.0
100
AcDbArc
 50
1.00000000003925
 51
90.0
  0
ARC
  5
2D5
330
640
100
AcDbEntity
  8
1_TOP
  6
CONTINUOUS
 62
     7
100
AcDbCircle
 10
-4.202737535558434
 20
2.278369010040329
 30
-6.353031928958229
 40
0.0099999999999987
210
1.0
220
0.0
230
0.0
100
AcDbArc
 50
301.6243183521607
 51
353.0000000000093
  0
ARC
  5
2D6
330
640
100
AcDbEntity
  8
1_TOP
  6
CONTINUOUS
 62
     7
100
AcDbCircle
 10
-4.200978644983475
 20
2.293486747143099
 30
-6.063031928958229
 40
0.010000000000008
210
1.0
220
0.0
230
0.0
100
AcDbArc
 50
1.00000000003925
 51
90.0
  0
ARC
  5
2D7
330
640
100
AcDbEntity
  8
1_TOP
  6
CONTINUOUS
 62
     7
100
AcDbCircle
 10
-3.050514033701915
 20
2.293486747143099
 30
-6.063031928958229
 40
0.0100000000000081
210
1.0
220
0.0
230
0.0
100
AcDbArc
 50
1.000000000039227
 51
90.0
  0
ARC
  5
2D8
330
640
100
AcDbEntity
  8
1_TOP
  6
CONTINUOUS
 62
     7
100
AcDbCircle
 10
-3.052272924276875
 20
2.278369010040329
 30
-6.353031928958229
 40
0.0099999999999983
210
1.0
220
0.0
230
0.0
100
AcDbArc
 50
301.6243183521563
 51
353.0000000000091
  0
ARC
  5
2D9
330
640
100
AcDbEntity
  8
1_TOP
  6
CONTINUOUS
 62
     7
100
AcDbCircle
 10
-3.050514033701915
 20
2.293486747143099
 30
-6.353031928958229
 40
0.0100000000000081
210
1.0
220
0.0
230
0.0
100
AcDbArc
 50
1.000000000039227
 51
90.0
  0
ARC
  5
2DA
330
640
100
AcDbEntity
  8
1_TOP
  6
CONTINUOUS
 62
     7
100
AcDbCircle
 10
-3.052272924276875
 20
2.278369010040329
 30
-6.063031928958229
 40
0.0099999999999981
210
1.0
220
0.0
230
0.0
100
AcDbArc
 50
270.0
 51
353.0000000000091
  0
ARC
  5
2DB
330
640
100
AcDbEntity
  8
1_TOP
  6
CONTINUOUS
 62
     7
100
AcDbCircle
 10
-3.050514033701915
 20
2.293486747143099
 30
-5.718031928958227
 40
0.0100000000000081
210
1.0
220
0.0
230
0.0
100
AcDbArc
 50
1.000000000039227
 51
90.0
  0
ARC
  5
2DC
330
640
100
AcDbEntity
  8
1_TOP
  6
CONTINUOUS
 62
     7
100
AcDbCircle
 10
-3.052272924276875
 20
2.278369010040329
 30
-5.718031928958227
 40
0.009999999999997
210
1.0
220
0.0
230
0.0
100
AcDbArc
 50
301.624318351696
 51
353.0000000000091
  0
ARC
  5
2DD
330
640
100
AcDbEntity
  8
1_TOP
  6
CONTINUOUS
 62
     7
100
AcDbCircle
 10
-3.050514033701915
 20
2.293486747143099
 30
-5.428031928958228
 40
0.0100000000000081
210
1.0
220
0.0
230
0.0
100
AcDbArc
 50
1.000000000039227
 51
90.0
  0
ARC
  5
2DE
330
640
100
AcDbEntity
  8
1_TOP
  6
CONTINUOUS
 62
     7
100
AcDbCircle
 10
-3.052272924276875
 20
2.278369010040329
 30
-5.428031928958228
 40
0.0099999999999981
210
1.0
220
0.0
230
0.0
100
AcDbArc
 50
270.0
 51
353.0000000000091
  0
ARC
  5
2DF
330
640
100
AcDbEntity
  8
1_TOP
  6
CONTINUOUS
 62
     7
100
AcDbCircle
 10
4.836633917856985
 20
2.11932520344597
 30
5.953031928958818
 40
0.0079999999999993
210
-1.0
220
0.0
230
0.0
100
AcDbArc
 50
1.00000000001076
 51
90.0
  0
ARC
  5
2E0
330
640
100
AcDbEntity
  8
1_TOP
  6
CONTINUOUS
 62
     7
100
AcDbCircle
 10
4.789565439351184
 20
2.14295020344597
 30
5.953031928958818
 40
0.0156250000000029
210
-1.0
220
0.0
230
0.0
100
AcDbArc
 50
181.9999999999752
 51
270.0
  0
ARC
  5
2E1
330
640
100
AcDbEntity
  8
1_TOP
  6
CONTINUOUS
 62
     7
100
AcDbCircle
 10
-5.828031928957747
 20
-4.922113755701294
 30
2.12732520344597
 40
0.1325483163499652
100
AcDbArc
 50
270.0
 51
90.0
  0
ARC
  5
2E2
330
640
100
AcDbEntity
  8
1_TOP
  6
CONTINUOUS
 62
     7
100
AcDbCircle
 10
-5.828031928957747
 20
-4.922113755701294
 30
2.12732520344597
 40
0.0854798378441602
100
AcDbArc
 50
270.0
 51
90.0
  0
ARC
  5
2E3
330
640
100
AcDbEntity
  8
1_TOP
  6
CONTINUOUS
 62
     7
100
AcDbCircle
 10
-5.828031928957747
 20
-4.922113755701294
 30
2.092895013071719
 40
0.0770172785307606
100
AcDbArc
 50
270.0
 51
90.0
  0
ARC
  5
2E4
330
640
100
AcDbEntity
  8
1_TOP
  6
CONTINUOUS
 62
     7
100
AcDbCircle
 10
-5.007593593545455
 20
2.11932520344597
 30
-5.828031928957747
 40
0.0079999999999995
210
1.0
220
0.0
230
0.0
100
AcDbArc
 50
1.000000000010704
 51
90.0
  0
ARC
  5
2E5
330
640
100
AcDbEntity
  8
1_TOP
  6
CONTINUOUS
 62
     7
100
AcDbCircle
 10
-5.054662072051264
 20
2.14295020344597
 30
-5.828031928957747
 40
0.0156249999999978
210
1.0
220
0.0
230
0.0
100
AcDbArc
 50
181.9999999999764
 51
270.0
  0
ARC
  5
2E6
330
640
100
AcDbEntity
  8
1_TOP
  6
CONTINUOUS
 62
     7
100
AcDbCircle
 10
4.836633917857505
 20
2.11932520344597
 30
5.828031928957909
 40
0.0079999999999993
210
-1.0
220
0.0
230
0.0
100
AcDbArc
 50
1.00000000001076
 51
90.0
  0
ARC
  5
2E7
330
640
100
AcDbEntity
  8
1_TOP
  6
CONTINUOUS
 62
     7
100
AcDbCircle
 10
4.789565439351695
 20
2.14295020344597
 30
5.828031928957909
 40
0.0156249999999985
210
-1.0
220
0.0
230
0.0
100
AcDbArc
 50
181.9999999999763
 51
270.0
  0
ARC
  5
2E8
330
640
100
AcDbEntity
  8
1_TOP
  6
CONTINUOUS
 62
     7
100
AcDbCircle
 10
-5.953031928958699
 20
-1.628600964574673
 30
2.292325203446019
 40
0.153399130422467
100
AcDbArc
 50
90.0
 51
270.0
  0
ARC
  5
2E9
330
640
100
AcDbEntity
  8
1_TOP
  6
CONTINUOUS
 62
     7
100
AcDbCircle
 10
-5.828031928957727
 20
-1.628600964574673
 30
2.292325203445869
 40
0.153399130422462
100
AcDbArc
 50
270.0
 51
90.0
  0
ARC
  5
2EA
330
640
100
AcDbEntity
  8
1_TOP
  6
CONTINUOUS
 62
     7
100
AcDbCircle
 10
-5.953031928958699
 20
-1.628600964574672
 30
2.092895013071698
 40
0.0770172785307599
100
AcDbArc
 50
90.0
 51
270.0
  0
ARC
  5
2EB
330
640
100
AcDbEntity
  8
1_TOP
  6
CONTINUOUS
 62
     7
100
AcDbCircle
 10
1.543121126730649
 20
2.11932520344597
 30
5.953031928958847
 40
0.008
210
-1.0
220
0.0
230
0.0
100
AcDbArc
 50
1.000000000010593
 51
90.0
  0
ARC
  5
2EC
330
640
100
AcDbEntity
  8
1_TOP
  6
CONTINUOUS
 62
     7
100
AcDbCircle
 10
-5.953031928958699
 20
-1.628600964574672
 30
2.127325203445948
 40
0.0854798378441585
100
AcDbArc
 50
90.0
 51
269.9999999999931
  0
ARC
  5
2ED
330
640
100
AcDbEntity
  8
1_TOP
  6
CONTINUOUS
 62
     7
100
AcDbCircle
 10
-5.953031928958699
 20
-1.628600964574672
 30
2.127325203445948
 40
0.1325483163499655
100
AcDbArc
 50
90.0
 51
269.9999999999955
  0
ARC
  5
2EE
330
640
100
AcDbEntity
  8
1_TOP
  6
CONTINUOUS
 62
     7
100
AcDbCircle
 10
1.496052648224844
 20
2.14295020344597
 30
5.953031928958847
 40
0.0156249999999997
210
-1.0
220
0.0
230
0.0
100
AcDbArc
 50
181.999999999976
 51
270.0
  0
ARC
  5
2EF
330
640
100
AcDbEntity
  8
1_TOP
  6
CONTINUOUS
 62
     7
100
AcDbCircle
 10
-1.714080802419078
 20
2.11932520344597
 30
-5.953031928958838
 40
0.008
210
1.0
220
0.0
230
0.0
100
AcDbArc
 50
1.000000000010579
 51
90.0
  0
ARC
  5
2F0
330
640
100
AcDbEntity
  8
1_TOP
  6
CONTINUOUS
 62
     7
100
AcDbCircle
 10
-1.761149280924884
 20
2.14295020344597
 30
-5.953031928958838
 40
0.0156250000000001
210
1.0
220
0.0
230
0.0
100
AcDbArc
 50
181.9999999999758
 51
270.0
  0
ARC
  5
2F1
330
640
100
AcDbEntity
  8
1_TOP
  6
CONTINUOUS
 62
     7
100
AcDbCircle
 10
-5.828031928957727
 20
-1.628600964574643
 30
2.127325203445959
 40
0.1325483163499655
100
AcDbArc
 50
270.0
 51
90.0
  0
ARC
  5
2F2
330
640
100
AcDbEntity
  8
1_TOP
  6
CONTINUOUS
 62
     7
100
AcDbCircle
 10
-5.828031928957727
 20
-1.628600964574645
 30
2.127325203445959
 40
0.0854798378441585
100
AcDbArc
 50
270.0
 51
90.0
  0
ARC
  5
2F3
330
640
100
AcDbEntity
  8
1_TOP
  6
CONTINUOUS
 62
     7
100
AcDbCircle
 10
-5.828031928957727
 20
-1.628600964574643
 30
2.092895013071709
 40
0.0770172785307599
100
AcDbArc
 50
270.0
 51
90.0
  0
ARC
  5
2F4
330
640
100
AcDbEntity
  8
1_TOP
  6
CONTINUOUS
 62
     7
100
AcDbCircle
 10
1.543121126730609
 20
2.11932520344597
 30
5.828031928957877
 40
0.008
210
-1.0
220
0.0
230
0.0
100
AcDbArc
 50
1.000000000010593
 51
90.0
  0
ARC
  5
2F5
330
640
100
AcDbEntity
  8
1_TOP
  6
CONTINUOUS
 62
     7
100
AcDbCircle
 10
1.496052648224804
 20
2.14295020344597
 30
5.828031928957877
 40
0.0156249999999997
210
-1.0
220
0.0
230
0.0
100
AcDbArc
 50
181.999999999976
 51
270.0
  0
ARC
  5
2F6
330
640
100
AcDbEntity
  8
1_TOP
  6
CONTINUOUS
 62
     7
100
AcDbCircle
 10
-1.714080802418566
 20
2.11932520344597
 30
-5.828031928957917
 40
0.008
210
1.0
220
0.0
230
0.0
100
AcDbArc
 50
1.000000000010579
 51
90.0
  0
ARC
  5
2F7
330
640
100
AcDbEntity
  8
1_TOP
  6
CONTINUOUS
 62
     7
100
AcDbCircle
 10
-1.761149280924371
 20
2.14295020344597
 30
-5.828031928957917
 40
0.0156249999999996
210
1.0
220
0.0
230
0.0
100
AcDbArc
 50
181.999999999976
 51
270.0
  0
POLYLINE
  5
30C
330
640
100
AcDbEntity
  8
1_TOP
  6
CONTINUOUS
 62
     7
100
AcDb3dPolyline
 66
     1
 10
0.0
 20
0.0
 30
0.0
 70
     8
  0
VERTEX
  5
485
330
30C
100
AcDbEntity
  8
1_TOP
  6
CONTINUOUS
 62
     7
100
AcDbVertex
100
AcDb3dPolylineVertex
 10
-1.308054497553742
 20
-1.067359885941054
 30
0.009795975321463
 70
    32
1001
ACAD
1000
R13OBJECT
1002
{
1005
30C
1002
}
  0
VERTEX
  5
486
330
30C
100
AcDbEntity
  8
1_TOP
  6
CONTINUOUS
 62
     7
100
AcDbVertex
100
AcDb3dPolylineVertex
 10
-1.491773582112341
 20
-2.159264413059827
 30
-0.0030509145549001
 70
    32
1001
ACAD
1000
R13OBJECT
1002
{
1005
30C
1002
}
  0
VERTEX
  5
487
330
30C
100
AcDbEntity
  8
1_TOP
  6
CONTINUOUS
 62
     7
100
AcDbVertex
100
AcDb3dPolylineVertex
 10
-1.55326615632543
 20
-3.264808108121298
 30
-0.0073508942278211
 70
    32
1001
ACAD
1000
R13OBJECT
1002
{
1005
30C
1002
}
  0
VERTEX
  5
488
330
30C
100
AcDbEntity
  8
1_TOP
  6
CONTINUOUS
 62
     7
100
AcDbVertex
100
AcDb3dPolylineVertex
 10
-1.491773582112335
 20
-4.37035180318277
 30
-0.0030509145548996
 70
    32
1001
ACAD
1000
R13OBJECT
1002
{
1005
30C
1002
}
  0
VERTEX
  5
489
330
30C
100
AcDbEntity
  8
1_TOP
  6
CONTINUOUS
 62
     7
100
AcDbVertex
100
AcDb3dPolylineVertex
 10
-1.308054497553728
 20
-5.462256330301542
 30
0.009795975321464
 70
    32
1001
ACAD
1000
R13OBJECT
1002
{
1005
30C
1002
}
  0
SEQEND
  5
48A
330
30C
100
AcDbEntity
  8
1_TOP
  6
CONTINUOUS
 62
     7
  0
POLYLINE
  5
30D
330
640
100
AcDbEntity
  8
1_TOP
  6
CONTINUOUS
 62
     7
100
AcDb3dPolyline
 66
     1
 10
0.0
 20
0.0
 30
0.0
 70
     8
  0
VERTEX
  5
48B
330
30D
100
AcDbEntity
  8
1_TOP
  6
CONTINUOUS
 62
     7
100
AcDbVertex
100
AcDb3dPolylineVertex
 10
-1.336355919163742
 20
-5.469144882722199
 30
-0.0213779012491573
 70
    32
1001
ACAD
1000
R13OBJECT
1002
{
1005
30D
1002
}
  0
VERTEX
  5
48C
330
30D
100
AcDbEntity
  8
1_TOP
  6
CONTINUOUS
 62
     7
100
AcDbVertex
100
AcDb3dPolylineVertex
 10
-1.520650925617523
 20
-4.373817457399288
 30
-0.0342247911255212
 70
    32
1001
ACAD
1000
R13OBJECT
1002
{
1005
30D
1002
}
  0
VERTEX
  5
48D
330
30D
100
AcDbEntity
  8
1_TOP
  6
CONTINUOUS
 62
     7
100
AcDbVertex
100
AcDb3dPolylineVertex
 10
-1.582336266520945
 20
-3.264808108121321
 30
-0.0385247707984429
 70
    32
1001
ACAD
1000
R13OBJECT
1002
{
1005
30D
1002
}
  0
VERTEX
  5
48E
330
30D
100
AcDbEntity
  8
1_TOP
  6
CONTINUOUS
 62
     7
100
AcDbVertex
100
AcDb3dPolylineVertex
 10
-1.520650925617536
 20
-2.155798758843354
 30
-0.034224791125522
 70
    32
1001
ACAD
1000
R13OBJECT
1002
{
1005
30D
1002
}
  0
VERTEX
  5
48F
330
30D
100
AcDbEntity
  8
1_TOP
  6
CONTINUOUS
 62
     7
100
AcDbVertex
100
AcDb3dPolylineVertex
 10
-1.33635591916377
 20
-1.060471333520444
 30
-0.0213779012491591
 70
    32
1001
ACAD
1000
R13OBJECT
1002
{
1005
30D
1002
}
  0
SEQEND
  5
490
330
30D
100
AcDbEntity
  8
1_TOP
  6
CONTINUOUS
 62
     7
  0
POLYLINE
  5
30E
330
640
100
AcDbEntity
  8
1_TOP
  6
CONTINUOUS
 62
     7
100
AcDb3dPolyline
 66
     1
 10
0.0
 20
0.0
 30
0.0
 70
     8
  0
VERTEX
  5
491
330
30E
100
AcDbEntity
  8
1_TOP
  6
CONTINUOUS
 62
     7
100
AcDbVertex
100
AcDb3dPolylineVertex
 10
-1.0023362665209
 20
-5.514808108121303
 30
-0.0000000000000222
 70
    32
1001
ACAD
1000
R13OBJECT
1002
{
1005
30E
1002
}
  0
VERTEX
  5
492
330
30E
100
AcDbEntity
  8
1_TOP
  6
CONTINUOUS
 62
     7
100
AcDbVertex
100
AcDb3dPolylineVertex
 10
-1.0023362665209
 20
-5.505686672264618
 30
0.0220524407139112
 70
    32
1001
ACAD
1000
R13OBJECT
1002
{
1005
30E
1002
}
  0
VERTEX
  5
493
330
30E
100
AcDbEntity
  8
1_TOP
  6
CONTINUOUS
 62
     7
100
AcDbVertex
100
AcDb3dPolylineVertex
 10
-1.0023362665209
 20
-5.483634231550683
 30
0.0311738765705973
 70
    32
1001
ACAD
1000
R13OBJECT
1002
{
1005
30E
1002
}
  0
SEQEND
  5
494
330
30E
100
AcDbEntity
  8
1_TOP
  6
CONTINUOUS
 62
     7
  0
POLYLINE
  5
30F
330
640
100
AcDbEntity
  8
1_TOP
  6
CONTINUOUS
 62
     7
100
AcDb3dPolyline
 66
     1
 10
0.0
 20
0.0
 30
0.0
 70
     8
  0
VERTEX
  5
495
330
30F
100
AcDbEntity
  8
1_TOP
  6
CONTINUOUS
 62
     7
100
AcDbVertex
100
AcDb3dPolylineVertex
 10
-1.002336266520901
 20
-1.045981984691926
 30
0.0311738765705973
 70
    32
1001
ACAD
1000
R13OBJECT
1002
{
1005
30F
1002
}
  0
VERTEX
  5
496
330
30F
100
AcDbEntity
  8
1_TOP
  6
CONTINUOUS
 62
     7
100
AcDbVertex
100
AcDb3dPolylineVertex
 10
-1.002336266520901
 20
-1.023929543977992
 30
0.0220524407139103
 70
    32
1001
ACAD
1000
R13OBJECT
1002
{
1005
30F
1002
}
  0
VERTEX
  5
497
330
30F
100
AcDbEntity
  8
1_TOP
  6
CONTINUOUS
 62
     7
100
AcDbVertex
100
AcDb3dPolylineVertex
 10
-1.002336266520901
 20
-1.014808108121306
 30
-0.000000000000024
 70
    32
1001
ACAD
1000
R13OBJECT
1002
{
1005
30F
1002
}
  0
SEQEND
  5
498
330
30F
100
AcDbEntity
  8
1_TOP
  6
CONTINUOUS
 62
     7
  0
POLYLINE
  5
310
330
640
100
AcDbEntity
  8
1_TOP
  6
CONTINUOUS
 62
     7
100
AcDb3dPolyline
 66
     1
 10
0.0
 20
0.0
 30
0.0
 70
     8
  0
VERTEX
  5
499
330
310
100
AcDbEntity
  8
1_TOP
  6
CONTINUOUS
 62
     7
100
AcDbVertex
100
AcDb3dPolylineVertex
 10
-0.8977269055785017
 20
-2.401995228771061
 30
-1.129333052351453
 70
    32
1001
ACAD
1000
R13OBJECT
1002
{
1005
310
1002
}
  0
VERTEX
  5
49A
330
310
100
AcDbEntity
  8
1_TOP
  6
CONTINUOUS
 62
     7
100
AcDbVertex
100
AcDb3dPolylineVertex
 10
-0.8883963219063614
 20
-2.384797652526888
 30
-1.128844057181783
 70
    32
1001
ACAD
1000
R13OBJECT
1002
{
1005
310
1002
}
  0
VERTEX
  5
49B
330
310
100
AcDbEntity
  8
1_TOP
  6
CONTINUOUS
 62
     7
100
AcDbVertex
100
AcDb3dPolylineVertex
 10
-0.8863797009996041
 20
-2.365336160794357
 30
-1.128738370558403
 70
    32
1001
ACAD
1000
R13OBJECT
1002
{
1005
310
1002
}
  0
SEQEND
  5
49C
330
310
100
AcDbEntity
  8
1_TOP
  6
CONTINUOUS
 62
     7
  0
POLYLINE
  5
311
330
640
100
AcDbEntity
  8
1_TOP
  6
CONTINUOUS
 62
     7
100
AcDb3dPolyline
 66
     1
 10
0.0
 20
0.0
 30
0.0
 70
     8
  0
VERTEX
  5
49D
330
311
100
AcDbEntity
  8
1_TOP
  6
CONTINUOUS
 62
     7
100
AcDbVertex
100
AcDb3dPolylineVertex
 10
-0.8863797009996019
 20
-2.344387402648545
 30
-1.128738370558413
 70
    32
1001
ACAD
1000
R13OBJECT
1002
{
1005
311
1002
}
  0
VERTEX
  5
49E
330
311
100
AcDbEntity
  8
1_TOP
  6
CONTINUOUS
 62
     7
100
AcDbVertex
100
AcDb3dPolylineVertex
 10
-0.8877981912824788
 20
-2.340898450349337
 30
-1.128812710484073
 70
    32
1001
ACAD
1000
R13OBJECT
1002
{
1005
311
1002
}
  0
VERTEX
  5
49F
330
311
100
AcDbEntity
  8
1_TOP
  6
CONTINUOUS
 62
     7
100
AcDbVertex
100
AcDb3dPolylineVertex
 10
-0.8912488162580627
 20
-2.339389116023669
 30
-1.128993550076182
 70
    32
1001
ACAD
1000
R13OBJECT
1002
{
1005
311
1002
}
  0
SEQEND
  5
4A0
330
311
100
AcDbEntity
  8
1_TOP
  6
CONTINUOUS
 62
     7
  0
POLYLINE
  5
312
330
640
100
AcDbEntity
  8
1_TOP
  6
CONTINUOUS
 62
     7
100
AcDb3dPolyline
 66
     1
 10
0.0
 20
0.0
 30
0.0
 70
     8
  0
VERTEX
  5
4A1
330
312
100
AcDbEntity
  8
1_TOP
  6
CONTINUOUS
 62
     7
100
AcDbVertex
100
AcDb3dPolylineVertex
 10
-0.8977269055785011
 20
-2.401995228771066
 30
-1.129333052351465
 70
    32
1001
ACAD
1000
R13OBJECT
1002
{
1005
312
1002
}
  0
VERTEX
  5
4A2
330
312
100
AcDbEntity
  8
1_TOP
  6
CONTINUOUS
 62
     7
100
AcDbVertex
100
AcDb3dPolylineVertex
 10
-0.8985855039411655
 20
-2.403492974827604
 30
-1.129378049584947
 70
    32
1001
ACAD
1000
R13OBJECT
1002
{
1005
312
1002
}
  0
VERTEX
  5
4A3
330
312
100
AcDbEntity
  8
1_TOP
  6
CONTINUOUS
 62
     7
100
AcDbVertex
100
AcDb3dPolylineVertex
 10
-0.8988835473809901
 20
-2.405193446675716
 30
-1.129393669379759
 70
    32
1001
ACAD
1000
R13OBJECT
1002
{
1005
312
1002
}
  0
SEQEND
  5
4A4
330
312
100
AcDbEntity
  8
1_TOP
  6
CONTINUOUS
 62
     7
  0
POLYLINE
  5
313
330
640
100
AcDbEntity
  8
1_TOP
  6
CONTINUOUS
 62
     7
100
AcDb3dPolyline
 66
     1
 10
0.0
 20
0.0
 30
0.0
 70
     8
  0
VERTEX
  5
4A5
330
313
100
AcDbEntity
  8
1_TOP
  6
CONTINUOUS
 62
     7
100
AcDbVertex
100
AcDb3dPolylineVertex
 10
-0.8863797009996028
 20
-2.344387402648556
 30
-0.9239138763003944
 70
    32
1001
ACAD
1000
R13OBJECT
1002
{
1005
313
1002
}
  0
VERTEX
  5
4A6
330
313
100
AcDbEntity
  8
1_TOP
  6
CONTINUOUS
 62
     7
100
AcDbVertex
100
AcDb3dPolylineVertex
 10
-0.8877981912824798
 20
-2.340898450349348
 30
-0.923839536374734
 70
    32
1001
ACAD
1000
R13OBJECT
1002
{
1005
313
1002
}
  0
VERTEX
  5
4A7
330
313
100
AcDbEntity
  8
1_TOP
  6
CONTINUOUS
 62
     7
100
AcDbVertex
100
AcDb3dPolylineVertex
 10
-0.8912488162580642
 20
-2.339389116023679
 30
-0.9236586967826251
 70
    32
1001
ACAD
1000
R13OBJECT
1002
{
1005
313
1002
}
  0
SEQEND
  5
4A8
330
313
100
AcDbEntity
  8
1_TOP
  6
CONTINUOUS
 62
     7
  0
POLYLINE
  5
314
330
640
100
AcDbEntity
  8
1_TOP
  6
CONTINUOUS
 62
     7
100
AcDb3dPolyline
 66
     1
 10
0.0
 20
0.0
 30
0.0
 70
     8
  0
VERTEX
  5
4A9
330
314
100
AcDbEntity
  8
1_TOP
  6
CONTINUOUS
 62
     7
100
AcDbVertex
100
AcDb3dPolylineVertex
 10
-0.8977269055785011
 20
-2.401995228771076
 30
-0.9233191945073436
 70
    32
1001
ACAD
1000
R13OBJECT
1002
{
1005
314
1002
}
  0
VERTEX
  5
4AA
330
314
100
AcDbEntity
  8
1_TOP
  6
CONTINUOUS
 62
     7
100
AcDbVertex
100
AcDb3dPolylineVertex
 10
-0.8985855039411655
 20
-2.403492974827615
 30
-0.9232741972738603
 70
    32
1001
ACAD
1000
R13OBJECT
1002
{
1005
314
1002
}
  0
VERTEX
  5
4AB
330
314
100
AcDbEntity
  8
1_TOP
  6
CONTINUOUS
 62
     7
100
AcDbVertex
100
AcDb3dPolylineVertex
 10
-0.8988835473809901
 20
-2.405193446675727
 30
-0.9232585774790491
 70
    32
1001
ACAD
1000
R13OBJECT
1002
{
1005
314
1002
}
  0
SEQEND
  5
4AC
330
314
100
AcDbEntity
  8
1_TOP
  6
CONTINUOUS
 62
     7
  0
POLYLINE
  5
315
330
640
100
AcDbEntity
  8
1_TOP
  6
CONTINUOUS
 62
     7
100
AcDb3dPolyline
 66
     1
 10
0.0
 20
0.0
 30
0.0
 70
     8
  0
VERTEX
  5
4AD
330
315
100
AcDbEntity
  8
1_TOP
  6
CONTINUOUS
 62
     7
100
AcDbVertex
100
AcDb3dPolylineVertex
 10
-0.8977269055785008
 20
-2.401995228771069
 30
-0.9233191945073436
 70
    32
1001
ACAD
1000
R13OBJECT
1002
{
1005
315
1002
}
  0
VERTEX
  5
4AE
330
315
100
AcDbEntity
  8
1_TOP
  6
CONTINUOUS
 62
     7
100
AcDbVertex
100
AcDb3dPolylineVertex
 10
-0.8883963219063602
 20
-2.384797652526895
 30
-0.9238081896770149
 70
    32
1001
ACAD
1000
R13OBJECT
1002
{
1005
315
1002
}
  0
VERTEX
  5
4AF
330
315
100
AcDbEntity
  8
1_TOP
  6
CONTINUOUS
 62
     7
100
AcDbVertex
100
AcDb3dPolylineVertex
 10
-0.8863797009996041
 20
-2.365336160794363
 30
-0.9239138763003939
 70
    32
1001
ACAD
1000
R13OBJECT
1002
{
1005
315
1002
}
  0
SEQEND
  5
4B0
330
315
100
AcDbEntity
  8
1_TOP
  6
CONTINUOUS
 62
     7
  0
POLYLINE
  5
316
330
640
100
AcDbEntity
  8
1_TOP
  6
CONTINUOUS
 62
     7
100
AcDb3dPolyline
 66
     1
 10
0.0
 20
0.0
 30
0.0
 70
     8
  0
VERTEX
  5
4B1
330
316
100
AcDbEntity
  8
1_TOP
  6
CONTINUOUS
 62
     7
100
AcDbVertex
100
AcDb3dPolylineVertex
 10
-0.8156821362621645
 20
-2.257622945993268
 30
-0.9782688732545356
 70
    32
1001
ACAD
1000
R13OBJECT
1002
{
1005
316
1002
}
  0
VERTEX
  5
4B2
330
316
100
AcDbEntity
  8
1_TOP
  6
CONTINUOUS
 62
     7
100
AcDbVertex
100
AcDb3dPolylineVertex
 10
-0.8090661639834141
 20
-2.26077860289524
 30
-0.9781533910288468
 70
    32
1001
ACAD
1000
R13OBJECT
1002
{
1005
316
1002
}
  0
VERTEX
  5
4B3
330
316
100
AcDbEntity
  8
1_TOP
  6
CONTINUOUS
 62
     7
100
AcDbVertex
100
AcDb3dPolylineVertex
 10
-0.8063797009996058
 20
-2.267598586495865
 30
-0.9781064986430372
 70
    32
1001
ACAD
1000
R13OBJECT
1002
{
1005
316
1002
}
  0
SEQEND
  5
4B4
330
316
100
AcDbEntity
  8
1_TOP
  6
CONTINUOUS
 62
     7
  0
POLYLINE
  5
317
330
640
100
AcDbEntity
  8
1_TOP
  6
CONTINUOUS
 62
     7
100
AcDb3dPolyline
 66
     1
 10
0.0
 20
0.0
 30
0.0
 70
     8
  0
VERTEX
  5
4B5
330
317
100
AcDbEntity
  8
1_TOP
  6
CONTINUOUS
 62
     7
100
AcDbVertex
100
AcDb3dPolylineVertex
 10
-0.8156821362621659
 20
-2.257622945993238
 30
-0.9379441240315372
 70
    32
1001
ACAD
1000
R13OBJECT
1002
{
1005
317
1002
}
  0
VERTEX
  5
4B6
330
317
100
AcDbEntity
  8
1_TOP
  6
CONTINUOUS
 62
     7
100
AcDbVertex
100
AcDb3dPolylineVertex
 10
-0.8090661639834152
 20
-2.260778602895211
 30
-0.9380596062572262
 70
    32
1001
ACAD
1000
R13OBJECT
1002
{
1005
317
1002
}
  0
VERTEX
  5
4B7
330
317
100
AcDbEntity
  8
1_TOP
  6
CONTINUOUS
 62
     7
100
AcDbVertex
100
AcDb3dPolylineVertex
 10
-0.8063797009996072
 20
-2.267598586495836
 30
-0.9381064986430359
 70
    32
1001
ACAD
1000
R13OBJECT
1002
{
1005
317
1002
}
  0
SEQEND
  5
4B8
330
317
100
AcDbEntity
  8
1_TOP
  6
CONTINUOUS
 62
     7
  0
POLYLINE
  5
318
330
640
100
AcDbEntity
  8
1_TOP
  6
CONTINUOUS
 62
     7
100
AcDb3dPolyline
 66
     1
 10
0.0
 20
0.0
 30
0.0
 70
     8
  0
VERTEX
  5
4B9
330
318
100
AcDbEntity
  8
1_TOP
  6
CONTINUOUS
 62
     7
100
AcDbVertex
100
AcDb3dPolylineVertex
 10
-0.8156821362621652
 20
-2.257622945993238
 30
-1.074383373604264
 70
    32
1001
ACAD
1000
R13OBJECT
1002
{
1005
318
1002
}
  0
VERTEX
  5
4BA
330
318
100
AcDbEntity
  8
1_TOP
  6
CONTINUOUS
 62
     7
100
AcDbVertex
100
AcDb3dPolylineVertex
 10
-0.809066163983415
 20
-2.260778602895211
 30
-1.074498855829954
 70
    32
1001
ACAD
1000
R13OBJECT
1002
{
1005
318
1002
}
  0
VERTEX
  5
4BB
330
318
100
AcDbEntity
  8
1_TOP
  6
CONTINUOUS
 62
     7
100
AcDbVertex
100
AcDb3dPolylineVertex
 10
-0.8063797009996067
 20
-2.267598586495836
 30
-1.074545748215762
 70
    32
1001
ACAD
1000
R13OBJECT
1002
{
1005
318
1002
}
  0
SEQEND
  5
4BC
330
318
100
AcDbEntity
  8
1_TOP
  6
CONTINUOUS
 62
     7
  0
POLYLINE
  5
319
330
640
100
AcDbEntity
  8
1_TOP
  6
CONTINUOUS
 62
     7
100
AcDb3dPolyline
 66
     1
 10
0.0
 20
0.0
 30
0.0
 70
     8
  0
VERTEX
  5
4BD
330
319
100
AcDbEntity
  8
1_TOP
  6
CONTINUOUS
 62
     7
100
AcDbVertex
100
AcDb3dPolylineVertex
 10
-0.815682136262165
 20
-2.257622945993268
 30
-1.114708122827264
 70
    32
1001
ACAD
1000
R13OBJECT
1002
{
1005
319
1002
}
  0
VERTEX
  5
4BE
330
319
100
AcDbEntity
  8
1_TOP
  6
CONTINUOUS
 62
     7
100
AcDbVertex
100
AcDb3dPolylineVertex
 10
-0.8090661639834145
 20
-2.26077860289524
 30
-1.114592640601574
 70
    32
1001
ACAD
1000
R13OBJECT
1002
{
1005
319
1002
}
  0
VERTEX
  5
4BF
330
319
100
AcDbEntity
  8
1_TOP
  6
CONTINUOUS
 62
     7
100
AcDbVertex
100
AcDb3dPolylineVertex
 10
-0.8063797009996063
 20
-2.267598586495865
 30
-1.114545748215765
 70
    32
1001
ACAD
1000
R13OBJECT
1002
{
1005
319
1002
}
  0
SEQEND
  5
4C0
330
319
100
AcDbEntity
  8
1_TOP
  6
CONTINUOUS
 62
     7
  0
POLYLINE
  5
31A
330
640
100
AcDbEntity
  8
1_TOP
  6
CONTINUOUS
 62
     7
100
AcDb3dPolyline
 66
     1
 10
0.0
 20
0.0
 30
0.0
 70
     8
  0
VERTEX
  5
4C1
330
31A
100
AcDbEntity
  8
1_TOP
  6
CONTINUOUS
 62
     7
100
AcDbVertex
100
AcDb3dPolylineVertex
 10
-0.7514775879143189
 20
-2.298624980917729
 30
-0.9309837964677829
 70
    32
1001
ACAD
1000
R13OBJECT
1002
{
1005
31A
1002
}
  0
VERTEX
  5
4C2
330
31A
100
AcDbEntity
  8
1_TOP
  6
CONTINUOUS
 62
     7
100
AcDbVertex
100
AcDb3dPolylineVertex
 10
-0.7527087065716889
 20
-2.29074128912222
 30
-0.9309192762729161
 70
    32
1001
ACAD
1000
R13OBJECT
1002
{
1005
31A
1002
}
  0
VERTEX
  5
4C3
330
31A
100
AcDbEntity
  8
1_TOP
  6
CONTINUOUS
 62
     7
100
AcDbVertex
100
AcDb3dPolylineVertex
 10
-0.7578083064904302
 20
-2.284604324877264
 30
-0.9306520175659429
 70
    32
1001
ACAD
1000
R13OBJECT
1002
{
1005
31A
1002
}
  0
VERTEX
  5
4C4
330
31A
100
AcDbEntity
  8
1_TOP
  6
CONTINUOUS
 62
     7
100
AcDbVertex
100
AcDb3dPolylineVertex
 10
-0.7653333538934334
 20
-2.281950664940936
 30
-0.9302576465425518
 70
    32
1001
ACAD
1000
R13OBJECT
1002
{
1005
31A
1002
}
  0
SEQEND
  5
4C5
330
31A
100
AcDbEntity
  8
1_TOP
  6
CONTINUOUS
 62
     7
  0
POLYLINE
  5
31B
330
640
100
AcDbEntity
  8
1_TOP
  6
CONTINUOUS
 62
     7
100
AcDb3dPolyline
 66
     1
 10
0.0
 20
0.0
 30
0.0
 70
     8
  0
VERTEX
  5
4C6
330
31B
100
AcDbEntity
  8
1_TOP
  6
CONTINUOUS
 62
     7
100
AcDbVertex
100
AcDb3dPolylineVertex
 10
-0.7697178114867357
 20
-2.340450002673514
 30
-0.9300278668567266
 70
    32
1001
ACAD
1000
R13OBJECT
1002
{
1005
31B
1002
}
  0
VERTEX
  5
4C7
330
31B
100
AcDbEntity
  8
1_TOP
  6
CONTINUOUS
 62
     7
100
AcDbVertex
100
AcDb3dPolylineVertex
 10
-0.7555484372031942
 20
-2.32173951520077
 30
-0.930770452296757
 70
    32
1001
ACAD
1000
R13OBJECT
1002
{
1005
31B
1002
}
  0
VERTEX
  5
4C8
330
31B
100
AcDbEntity
  8
1_TOP
  6
CONTINUOUS
 62
     7
100
AcDbVertex
100
AcDb3dPolylineVertex
 10
-0.7514775879143186
 20
-2.298624980917725
 30
-0.9309837964677829
 70
    32
1001
ACAD
1000
R13OBJECT
1002
{
1005
31B
1002
}
  0
SEQEND
  5
4C9
330
31B
100
AcDbEntity
  8
1_TOP
  6
CONTINUOUS
 62
     7
  0
POLYLINE
  5
31C
330
640
100
AcDbEntity
  8
1_TOP
  6
CONTINUOUS
 62
     7
100
AcDb3dPolyline
 66
     1
 10
0.0
 20
0.0
 30
0.0
 70
     8
  0
VERTEX
  5
4CA
330
31C
100
AcDbEntity
  8
1_TOP
  6
CONTINUOUS
 62
     7
100
AcDbVertex
100
AcDb3dPolylineVertex
 10
-0.8988690871428747
 20
-2.405193446675719
 30
-0.9232593353080169
 70
    32
1001
ACAD
1000
R13OBJECT
1002
{
1005
31C
1002
}
  0
VERTEX
  5
4CB
330
31C
100
AcDbEntity
  8
1_TOP
  6
CONTINUOUS
 62
     7
100
AcDbVertex
100
AcDb3dPolylineVertex
 10
-0.8988799310136514
 20
-2.405383304738156
 30
-0.9232587670048303
 70
    32
1001
ACAD
1000
R13OBJECT
1002
{
1005
31C
1002
}
  0
VERTEX
  5
4CC
330
31C
100
AcDbEntity
  8
1_TOP
  6
CONTINUOUS
 62
     7
100
AcDbVertex
100
AcDb3dPolylineVertex
 10
-0.898883547380992
 20
-2.405573437837047
 30
-0.9232585774790488
 70
    32
1001
ACAD
1000
R13OBJECT
1002
{
1005
31C
1002
}
  0
SEQEND
  5
4CD
330
31C
100
AcDbEntity
  8
1_TOP
  6
CONTINUOUS
 62
     7
  0
POLYLINE
  5
31D
330
640
100
AcDbEntity
  8
1_TOP
  6
CONTINUOUS
 62
     7
100
AcDb3dPolyline
 66
     1
 10
0.0
 20
0.0
 30
0.0
 70
     8
  0
VERTEX
  5
4CE
330
31D
100
AcDbEntity
  8
1_TOP
  6
CONTINUOUS
 62
     7
100
AcDbVertex
100
AcDb3dPolylineVertex
 10
-0.8988690871428758
 20
-2.405193446675709
 30
-1.129392911550781
 70
    32
1001
ACAD
1000
R13OBJECT
1002
{
1005
31D
1002
}
  0
VERTEX
  5
4CF
330
31D
100
AcDbEntity
  8
1_TOP
  6
CONTINUOUS
 62
     7
100
AcDbVertex
100
AcDb3dPolylineVertex
 10
-0.8988799310136524
 20
-2.405383304738147
 30
-1.129393479853966
 70
    32
1001
ACAD
1000
R13OBJECT
1002
{
1005
31D
1002
}
  0
VERTEX
  5
4D0
330
31D
100
AcDbEntity
  8
1_TOP
  6
CONTINUOUS
 62
     7
100
AcDbVertex
100
AcDb3dPolylineVertex
 10
-0.8988835473809931
 20
-2.405573437837037
 30
-1.129393669379749
 70
    32
1001
ACAD
1000
R13OBJECT
1002
{
1005
31D
1002
}
  0
SEQEND
  5
4D1
330
31D
100
AcDbEntity
  8
1_TOP
  6
CONTINUOUS
 62
     7
  0
POLYLINE
  5
31E
330
640
100
AcDbEntity
  8
1_TOP
  6
CONTINUOUS
 62
     7
100
AcDb3dPolyline
 66
     1
 10
0.0
 20
0.0
 30
0.0
 70
     8
  0
VERTEX
  5
4D2
330
31E
100
AcDbEntity
  8
1_TOP
  6
CONTINUOUS
 62
     7
100
AcDbVertex
100
AcDb3dPolylineVertex
 10
-0.7697178114867358
 20
-2.340450002673506
 30
-1.122624380002071
 70
    32
1001
ACAD
1000
R13OBJECT
1002
{
1005
31E
1002
}
  0
VERTEX
  5
4D3
330
31E
100
AcDbEntity
  8
1_TOP
  6
CONTINUOUS
 62
     7
100
AcDbVertex
100
AcDb3dPolylineVertex
 10
-0.7555484372031942
 20
-2.321739515200762
 30
-1.12188179456204
 70
    32
1001
ACAD
1000
R13OBJECT
1002
{
1005
31E
1002
}
  0
VERTEX
  5
4D4
330
31E
100
AcDbEntity
  8
1_TOP
  6
CONTINUOUS
 62
     7
100
AcDbVertex
100
AcDb3dPolylineVertex
 10
-0.751477587914318
 20
-2.298624980917718
 30
-1.121668450391015
 70
    32
1001
ACAD
1000
R13OBJECT
1002
{
1005
31E
1002
}
  0
SEQEND
  5
4D5
330
31E
100
AcDbEntity
  8
1_TOP
  6
CONTINUOUS
 62
     7
  0
POLYLINE
  5
31F
330
640
100
AcDbEntity
  8
1_TOP
  6
CONTINUOUS
 62
     7
100
AcDb3dPolyline
 66
     1
 10
0.0
 20
0.0
 30
0.0
 70
     8
  0
VERTEX
  5
4D6
330
31F
100
AcDbEntity
  8
1_TOP
  6
CONTINUOUS
 62
     7
100
AcDbVertex
100
AcDb3dPolylineVertex
 10
-0.7514775879143189
 20
-2.29862498091772
 30
-1.121668450391015
 70
    32
1001
ACAD
1000
R13OBJECT
1002
{
1005
31F
1002
}
  0
VERTEX
  5
4D7
330
31F
100
AcDbEntity
  8
1_TOP
  6
CONTINUOUS
 62
     7
100
AcDbVertex
100
AcDb3dPolylineVertex
 10
-0.7527087065716889
 20
-2.290741289122211
 30
-1.121732970585882
 70
    32
1001
ACAD
1000
R13OBJECT
1002
{
1005
31F
1002
}
  0
VERTEX
  5
4D8
330
31F
100
AcDbEntity
  8
1_TOP
  6
CONTINUOUS
 62
     7
100
AcDbVertex
100
AcDb3dPolylineVertex
 10
-0.7578083064904299
 20
-2.284604324877253
 30
-1.122000229292855
 70
    32
1001
ACAD
1000
R13OBJECT
1002
{
1005
31F
1002
}
  0
VERTEX
  5
4D9
330
31F
100
AcDbEntity
  8
1_TOP
  6
CONTINUOUS
 62
     7
100
AcDbVertex
100
AcDb3dPolylineVertex
 10
-0.7653333538934325
 20
-2.281950664940926
 30
-1.122394600316245
 70
    32
1001
ACAD
1000
R13OBJECT
1002
{
1005
31F
1002
}
  0
SEQEND
  5
4DA
330
31F
100
AcDbEntity
  8
1_TOP
  6
CONTINUOUS
 62
     7
  0
POLYLINE
  5
320
330
640
100
AcDbEntity
  8
1_TOP
  6
CONTINUOUS
 62
     7
100
AcDb3dPolyline
 66
     1
 10
0.0
 20
0.0
 30
0.0
 70
     8
  0
VERTEX
  5
4DB
330
320
100
AcDbEntity
  8
1_TOP
  6
CONTINUOUS
 62
     7
100
AcDbVertex
100
AcDb3dPolylineVertex
 10
-0.7514775879143189
 20
-2.298624980917729
 30
-1.565983796467778
 70
    32
1001
ACAD
1000
R13OBJECT
1002
{
1005
320
1002
}
  0
VERTEX
  5
4DC
330
320
100
AcDbEntity
  8
1_TOP
  6
CONTINUOUS
 62
     7
100
AcDbVertex
100
AcDb3dPolylineVertex
 10
-0.7527087065716889
 20
-2.29074128912222
 30
-1.565919276272911
 70
    32
1001
ACAD
1000
R13OBJECT
1002
{
1005
320
1002
}
  0
VERTEX
  5
4DD
330
320
100
AcDbEntity
  8
1_TOP
  6
CONTINUOUS
 62
     7
100
AcDbVertex
100
AcDb3dPolylineVertex
 10
-0.7578083064904299
 20
-2.284604324877264
 30
-1.565652017565938
 70
    32
1001
ACAD
1000
R13OBJECT
1002
{
1005
320
1002
}
  0
VERTEX
  5
4DE
330
320
100
AcDbEntity
  8
1_TOP
  6
CONTINUOUS
 62
     7
100
AcDbVertex
100
AcDb3dPolylineVertex
 10
-0.7653333538934325
 20
-2.281950664940936
 30
-1.565257646542548
 70
    32
1001
ACAD
1000
R13OBJECT
1002
{
1005
320
1002
}
  0
SEQEND
  5
4DF
330
320
100
AcDbEntity
  8
1_TOP
  6
CONTINUOUS
 62
     7
  0
POLYLINE
  5
321
330
640
100
AcDbEntity
  8
1_TOP
  6
CONTINUOUS
 62
     7
100
AcDb3dPolyline
 66
     1
 10
0.0
 20
0.0
 30
0.0
 70
     8
  0
VERTEX
  5
4E0
330
321
100
AcDbEntity
  8
1_TOP
  6
CONTINUOUS
 62
     7
100
AcDbVertex
100
AcDb3dPolylineVertex
 10
-0.7697178114867354
 20
-2.340450002673514
 30
-1.565027866856721
 70
    32
1001
ACAD
1000
R13OBJECT
1002
{
1005
321
1002
}
  0
VERTEX
  5
4E1
330
321
100
AcDbEntity
  8
1_TOP
  6
CONTINUOUS
 62
     7
100
AcDbVertex
100
AcDb3dPolylineVertex
 10
-0.7555484372031939
 20
-2.321739515200771
 30
-1.565770452296753
 70
    32
1001
ACAD
1000
R13OBJECT
1002
{
1005
321
1002
}
  0
VERTEX
  5
4E2
330
321
100
AcDbEntity
  8
1_TOP
  6
CONTINUOUS
 62
     7
100
AcDbVertex
100
AcDb3dPolylineVertex
 10
-0.7514775879143177
 20
-2.298624980917728
 30
-1.565983796467778
 70
    32
1001
ACAD
1000
R13OBJECT
1002
{
1005
321
1002
}
  0
SEQEND
  5
4E3
330
321
100
AcDbEntity
  8
1_TOP
  6
CONTINUOUS
 62
     7
  0
POLYLINE
  5
322
330
640
100
AcDbEntity
  8
1_TOP
  6
CONTINUOUS
 62
     7
100
AcDb3dPolyline
 66
     1
 10
0.0
 20
0.0
 30
0.0
 70
     8
  0
VERTEX
  5
4E4
330
322
100
AcDbEntity
  8
1_TOP
  6
CONTINUOUS
 62
     7
100
AcDbVertex
100
AcDb3dPolylineVertex
 10
-0.8988690871428749
 20
-2.40519344667572
 30
-1.558259335308012
 70
    32
1001
ACAD
1000
R13OBJECT
1002
{
1005
322
1002
}
  0
VERTEX
  5
4E5
330
322
100
AcDbEntity
  8
1_TOP
  6
CONTINUOUS
 62
     7
100
AcDbVertex
100
AcDb3dPolylineVertex
 10
-0.8988799310136514
 20
-2.405383304738156
 30
-1.558258767004824
 70
    32
1001
ACAD
1000
R13OBJECT
1002
{
1005
322
1002
}
  0
VERTEX
  5
4E6
330
322
100
AcDbEntity
  8
1_TOP
  6
CONTINUOUS
 62
     7
100
AcDbVertex
100
AcDb3dPolylineVertex
 10
-0.898883547380992
 20
-2.405573437837047
 30
-1.558258577479043
 70
    32
1001
ACAD
1000
R13OBJECT
1002
{
1005
322
1002
}
  0
SEQEND
  5
4E7
330
322
100
AcDbEntity
  8
1_TOP
  6
CONTINUOUS
 62
     7
  0
POLYLINE
  5
323
330
640
100
AcDbEntity
  8
1_TOP
  6
CONTINUOUS
 62
     7
100
AcDb3dPolyline
 66
     1
 10
0.0
 20
0.0
 30
0.0
 70
     8
  0
VERTEX
  5
4E8
330
323
100
AcDbEntity
  8
1_TOP
  6
CONTINUOUS
 62
     7
100
AcDbVertex
100
AcDb3dPolylineVertex
 10
-0.8156821362621652
 20
-2.257622945993247
 30
-1.572944124031534
 70
    32
1001
ACAD
1000
R13OBJECT
1002
{
1005
323
1002
}
  0
VERTEX
  5
4E9
330
323
100
AcDbEntity
  8
1_TOP
  6
CONTINUOUS
 62
     7
100
AcDbVertex
100
AcDb3dPolylineVertex
 10
-0.809066163983415
 20
-2.260778602895221
 30
-1.573059606257223
 70
    32
1001
ACAD
1000
R13OBJECT
1002
{
1005
323
1002
}
  0
VERTEX
  5
4EA
330
323
100
AcDbEntity
  8
1_TOP
  6
CONTINUOUS
 62
     7
100
AcDbVertex
100
AcDb3dPolylineVertex
 10
-0.8063797009996067
 20
-2.267598586495847
 30
-1.573106498643033
 70
    32
1001
ACAD
1000
R13OBJECT
1002
{
1005
323
1002
}
  0
SEQEND
  5
4EB
330
323
100
AcDbEntity
  8
1_TOP
  6
CONTINUOUS
 62
     7
  0
POLYLINE
  5
324
330
640
100
AcDbEntity
  8
1_TOP
  6
CONTINUOUS
 62
     7
100
AcDb3dPolyline
 66
     1
 10
0.0
 20
0.0
 30
0.0
 70
     8
  0
VERTEX
  5
4EC
330
324
100
AcDbEntity
  8
1_TOP
  6
CONTINUOUS
 62
     7
100
AcDbVertex
100
AcDb3dPolylineVertex
 10
-0.8156821362621652
 20
-2.257622945993258
 30
-1.613268873254531
 70
    32
1001
ACAD
1000
R13OBJECT
1002
{
1005
324
1002
}
  0
VERTEX
  5
4ED
330
324
100
AcDbEntity
  8
1_TOP
  6
CONTINUOUS
 62
     7
100
AcDbVertex
100
AcDb3dPolylineVertex
 10
-0.809066163983415
 20
-2.26077860289523
 30
-1.613153391028841
 70
    32
1001
ACAD
1000
R13OBJECT
1002
{
1005
324
1002
}
  0
VERTEX
  5
4EE
330
324
100
AcDbEntity
  8
1_TOP
  6
CONTINUOUS
 62
     7
100
AcDbVertex
100
AcDb3dPolylineVertex
 10
-0.8063797009996067
 20
-2.267598586495855
 30
-1.613106498643031
 70
    32
1001
ACAD
1000
R13OBJECT
1002
{
1005
324
1002
}
  0
SEQEND
  5
4EF
330
324
100
AcDbEntity
  8
1_TOP
  6
CONTINUOUS
 62
     7
  0
POLYLINE
  5
325
330
640
100
AcDbEntity
  8
1_TOP
  6
CONTINUOUS
 62
     7
100
AcDb3dPolyline
 66
     1
 10
0.0
 20
0.0
 30
0.0
 70
     8
  0
VERTEX
  5
4F0
330
325
100
AcDbEntity
  8
1_TOP
  6
CONTINUOUS
 62
     7
100
AcDbVertex
100
AcDb3dPolylineVertex
 10
-0.8977269055785017
 20
-2.401995228771066
 30
-1.558319194507338
 70
    32
1001
ACAD
1000
R13OBJECT
1002
{
1005
325
1002
}
  0
VERTEX
  5
4F1
330
325
100
AcDbEntity
  8
1_TOP
  6
CONTINUOUS
 62
     7
100
AcDbVertex
100
AcDb3dPolylineVertex
 10
-0.8985855039411664
 20
-2.403492974827604
 30
-1.558274197273856
 70
    32
1001
ACAD
1000
R13OBJECT
1002
{
1005
325
1002
}
  0
VERTEX
  5
4F2
330
325
100
AcDbEntity
  8
1_TOP
  6
CONTINUOUS
 62
     7
100
AcDbVertex
100
AcDb3dPolylineVertex
 10
-0.898883547380991
 20
-2.405193446675716
 30
-1.558258577479044
 70
    32
1001
ACAD
1000
R13OBJECT
1002
{
1005
325
1002
}
  0
SEQEND
  5
4F3
330
325
100
AcDbEntity
  8
1_TOP
  6
CONTINUOUS
 62
     7
  0
POLYLINE
  5
326
330
640
100
AcDbEntity
  8
1_TOP
  6
CONTINUOUS
 62
     7
100
AcDb3dPolyline
 66
     1
 10
0.0
 20
0.0
 30
0.0
 70
     8
  0
VERTEX
  5
4F4
330
326
100
AcDbEntity
  8
1_TOP
  6
CONTINUOUS
 62
     7
100
AcDbVertex
100
AcDb3dPolylineVertex
 10
-0.8863797009996028
 20
-2.344387402648545
 30
-1.558913876300389
 70
    32
1001
ACAD
1000
R13OBJECT
1002
{
1005
326
1002
}
  0
VERTEX
  5
4F5
330
326
100
AcDbEntity
  8
1_TOP
  6
CONTINUOUS
 62
     7
100
AcDbVertex
100
AcDb3dPolylineVertex
 10
-0.8877981912824797
 20
-2.340898450349337
 30
-1.558839536374728
 70
    32
1001
ACAD
1000
R13OBJECT
1002
{
1005
326
1002
}
  0
VERTEX
  5
4F6
330
326
100
AcDbEntity
  8
1_TOP
  6
CONTINUOUS
 62
     7
100
AcDbVertex
100
AcDb3dPolylineVertex
 10
-0.8912488162580638
 20
-2.339389116023669
 30
-1.55865869678262
 70
    32
1001
ACAD
1000
R13OBJECT
1002
{
1005
326
1002
}
  0
SEQEND
  5
4F7
330
326
100
AcDbEntity
  8
1_TOP
  6
CONTINUOUS
 62
     7
  0
POLYLINE
  5
327
330
640
100
AcDbEntity
  8
1_TOP
  6
CONTINUOUS
 62
     7
100
AcDb3dPolyline
 66
     1
 10
0.0
 20
0.0
 30
0.0
 70
     8
  0
VERTEX
  5
4F8
330
327
100
AcDbEntity
  8
1_TOP
  6
CONTINUOUS
 62
     7
100
AcDbVertex
100
AcDb3dPolylineVertex
 10
-0.8977269055785015
 20
-2.40199522877107
 30
-1.558319194507338
 70
    32
1001
ACAD
1000
R13OBJECT
1002
{
1005
327
1002
}
  0
VERTEX
  5
4F9
330
327
100
AcDbEntity
  8
1_TOP
  6
CONTINUOUS
 62
     7
100
AcDbVertex
100
AcDb3dPolylineVertex
 10
-0.8883963219063611
 20
-2.384797652526898
 30
-1.558808189677009
 70
    32
1001
ACAD
1000
R13OBJECT
1002
{
1005
327
1002
}
  0
VERTEX
  5
4FA
330
327
100
AcDbEntity
  8
1_TOP
  6
CONTINUOUS
 62
     7
100
AcDbVertex
100
AcDb3dPolylineVertex
 10
-0.8863797009996037
 20
-2.365336160794366
 30
-1.558913876300389
 70
    32
1001
ACAD
1000
R13OBJECT
1002
{
1005
327
1002
}
  0
SEQEND
  5
4FB
330
327
100
AcDbEntity
  8
1_TOP
  6
CONTINUOUS
 62
     7
  0
POLYLINE
  5
328
330
640
100
AcDbEntity
  8
1_TOP
  6
CONTINUOUS
 62
     7
100
AcDb3dPolyline
 66
     1
 10
0.0
 20
0.0
 30
0.0
 70
     8
  0
VERTEX
  5
4FC
330
328
100
AcDbEntity
  8
1_TOP
  6
CONTINUOUS
 62
     7
100
AcDbVertex
100
AcDb3dPolylineVertex
 10
-0.7514775879143189
 20
-3.449089592199279
 30
-1.121668450391019
 70
    32
1001
ACAD
1000
R13OBJECT
1002
{
1005
328
1002
}
  0
VERTEX
  5
4FD
330
328
100
AcDbEntity
  8
1_TOP
  6
CONTINUOUS
 62
     7
100
AcDbVertex
100
AcDb3dPolylineVertex
 10
-0.7527087065716892
 20
-3.441205900403771
 30
-1.121732970585885
 70
    32
1001
ACAD
1000
R13OBJECT
1002
{
1005
328
1002
}
  0
VERTEX
  5
4FE
330
328
100
AcDbEntity
  8
1_TOP
  6
CONTINUOUS
 62
     7
100
AcDbVertex
100
AcDb3dPolylineVertex
 10
-0.7578083064904299
 20
-3.435068936158813
 30
-1.122000229292859
 70
    32
1001
ACAD
1000
R13OBJECT
1002
{
1005
328
1002
}
  0
VERTEX
  5
4FF
330
328
100
AcDbEntity
  8
1_TOP
  6
CONTINUOUS
 62
     7
100
AcDbVertex
100
AcDb3dPolylineVertex
 10
-0.7653333538934328
 20
-3.432415276222486
 30
-1.122394600316249
 70
    32
1001
ACAD
1000
R13OBJECT
1002
{
1005
328
1002
}
  0
SEQEND
  5
500
330
328
100
AcDbEntity
  8
1_TOP
  6
CONTINUOUS
 62
     7
  0
POLYLINE
  5
329
330
640
100
AcDbEntity
  8
1_TOP
  6
CONTINUOUS
 62
     7
100
AcDb3dPolyline
 66
     1
 10
0.0
 20
0.0
 30
0.0
 70
     8
  0
VERTEX
  5
501
330
329
100
AcDbEntity
  8
1_TOP
  6
CONTINUOUS
 62
     7
100
AcDbVertex
100
AcDb3dPolylineVertex
 10
-0.7697178114867349
 20
-3.490914613955065
 30
-1.122624380002075
 70
    32
1001
ACAD
1000
R13OBJECT
1002
{
1005
329
1002
}
  0
VERTEX
  5
502
330
329
100
AcDbEntity
  8
1_TOP
  6
CONTINUOUS
 62
     7
100
AcDbVertex
100
AcDb3dPolylineVertex
 10
-0.7555484372031934
 20
-3.472204126482321
 30
-1.121881794562045
 70
    32
1001
ACAD
1000
R13OBJECT
1002
{
1005
329
1002
}
  0
VERTEX
  5
503
330
329
100
AcDbEntity
  8
1_TOP
  6
CONTINUOUS
 62
     7
100
AcDbVertex
100
AcDb3dPolylineVertex
 10
-0.7514775879143171
 20
-3.449089592199278
 30
-1.121668450391019
 70
    32
1001
ACAD
1000
R13OBJECT
1002
{
1005
329
1002
}
  0
SEQEND
  5
504
330
329
100
AcDbEntity
  8
1_TOP
  6
CONTINUOUS
 62
     7
  0
POLYLINE
  5
32A
330
640
100
AcDbEntity
  8
1_TOP
  6
CONTINUOUS
 62
     7
100
AcDb3dPolyline
 66
     1
 10
0.0
 20
0.0
 30
0.0
 70
     8
  0
VERTEX
  5
505
330
32A
100
AcDbEntity
  8
1_TOP
  6
CONTINUOUS
 62
     7
100
AcDbVertex
100
AcDb3dPolylineVertex
 10
-0.8988690871428744
 20
-3.55565805795727
 30
-1.129392911550785
 70
    32
1001
ACAD
1000
R13OBJECT
1002
{
1005
32A
1002
}
  0
VERTEX
  5
506
330
32A
100
AcDbEntity
  8
1_TOP
  6
CONTINUOUS
 62
     7
100
AcDbVertex
100
AcDb3dPolylineVertex
 10
-0.8988799310136512
 20
-3.555847916019708
 30
-1.129393479853971
 70
    32
1001
ACAD
1000
R13OBJECT
1002
{
1005
32A
1002
}
  0
VERTEX
  5
507
330
32A
100
AcDbEntity
  8
1_TOP
  6
CONTINUOUS
 62
     7
100
AcDbVertex
100
AcDb3dPolylineVertex
 10
-0.8988835473809917
 20
-3.556038049118596
 30
-1.129393669379752
 70
    32
1001
ACAD
1000
R13OBJECT
1002
{
1005
32A
1002
}
  0
SEQEND
  5
508
330
32A
100
AcDbEntity
  8
1_TOP
  6
CONTINUOUS
 62
     7
  0
POLYLINE
  5
32B
330
640
100
AcDbEntity
  8
1_TOP
  6
CONTINUOUS
 62
     7
100
AcDb3dPolyline
 66
     1
 10
0.0
 20
0.0
 30
0.0
 70
     8
  0
VERTEX
  5
509
330
32B
100
AcDbEntity
  8
1_TOP
  6
CONTINUOUS
 62
     7
100
AcDbVertex
100
AcDb3dPolylineVertex
 10
-0.8988690871428747
 20
-3.555658057957288
 30
-0.9232593353080119
 70
    32
1001
ACAD
1000
R13OBJECT
1002
{
1005
32B
1002
}
  0
VERTEX
  5
50A
330
32B
100
AcDbEntity
  8
1_TOP
  6
CONTINUOUS
 62
     7
100
AcDbVertex
100
AcDb3dPolylineVertex
 10
-0.8988799310136514
 20
-3.555847916019727
 30
-0.9232587670048255
 70
    32
1001
ACAD
1000
R13OBJECT
1002
{
1005
32B
1002
}
  0
VERTEX
  5
50B
330
32B
100
AcDbEntity
  8
1_TOP
  6
CONTINUOUS
 62
     7
100
AcDbVertex
100
AcDb3dPolylineVertex
 10
-0.898883547380992
 20
-3.556038049118615
 30
-0.9232585774790443
 70
    32
1001
ACAD
1000
R13OBJECT
1002
{
1005
32B
1002
}
  0
SEQEND
  5
50C
330
32B
100
AcDbEntity
  8
1_TOP
  6
CONTINUOUS
 62
     7
  0
POLYLINE
  5
32C
330
640
100
AcDbEntity
  8
1_TOP
  6
CONTINUOUS
 62
     7
100
AcDb3dPolyline
 66
     1
 10
0.0
 20
0.0
 30
0.0
 70
     8
  0
VERTEX
  5
50D
330
32C
100
AcDbEntity
  8
1_TOP
  6
CONTINUOUS
 62
     7
100
AcDbVertex
100
AcDb3dPolylineVertex
 10
-0.7697178114867335
 20
-3.490914613955075
 30
-0.9300278668567219
 70
    32
1001
ACAD
1000
R13OBJECT
1002
{
1005
32C
1002
}
  0
VERTEX
  5
50E
330
32C
100
AcDbEntity
  8
1_TOP
  6
CONTINUOUS
 62
     7
100
AcDbVertex
100
AcDb3dPolylineVertex
 10
-0.7555484372031917
 20
-3.47220412648233
 30
-0.9307704522967522
 70
    32
1001
ACAD
1000
R13OBJECT
1002
{
1005
32C
1002
}
  0
VERTEX
  5
50F
330
32C
100
AcDbEntity
  8
1_TOP
  6
CONTINUOUS
 62
     7
100
AcDbVertex
100
AcDb3dPolylineVertex
 10
-0.7514775879143167
 20
-3.449089592199283
 30
-0.9309837964677781
 70
    32
1001
ACAD
1000
R13OBJECT
1002
{
1005
32C
1002
}
  0
SEQEND
  5
510
330
32C
100
AcDbEntity
  8
1_TOP
  6
CONTINUOUS
 62
     7
  0
POLYLINE
  5
32D
330
640
100
AcDbEntity
  8
1_TOP
  6
CONTINUOUS
 62
     7
100
AcDb3dPolyline
 66
     1
 10
0.0
 20
0.0
 30
0.0
 70
     8
  0
VERTEX
  5
511
330
32D
100
AcDbEntity
  8
1_TOP
  6
CONTINUOUS
 62
     7
100
AcDbVertex
100
AcDb3dPolylineVertex
 10
-0.7514775879143189
 20
-3.449089592199289
 30
-0.9309837964677784
 70
    32
1001
ACAD
1000
R13OBJECT
1002
{
1005
32D
1002
}
  0
VERTEX
  5
512
330
32D
100
AcDbEntity
  8
1_TOP
  6
CONTINUOUS
 62
     7
100
AcDbVertex
100
AcDb3dPolylineVertex
 10
-0.7527087065716892
 20
-3.441205900403781
 30
-0.9309192762729116
 70
    32
1001
ACAD
1000
R13OBJECT
1002
{
1005
32D
1002
}
  0
VERTEX
  5
513
330
32D
100
AcDbEntity
  8
1_TOP
  6
CONTINUOUS
 62
     7
100
AcDbVertex
100
AcDb3dPolylineVertex
 10
-0.7578083064904302
 20
-3.435068936158824
 30
-0.9306520175659384
 70
    32
1001
ACAD
1000
R13OBJECT
1002
{
1005
32D
1002
}
  0
VERTEX
  5
514
330
32D
100
AcDbEntity
  8
1_TOP
  6
CONTINUOUS
 62
     7
100
AcDbVertex
100
AcDb3dPolylineVertex
 10
-0.7653333538934337
 20
-3.432415276222497
 30
-0.9302576465425476
 70
    32
1001
ACAD
1000
R13OBJECT
1002
{
1005
32D
1002
}
  0
SEQEND
  5
515
330
32D
100
AcDbEntity
  8
1_TOP
  6
CONTINUOUS
 62
     7
  0
POLYLINE
  5
32E
330
640
100
AcDbEntity
  8
1_TOP
  6
CONTINUOUS
 62
     7
100
AcDb3dPolyline
 66
     1
 10
0.0
 20
0.0
 30
0.0
 70
     8
  0
VERTEX
  5
516
330
32E
100
AcDbEntity
  8
1_TOP
  6
CONTINUOUS
 62
     7
100
AcDbVertex
100
AcDb3dPolylineVertex
 10
-0.8156821362621659
 20
-3.408087557274828
 30
-1.114708122827262
 70
    32
1001
ACAD
1000
R13OBJECT
1002
{
1005
32E
1002
}
  0
VERTEX
  5
517
330
32E
100
AcDbEntity
  8
1_TOP
  6
CONTINUOUS
 62
     7
100
AcDbVertex
100
AcDb3dPolylineVertex
 10
-0.8090661639834152
 20
-3.411243214176801
 30
-1.114592640601574
 70
    32
1001
ACAD
1000
R13OBJECT
1002
{
1005
32E
1002
}
  0
VERTEX
  5
518
330
32E
100
AcDbEntity
  8
1_TOP
  6
CONTINUOUS
 62
     7
100
AcDbVertex
100
AcDb3dPolylineVertex
 10
-0.8063797009996072
 20
-3.418063197777426
 30
-1.114545748215765
 70
    32
1001
ACAD
1000
R13OBJECT
1002
{
1005
32E
1002
}
  0
SEQEND
  5
519
330
32E
100
AcDbEntity
  8
1_TOP
  6
CONTINUOUS
 62
     7
  0
POLYLINE
  5
32F
330
640
100
AcDbEntity
  8
1_TOP
  6
CONTINUOUS
 62
     7
100
AcDb3dPolyline
 66
     1
 10
0.0
 20
0.0
 30
0.0
 70
     8
  0
VERTEX
  5
51A
330
32F
100
AcDbEntity
  8
1_TOP
  6
CONTINUOUS
 62
     7
100
AcDbVertex
100
AcDb3dPolylineVertex
 10
-0.8156821362621652
 20
-3.408087557274808
 30
-1.074383373604266
 70
    32
1001
ACAD
1000
R13OBJECT
1002
{
1005
32F
1002
}
  0
VERTEX
  5
51B
330
32F
100
AcDbEntity
  8
1_TOP
  6
CONTINUOUS
 62
     7
100
AcDbVertex
100
AcDb3dPolylineVertex
 10
-0.809066163983415
 20
-3.411243214176781
 30
-1.074498855829954
 70
    32
1001
ACAD
1000
R13OBJECT
1002
{
1005
32F
1002
}
  0
VERTEX
  5
51C
330
32F
100
AcDbEntity
  8
1_TOP
  6
CONTINUOUS
 62
     7
100
AcDbVertex
100
AcDb3dPolylineVertex
 10
-0.8063797009996067
 20
-3.418063197777406
 30
-1.074545748215764
 70
    32
1001
ACAD
1000
R13OBJECT
1002
{
1005
32F
1002
}
  0
SEQEND
  5
51D
330
32F
100
AcDbEntity
  8
1_TOP
  6
CONTINUOUS
 62
     7
  0
POLYLINE
  5
330
330
640
100
AcDbEntity
  8
1_TOP
  6
CONTINUOUS
 62
     7
100
AcDb3dPolyline
 66
     1
 10
0.0
 20
0.0
 30
0.0
 70
     8
  0
VERTEX
  5
51E
330
330
100
AcDbEntity
  8
1_TOP
  6
CONTINUOUS
 62
     7
100
AcDbVertex
100
AcDb3dPolylineVertex
 10
-0.8156821362621659
 20
-3.408087557274808
 30
-0.9379441240315376
 70
    32
1001
ACAD
1000
R13OBJECT
1002
{
1005
330
1002
}
  0
VERTEX
  5
51F
330
330
100
AcDbEntity
  8
1_TOP
  6
CONTINUOUS
 62
     7
100
AcDbVertex
100
AcDb3dPolylineVertex
 10
-0.8090661639834152
 20
-3.411243214176781
 30
-0.9380596062572264
 70
    32
1001
ACAD
1000
R13OBJECT
1002
{
1005
330
1002
}
  0
VERTEX
  5
520
330
330
100
AcDbEntity
  8
1_TOP
  6
CONTINUOUS
 62
     7
100
AcDbVertex
100
AcDb3dPolylineVertex
 10
-0.8063797009996072
 20
-3.418063197777406
 30
-0.9381064986430359
 70
    32
1001
ACAD
1000
R13OBJECT
1002
{
1005
330
1002
}
  0
SEQEND
  5
521
330
330
100
AcDbEntity
  8
1_TOP
  6
CONTINUOUS
 62
     7
  0
POLYLINE
  5
331
330
640
100
AcDbEntity
  8
1_TOP
  6
CONTINUOUS
 62
     7
100
AcDb3dPolyline
 66
     1
 10
0.0
 20
0.0
 30
0.0
 70
     8
  0
VERTEX
  5
522
330
331
100
AcDbEntity
  8
1_TOP
  6
CONTINUOUS
 62
     7
100
AcDbVertex
100
AcDb3dPolylineVertex
 10
-0.8156821362621652
 20
-3.408087557274828
 30
-0.9782688732545354
 70
    32
1001
ACAD
1000
R13OBJECT
1002
{
1005
331
1002
}
  0
VERTEX
  5
523
330
331
100
AcDbEntity
  8
1_TOP
  6
CONTINUOUS
 62
     7
100
AcDbVertex
100
AcDb3dPolylineVertex
 10
-0.809066163983415
 20
-3.411243214176801
 30
-0.9781533910288466
 70
    32
1001
ACAD
1000
R13OBJECT
1002
{
1005
331
1002
}
  0
VERTEX
  5
524
330
331
100
AcDbEntity
  8
1_TOP
  6
CONTINUOUS
 62
     7
100
AcDbVertex
100
AcDb3dPolylineVertex
 10
-0.8063797009996067
 20
-3.418063197777426
 30
-0.9781064986430367
 70
    32
1001
ACAD
1000
R13OBJECT
1002
{
1005
331
1002
}
  0
SEQEND
  5
525
330
331
100
AcDbEntity
  8
1_TOP
  6
CONTINUOUS
 62
     7
  0
POLYLINE
  5
332
330
640
100
AcDbEntity
  8
1_TOP
  6
CONTINUOUS
 62
     7
100
AcDb3dPolyline
 66
     1
 10
0.0
 20
0.0
 30
0.0
 70
     8
  0
VERTEX
  5
526
330
332
100
AcDbEntity
  8
1_TOP
  6
CONTINUOUS
 62
     7
100
AcDbVertex
100
AcDb3dPolylineVertex
 10
-0.8977269055785008
 20
-3.552459840052629
 30
-0.9233191945073391
 70
    32
1001
ACAD
1000
R13OBJECT
1002
{
1005
332
1002
}
  0
VERTEX
  5
527
330
332
100
AcDbEntity
  8
1_TOP
  6
CONTINUOUS
 62
     7
100
AcDbVertex
100
AcDb3dPolylineVertex
 10
-0.8883963219063602
 20
-3.535262263808454
 30
-0.9238081896770104
 70
    32
1001
ACAD
1000
R13OBJECT
1002
{
1005
332
1002
}
  0
VERTEX
  5
528
330
332
100
AcDbEntity
  8
1_TOP
  6
CONTINUOUS
 62
     7
100
AcDbVertex
100
AcDb3dPolylineVertex
 10
-0.8863797009996041
 20
-3.515800772075921
 30
-0.9239138763003891
 70
    32
1001
ACAD
1000
R13OBJECT
1002
{
1005
332
1002
}
  0
SEQEND
  5
529
330
332
100
AcDbEntity
  8
1_TOP
  6
CONTINUOUS
 62
     7
  0
POLYLINE
  5
333
330
640
100
AcDbEntity
  8
1_TOP
  6
CONTINUOUS
 62
     7
100
AcDb3dPolyline
 66
     1
 10
0.0
 20
0.0
 30
0.0
 70
     8
  0
VERTEX
  5
52A
330
333
100
AcDbEntity
  8
1_TOP
  6
CONTINUOUS
 62
     7
100
AcDbVertex
100
AcDb3dPolylineVertex
 10
-0.8977269055785008
 20
-3.552459840052636
 30
-0.9233191945073388
 70
    32
1001
ACAD
1000
R13OBJECT
1002
{
1005
333
1002
}
  0
VERTEX
  5
52B
330
333
100
AcDbEntity
  8
1_TOP
  6
CONTINUOUS
 62
     7
100
AcDbVertex
100
AcDb3dPolylineVertex
 10
-0.8985855039411655
 20
-3.553957586109173
 30
-0.9232741972738555
 70
    32
1001
ACAD
1000
R13OBJECT
1002
{
1005
333
1002
}
  0
VERTEX
  5
52C
330
333
100
AcDbEntity
  8
1_TOP
  6
CONTINUOUS
 62
     7
100
AcDbVertex
100
AcDb3dPolylineVertex
 10
-0.8988835473809901
 20
-3.555658057957286
 30
-0.9232585774790443
 70
    32
1001
ACAD
1000
R13OBJECT
1002
{
1005
333
1002
}
  0
SEQEND
  5
52D
330
333
100
AcDbEntity
  8
1_TOP
  6
CONTINUOUS
 62
     7
  0
POLYLINE
  5
334
330
640
100
AcDbEntity
  8
1_TOP
  6
CONTINUOUS
 62
     7
100
AcDb3dPolyline
 66
     1
 10
0.0
 20
0.0
 30
0.0
 70
     8
  0
VERTEX
  5
52E
330
334
100
AcDbEntity
  8
1_TOP
  6
CONTINUOUS
 62
     7
100
AcDbVertex
100
AcDb3dPolylineVertex
 10
-0.8863797009996019
 20
-3.494852013930116
 30
-0.9239138763003895
 70
    32
1001
ACAD
1000
R13OBJECT
1002
{
1005
334
1002
}
  0
VERTEX
  5
52F
330
334
100
AcDbEntity
  8
1_TOP
  6
CONTINUOUS
 62
     7
100
AcDbVertex
100
AcDb3dPolylineVertex
 10
-0.887798191282479
 20
-3.491363061630906
 30
-0.9238395363747294
 70
    32
1001
ACAD
1000
R13OBJECT
1002
{
1005
334
1002
}
  0
VERTEX
  5
530
330
334
100
AcDbEntity
  8
1_TOP
  6
CONTINUOUS
 62
     7
100
AcDbVertex
100
AcDb3dPolylineVertex
 10
-0.8912488162580633
 20
-3.489853727305238
 30
-0.9236586967826204
 70
    32
1001
ACAD
1000
R13OBJECT
1002
{
1005
334
1002
}
  0
SEQEND
  5
531
330
334
100
AcDbEntity
  8
1_TOP
  6
CONTINUOUS
 62
     7
  0
POLYLINE
  5
335
330
640
100
AcDbEntity
  8
1_TOP
  6
CONTINUOUS
 62
     7
100
AcDb3dPolyline
 66
     1
 10
0.0
 20
0.0
 30
0.0
 70
     8
  0
VERTEX
  5
532
330
335
100
AcDbEntity
  8
1_TOP
  6
CONTINUOUS
 62
     7
100
AcDbVertex
100
AcDb3dPolylineVertex
 10
-0.8977269055785017
 20
-3.552459840052626
 30
-1.129333052351458
 70
    32
1001
ACAD
1000
R13OBJECT
1002
{
1005
335
1002
}
  0
VERTEX
  5
533
330
335
100
AcDbEntity
  8
1_TOP
  6
CONTINUOUS
 62
     7
100
AcDbVertex
100
AcDb3dPolylineVertex
 10
-0.8985855039411664
 20
-3.553957586109163
 30
-1.129378049584942
 70
    32
1001
ACAD
1000
R13OBJECT
1002
{
1005
335
1002
}
  0
VERTEX
  5
534
330
335
100
AcDbEntity
  8
1_TOP
  6
CONTINUOUS
 62
     7
100
AcDbVertex
100
AcDb3dPolylineVertex
 10
-0.898883547380991
 20
-3.555658057957276
 30
-1.129393669379752
 70
    32
1001
ACAD
1000
R13OBJECT
1002
{
1005
335
1002
}
  0
SEQEND
  5
535
330
335
100
AcDbEntity
  8
1_TOP
  6
CONTINUOUS
 62
     7
  0
POLYLINE
  5
336
330
640
100
AcDbEntity
  8
1_TOP
  6
CONTINUOUS
 62
     7
100
AcDb3dPolyline
 66
     1
 10
0.0
 20
0.0
 30
0.0
 70
     8
  0
VERTEX
  5
536
330
336
100
AcDbEntity
  8
1_TOP
  6
CONTINUOUS
 62
     7
100
AcDbVertex
100
AcDb3dPolylineVertex
 10
-0.8863797009996028
 20
-3.494852013930106
 30
-1.128738370558407
 70
    32
1001
ACAD
1000
R13OBJECT
1002
{
1005
336
1002
}
  0
VERTEX
  5
537
330
336
100
AcDbEntity
  8
1_TOP
  6
CONTINUOUS
 62
     7
100
AcDbVertex
100
AcDb3dPolylineVertex
 10
-0.8877981912824797
 20
-3.491363061630897
 30
-1.128812710484069
 70
    32
1001
ACAD
1000
R13OBJECT
1002
{
1005
336
1002
}
  0
VERTEX
  5
538
330
336
100
AcDbEntity
  8
1_TOP
  6
CONTINUOUS
 62
     7
100
AcDbVertex
100
AcDb3dPolylineVertex
 10
-0.8912488162580636
 20
-3.489853727305228
 30
-1.128993550076176
 70
    32
1001
ACAD
1000
R13OBJECT
1002
{
1005
336
1002
}
  0
SEQEND
  5
539
330
336
100
AcDbEntity
  8
1_TOP
  6
CONTINUOUS
 62
     7
  0
POLYLINE
  5
337
330
640
100
AcDbEntity
  8
1_TOP
  6
CONTINUOUS
 62
     7
100
AcDb3dPolyline
 66
     1
 10
0.0
 20
0.0
 30
0.0
 70
     8
  0
VERTEX
  5
53A
330
337
100
AcDbEntity
  8
1_TOP
  6
CONTINUOUS
 62
     7
100
AcDbVertex
100
AcDb3dPolylineVertex
 10
-0.8977269055785011
 20
-3.552459840052621
 30
-1.129333052351458
 70
    32
1001
ACAD
1000
R13OBJECT
1002
{
1005
337
1002
}
  0
VERTEX
  5
53B
330
337
100
AcDbEntity
  8
1_TOP
  6
CONTINUOUS
 62
     7
100
AcDbVertex
100
AcDb3dPolylineVertex
 10
-0.8883963219063605
 20
-3.535262263808448
 30
-1.128844057181787
 70
    32
1001
ACAD
1000
R13OBJECT
1002
{
1005
337
1002
}
  0
VERTEX
  5
53C
330
337
100
AcDbEntity
  8
1_TOP
  6
CONTINUOUS
 62
     7
100
AcDbVertex
100
AcDb3dPolylineVertex
 10
-0.8863797009996032
 20
-3.515800772075917
 30
-1.128738370558409
 70
    32
1001
ACAD
1000
R13OBJECT
1002
{
1005
337
1002
}
  0
SEQEND
  5
53D
330
337
100
AcDbEntity
  8
1_TOP
  6
CONTINUOUS
 62
     7
  0
POLYLINE
  5
338
330
640
100
AcDbEntity
  8
1_TOP
  6
CONTINUOUS
 62
     7
100
AcDb3dPolyline
 66
     1
 10
0.0
 20
0.0
 30
0.0
 70
     8
  0
VERTEX
  5
53E
330
338
100
AcDbEntity
  8
1_TOP
  6
CONTINUOUS
 62
     7
100
AcDbVertex
100
AcDb3dPolylineVertex
 10
-0.8977269055785015
 20
-3.552459840052631
 30
-1.558319194507338
 70
    32
1001
ACAD
1000
R13OBJECT
1002
{
1005
338
1002
}
  0
VERTEX
  5
53F
330
338
100
AcDbEntity
  8
1_TOP
  6
CONTINUOUS
 62
     7
100
AcDbVertex
100
AcDb3dPolylineVertex
 10
-0.8883963219063611
 20
-3.535262263808457
 30
-1.558808189677009
 70
    32
1001
ACAD
1000
R13OBJECT
1002
{
1005
338
1002
}
  0
VERTEX
  5
540
330
338
100
AcDbEntity
  8
1_TOP
  6
CONTINUOUS
 62
     7
100
AcDbVertex
100
AcDb3dPolylineVertex
 10
-0.8863797009996037
 20
-3.515800772075926
 30
-1.558913876300389
 70
    32
1001
ACAD
1000
R13OBJECT
1002
{
1005
338
1002
}
  0
SEQEND
  5
541
330
338
100
AcDbEntity
  8
1_TOP
  6
CONTINUOUS
 62
     7
  0
POLYLINE
  5
339
330
640
100
AcDbEntity
  8
1_TOP
  6
CONTINUOUS
 62
     7
100
AcDb3dPolyline
 66
     1
 10
0.0
 20
0.0
 30
0.0
 70
     8
  0
VERTEX
  5
542
330
339
100
AcDbEntity
  8
1_TOP
  6
CONTINUOUS
 62
     7
100
AcDbVertex
100
AcDb3dPolylineVertex
 10
-0.8863797009996034
 20
-3.494852013930116
 30
-1.558913876300389
 70
    32
1001
ACAD
1000
R13OBJECT
1002
{
1005
339
1002
}
  0
VERTEX
  5
543
330
339
100
AcDbEntity
  8
1_TOP
  6
CONTINUOUS
 62
     7
100
AcDbVertex
100
AcDb3dPolylineVertex
 10
-0.8877981912824798
 20
-3.491363061630908
 30
-1.558839536374728
 70
    32
1001
ACAD
1000
R13OBJECT
1002
{
1005
339
1002
}
  0
VERTEX
  5
544
330
339
100
AcDbEntity
  8
1_TOP
  6
CONTINUOUS
 62
     7
100
AcDbVertex
100
AcDb3dPolylineVertex
 10
-0.8912488162580642
 20
-3.489853727305238
 30
-1.55865869678262
 70
    32
1001
ACAD
1000
R13OBJECT
1002
{
1005
339
1002
}
  0
SEQEND
  5
545
330
339
100
AcDbEntity
  8
1_TOP
  6
CONTINUOUS
 62
     7
  0
POLYLINE
  5
33A
330
640
100
AcDbEntity
  8
1_TOP
  6
CONTINUOUS
 62
     7
100
AcDb3dPolyline
 66
     1
 10
0.0
 20
0.0
 30
0.0
 70
     8
  0
VERTEX
  5
546
330
33A
100
AcDbEntity
  8
1_TOP
  6
CONTINUOUS
 62
     7
100
AcDbVertex
100
AcDb3dPolylineVertex
 10
-0.8977269055785015
 20
-3.552459840052637
 30
-1.558319194507338
 70
    32
1001
ACAD
1000
R13OBJECT
1002
{
1005
33A
1002
}
  0
VERTEX
  5
547
330
33A
100
AcDbEntity
  8
1_TOP
  6
CONTINUOUS
 62
     7
100
AcDbVertex
100
AcDb3dPolylineVertex
 10
-0.898585503941166
 20
-3.553957586109175
 30
-1.558274197273856
 70
    32
1001
ACAD
1000
R13OBJECT
1002
{
1005
33A
1002
}
  0
VERTEX
  5
548
330
33A
100
AcDbEntity
  8
1_TOP
  6
CONTINUOUS
 62
     7
100
AcDbVertex
100
AcDb3dPolylineVertex
 10
-0.8988835473809903
 20
-3.555658057957286
 30
-1.558258577479043
 70
    32
1001
ACAD
1000
R13OBJECT
1002
{
1005
33A
1002
}
  0
SEQEND
  5
549
330
33A
100
AcDbEntity
  8
1_TOP
  6
CONTINUOUS
 62
     7
  0
POLYLINE
  5
33B
330
640
100
AcDbEntity
  8
1_TOP
  6
CONTINUOUS
 62
     7
100
AcDb3dPolyline
 66
     1
 10
0.0
 20
0.0
 30
0.0
 70
     8
  0
VERTEX
  5
54A
330
33B
100
AcDbEntity
  8
1_TOP
  6
CONTINUOUS
 62
     7
100
AcDbVertex
100
AcDb3dPolylineVertex
 10
-0.815682136262165
 20
-3.408087557274818
 30
-1.613268873254531
 70
    32
1001
ACAD
1000
R13OBJECT
1002
{
1005
33B
1002
}
  0
VERTEX
  5
54B
330
33B
100
AcDbEntity
  8
1_TOP
  6
CONTINUOUS
 62
     7
100
AcDbVertex
100
AcDb3dPolylineVertex
 10
-0.8090661639834145
 20
-3.411243214176791
 30
-1.613153391028841
 70
    32
1001
ACAD
1000
R13OBJECT
1002
{
1005
33B
1002
}
  0
VERTEX
  5
54C
330
33B
100
AcDbEntity
  8
1_TOP
  6
CONTINUOUS
 62
     7
100
AcDbVertex
100
AcDb3dPolylineVertex
 10
-0.8063797009996063
 20
-3.418063197777416
 30
-1.613106498643033
 70
    32
1001
ACAD
1000
R13OBJECT
1002
{
1005
33B
1002
}
  0
SEQEND
  5
54D
330
33B
100
AcDbEntity
  8
1_TOP
  6
CONTINUOUS
 62
     7
  0
POLYLINE
  5
33C
330
640
100
AcDbEntity
  8
1_TOP
  6
CONTINUOUS
 62
     7
100
AcDb3dPolyline
 66
     1
 10
0.0
 20
0.0
 30
0.0
 70
     8
  0
VERTEX
  5
54E
330
33C
100
AcDbEntity
  8
1_TOP
  6
CONTINUOUS
 62
     7
100
AcDbVertex
100
AcDb3dPolylineVertex
 10
-0.815682136262165
 20
-3.408087557274808
 30
-1.572944124031534
 70
    32
1001
ACAD
1000
R13OBJECT
1002
{
1005
33C
1002
}
  0
VERTEX
  5
54F
330
33C
100
AcDbEntity
  8
1_TOP
  6
CONTINUOUS
 62
     7
100
AcDbVertex
100
AcDb3dPolylineVertex
 10
-0.8090661639834145
 20
-3.411243214176781
 30
-1.573059606257223
 70
    32
1001
ACAD
1000
R13OBJECT
1002
{
1005
33C
1002
}
  0
VERTEX
  5
550
330
33C
100
AcDbEntity
  8
1_TOP
  6
CONTINUOUS
 62
     7
100
AcDbVertex
100
AcDb3dPolylineVertex
 10
-0.8063797009996063
 20
-3.418063197777406
 30
-1.573106498643032
 70
    32
1001
ACAD
1000
R13OBJECT
1002
{
1005
33C
1002
}
  0
SEQEND
  5
551
330
33C
100
AcDbEntity
  8
1_TOP
  6
CONTINUOUS
 62
     7
  0
POLYLINE
  5
33D
330
640
100
AcDbEntity
  8
1_TOP
  6
CONTINUOUS
 62
     7
100
AcDb3dPolyline
 66
     1
 10
0.0
 20
0.0
 30
0.0
 70
     8
  0
VERTEX
  5
552
330
33D
100
AcDbEntity
  8
1_TOP
  6
CONTINUOUS
 62
     7
100
AcDbVertex
100
AcDb3dPolylineVertex
 10
-0.8988690871428753
 20
-3.555658057957279
 30
-1.558259335308012
 70
    32
1001
ACAD
1000
R13OBJECT
1002
{
1005
33D
1002
}
  0
VERTEX
  5
553
330
33D
100
AcDbEntity
  8
1_TOP
  6
CONTINUOUS
 62
     7
100
AcDbVertex
100
AcDb3dPolylineVertex
 10
-0.8988799310136521
 20
-3.555847916019716
 30
-1.558258767004826
 70
    32
1001
ACAD
1000
R13OBJECT
1002
{
1005
33D
1002
}
  0
VERTEX
  5
554
330
33D
100
AcDbEntity
  8
1_TOP
  6
CONTINUOUS
 62
     7
100
AcDbVertex
100
AcDb3dPolylineVertex
 10
-0.8988835473809926
 20
-3.556038049118606
 30
-1.558258577479043
 70
    32
1001
ACAD
1000
R13OBJECT
1002
{
1005
33D
1002
}
  0
SEQEND
  5
555
330
33D
100
AcDbEntity
  8
1_TOP
  6
CONTINUOUS
 62
     7
  0
POLYLINE
  5
33E
330
640
100
AcDbEntity
  8
1_TOP
  6
CONTINUOUS
 62
     7
100
AcDb3dPolyline
 66
     1
 10
0.0
 20
0.0
 30
0.0
 70
     8
  0
VERTEX
  5
556
330
33E
100
AcDbEntity
  8
1_TOP
  6
CONTINUOUS
 62
     7
100
AcDbVertex
100
AcDb3dPolylineVertex
 10
-0.7697178114867354
 20
-3.490914613955075
 30
-1.565027866856721
 70
    32
1001
ACAD
1000
R13OBJECT
1002
{
1005
33E
1002
}
  0
VERTEX
  5
557
330
33E
100
AcDbEntity
  8
1_TOP
  6
CONTINUOUS
 62
     7
100
AcDbVertex
100
AcDb3dPolylineVertex
 10
-0.7555484372031938
 20
-3.472204126482331
 30
-1.565770452296751
 70
    32
1001
ACAD
1000
R13OBJECT
1002
{
1005
33E
1002
}
  0
VERTEX
  5
558
330
33E
100
AcDbEntity
  8
1_TOP
  6
CONTINUOUS
 62
     7
100
AcDbVertex
100
AcDb3dPolylineVertex
 10
-0.7514775879143177
 20
-3.449089592199288
 30
-1.565983796467778
 70
    32
1001
ACAD
1000
R13OBJECT
1002
{
1005
33E
1002
}
  0
SEQEND
  5
559
330
33E
100
AcDbEntity
  8
1_TOP
  6
CONTINUOUS
 62
     7
  0
POLYLINE
  5
33F
330
640
100
AcDbEntity
  8
1_TOP
  6
CONTINUOUS
 62
     7
100
AcDb3dPolyline
 66
     1
 10
0.0
 20
0.0
 30
0.0
 70
     8
  0
VERTEX
  5
55A
330
33F
100
AcDbEntity
  8
1_TOP
  6
CONTINUOUS
 62
     7
100
AcDbVertex
100
AcDb3dPolylineVertex
 10
-0.7514775879143194
 20
-3.449089592199289
 30
-1.565983796467778
 70
    32
1001
ACAD
1000
R13OBJECT
1002
{
1005
33F
1002
}
  0
VERTEX
  5
55B
330
33F
100
AcDbEntity
  8
1_TOP
  6
CONTINUOUS
 62
     7
100
AcDbVertex
100
AcDb3dPolylineVertex
 10
-0.7527087065716894
 20
-3.441205900403781
 30
-1.56591927627291
 70
    32
1001
ACAD
1000
R13OBJECT
1002
{
1005
33F
1002
}
  0
VERTEX
  5
55C
330
33F
100
AcDbEntity
  8
1_TOP
  6
CONTINUOUS
 62
     7
100
AcDbVertex
100
AcDb3dPolylineVertex
 10
-0.7578083064904303
 20
-3.435068936158824
 30
-1.565652017565938
 70
    32
1001
ACAD
1000
R13OBJECT
1002
{
1005
33F
1002
}
  0
VERTEX
  5
55D
330
33F
100
AcDbEntity
  8
1_TOP
  6
CONTINUOUS
 62
     7
100
AcDbVertex
100
AcDb3dPolylineVertex
 10
-0.7653333538934329
 20
-3.432415276222497
 30
-1.565257646542546
 70
    32
1001
ACAD
1000
R13OBJECT
1002
{
1005
33F
1002
}
  0
SEQEND
  5
55E
330
33F
100
AcDbEntity
  8
1_TOP
  6
CONTINUOUS
 62
     7
  0
POLYLINE
  5
340
330
640
100
AcDbEntity
  8
1_TOP
  6
CONTINUOUS
 62
     7
100
AcDb3dPolyline
 66
     1
 10
0.0
 20
0.0
 30
0.0
 70
     8
  0
VERTEX
  5
55F
330
340
100
AcDbEntity
  8
1_TOP
  6
CONTINUOUS
 62
     7
100
AcDbVertex
100
AcDb3dPolylineVertex
 10
-4.568083706777981
 20
-5.48595053030213
 30
2.278301421610026
 70
    32
1001
ACAD
1000
R13OBJECT
1002
{
1005
340
1002
}
  0
VERTEX
  5
560
330
340
100
AcDbEntity
  8
1_TOP
  6
CONTINUOUS
 62
     7
100
AcDbVertex
100
AcDb3dPolylineVertex
 10
-4.580930596654344
 20
-4.390623104979221
 30
2.462596428063804
 70
    32
1001
ACAD
1000
R13OBJECT
1002
{
1005
340
1002
}
  0
VERTEX
  5
561
330
340
100
AcDbEntity
  8
1_TOP
  6
CONTINUOUS
 62
     7
100
AcDbVertex
100
AcDb3dPolylineVertex
 10
-4.585230576327266
 20
-3.281613755701256
 30
2.524281768967226
 70
    32
1001
ACAD
1000
R13OBJECT
1002
{
1005
340
1002
}
  0
VERTEX
  5
562
330
340
100
AcDbEntity
  8
1_TOP
  6
CONTINUOUS
 62
     7
100
AcDbVertex
100
AcDb3dPolylineVertex
 10
-4.580930596654346
 20
-2.172604406423291
 30
2.462596428063815
 70
    32
1001
ACAD
1000
R13OBJECT
1002
{
1005
340
1002
}
  0
VERTEX
  5
563
330
340
100
AcDbEntity
  8
1_TOP
  6
CONTINUOUS
 62
     7
100
AcDbVertex
100
AcDb3dPolylineVertex
 10
-4.568083706777983
 20
-1.077276981100383
 30
2.278301421610049
 70
    32
1001
ACAD
1000
R13OBJECT
1002
{
1005
340
1002
}
  0
SEQEND
  5
564
330
340
100
AcDbEntity
  8
1_TOP
  6
CONTINUOUS
 62
     7
  0
POLYLINE
  5
341
330
640
100
AcDbEntity
  8
1_TOP
  6
CONTINUOUS
 62
     7
100
AcDb3dPolyline
 66
     1
 10
0.0
 20
0.0
 30
0.0
 70
     8
  0
VERTEX
  5
565
330
341
100
AcDbEntity
  8
1_TOP
  6
CONTINUOUS
 62
     7
100
AcDbVertex
100
AcDb3dPolylineVertex
 10
-4.890531928957339
 20
-1.435113755701209
 30
2.35232520344589
 70
    32
1001
ACAD
1000
R13OBJECT
1002
{
1005
341
1002
}
  0
VERTEX
  5
566
330
341
100
AcDbEntity
  8
1_TOP
  6
CONTINUOUS
 62
     7
100
AcDbVertex
100
AcDb3dPolylineVertex
 10
-4.877163539655059
 20
-2.662956652728084
 30
2.505126592374713
 70
    32
1001
ACAD
1000
R13OBJECT
1002
{
1005
341
1002
}
  0
VERTEX
  5
567
330
341
100
AcDbEntity
  8
1_TOP
  6
CONTINUOUS
 62
     7
100
AcDbVertex
100
AcDb3dPolylineVertex
 10
-4.877163539655064
 20
-3.900270858674952
 30
2.505126592374674
 70
    32
1001
ACAD
1000
R13OBJECT
1002
{
1005
341
1002
}
  0
VERTEX
  5
568
330
341
100
AcDbEntity
  8
1_TOP
  6
CONTINUOUS
 62
     7
100
AcDbVertex
100
AcDb3dPolylineVertex
 10
-4.890531928957349
 20
-5.128113755701818
 30
2.352325203445772
 70
    32
1001
ACAD
1000
R13OBJECT
1002
{
1005
341
1002
}
  0
SEQEND
  5
569
330
341
100
AcDbEntity
  8
1_TOP
  6
CONTINUOUS
 62
     7
  0
POLYLINE
  5
342
330
640
100
AcDbEntity
  8
1_TOP
  6
CONTINUOUS
 62
     7
100
AcDb3dPolyline
 66
     1
 10
0.0
 20
0.0
 30
0.0
 70
     8
  0
VERTEX
  5
56A
330
342
100
AcDbEntity
  8
1_TOP
  6
CONTINUOUS
 62
     7
100
AcDbVertex
100
AcDb3dPolylineVertex
 10
-6.890531928959116
 20
-1.435113755701211
 30
2.352325203445894
 70
    32
1001
ACAD
1000
R13OBJECT
1002
{
1005
342
1002
}
  0
VERTEX
  5
56B
330
342
100
AcDbEntity
  8
1_TOP
  6
CONTINUOUS
 62
     7
100
AcDbVertex
100
AcDb3dPolylineVertex
 10
-6.903900318261393
 20
-2.662956652727904
 30
2.505126592374705
 70
    32
1001
ACAD
1000
R13OBJECT
1002
{
1005
342
1002
}
  0
VERTEX
  5
56C
330
342
100
AcDbEntity
  8
1_TOP
  6
CONTINUOUS
 62
     7
100
AcDbVertex
100
AcDb3dPolylineVertex
 10
-6.903900318261393
 20
-3.90027085867459
 30
2.505126592374701
 70
    32
1001
ACAD
1000
R13OBJECT
1002
{
1005
342
1002
}
  0
VERTEX
  5
56D
330
342
100
AcDbEntity
  8
1_TOP
  6
CONTINUOUS
 62
     7
100
AcDbVertex
100
AcDb3dPolylineVertex
 10
-6.890531928959113
 20
-5.128113755701281
 30
2.352325203445878
 70
    32
1001
ACAD
1000
R13OBJECT
1002
{
1005
342
1002
}
  0
SEQEND
  5
56E
330
342
100
AcDbEntity
  8
1_TOP
  6
CONTINUOUS
 62
     7
  0
POLYLINE
  5
343
330
640
100
AcDbEntity
  8
1_TOP
  6
CONTINUOUS
 62
     7
100
AcDb3dPolyline
 66
     1
 10
0.0
 20
0.0
 30
0.0
 70
     8
  0
VERTEX
  5
56F
330
343
100
AcDbEntity
  8
1_TOP
  6
CONTINUOUS
 62
     7
100
AcDbVertex
100
AcDb3dPolylineVertex
 10
-4.984320101049163
 20
-1.847113755701216
 30
2.352325203445879
 70
    32
1001
ACAD
1000
R13OBJECT
1002
{
1005
343
1002
}
  0
VERTEX
  5
570
330
343
100
AcDbEntity
  8
1_TOP
  6
CONTINUOUS
 62
     7
100
AcDbVertex
100
AcDb3dPolylineVertex
 10
-4.962193713082874
 20
-1.837972897024291
 30
2.352325203445879
 70
    32
1001
ACAD
1000
R13OBJECT
1002
{
1005
343
1002
}
  0
VERTEX
  5
571
330
343
100
AcDbEntity
  8
1_TOP
  6
CONTINUOUS
 62
     7
100
AcDbVertex
100
AcDb3dPolylineVertex
 10
-4.953031928957342
 20
-1.815897045567916
 30
2.352325203445879
 70
    32
1001
ACAD
1000
R13OBJECT
1002
{
1005
343
1002
}
  0
SEQEND
  5
572
330
343
100
AcDbEntity
  8
1_TOP
  6
CONTINUOUS
 62
     7
  0
POLYLINE
  5
344
330
640
100
AcDbEntity
  8
1_TOP
  6
CONTINUOUS
 62
     7
100
AcDb3dPolyline
 66
     1
 10
0.0
 20
0.0
 30
0.0
 70
     8
  0
VERTEX
  5
573
330
344
100
AcDbEntity
  8
1_TOP
  6
CONTINUOUS
 62
     7
100
AcDbVertex
100
AcDb3dPolylineVertex
 10
-4.953031928957342
 20
-1.466330465834514
 30
2.352325203445879
 70
    32
1001
ACAD
1000
R13OBJECT
1002
{
1005
344
1002
}
  0
VERTEX
  5
574
330
344
100
AcDbEntity
  8
1_TOP
  6
CONTINUOUS
 62
     7
100
AcDbVertex
100
AcDb3dPolylineVertex
 10
-4.962193713082874
 20
-1.444254614378141
 30
2.352325203445879
 70
    32
1001
ACAD
1000
R13OBJECT
1002
{
1005
344
1002
}
  0
VERTEX
  5
575
330
344
100
AcDbEntity
  8
1_TOP
  6
CONTINUOUS
 62
     7
100
AcDbVertex
100
AcDb3dPolylineVertex
 10
-4.984320101049163
 20
-1.435113755701216
 30
2.352325203445879
 70
    32
1001
ACAD
1000
R13OBJECT
1002
{
1005
344
1002
}
  0
SEQEND
  5
576
330
344
100
AcDbEntity
  8
1_TOP
  6
CONTINUOUS
 62
     7
  0
POLYLINE
  5
345
330
640
100
AcDbEntity
  8
1_TOP
  6
CONTINUOUS
 62
     7
100
AcDb3dPolyline
 66
     1
 10
0.0
 20
0.0
 30
0.0
 70
     8
  0
VERTEX
  5
577
330
345
100
AcDbEntity
  8
1_TOP
  6
CONTINUOUS
 62
     7
100
AcDbVertex
100
AcDb3dPolylineVertex
 10
-6.796743756867284
 20
-1.847113755701214
 30
2.352325203445889
 70
    32
1001
ACAD
1000
R13OBJECT
1002
{
1005
345
1002
}
  0
VERTEX
  5
578
330
345
100
AcDbEntity
  8
1_TOP
  6
CONTINUOUS
 62
     7
100
AcDbVertex
100
AcDb3dPolylineVertex
 10
-6.818870144833572
 20
-1.837972897024289
 30
2.352325203445889
 70
    32
1001
ACAD
1000
R13OBJECT
1002
{
1005
345
1002
}
  0
VERTEX
  5
579
330
345
100
AcDbEntity
  8
1_TOP
  6
CONTINUOUS
 62
     7
100
AcDbVertex
100
AcDb3dPolylineVertex
 10
-6.828031928959106
 20
-1.815897045567913
 30
2.352325203445889
 70
    32
1001
ACAD
1000
R13OBJECT
1002
{
1005
345
1002
}
  0
SEQEND
  5
57A
330
345
100
AcDbEntity
  8
1_TOP
  6
CONTINUOUS
 62
     7
  0
POLYLINE
  5
346
330
640
100
AcDbEntity
  8
1_TOP
  6
CONTINUOUS
 62
     7
100
AcDb3dPolyline
 66
     1
 10
0.0
 20
0.0
 30
0.0
 70
     8
  0
VERTEX
  5
57B
330
346
100
AcDbEntity
  8
1_TOP
  6
CONTINUOUS
 62
     7
100
AcDbVertex
100
AcDb3dPolylineVertex
 10
-6.794645952508984
 20
-1.846590103753366
 30
2.32232520344589
 70
    32
1001
ACAD
1000
R13OBJECT
1002
{
1005
346
1002
}
  0
VERTEX
  5
57C
330
346
100
AcDbEntity
  8
1_TOP
  6
CONTINUOUS
 62
     7
100
AcDbVertex
100
AcDb3dPolylineVertex
 10
-6.816772340475272
 20
-1.837449245076441
 30
2.32232520344589
 70
    32
1001
ACAD
1000
R13OBJECT
1002
{
1005
346
1002
}
  0
VERTEX
  5
57D
330
346
100
AcDbEntity
  8
1_TOP
  6
CONTINUOUS
 62
     7
100
AcDbVertex
100
AcDb3dPolylineVertex
 10
-6.825934124600806
 20
-1.815373393620066
 30
2.32232520344589
 70
    32
1001
ACAD
1000
R13OBJECT
1002
{
1005
346
1002
}
  0
SEQEND
  5
57E
330
346
100
AcDbEntity
  8
1_TOP
  6
CONTINUOUS
 62
     7
  0
POLYLINE
  5
347
330
640
100
AcDbEntity
  8
1_TOP
  6
CONTINUOUS
 62
     7
100
AcDb3dPolyline
 66
     1
 10
0.0
 20
0.0
 30
0.0
 70
     8
  0
VERTEX
  5
57F
330
347
100
AcDbEntity
  8
1_TOP
  6
CONTINUOUS
 62
     7
100
AcDbVertex
100
AcDb3dPolylineVertex
 10
-6.828031928959106
 20
-1.466330465834513
 30
2.352325203445889
 70
    32
1001
ACAD
1000
R13OBJECT
1002
{
1005
347
1002
}
  0
VERTEX
  5
580
330
347
100
AcDbEntity
  8
1_TOP
  6
CONTINUOUS
 62
     7
100
AcDbVertex
100
AcDb3dPolylineVertex
 10
-6.818870144833572
 20
-1.44425461437814
 30
2.352325203445889
 70
    32
1001
ACAD
1000
R13OBJECT
1002
{
1005
347
1002
}
  0
VERTEX
  5
581
330
347
100
AcDbEntity
  8
1_TOP
  6
CONTINUOUS
 62
     7
100
AcDbVertex
100
AcDb3dPolylineVertex
 10
-6.796743756867284
 20
-1.435113755701214
 30
2.352325203445889
 70
    32
1001
ACAD
1000
R13OBJECT
1002
{
1005
347
1002
}
  0
SEQEND
  5
582
330
347
100
AcDbEntity
  8
1_TOP
  6
CONTINUOUS
 62
     7
  0
POLYLINE
  5
348
330
640
100
AcDbEntity
  8
1_TOP
  6
CONTINUOUS
 62
     7
100
AcDb3dPolyline
 66
     1
 10
0.0
 20
0.0
 30
0.0
 70
     8
  0
VERTEX
  5
583
330
348
100
AcDbEntity
  8
1_TOP
  6
CONTINUOUS
 62
     7
100
AcDbVertex
100
AcDb3dPolylineVertex
 10
-4.953031928957342
 20
-5.096897045567978
 30
2.352325203445889
 70
    32
1001
ACAD
1000
R13OBJECT
1002
{
1005
348
1002
}
  0
VERTEX
  5
584
330
348
100
AcDbEntity
  8
1_TOP
  6
CONTINUOUS
 62
     7
100
AcDbVertex
100
AcDb3dPolylineVertex
 10
-4.962193713082874
 20
-5.118972897024351
 30
2.352325203445889
 70
    32
1001
ACAD
1000
R13OBJECT
1002
{
1005
348
1002
}
  0
VERTEX
  5
585
330
348
100
AcDbEntity
  8
1_TOP
  6
CONTINUOUS
 62
     7
100
AcDbVertex
100
AcDb3dPolylineVertex
 10
-4.984320101049163
 20
-5.128113755701277
 30
2.352325203445889
 70
    32
1001
ACAD
1000
R13OBJECT
1002
{
1005
348
1002
}
  0
SEQEND
  5
586
330
348
100
AcDbEntity
  8
1_TOP
  6
CONTINUOUS
 62
     7
  0
POLYLINE
  5
349
330
640
100
AcDbEntity
  8
1_TOP
  6
CONTINUOUS
 62
     7
100
AcDb3dPolyline
 66
     1
 10
0.0
 20
0.0
 30
0.0
 70
     8
  0
VERTEX
  5
587
330
349
100
AcDbEntity
  8
1_TOP
  6
CONTINUOUS
 62
     7
100
AcDbVertex
100
AcDb3dPolylineVertex
 10
-6.825934124600816
 20
-5.096373393620137
 30
2.32232520344589
 70
    32
1001
ACAD
1000
R13OBJECT
1002
{
1005
349
1002
}
  0
VERTEX
  5
588
330
349
100
AcDbEntity
  8
1_TOP
  6
CONTINUOUS
 62
     7
100
AcDbVertex
100
AcDb3dPolylineVertex
 10
-6.816772340475282
 20
-5.118449245076511
 30
2.32232520344589
 70
    32
1001
ACAD
1000
R13OBJECT
1002
{
1005
349
1002
}
  0
VERTEX
  5
589
330
349
100
AcDbEntity
  8
1_TOP
  6
CONTINUOUS
 62
     7
100
AcDbVertex
100
AcDb3dPolylineVertex
 10
-6.794645952508994
 20
-5.127590103753436
 30
2.32232520344589
 70
    32
1001
ACAD
1000
R13OBJECT
1002
{
1005
349
1002
}
  0
SEQEND
  5
58A
330
349
100
AcDbEntity
  8
1_TOP
  6
CONTINUOUS
 62
     7
  0
POLYLINE
  5
34A
330
640
100
AcDbEntity
  8
1_TOP
  6
CONTINUOUS
 62
     7
100
AcDb3dPolyline
 66
     1
 10
0.0
 20
0.0
 30
0.0
 70
     8
  0
VERTEX
  5
58B
330
34A
100
AcDbEntity
  8
1_TOP
  6
CONTINUOUS
 62
     7
100
AcDbVertex
100
AcDb3dPolylineVertex
 10
-6.825934124600816
 20
-1.466854117782363
 30
2.322325203445899
 70
    32
1001
ACAD
1000
R13OBJECT
1002
{
1005
34A
1002
}
  0
VERTEX
  5
58C
330
34A
100
AcDbEntity
  8
1_TOP
  6
CONTINUOUS
 62
     7
100
AcDbVertex
100
AcDb3dPolylineVertex
 10
-6.825274345504599
 20
-1.460474096748343
 30
2.322325203445899
 70
    32
1001
ACAD
1000
R13OBJECT
1002
{
1005
34A
1002
}
  0
VERTEX
  5
58D
330
34A
100
AcDbEntity
  8
1_TOP
  6
CONTINUOUS
 62
     7
100
AcDbVertex
100
AcDb3dPolylineVertex
 10
-6.823322800092198
 20
-1.45436442413881
 30
2.322325203445899
 70
    32
1001
ACAD
1000
R13OBJECT
1002
{
1005
34A
1002
}
  0
SEQEND
  5
58E
330
34A
100
AcDbEntity
  8
1_TOP
  6
CONTINUOUS
 62
     7
  0
POLYLINE
  5
34B
330
640
100
AcDbEntity
  8
1_TOP
  6
CONTINUOUS
 62
     7
100
AcDb3dPolyline
 66
     1
 10
0.0
 20
0.0
 30
0.0
 70
     8
  0
VERTEX
  5
58F
330
34B
100
AcDbEntity
  8
1_TOP
  6
CONTINUOUS
 62
     7
100
AcDbVertex
100
AcDb3dPolylineVertex
 10
-6.825934124600816
 20
-4.747854117782391
 30
2.32232520344587
 70
    32
1001
ACAD
1000
R13OBJECT
1002
{
1005
34B
1002
}
  0
VERTEX
  5
590
330
34B
100
AcDbEntity
  8
1_TOP
  6
CONTINUOUS
 62
     7
100
AcDbVertex
100
AcDb3dPolylineVertex
 10
-6.816772340475282
 20
-4.725778266326018
 30
2.32232520344587
 70
    32
1001
ACAD
1000
R13OBJECT
1002
{
1005
34B
1002
}
  0
VERTEX
  5
591
330
34B
100
AcDbEntity
  8
1_TOP
  6
CONTINUOUS
 62
     7
100
AcDbVertex
100
AcDb3dPolylineVertex
 10
-6.794645952508994
 20
-4.716637407649092
 30
2.32232520344587
 70
    32
1001
ACAD
1000
R13OBJECT
1002
{
1005
34B
1002
}
  0
SEQEND
  5
592
330
34B
100
AcDbEntity
  8
1_TOP
  6
CONTINUOUS
 62
     7
  0
POLYLINE
  5
34C
330
640
100
AcDbEntity
  8
1_TOP
  6
CONTINUOUS
 62
     7
100
AcDb3dPolyline
 66
     1
 10
0.0
 20
0.0
 30
0.0
 70
     8
  0
VERTEX
  5
593
330
34C
100
AcDbEntity
  8
1_TOP
  6
CONTINUOUS
 62
     7
100
AcDbVertex
100
AcDb3dPolylineVertex
 10
-4.955129733315641
 20
-4.747854117782391
 30
2.322325203445879
 70
    32
1001
ACAD
1000
R13OBJECT
1002
{
1005
34C
1002
}
  0
VERTEX
  5
594
330
34C
100
AcDbEntity
  8
1_TOP
  6
CONTINUOUS
 62
     7
100
AcDbVertex
100
AcDb3dPolylineVertex
 10
-4.964291517441174
 20
-4.725778266326018
 30
2.322325203445879
 70
    32
1001
ACAD
1000
R13OBJECT
1002
{
1005
34C
1002
}
  0
VERTEX
  5
595
330
34C
100
AcDbEntity
  8
1_TOP
  6
CONTINUOUS
 62
     7
100
AcDbVertex
100
AcDb3dPolylineVertex
 10
-4.986417905407463
 20
-4.716637407649093
 30
2.322325203445879
 70
    32
1001
ACAD
1000
R13OBJECT
1002
{
1005
34C
1002
}
  0
SEQEND
  5
596
330
34C
100
AcDbEntity
  8
1_TOP
  6
CONTINUOUS
 62
     7
  0
POLYLINE
  5
34D
330
640
100
AcDbEntity
  8
1_TOP
  6
CONTINUOUS
 62
     7
100
AcDb3dPolyline
 66
     1
 10
0.0
 20
0.0
 30
0.0
 70
     8
  0
VERTEX
  5
597
330
34D
100
AcDbEntity
  8
1_TOP
  6
CONTINUOUS
 62
     7
100
AcDbVertex
100
AcDb3dPolylineVertex
 10
-7.212980151138467
 20
-5.48595053030213
 30
2.278301421610018
 70
    32
1001
ACAD
1000
R13OBJECT
1002
{
1005
34D
1002
}
  0
VERTEX
  5
598
330
34D
100
AcDbEntity
  8
1_TOP
  6
CONTINUOUS
 62
     7
100
AcDbVertex
100
AcDb3dPolylineVertex
 10
-7.200133261262105
 20
-4.390623104979221
 30
2.462596428063795
 70
    32
1001
ACAD
1000
R13OBJECT
1002
{
1005
34D
1002
}
  0
VERTEX
  5
599
330
34D
100
AcDbEntity
  8
1_TOP
  6
CONTINUOUS
 62
     7
100
AcDbVertex
100
AcDb3dPolylineVertex
 10
-7.195833281589182
 20
-3.281613755701256
 30
2.524281768967218
 70
    32
1001
ACAD
1000
R13OBJECT
1002
{
1005
34D
1002
}
  0
VERTEX
  5
59A
330
34D
100
AcDbEntity
  8
1_TOP
  6
CONTINUOUS
 62
     7
100
AcDbVertex
100
AcDb3dPolylineVertex
 10
-7.200133261262103
 20
-2.172604406423291
 30
2.462596428063807
 70
    32
1001
ACAD
1000
R13OBJECT
1002
{
1005
34D
1002
}
  0
VERTEX
  5
59B
330
34D
100
AcDbEntity
  8
1_TOP
  6
CONTINUOUS
 62
     7
100
AcDbVertex
100
AcDb3dPolylineVertex
 10
-7.212980151138467
 20
-1.077276981100383
 30
2.278301421610041
 70
    32
1001
ACAD
1000
R13OBJECT
1002
{
1005
34D
1002
}
  0
SEQEND
  5
59C
330
34D
100
AcDbEntity
  8
1_TOP
  6
CONTINUOUS
 62
     7
  0
POLYLINE
  5
34E
330
640
100
AcDbEntity
  8
1_TOP
  6
CONTINUOUS
 62
     7
100
AcDb3dPolyline
 66
     1
 10
0.0
 20
0.0
 30
0.0
 70
     8
  0
VERTEX
  5
59D
330
34E
100
AcDbEntity
  8
1_TOP
  6
CONTINUOUS
 62
     7
100
AcDbVertex
100
AcDb3dPolylineVertex
 10
-6.105025000036166
 20
-3.569265487632548
 30
1.839672408024793
 70
    32
1001
ACAD
1000
R13OBJECT
1002
{
1005
34E
1002
}
  0
VERTEX
  5
59E
330
34E
100
AcDbEntity
  8
1_TOP
  6
CONTINUOUS
 62
     7
100
AcDbVertex
100
AcDb3dPolylineVertex
 10
-6.105513995205837
 20
-3.552067911388376
 30
1.830341824352652
 70
    32
1001
ACAD
1000
R13OBJECT
1002
{
1005
34E
1002
}
  0
VERTEX
  5
59F
330
34E
100
AcDbEntity
  8
1_TOP
  6
CONTINUOUS
 62
     7
100
AcDbVertex
100
AcDb3dPolylineVertex
 10
-6.105619681829215
 20
-3.532606419655845
 30
1.828325203445895
 70
    32
1001
ACAD
1000
R13OBJECT
1002
{
1005
34E
1002
}
  0
SEQEND
  5
5A0
330
34E
100
AcDbEntity
  8
1_TOP
  6
CONTINUOUS
 62
     7
  0
POLYLINE
  5
34F
330
640
100
AcDbEntity
  8
1_TOP
  6
CONTINUOUS
 62
     7
100
AcDb3dPolyline
 66
     1
 10
0.0
 20
0.0
 30
0.0
 70
     8
  0
VERTEX
  5
5A1
330
34F
100
AcDbEntity
  8
1_TOP
  6
CONTINUOUS
 62
     7
100
AcDbVertex
100
AcDb3dPolylineVertex
 10
-6.105619681829215
 20
-3.511657661510035
 30
1.828325203445892
 70
    32
1001
ACAD
1000
R13OBJECT
1002
{
1005
34F
1002
}
  0
VERTEX
  5
5A2
330
34F
100
AcDbEntity
  8
1_TOP
  6
CONTINUOUS
 62
     7
100
AcDbVertex
100
AcDb3dPolylineVertex
 10
-6.105545341903558
 20
-3.508168709210826
 30
1.82974369372877
 70
    32
1001
ACAD
1000
R13OBJECT
1002
{
1005
34F
1002
}
  0
VERTEX
  5
5A3
330
34F
100
AcDbEntity
  8
1_TOP
  6
CONTINUOUS
 62
     7
100
AcDbVertex
100
AcDb3dPolylineVertex
 10
-6.105364502311448
 20
-3.506659374885156
 30
1.833194318704353
 70
    32
1001
ACAD
1000
R13OBJECT
1002
{
1005
34F
1002
}
  0
SEQEND
  5
5A4
330
34F
100
AcDbEntity
  8
1_TOP
  6
CONTINUOUS
 62
     7
  0
POLYLINE
  5
350
330
640
100
AcDbEntity
  8
1_TOP
  6
CONTINUOUS
 62
     7
100
AcDb3dPolyline
 66
     1
 10
0.0
 20
0.0
 30
0.0
 70
     8
  0
VERTEX
  5
5A5
330
350
100
AcDbEntity
  8
1_TOP
  6
CONTINUOUS
 62
     7
100
AcDbVertex
100
AcDb3dPolylineVertex
 10
-6.105025000036166
 20
-3.569265487632555
 30
1.839672408024784
 70
    32
1001
ACAD
1000
R13OBJECT
1002
{
1005
350
1002
}
  0
VERTEX
  5
5A6
330
350
100
AcDbEntity
  8
1_TOP
  6
CONTINUOUS
 62
     7
100
AcDbVertex
100
AcDb3dPolylineVertex
 10
-6.104980002802682
 20
-3.570763233689092
 30
1.840531006387448
 70
    32
1001
ACAD
1000
R13OBJECT
1002
{
1005
350
1002
}
  0
VERTEX
  5
5A7
330
350
100
AcDbEntity
  8
1_TOP
  6
CONTINUOUS
 62
     7
100
AcDbVertex
100
AcDb3dPolylineVertex
 10
-6.104964383007872
 20
-3.572463705537205
 30
1.840829049827273
 70
    32
1001
ACAD
1000
R13OBJECT
1002
{
1005
350
1002
}
  0
SEQEND
  5
5A8
330
350
100
AcDbEntity
  8
1_TOP
  6
CONTINUOUS
 62
     7
  0
POLYLINE
  5
351
330
640
100
AcDbEntity
  8
1_TOP
  6
CONTINUOUS
 62
     7
100
AcDb3dPolyline
 66
     1
 10
0.0
 20
0.0
 30
0.0
 70
     8
  0
VERTEX
  5
5A9
330
351
100
AcDbEntity
  8
1_TOP
  6
CONTINUOUS
 62
     7
100
AcDbVertex
100
AcDb3dPolylineVertex
 10
-6.310444176087236
 20
-3.511657661510064
 30
1.828325203445892
 70
    32
1001
ACAD
1000
R13OBJECT
1002
{
1005
351
1002
}
  0
VERTEX
  5
5AA
330
351
100
AcDbEntity
  8
1_TOP
  6
CONTINUOUS
 62
     7
100
AcDbVertex
100
AcDb3dPolylineVertex
 10
-6.310518516012896
 20
-3.508168709210857
 30
1.82974369372877
 70
    32
1001
ACAD
1000
R13OBJECT
1002
{
1005
351
1002
}
  0
VERTEX
  5
5AB
330
351
100
AcDbEntity
  8
1_TOP
  6
CONTINUOUS
 62
     7
100
AcDbVertex
100
AcDb3dPolylineVertex
 10
-6.310699355605004
 20
-3.506659374885187
 30
1.833194318704353
 70
    32
1001
ACAD
1000
R13OBJECT
1002
{
1005
351
1002
}
  0
SEQEND
  5
5AC
330
351
100
AcDbEntity
  8
1_TOP
  6
CONTINUOUS
 62
     7
  0
POLYLINE
  5
352
330
640
100
AcDbEntity
  8
1_TOP
  6
CONTINUOUS
 62
     7
100
AcDb3dPolyline
 66
     1
 10
0.0
 20
0.0
 30
0.0
 70
     8
  0
VERTEX
  5
5AD
330
352
100
AcDbEntity
  8
1_TOP
  6
CONTINUOUS
 62
     7
100
AcDbVertex
100
AcDb3dPolylineVertex
 10
-6.311038857880285
 20
-3.569265487632585
 30
1.839672408024784
 70
    32
1001
ACAD
1000
R13OBJECT
1002
{
1005
352
1002
}
  0
VERTEX
  5
5AE
330
352
100
AcDbEntity
  8
1_TOP
  6
CONTINUOUS
 62
     7
100
AcDbVertex
100
AcDb3dPolylineVertex
 10
-6.31108385511377
 20
-3.570763233689122
 30
1.840531006387448
 70
    32
1001
ACAD
1000
R13OBJECT
1002
{
1005
352
1002
}
  0
VERTEX
  5
5AF
330
352
100
AcDbEntity
  8
1_TOP
  6
CONTINUOUS
 62
     7
100
AcDbVertex
100
AcDb3dPolylineVertex
 10
-6.31109947490858
 20
-3.572463705537235
 30
1.840829049827273
 70
    32
1001
ACAD
1000
R13OBJECT
1002
{
1005
352
1002
}
  0
SEQEND
  5
5B0
330
352
100
AcDbEntity
  8
1_TOP
  6
CONTINUOUS
 62
     7
  0
POLYLINE
  5
353
330
640
100
AcDbEntity
  8
1_TOP
  6
CONTINUOUS
 62
     7
100
AcDb3dPolyline
 66
     1
 10
0.0
 20
0.0
 30
0.0
 70
     8
  0
VERTEX
  5
5B1
330
353
100
AcDbEntity
  8
1_TOP
  6
CONTINUOUS
 62
     7
100
AcDbVertex
100
AcDb3dPolylineVertex
 10
-6.311038857880286
 20
-3.569265487632588
 30
1.839672408024792
 70
    32
1001
ACAD
1000
R13OBJECT
1002
{
1005
353
1002
}
  0
VERTEX
  5
5B2
330
353
100
AcDbEntity
  8
1_TOP
  6
CONTINUOUS
 62
     7
100
AcDbVertex
100
AcDb3dPolylineVertex
 10
-6.310549862710615
 20
-3.552067911388413
 30
1.830341824352651
 70
    32
1001
ACAD
1000
R13OBJECT
1002
{
1005
353
1002
}
  0
VERTEX
  5
5B3
330
353
100
AcDbEntity
  8
1_TOP
  6
CONTINUOUS
 62
     7
100
AcDbVertex
100
AcDb3dPolylineVertex
 10
-6.310444176087237
 20
-3.532606419655881
 30
1.828325203445895
 70
    32
1001
ACAD
1000
R13OBJECT
1002
{
1005
353
1002
}
  0
SEQEND
  5
5B4
330
353
100
AcDbEntity
  8
1_TOP
  6
CONTINUOUS
 62
     7
  0
POLYLINE
  5
354
330
640
100
AcDbEntity
  8
1_TOP
  6
CONTINUOUS
 62
     7
100
AcDb3dPolyline
 66
     1
 10
0.0
 20
0.0
 30
0.0
 70
     8
  0
VERTEX
  5
5B5
330
354
100
AcDbEntity
  8
1_TOP
  6
CONTINUOUS
 62
     7
100
AcDbVertex
100
AcDb3dPolylineVertex
 10
-6.311098717079612
 20
-3.572463705537237
 30
1.840814589589163
 70
    32
1001
ACAD
1000
R13OBJECT
1002
{
1005
354
1002
}
  0
VERTEX
  5
5B6
330
354
100
AcDbEntity
  8
1_TOP
  6
CONTINUOUS
 62
     7
100
AcDbVertex
100
AcDb3dPolylineVertex
 10
-6.3110992853828
 20
-3.572653563599676
 30
1.840825433459939
 70
    32
1001
ACAD
1000
R13OBJECT
1002
{
1005
354
1002
}
  0
VERTEX
  5
5B7
330
354
100
AcDbEntity
  8
1_TOP
  6
CONTINUOUS
 62
     7
100
AcDbVertex
100
AcDb3dPolylineVertex
 10
-6.311099474908582
 20
-3.572843696698564
 30
1.840829049827281
 70
    32
1001
ACAD
1000
R13OBJECT
1002
{
1005
354
1002
}
  0
SEQEND
  5
5B8
330
354
100
AcDbEntity
  8
1_TOP
  6
CONTINUOUS
 62
     7
  0
POLYLINE
  5
355
330
640
100
AcDbEntity
  8
1_TOP
  6
CONTINUOUS
 62
     7
100
AcDb3dPolyline
 66
     1
 10
0.0
 20
0.0
 30
0.0
 70
     8
  0
VERTEX
  5
5B9
330
355
100
AcDbEntity
  8
1_TOP
  6
CONTINUOUS
 62
     7
100
AcDbVertex
100
AcDb3dPolylineVertex
 10
-6.104965140836838
 20
-3.572463705537207
 30
1.840814589589163
 70
    32
1001
ACAD
1000
R13OBJECT
1002
{
1005
355
1002
}
  0
VERTEX
  5
5BA
330
355
100
AcDbEntity
  8
1_TOP
  6
CONTINUOUS
 62
     7
100
AcDbVertex
100
AcDb3dPolylineVertex
 10
-6.104964572533653
 20
-3.572653563599646
 30
1.840825433459939
 70
    32
1001
ACAD
1000
R13OBJECT
1002
{
1005
355
1002
}
  0
VERTEX
  5
5BB
330
355
100
AcDbEntity
  8
1_TOP
  6
CONTINUOUS
 62
     7
100
AcDbVertex
100
AcDb3dPolylineVertex
 10
-6.10496438300787
 20
-3.572843696698535
 30
1.840829049827281
 70
    32
1001
ACAD
1000
R13OBJECT
1002
{
1005
355
1002
}
  0
SEQEND
  5
5BC
330
355
100
AcDbEntity
  8
1_TOP
  6
CONTINUOUS
 62
     7
  0
POLYLINE
  5
356
330
640
100
AcDbEntity
  8
1_TOP
  6
CONTINUOUS
 62
     7
100
AcDb3dPolyline
 66
     1
 10
0.0
 20
0.0
 30
0.0
 70
     8
  0
VERTEX
  5
5BD
330
356
100
AcDbEntity
  8
1_TOP
  6
CONTINUOUS
 62
     7
100
AcDbVertex
100
AcDb3dPolylineVertex
 10
-5.676098717079619
 20
-3.572463705537237
 30
1.840814589589159
 70
    32
1001
ACAD
1000
R13OBJECT
1002
{
1005
356
1002
}
  0
VERTEX
  5
5BE
330
356
100
AcDbEntity
  8
1_TOP
  6
CONTINUOUS
 62
     7
100
AcDbVertex
100
AcDb3dPolylineVertex
 10
-5.676099285382805
 20
-3.572653563599676
 30
1.840825433459936
 70
    32
1001
ACAD
1000
R13OBJECT
1002
{
1005
356
1002
}
  0
VERTEX
  5
5BF
330
356
100
AcDbEntity
  8
1_TOP
  6
CONTINUOUS
 62
     7
100
AcDbVertex
100
AcDb3dPolylineVertex
 10
-5.676099474908585
 20
-3.572843696698564
 30
1.840829049827275
 70
    32
1001
ACAD
1000
R13OBJECT
1002
{
1005
356
1002
}
  0
SEQEND
  5
5C0
330
356
100
AcDbEntity
  8
1_TOP
  6
CONTINUOUS
 62
     7
  0
POLYLINE
  5
357
330
640
100
AcDbEntity
  8
1_TOP
  6
CONTINUOUS
 62
     7
100
AcDb3dPolyline
 66
     1
 10
0.0
 20
0.0
 30
0.0
 70
     8
  0
VERTEX
  5
5C1
330
357
100
AcDbEntity
  8
1_TOP
  6
CONTINUOUS
 62
     7
100
AcDbVertex
100
AcDb3dPolylineVertex
 10
-5.469965140836841
 20
-3.572463705537207
 30
1.840814589589166
 70
    32
1001
ACAD
1000
R13OBJECT
1002
{
1005
357
1002
}
  0
VERTEX
  5
5C2
330
357
100
AcDbEntity
  8
1_TOP
  6
CONTINUOUS
 62
     7
100
AcDbVertex
100
AcDb3dPolylineVertex
 10
-5.469964572533656
 20
-3.572653563599645
 30
1.840825433459944
 70
    32
1001
ACAD
1000
R13OBJECT
1002
{
1005
357
1002
}
  0
VERTEX
  5
5C3
330
357
100
AcDbEntity
  8
1_TOP
  6
CONTINUOUS
 62
     7
100
AcDbVertex
100
AcDb3dPolylineVertex
 10
-5.469964383007874
 20
-3.572843696698535
 30
1.840829049827284
 70
    32
1001
ACAD
1000
R13OBJECT
1002
{
1005
357
1002
}
  0
SEQEND
  5
5C4
330
357
100
AcDbEntity
  8
1_TOP
  6
CONTINUOUS
 62
     7
  0
POLYLINE
  5
358
330
640
100
AcDbEntity
  8
1_TOP
  6
CONTINUOUS
 62
     7
100
AcDb3dPolyline
 66
     1
 10
0.0
 20
0.0
 30
0.0
 70
     8
  0
VERTEX
  5
5C5
330
358
100
AcDbEntity
  8
1_TOP
  6
CONTINUOUS
 62
     7
100
AcDbVertex
100
AcDb3dPolylineVertex
 10
-5.470025000036168
 20
-3.569265487632558
 30
1.839672408024787
 70
    32
1001
ACAD
1000
R13OBJECT
1002
{
1005
358
1002
}
  0
VERTEX
  5
5C6
330
358
100
AcDbEntity
  8
1_TOP
  6
CONTINUOUS
 62
     7
100
AcDbVertex
100
AcDb3dPolylineVertex
 10
-5.47051399520584
 20
-3.552067911388383
 30
1.830341824352645
 70
    32
1001
ACAD
1000
R13OBJECT
1002
{
1005
358
1002
}
  0
VERTEX
  5
5C7
330
358
100
AcDbEntity
  8
1_TOP
  6
CONTINUOUS
 62
     7
100
AcDbVertex
100
AcDb3dPolylineVertex
 10
-5.470619681829218
 20
-3.532606419655851
 30
1.828325203445889
 70
    32
1001
ACAD
1000
R13OBJECT
1002
{
1005
358
1002
}
  0
SEQEND
  5
5C8
330
358
100
AcDbEntity
  8
1_TOP
  6
CONTINUOUS
 62
     7
  0
POLYLINE
  5
359
330
640
100
AcDbEntity
  8
1_TOP
  6
CONTINUOUS
 62
     7
100
AcDb3dPolyline
 66
     1
 10
0.0
 20
0.0
 30
0.0
 70
     8
  0
VERTEX
  5
5C9
330
359
100
AcDbEntity
  8
1_TOP
  6
CONTINUOUS
 62
     7
100
AcDbVertex
100
AcDb3dPolylineVertex
 10
-5.47002500003617
 20
-3.569265487632553
 30
1.839672408024788
 70
    32
1001
ACAD
1000
R13OBJECT
1002
{
1005
359
1002
}
  0
VERTEX
  5
5CA
330
359
100
AcDbEntity
  8
1_TOP
  6
CONTINUOUS
 62
     7
100
AcDbVertex
100
AcDb3dPolylineVertex
 10
-5.469980002802686
 20
-3.570763233689091
 30
1.840531006387453
 70
    32
1001
ACAD
1000
R13OBJECT
1002
{
1005
359
1002
}
  0
VERTEX
  5
5CB
330
359
100
AcDbEntity
  8
1_TOP
  6
CONTINUOUS
 62
     7
100
AcDbVertex
100
AcDb3dPolylineVertex
 10
-5.469964383007875
 20
-3.572463705537205
 30
1.840829049827276
 70
    32
1001
ACAD
1000
R13OBJECT
1002
{
1005
359
1002
}
  0
SEQEND
  5
5CC
330
359
100
AcDbEntity
  8
1_TOP
  6
CONTINUOUS
 62
     7
  0
POLYLINE
  5
35A
330
640
100
AcDbEntity
  8
1_TOP
  6
CONTINUOUS
 62
     7
100
AcDb3dPolyline
 66
     1
 10
0.0
 20
0.0
 30
0.0
 70
     8
  0
VERTEX
  5
5CD
330
35A
100
AcDbEntity
  8
1_TOP
  6
CONTINUOUS
 62
     7
100
AcDbVertex
100
AcDb3dPolylineVertex
 10
-5.470619681829219
 20
-3.511657661510035
 30
1.828325203445887
 70
    32
1001
ACAD
1000
R13OBJECT
1002
{
1005
35A
1002
}
  0
VERTEX
  5
5CE
330
35A
100
AcDbEntity
  8
1_TOP
  6
CONTINUOUS
 62
     7
100
AcDbVertex
100
AcDb3dPolylineVertex
 10
-5.470545341903561
 20
-3.508168709210826
 30
1.829743693728764
 70
    32
1001
ACAD
1000
R13OBJECT
1002
{
1005
35A
1002
}
  0
VERTEX
  5
5CF
330
35A
100
AcDbEntity
  8
1_TOP
  6
CONTINUOUS
 62
     7
100
AcDbVertex
100
AcDb3dPolylineVertex
 10
-5.470364502311451
 20
-3.506659374885156
 30
1.833194318704348
 70
    32
1001
ACAD
1000
R13OBJECT
1002
{
1005
35A
1002
}
  0
SEQEND
  5
5D0
330
35A
100
AcDbEntity
  8
1_TOP
  6
CONTINUOUS
 62
     7
  0
POLYLINE
  5
35B
330
640
100
AcDbEntity
  8
1_TOP
  6
CONTINUOUS
 62
     7
100
AcDb3dPolyline
 66
     1
 10
0.0
 20
0.0
 30
0.0
 70
     8
  0
VERTEX
  5
5D1
330
35B
100
AcDbEntity
  8
1_TOP
  6
CONTINUOUS
 62
     7
100
AcDbVertex
100
AcDb3dPolylineVertex
 10
-5.676038857880293
 20
-3.569265487632585
 30
1.839672408024789
 70
    32
1001
ACAD
1000
R13OBJECT
1002
{
1005
35B
1002
}
  0
VERTEX
  5
5D2
330
35B
100
AcDbEntity
  8
1_TOP
  6
CONTINUOUS
 62
     7
100
AcDbVertex
100
AcDb3dPolylineVertex
 10
-5.676083855113775
 20
-3.570763233689122
 30
1.840531006387455
 70
    32
1001
ACAD
1000
R13OBJECT
1002
{
1005
35B
1002
}
  0
VERTEX
  5
5D3
330
35B
100
AcDbEntity
  8
1_TOP
  6
CONTINUOUS
 62
     7
100
AcDbVertex
100
AcDb3dPolylineVertex
 10
-5.676099474908585
 20
-3.572463705537235
 30
1.840829049827279
 70
    32
1001
ACAD
1000
R13OBJECT
1002
{
1005
35B
1002
}
  0
SEQEND
  5
5D4
330
35B
100
AcDbEntity
  8
1_TOP
  6
CONTINUOUS
 62
     7
  0
POLYLINE
  5
35C
330
640
100
AcDbEntity
  8
1_TOP
  6
CONTINUOUS
 62
     7
100
AcDb3dPolyline
 66
     1
 10
0.0
 20
0.0
 30
0.0
 70
     8
  0
VERTEX
  5
5D5
330
35C
100
AcDbEntity
  8
1_TOP
  6
CONTINUOUS
 62
     7
100
AcDbVertex
100
AcDb3dPolylineVertex
 10
-5.675444176087242
 20
-3.511657661510064
 30
1.828325203445889
 70
    32
1001
ACAD
1000
R13OBJECT
1002
{
1005
35C
1002
}
  0
VERTEX
  5
5D6
330
35C
100
AcDbEntity
  8
1_TOP
  6
CONTINUOUS
 62
     7
100
AcDbVertex
100
AcDb3dPolylineVertex
 10
-5.675518516012902
 20
-3.508168709210857
 30
1.829743693728765
 70
    32
1001
ACAD
1000
R13OBJECT
1002
{
1005
35C
1002
}
  0
VERTEX
  5
5D7
330
35C
100
AcDbEntity
  8
1_TOP
  6
CONTINUOUS
 62
     7
100
AcDbVertex
100
AcDb3dPolylineVertex
 10
-5.675699355605011
 20
-3.506659374885187
 30
1.833194318704349
 70
    32
1001
ACAD
1000
R13OBJECT
1002
{
1005
35C
1002
}
  0
SEQEND
  5
5D8
330
35C
100
AcDbEntity
  8
1_TOP
  6
CONTINUOUS
 62
     7
  0
POLYLINE
  5
35D
330
640
100
AcDbEntity
  8
1_TOP
  6
CONTINUOUS
 62
     7
100
AcDb3dPolyline
 66
     1
 10
0.0
 20
0.0
 30
0.0
 70
     8
  0
VERTEX
  5
5D9
330
35D
100
AcDbEntity
  8
1_TOP
  6
CONTINUOUS
 62
     7
100
AcDbVertex
100
AcDb3dPolylineVertex
 10
-5.676038857880293
 20
-3.569265487632579
 30
1.839672408024789
 70
    32
1001
ACAD
1000
R13OBJECT
1002
{
1005
35D
1002
}
  0
VERTEX
  5
5DA
330
35D
100
AcDbEntity
  8
1_TOP
  6
CONTINUOUS
 62
     7
100
AcDbVertex
100
AcDb3dPolylineVertex
 10
-5.67554986271062
 20
-3.552067911388406
 30
1.830341824352649
 70
    32
1001
ACAD
1000
R13OBJECT
1002
{
1005
35D
1002
}
  0
VERTEX
  5
5DB
330
35D
100
AcDbEntity
  8
1_TOP
  6
CONTINUOUS
 62
     7
100
AcDbVertex
100
AcDb3dPolylineVertex
 10
-5.675444176087241
 20
-3.532606419655876
 30
1.828325203445891
 70
    32
1001
ACAD
1000
R13OBJECT
1002
{
1005
35D
1002
}
  0
SEQEND
  5
5DC
330
35D
100
AcDbEntity
  8
1_TOP
  6
CONTINUOUS
 62
     7
  0
POLYLINE
  5
35E
330
640
100
AcDbEntity
  8
1_TOP
  6
CONTINUOUS
 62
     7
100
AcDb3dPolyline
 66
     1
 10
0.0
 20
0.0
 30
0.0
 70
     8
  0
VERTEX
  5
5DD
330
35E
100
AcDbEntity
  8
1_TOP
  6
CONTINUOUS
 62
     7
100
AcDbVertex
100
AcDb3dPolylineVertex
 10
-5.676038857880286
 20
-2.41880087635102
 30
1.839672408024789
 70
    32
1001
ACAD
1000
R13OBJECT
1002
{
1005
35E
1002
}
  0
VERTEX
  5
5DE
330
35E
100
AcDbEntity
  8
1_TOP
  6
CONTINUOUS
 62
     7
100
AcDbVertex
100
AcDb3dPolylineVertex
 10
-5.675549862710616
 20
-2.401603300106846
 30
1.830341824352649
 70
    32
1001
ACAD
1000
R13OBJECT
1002
{
1005
35E
1002
}
  0
VERTEX
  5
5DF
330
35E
100
AcDbEntity
  8
1_TOP
  6
CONTINUOUS
 62
     7
100
AcDbVertex
100
AcDb3dPolylineVertex
 10
-5.675444176087236
 20
-2.382141808374315
 30
1.828325203445891
 70
    32
1001
ACAD
1000
R13OBJECT
1002
{
1005
35E
1002
}
  0
SEQEND
  5
5E0
330
35E
100
AcDbEntity
  8
1_TOP
  6
CONTINUOUS
 62
     7
  0
POLYLINE
  5
35F
330
640
100
AcDbEntity
  8
1_TOP
  6
CONTINUOUS
 62
     7
100
AcDb3dPolyline
 66
     1
 10
0.0
 20
0.0
 30
0.0
 70
     8
  0
VERTEX
  5
5E1
330
35F
100
AcDbEntity
  8
1_TOP
  6
CONTINUOUS
 62
     7
100
AcDbVertex
100
AcDb3dPolylineVertex
 10
-5.675444176087236
 20
-2.361193050228505
 30
1.828325203445889
 70
    32
1001
ACAD
1000
R13OBJECT
1002
{
1005
35F
1002
}
  0
VERTEX
  5
5E2
330
35F
100
AcDbEntity
  8
1_TOP
  6
CONTINUOUS
 62
     7
100
AcDbVertex
100
AcDb3dPolylineVertex
 10
-5.675518516012896
 20
-2.357704097929296
 30
1.829743693728765
 70
    32
1001
ACAD
1000
R13OBJECT
1002
{
1005
35F
1002
}
  0
VERTEX
  5
5E3
330
35F
100
AcDbEntity
  8
1_TOP
  6
CONTINUOUS
 62
     7
100
AcDbVertex
100
AcDb3dPolylineVertex
 10
-5.675699355605004
 20
-2.356194763603627
 30
1.833194318704349
 70
    32
1001
ACAD
1000
R13OBJECT
1002
{
1005
35F
1002
}
  0
SEQEND
  5
5E4
330
35F
100
AcDbEntity
  8
1_TOP
  6
CONTINUOUS
 62
     7
  0
POLYLINE
  5
360
330
640
100
AcDbEntity
  8
1_TOP
  6
CONTINUOUS
 62
     7
100
AcDb3dPolyline
 66
     1
 10
0.0
 20
0.0
 30
0.0
 70
     8
  0
VERTEX
  5
5E5
330
360
100
AcDbEntity
  8
1_TOP
  6
CONTINUOUS
 62
     7
100
AcDbVertex
100
AcDb3dPolylineVertex
 10
-5.676038857880286
 20
-2.418800876351015
 30
1.839672408024789
 70
    32
1001
ACAD
1000
R13OBJECT
1002
{
1005
360
1002
}
  0
VERTEX
  5
5E6
330
360
100
AcDbEntity
  8
1_TOP
  6
CONTINUOUS
 62
     7
100
AcDbVertex
100
AcDb3dPolylineVertex
 10
-5.676083855113769
 20
-2.420298622407553
 30
1.840531006387455
 70
    32
1001
ACAD
1000
R13OBJECT
1002
{
1005
360
1002
}
  0
VERTEX
  5
5E7
330
360
100
AcDbEntity
  8
1_TOP
  6
CONTINUOUS
 62
     7
100
AcDbVertex
100
AcDb3dPolylineVertex
 10
-5.67609947490858
 20
-2.421999094255665
 30
1.840829049827279
 70
    32
1001
ACAD
1000
R13OBJECT
1002
{
1005
360
1002
}
  0
SEQEND
  5
5E8
330
360
100
AcDbEntity
  8
1_TOP
  6
CONTINUOUS
 62
     7
  0
POLYLINE
  5
361
330
640
100
AcDbEntity
  8
1_TOP
  6
CONTINUOUS
 62
     7
100
AcDb3dPolyline
 66
     1
 10
0.0
 20
0.0
 30
0.0
 70
     8
  0
VERTEX
  5
5E9
330
361
100
AcDbEntity
  8
1_TOP
  6
CONTINUOUS
 62
     7
100
AcDbVertex
100
AcDb3dPolylineVertex
 10
-5.470619681829225
 20
-2.361193050228476
 30
1.828325203445887
 70
    32
1001
ACAD
1000
R13OBJECT
1002
{
1005
361
1002
}
  0
VERTEX
  5
5EA
330
361
100
AcDbEntity
  8
1_TOP
  6
CONTINUOUS
 62
     7
100
AcDbVertex
100
AcDb3dPolylineVertex
 10
-5.470545341903564
 20
-2.357704097929266
 30
1.829743693728764
 70
    32
1001
ACAD
1000
R13OBJECT
1002
{
1005
361
1002
}
  0
VERTEX
  5
5EB
330
361
100
AcDbEntity
  8
1_TOP
  6
CONTINUOUS
 62
     7
100
AcDbVertex
100
AcDb3dPolylineVertex
 10
-5.470364502311456
 20
-2.356194763603598
 30
1.833194318704348
 70
    32
1001
ACAD
1000
R13OBJECT
1002
{
1005
361
1002
}
  0
SEQEND
  5
5EC
330
361
100
AcDbEntity
  8
1_TOP
  6
CONTINUOUS
 62
     7
  0
POLYLINE
  5
362
330
640
100
AcDbEntity
  8
1_TOP
  6
CONTINUOUS
 62
     7
100
AcDb3dPolyline
 66
     1
 10
0.0
 20
0.0
 30
0.0
 70
     8
  0
VERTEX
  5
5ED
330
362
100
AcDbEntity
  8
1_TOP
  6
CONTINUOUS
 62
     7
100
AcDbVertex
100
AcDb3dPolylineVertex
 10
-5.470025000036175
 20
-2.418800876350994
 30
1.839672408024788
 70
    32
1001
ACAD
1000
R13OBJECT
1002
{
1005
362
1002
}
  0
VERTEX
  5
5EE
330
362
100
AcDbEntity
  8
1_TOP
  6
CONTINUOUS
 62
     7
100
AcDbVertex
100
AcDb3dPolylineVertex
 10
-5.469980002802691
 20
-2.420298622407533
 30
1.840531006387453
 70
    32
1001
ACAD
1000
R13OBJECT
1002
{
1005
362
1002
}
  0
VERTEX
  5
5EF
330
362
100
AcDbEntity
  8
1_TOP
  6
CONTINUOUS
 62
     7
100
AcDbVertex
100
AcDb3dPolylineVertex
 10
-5.46996438300788
 20
-2.421999094255645
 30
1.840829049827276
 70
    32
1001
ACAD
1000
R13OBJECT
1002
{
1005
362
1002
}
  0
SEQEND
  5
5F0
330
362
100
AcDbEntity
  8
1_TOP
  6
CONTINUOUS
 62
     7
  0
POLYLINE
  5
363
330
640
100
AcDbEntity
  8
1_TOP
  6
CONTINUOUS
 62
     7
100
AcDb3dPolyline
 66
     1
 10
0.0
 20
0.0
 30
0.0
 70
     8
  0
VERTEX
  5
5F1
330
363
100
AcDbEntity
  8
1_TOP
  6
CONTINUOUS
 62
     7
100
AcDbVertex
100
AcDb3dPolylineVertex
 10
-5.470025000036175
 20
-2.418800876350989
 30
1.839672408024787
 70
    32
1001
ACAD
1000
R13OBJECT
1002
{
1005
363
1002
}
  0
VERTEX
  5
5F2
330
363
100
AcDbEntity
  8
1_TOP
  6
CONTINUOUS
 62
     7
100
AcDbVertex
100
AcDb3dPolylineVertex
 10
-5.470513995205847
 20
-2.401603300106814
 30
1.830341824352645
 70
    32
1001
ACAD
1000
R13OBJECT
1002
{
1005
363
1002
}
  0
VERTEX
  5
5F3
330
363
100
AcDbEntity
  8
1_TOP
  6
CONTINUOUS
 62
     7
100
AcDbVertex
100
AcDb3dPolylineVertex
 10
-5.470619681829226
 20
-2.382141808374282
 30
1.828325203445889
 70
    32
1001
ACAD
1000
R13OBJECT
1002
{
1005
363
1002
}
  0
SEQEND
  5
5F4
330
363
100
AcDbEntity
  8
1_TOP
  6
CONTINUOUS
 62
     7
  0
POLYLINE
  5
364
330
640
100
AcDbEntity
  8
1_TOP
  6
CONTINUOUS
 62
     7
100
AcDb3dPolyline
 66
     1
 10
0.0
 20
0.0
 30
0.0
 70
     8
  0
VERTEX
  5
5F5
330
364
100
AcDbEntity
  8
1_TOP
  6
CONTINUOUS
 62
     7
100
AcDbVertex
100
AcDb3dPolylineVertex
 10
-5.469965140836847
 20
-2.421999094255637
 30
1.840814589589166
 70
    32
1001
ACAD
1000
R13OBJECT
1002
{
1005
364
1002
}
  0
VERTEX
  5
5F6
330
364
100
AcDbEntity
  8
1_TOP
  6
CONTINUOUS
 62
     7
100
AcDbVertex
100
AcDb3dPolylineVertex
 10
-5.469964572533661
 20
-2.422188952318076
 30
1.840825433459944
 70
    32
1001
ACAD
1000
R13OBJECT
1002
{
1005
364
1002
}
  0
VERTEX
  5
5F7
330
364
100
AcDbEntity
  8
1_TOP
  6
CONTINUOUS
 62
     7
100
AcDbVertex
100
AcDb3dPolylineVertex
 10
-5.469964383007879
 20
-2.422379085416965
 30
1.840829049827284
 70
    32
1001
ACAD
1000
R13OBJECT
1002
{
1005
364
1002
}
  0
SEQEND
  5
5F8
330
364
100
AcDbEntity
  8
1_TOP
  6
CONTINUOUS
 62
     7
  0
POLYLINE
  5
365
330
640
100
AcDbEntity
  8
1_TOP
  6
CONTINUOUS
 62
     7
100
AcDb3dPolyline
 66
     1
 10
0.0
 20
0.0
 30
0.0
 70
     8
  0
VERTEX
  5
5F9
330
365
100
AcDbEntity
  8
1_TOP
  6
CONTINUOUS
 62
     7
100
AcDbVertex
100
AcDb3dPolylineVertex
 10
-5.676098717079612
 20
-2.421999094255667
 30
1.840814589589159
 70
    32
1001
ACAD
1000
R13OBJECT
1002
{
1005
365
1002
}
  0
VERTEX
  5
5FA
330
365
100
AcDbEntity
  8
1_TOP
  6
CONTINUOUS
 62
     7
100
AcDbVertex
100
AcDb3dPolylineVertex
 10
-5.676099285382798
 20
-2.422188952318105
 30
1.840825433459936
 70
    32
1001
ACAD
1000
R13OBJECT
1002
{
1005
365
1002
}
  0
VERTEX
  5
5FB
330
365
100
AcDbEntity
  8
1_TOP
  6
CONTINUOUS
 62
     7
100
AcDbVertex
100
AcDb3dPolylineVertex
 10
-5.67609947490858
 20
-2.422379085416995
 30
1.840829049827275
 70
    32
1001
ACAD
1000
R13OBJECT
1002
{
1005
365
1002
}
  0
SEQEND
  5
5FC
330
365
100
AcDbEntity
  8
1_TOP
  6
CONTINUOUS
 62
     7
  0
POLYLINE
  5
366
330
640
100
AcDbEntity
  8
1_TOP
  6
CONTINUOUS
 62
     7
100
AcDb3dPolyline
 66
     1
 10
0.0
 20
0.0
 30
0.0
 70
     8
  0
VERTEX
  5
5FD
330
366
100
AcDbEntity
  8
1_TOP
  6
CONTINUOUS
 62
     7
100
AcDbVertex
100
AcDb3dPolylineVertex
 10
-6.104965140836843
 20
-2.421999094255638
 30
1.840814589589163
 70
    32
1001
ACAD
1000
R13OBJECT
1002
{
1005
366
1002
}
  0
VERTEX
  5
5FE
330
366
100
AcDbEntity
  8
1_TOP
  6
CONTINUOUS
 62
     7
100
AcDbVertex
100
AcDb3dPolylineVertex
 10
-6.104964572533657
 20
-2.422188952318076
 30
1.840825433459939
 70
    32
1001
ACAD
1000
R13OBJECT
1002
{
1005
366
1002
}
  0
VERTEX
  5
5FF
330
366
100
AcDbEntity
  8
1_TOP
  6
CONTINUOUS
 62
     7
100
AcDbVertex
100
AcDb3dPolylineVertex
 10
-6.104964383007874
 20
-2.422379085416965
 30
1.840829049827281
 70
    32
1001
ACAD
1000
R13OBJECT
1002
{
1005
366
1002
}
  0
SEQEND
  5
600
330
366
100
AcDbEntity
  8
1_TOP
  6
CONTINUOUS
 62
     7
  0
POLYLINE
  5
367
330
640
100
AcDbEntity
  8
1_TOP
  6
CONTINUOUS
 62
     7
100
AcDb3dPolyline
 66
     1
 10
0.0
 20
0.0
 30
0.0
 70
     8
  0
VERTEX
  5
601
330
367
100
AcDbEntity
  8
1_TOP
  6
CONTINUOUS
 62
     7
100
AcDbVertex
100
AcDb3dPolylineVertex
 10
-6.311098717079608
 20
-2.421999094255678
 30
1.840814589589163
 70
    32
1001
ACAD
1000
R13OBJECT
1002
{
1005
367
1002
}
  0
VERTEX
  5
602
330
367
100
AcDbEntity
  8
1_TOP
  6
CONTINUOUS
 62
     7
100
AcDbVertex
100
AcDb3dPolylineVertex
 10
-6.311099285382795
 20
-2.422188952318115
 30
1.840825433459939
 70
    32
1001
ACAD
1000
R13OBJECT
1002
{
1005
367
1002
}
  0
VERTEX
  5
603
330
367
100
AcDbEntity
  8
1_TOP
  6
CONTINUOUS
 62
     7
100
AcDbVertex
100
AcDb3dPolylineVertex
 10
-6.311099474908576
 20
-2.422379085417004
 30
1.840829049827281
 70
    32
1001
ACAD
1000
R13OBJECT
1002
{
1005
367
1002
}
  0
SEQEND
  5
604
330
367
100
AcDbEntity
  8
1_TOP
  6
CONTINUOUS
 62
     7
  0
POLYLINE
  5
368
330
640
100
AcDbEntity
  8
1_TOP
  6
CONTINUOUS
 62
     7
100
AcDb3dPolyline
 66
     1
 10
0.0
 20
0.0
 30
0.0
 70
     8
  0
VERTEX
  5
605
330
368
100
AcDbEntity
  8
1_TOP
  6
CONTINUOUS
 62
     7
100
AcDbVertex
100
AcDb3dPolylineVertex
 10
-6.304330185530901
 20
-2.357255650253462
 30
1.711663313933019
 70
    32
1001
ACAD
1000
R13OBJECT
1002
{
1005
368
1002
}
  0
VERTEX
  5
606
330
368
100
AcDbEntity
  8
1_TOP
  6
CONTINUOUS
 62
     7
100
AcDbVertex
100
AcDb3dPolylineVertex
 10
-6.303974152213909
 20
-2.350513715094266
 30
1.704869793546159
 70
    32
1001
ACAD
1000
R13OBJECT
1002
{
1005
368
1002
}
  0
VERTEX
  5
607
330
368
100
AcDbEntity
  8
1_TOP
  6
CONTINUOUS
 62
     7
100
AcDbVertex
100
AcDb3dPolylineVertex
 10
-6.303691966305457
 20
-2.342600842971635
 30
1.699485365655621
 70
    32
1001
ACAD
1000
R13OBJECT
1002
{
1005
368
1002
}
  0
SEQEND
  5
608
330
368
100
AcDbEntity
  8
1_TOP
  6
CONTINUOUS
 62
     7
  0
POLYLINE
  5
369
330
640
100
AcDbEntity
  8
1_TOP
  6
CONTINUOUS
 62
     7
100
AcDb3dPolyline
 66
     1
 10
0.0
 20
0.0
 30
0.0
 70
     8
  0
VERTEX
  5
609
330
369
100
AcDbEntity
  8
1_TOP
  6
CONTINUOUS
 62
     7
100
AcDbVertex
100
AcDb3dPolylineVertex
 10
-6.311038857880282
 20
-2.418800876351018
 30
1.839672408024792
 70
    32
1001
ACAD
1000
R13OBJECT
1002
{
1005
369
1002
}
  0
VERTEX
  5
60A
330
369
100
AcDbEntity
  8
1_TOP
  6
CONTINUOUS
 62
     7
100
AcDbVertex
100
AcDb3dPolylineVertex
 10
-6.31054986271061
 20
-2.401603300106844
 30
1.830341824352651
 70
    32
1001
ACAD
1000
R13OBJECT
1002
{
1005
369
1002
}
  0
VERTEX
  5
60B
330
369
100
AcDbEntity
  8
1_TOP
  6
CONTINUOUS
 62
     7
100
AcDbVertex
100
AcDb3dPolylineVertex
 10
-6.310444176087233
 20
-2.382141808374311
 30
1.828325203445895
 70
    32
1001
ACAD
1000
R13OBJECT
1002
{
1005
369
1002
}
  0
SEQEND
  5
60C
330
369
100
AcDbEntity
  8
1_TOP
  6
CONTINUOUS
 62
     7
  0
POLYLINE
  5
36A
330
640
100
AcDbEntity
  8
1_TOP
  6
CONTINUOUS
 62
     7
100
AcDb3dPolyline
 66
     1
 10
0.0
 20
0.0
 30
0.0
 70
     8
  0
VERTEX
  5
60D
330
36A
100
AcDbEntity
  8
1_TOP
  6
CONTINUOUS
 62
     7
100
AcDbVertex
100
AcDb3dPolylineVertex
 10
-6.311038857880282
 20
-2.418800876351024
 30
1.839672408024784
 70
    32
1001
ACAD
1000
R13OBJECT
1002
{
1005
36A
1002
}
  0
VERTEX
  5
60E
330
36A
100
AcDbEntity
  8
1_TOP
  6
CONTINUOUS
 62
     7
100
AcDbVertex
100
AcDb3dPolylineVertex
 10
-6.311083855113764
 20
-2.420298622407563
 30
1.840531006387448
 70
    32
1001
ACAD
1000
R13OBJECT
1002
{
1005
36A
1002
}
  0
VERTEX
  5
60F
330
36A
100
AcDbEntity
  8
1_TOP
  6
CONTINUOUS
 62
     7
100
AcDbVertex
100
AcDb3dPolylineVertex
 10
-6.311099474908576
 20
-2.421999094255674
 30
1.840829049827273
 70
    32
1001
ACAD
1000
R13OBJECT
1002
{
1005
36A
1002
}
  0
SEQEND
  5
610
330
36A
100
AcDbEntity
  8
1_TOP
  6
CONTINUOUS
 62
     7
  0
POLYLINE
  5
36B
330
640
100
AcDbEntity
  8
1_TOP
  6
CONTINUOUS
 62
     7
100
AcDb3dPolyline
 66
     1
 10
0.0
 20
0.0
 30
0.0
 70
     8
  0
VERTEX
  5
611
330
36B
100
AcDbEntity
  8
1_TOP
  6
CONTINUOUS
 62
     7
100
AcDbVertex
100
AcDb3dPolylineVertex
 10
-6.310444176087241
 20
-2.361193050228505
 30
1.828325203445892
 70
    32
1001
ACAD
1000
R13OBJECT
1002
{
1005
36B
1002
}
  0
VERTEX
  5
612
330
36B
100
AcDbEntity
  8
1_TOP
  6
CONTINUOUS
 62
     7
100
AcDbVertex
100
AcDb3dPolylineVertex
 10
-6.3105185160129
 20
-2.357704097929296
 30
1.82974369372877
 70
    32
1001
ACAD
1000
R13OBJECT
1002
{
1005
36B
1002
}
  0
VERTEX
  5
613
330
36B
100
AcDbEntity
  8
1_TOP
  6
CONTINUOUS
 62
     7
100
AcDbVertex
100
AcDb3dPolylineVertex
 10
-6.310699355605008
 20
-2.356194763603627
 30
1.833194318704353
 70
    32
1001
ACAD
1000
R13OBJECT
1002
{
1005
36B
1002
}
  0
SEQEND
  5
614
330
36B
100
AcDbEntity
  8
1_TOP
  6
CONTINUOUS
 62
     7
  0
POLYLINE
  5
36C
330
640
100
AcDbEntity
  8
1_TOP
  6
CONTINUOUS
 62
     7
100
AcDb3dPolyline
 66
     1
 10
0.0
 20
0.0
 30
0.0
 70
     8
  0
VERTEX
  5
615
330
36C
100
AcDbEntity
  8
1_TOP
  6
CONTINUOUS
 62
     7
100
AcDbVertex
100
AcDb3dPolylineVertex
 10
-6.10502500003617
 20
-2.418800876350994
 30
1.839672408024793
 70
    32
1001
ACAD
1000
R13OBJECT
1002
{
1005
36C
1002
}
  0
VERTEX
  5
616
330
36C
100
AcDbEntity
  8
1_TOP
  6
CONTINUOUS
 62
     7
100
AcDbVertex
100
AcDb3dPolylineVertex
 10
-6.104980002802688
 20
-2.420298622407533
 30
1.840531006387459
 70
    32
1001
ACAD
1000
R13OBJECT
1002
{
1005
36C
1002
}
  0
VERTEX
  5
617
330
36C
100
AcDbEntity
  8
1_TOP
  6
CONTINUOUS
 62
     7
100
AcDbVertex
100
AcDb3dPolylineVertex
 10
-6.104964383007875
 20
-2.421999094255645
 30
1.840829049827283
 70
    32
1001
ACAD
1000
R13OBJECT
1002
{
1005
36C
1002
}
  0
SEQEND
  5
618
330
36C
100
AcDbEntity
  8
1_TOP
  6
CONTINUOUS
 62
     7
  0
POLYLINE
  5
36D
330
640
100
AcDbEntity
  8
1_TOP
  6
CONTINUOUS
 62
     7
100
AcDb3dPolyline
 66
     1
 10
0.0
 20
0.0
 30
0.0
 70
     8
  0
VERTEX
  5
619
330
36D
100
AcDbEntity
  8
1_TOP
  6
CONTINUOUS
 62
     7
100
AcDbVertex
100
AcDb3dPolylineVertex
 10
-6.105619681829221
 20
-2.361193050228476
 30
1.828325203445892
 70
    32
1001
ACAD
1000
R13OBJECT
1002
{
1005
36D
1002
}
  0
VERTEX
  5
61A
330
36D
100
AcDbEntity
  8
1_TOP
  6
CONTINUOUS
 62
     7
100
AcDbVertex
100
AcDb3dPolylineVertex
 10
-6.105545341903561
 20
-2.357704097929266
 30
1.82974369372877
 70
    32
1001
ACAD
1000
R13OBJECT
1002
{
1005
36D
1002
}
  0
VERTEX
  5
61B
330
36D
100
AcDbEntity
  8
1_TOP
  6
CONTINUOUS
 62
     7
100
AcDbVertex
100
AcDb3dPolylineVertex
 10
-6.105364502311452
 20
-2.356194763603598
 30
1.833194318704353
 70
    32
1001
ACAD
1000
R13OBJECT
1002
{
1005
36D
1002
}
  0
SEQEND
  5
61C
330
36D
100
AcDbEntity
  8
1_TOP
  6
CONTINUOUS
 62
     7
  0
POLYLINE
  5
36E
330
640
100
AcDbEntity
  8
1_TOP
  6
CONTINUOUS
 62
     7
100
AcDb3dPolyline
 66
     1
 10
0.0
 20
0.0
 30
0.0
 70
     8
  0
VERTEX
  5
61D
330
36E
100
AcDbEntity
  8
1_TOP
  6
CONTINUOUS
 62
     7
100
AcDbVertex
100
AcDb3dPolylineVertex
 10
-6.10502500003617
 20
-2.41880087635099
 30
1.839672408024793
 70
    32
1001
ACAD
1000
R13OBJECT
1002
{
1005
36E
1002
}
  0
VERTEX
  5
61E
330
36E
100
AcDbEntity
  8
1_TOP
  6
CONTINUOUS
 62
     7
100
AcDbVertex
100
AcDb3dPolylineVertex
 10
-6.105513995205842
 20
-2.401603300106816
 30
1.830341824352652
 70
    32
1001
ACAD
1000
R13OBJECT
1002
{
1005
36E
1002
}
  0
VERTEX
  5
61F
330
36E
100
AcDbEntity
  8
1_TOP
  6
CONTINUOUS
 62
     7
100
AcDbVertex
100
AcDb3dPolylineVertex
 10
-6.105619681829222
 20
-2.382141808374286
 30
1.828325203445895
 70
    32
1001
ACAD
1000
R13OBJECT
1002
{
1005
36E
1002
}
  0
SEQEND
  5
620
330
36E
100
AcDbEntity
  8
1_TOP
  6
CONTINUOUS
 62
     7
  0
ENDSEC
  0
SECTION
  2
OBJECTS
  0
DICTIONARY
  5
634
330
0
100
AcDbDictionary
  3
ACAD_GROUP
350
635
  3
ACAD_LAYOUT
350
66A
  3
ACAD_MLINESTYLE
350
636
  3
ACAD_PLOTSETTINGS
350
66B
1001
ACAD
1000
TREAT_AS_HARD
1070
     0
  0
DICTIONARY
  5
69A
330
640
100
AcDbDictionary
  3
ACAD_LAYOUTSELFREF
350
6B6
1001
ACAD
1000
TREAT_AS_HARD
1070
     1
  0
DICTIONARY
  5
698
330
63D
100
AcDbDictionary
  3
ACAD_LAYOUTSELFREF
350
6B5
1001
ACAD
1000
TREAT_AS_HARD
1070
     1
  0
DICTIONARY
  5
635
102
{ACAD_REACTORS
330
634
102
}
330
634
100
AcDbDictionary
1001
ACAD
1000
TREAT_AS_HARD
1070
     0
  0
DICTIONARY
  5
66A
102
{ACAD_REACTORS
330
634
102
}
330
634
100
AcDbDictionary
1001
ACAD
1000
TREAT_AS_HARD
1070
     0
  0
DICTIONARY
  5
636
102
{ACAD_REACTORS
330
634
102
}
330
634
100
AcDbDictionary
  3
STANDARD
350
643
1001
ACAD
1000
TREAT_AS_HARD
1070
     0
  0
DICTIONARY
  5
66B
102
{ACAD_REACTORS
330
634
102
}
330
634
100
AcDbDictionary
1001
ACAD
1000
TREAT_AS_HARD
1070
     0
  0
XRECORD
  5
6B6
102
{ACAD_REACTORS
330
69A
102
}
330
69A
100
AcDbXrecord
340
640
  0
XRECORD
  5
6B5
102
{ACAD_REACTORS
330
698
102
}
330
698
100
AcDbXrecord
340
63D
  0
MLINESTYLE
  5
643
102
{ACAD_REACTORS
330
636
102
}
330
636
100
AcDbMlineStyle
  2
STANDARD
 70
     0
  3

 62
     0
 51
90.0
 52
90.0
 71
     2
 49
0.5
 62
   256
  6
BYLAYER
 49
-0.5
 62
   256
  6
BYLAYER
  0
ENDSEC
  0
EOF
