999
DXF file: Y:\001_SCHNEIDER_PARIS\maxime fuentes - génération CAD 2D\TRAVAIL\XB4BS8444_2D-Views\xb4bs8444_2d-views_3.dxf
999
Pro/ENGINEER 2018260 by Parametric Technology Corporation
  0
SECTION
  2
HEADER
  9
$ACADVER
  1
AC1027
  9
$DWGCODEPAGE
  3
ANSI_1252
  9
$EXTMAX
 10
558.8
 20
431.8
 30
0.0
  9
$EXTMIN
 10
0.0
 20
0.0
 30
0.0
  9
$LIMMIN
 10
0.0
 20
0.0
  9
$LIMMAX
 10
558.8
 20
431.8
  9
$VIEWCTR
 10
279.4
 20
215.9
  9
$VIEWSIZE
 40
431.8
  9
$CLAYER
  8
0
  9
$LTSCALE
 40
30.734
  9
$CELTYPE
  6
BYLAYER
  9
$DIMSCALE
 40
1.0
  9
$DIMASZ
 40
3.5
  9
$DIMEXO
 40
1.0
  9
$DIMDLI
 40
21.2344
  9
$DIMEXE
 40
3.0
  9
$DIMCEN
 40
5.0292
  9
$DIMLFAC
 40
1.0
  9
$DIMBLK
  1
_FILLED
  9
$DIMALT
 70
0
  9
$DIMALTF
 40
0.0393700787
  9
$DIMTXT
 40
4.0
  9
$DIMTOL
 70
1
  9
$DIMLIM
 70
0
  9
$DIMTFAC
 40
1.0
  9
$DIMTP
 40
0.0001
  9
$DIMTM
 40
0.0001
  9
$DIMGAP
 40
0.625
  9
$DIMDSEP
 70
46
  9
$AUNITS
 70
0
  9
$PDMODE
 70
0
  9
$PDSIZE
 40
0.01
  9
$HANDSEED
  5
2F8
  9
$TILEMODE
 70
1
  9
$MEASUREMENT
 70
1
  9
$INSUNITS
 70
4
  0
ENDSEC
  0
SECTION
  2
CLASSES
  0
CLASS
  1
ACDBDICTIONARYWDFLT
  2
AcDbDictionaryWithDefault
  3
AutoCAD 2000
 90
0
 91
1
280
0
281
0
  0
CLASS
  1
ACDBPLACEHOLDER
  2
AcDbPlaceHolder
  3
AutoCAD 2000
 90
0
 91
1
280
0
281
0
  0
CLASS
  1
LAYOUT
  2
AcDbLayout
  3
AutoCAD 2000
 90
0
 91
0
280
0
281
0
  0
ENDSEC
  0
SECTION
  2
TABLES
  0
TABLE
  2
VPORT
  5
8
100
AcDbSymbolTable
 70
2
  0
VPORT
  5
1F4
100
AcDbSymbolTableRecord
100
AcDbViewportTableRecord
  2
*ACTIVE
 70
0
 10
0.0
 20
0.0
 11
1.0
 21
1.0
 12
279.4
 22
215.9
 13
0.0
 23
0.0
 14
1.0
 24
1.0
 15
0.0
 25
0.0
 16
0.0
 26
0.0
 36
1.0
 17
0.0
 27
0.0
 37
0.0
 40
431.8
 41
1.2941176471
 42
50.0
 43
0.0
 44
0.0
 50
0.0
 51
0.0
 71
0
 72
100
 73
1
 74
1
 75
0
 76
0
 77
0
 78
0
  0
ENDTAB
  0
TABLE
  2
LTYPE
  5
5
100
AcDbSymbolTable
 70
6
  0
LTYPE
  5
14
100
AcDbSymbolTableRecord
100
AcDbLinetypeTableRecord
  2
BYBLOCK
 70
0
  3

 72
65
 73
0
 40
0.0
  0
LTYPE
  5
15
100
AcDbSymbolTableRecord
100
AcDbLinetypeTableRecord
  2
BYLAYER
 70
0
  3

 72
65
 73
0
 40
0.0
  0
LTYPE
  5
16
100
AcDbSymbolTableRecord
100
AcDbLinetypeTableRecord
  2
CONTINUOUS
 70
64
  3
Solid line
 72
65
 73
0
 40
0.0
  0
LTYPE
  5
1F5
100
AcDbSymbolTableRecord
100
AcDbLinetypeTableRecord
  2
CENTER
 70
64
  3
____ _ ____ _ ____ _ ____ _ ____ _ ____ _ ____
 72
65
 73
4
 40
0.6
 49
0.375
 74
0
 49
-0.075
 74
0
 49
0.075
 74
0
 49
-0.075
 74
0
  0
LTYPE
  5
1F6
100
AcDbSymbolTableRecord
100
AcDbLinetypeTableRecord
  2
HIDDEN
 70
64
  3
- - - - - - - - - - - - - - - - - - - -
 72
65
 73
2
 40
0.2
 49
0.1
 74
0
 49
-0.1
 74
0
  0
LTYPE
  5
1F7
100
AcDbSymbolTableRecord
100
AcDbLinetypeTableRecord
  2
PHANTOM
 70
64
  3
_____ _ _ _____ _ _ _____ _ _ _____
 72
65
 73
6
 40
0.8
 49
0.45
 74
0
 49
-0.05
 74
0
 49
0.1
 74
0
 49
-0.05
 74
0
 49
0.1
 74
0
 49
-0.05
 74
0
  0
LTYPE
  5
1F8
100
AcDbSymbolTableRecord
100
AcDbLinetypeTableRecord
  2
DOT
 70
64
  3
. . . . . . . . . . . . . . . . . . . .
 72
65
 73
2
 40
0.2
 49
0.1
 74
0
 49
-0.1
 74
0
  0
LTYPE
  5
1F9
100
AcDbSymbolTableRecord
100
AcDbLinetypeTableRecord
  2
DASHED
 70
64
  3
- - - - - - - - - - - - - - - - - - - -
 72
65
 73
2
 40
0.2
 49
0.1
 74
0
 49
-0.1
 74
0
  0
ENDTAB
  0
TABLE
  2
LAYER
  5
2
100
AcDbSymbolTable
 70
36
  0
LAYER
  5
10
100
AcDbSymbolTableRecord
100
AcDbLayerTableRecord
  2
0
 70
0
 62
7
  6
CONTINUOUS
370
-3
390
F
  0
LAYER
  5
1FA
100
AcDbSymbolTableRecord
100
AcDbLayerTableRecord
  2
DEFAULT_1
 70
0
 62
7
  6
CENTER
370
-3
390
F
  0
LAYER
  5
1FB
100
AcDbSymbolTableRecord
100
AcDbLayerTableRecord
  2
DEFAULT_2
 70
0
 62
8
  6
HIDDEN
370
-3
390
F
  0
LAYER
  5
1FC
100
AcDbSymbolTableRecord
100
AcDbLayerTableRecord
  2
DEFAULT_3
 70
0
 62
7
  6
PHANTOM
370
-3
390
F
  0
LAYER
  5
1FD
100
AcDbSymbolTableRecord
100
AcDbLayerTableRecord
  2
01_ALL_DTM_PLN
 70
0
 62
7
  6
CONTINUOUS
370
-3
390
F
  0
LAYER
  5
1FE
100
AcDbSymbolTableRecord
100
AcDbLayerTableRecord
  2
01__ASM_ALL_DTM_PLN
 70
0
 62
7
  6
CONTINUOUS
370
-3
390
F
  0
LAYER
  5
1FF
100
AcDbSymbolTableRecord
100
AcDbLayerTableRecord
  2
01__ASM_DEF_DTM_PLN
 70
0
 62
7
  6
CONTINUOUS
370
-3
390
F
  0
LAYER
  5
200
100
AcDbSymbolTableRecord
100
AcDbLayerTableRecord
  2
01___PRT_ALL_DTM_PLN
 70
0
 62
7
  6
CONTINUOUS
370
-3
390
F
  0
LAYER
  5
201
100
AcDbSymbolTableRecord
100
AcDbLayerTableRecord
  2
01___PRT_DEF_DTM_PLN
 70
0
 62
7
  6
CONTINUOUS
370
-3
390
F
  0
LAYER
  5
202
100
AcDbSymbolTableRecord
100
AcDbLayerTableRecord
  2
02_ALL_AXES
 70
0
 62
7
  6
CONTINUOUS
370
-3
390
F
  0
LAYER
  5
203
100
AcDbSymbolTableRecord
100
AcDbLayerTableRecord
  2
02__ASM_ALL_AXES
 70
0
 62
7
  6
CONTINUOUS
370
-3
390
F
  0
LAYER
  5
204
100
AcDbSymbolTableRecord
100
AcDbLayerTableRecord
  2
02___PRT_ALL_AXES
 70
0
 62
7
  6
CONTINUOUS
370
-3
390
F
  0
LAYER
  5
205
100
AcDbSymbolTableRecord
100
AcDbLayerTableRecord
  2
03_ALL_CURVES
 70
0
 62
7
  6
CONTINUOUS
370
-3
390
F
  0
LAYER
  5
206
100
AcDbSymbolTableRecord
100
AcDbLayerTableRecord
  2
03__ASM_ALL_CURVES
 70
0
 62
7
  6
CONTINUOUS
370
-3
390
F
  0
LAYER
  5
207
100
AcDbSymbolTableRecord
100
AcDbLayerTableRecord
  2
03___PRT_ALL_CURVES
 70
0
 62
7
  6
CONTINUOUS
370
-3
390
F
  0
LAYER
  5
208
100
AcDbSymbolTableRecord
100
AcDbLayerTableRecord
  2
04_ALL_DTM_PNT
 70
0
 62
7
  6
CONTINUOUS
370
-3
390
F
  0
LAYER
  5
209
100
AcDbSymbolTableRecord
100
AcDbLayerTableRecord
  2
04__ASM_ALL_DTM_PNT
 70
0
 62
7
  6
CONTINUOUS
370
-3
390
F
  0
LAYER
  5
20A
100
AcDbSymbolTableRecord
100
AcDbLayerTableRecord
  2
04___PRT_ALL_DTM_PNT
 70
0
 62
7
  6
CONTINUOUS
370
-3
390
F
  0
LAYER
  5
20B
100
AcDbSymbolTableRecord
100
AcDbLayerTableRecord
  2
05_ALL_DTM_CSYS
 70
0
 62
7
  6
CONTINUOUS
370
-3
390
F
  0
LAYER
  5
20C
100
AcDbSymbolTableRecord
100
AcDbLayerTableRecord
  2
05__ASM_ALL_DTM_CSYS
 70
0
 62
7
  6
CONTINUOUS
370
-3
390
F
  0
LAYER
  5
20D
100
AcDbSymbolTableRecord
100
AcDbLayerTableRecord
  2
05__ASM_DEF_DTM_CSYS
 70
0
 62
7
  6
CONTINUOUS
370
-3
390
F
  0
LAYER
  5
20E
100
AcDbSymbolTableRecord
100
AcDbLayerTableRecord
  2
05___PRT_ALL_DTM_CSYS
 70
0
 62
7
  6
CONTINUOUS
370
-3
390
F
  0
LAYER
  5
20F
100
AcDbSymbolTableRecord
100
AcDbLayerTableRecord
  2
05___PRT_DEF_DTM_CSYS
 70
0
 62
7
  6
CONTINUOUS
370
-3
390
F
  0
LAYER
  5
210
100
AcDbSymbolTableRecord
100
AcDbLayerTableRecord
  2
06_ALL_SURFS
 70
0
 62
7
  6
CONTINUOUS
370
-3
390
F
  0
LAYER
  5
211
100
AcDbSymbolTableRecord
100
AcDbLayerTableRecord
  2
06__ASM_ALL_SURFS
 70
0
 62
7
  6
CONTINUOUS
370
-3
390
F
  0
LAYER
  5
212
100
AcDbSymbolTableRecord
100
AcDbLayerTableRecord
  2
06___PRT_ALL_SURFS
 70
0
 62
7
  6
CONTINUOUS
370
-3
390
F
  0
LAYER
  5
213
100
AcDbSymbolTableRecord
100
AcDbLayerTableRecord
  2
07__ASM_ALL_SKELETONS
 70
0
 62
7
  6
CONTINUOUS
370
-3
390
F
  0
LAYER
  5
214
100
AcDbSymbolTableRecord
100
AcDbLayerTableRecord
  2
AXIS_1
 70
0
 62
7
  6
CONTINUOUS
370
-3
390
F
  0
LAYER
  5
215
100
AcDbSymbolTableRecord
100
AcDbLayerTableRecord
  2
CLOSED_SHELL
 70
0
 62
7
  6
CONTINUOUS
370
-3
390
F
  0
ENDTAB
  0
TABLE
  2
STYLE
  5
3
100
AcDbSymbolTable
 70
1
  0
STYLE
  5
11
100
AcDbSymbolTableRecord
100
AcDbTextStyleTableRecord
  2
STANDARD
 70
0
 40
0.0
 41
0.6
 50
0.0
 71
0
 42
0.2
  3
txt
  4

  0
STYLE
  5
216
100
AcDbSymbolTableRecord
100
AcDbTextStyleTableRecord
  2
TEXTSTYLE_1
 70
0
 40
0.0
 41
0.8
 50
0.0
 71
0
 42
0.2
  3
gdt
  4

  0
ENDTAB
  0
TABLE
  2
VIEW
  5
6
100
AcDbSymbolTable
 70
0
  0
ENDTAB
  0
TABLE
  2
UCS
  5
7
100
AcDbSymbolTable
 70
0
  0
ENDTAB
  0
TABLE
  2
APPID
  5
9
100
AcDbSymbolTable
 70
1
  0
APPID
  5
217
100
AcDbSymbolTableRecord
100
AcDbRegAppTableRecord
  2
ACAD
 70
0
  0
ENDTAB
  0
TABLE
  2
BLOCK_RECORD
  5
1
100
AcDbSymbolTable
 70
0
  0
BLOCK_RECORD
  5
218
100
AcDbSymbolTableRecord
100
AcDbBlockTableRecord
  2
*Model_Space
  0
BLOCK_RECORD
  5
219
100
AcDbSymbolTableRecord
100
AcDbBlockTableRecord
  2
*Paper_Space
  0
BLOCK_RECORD
  5
21A
100
AcDbSymbolTableRecord
100
AcDbBlockTableRecord
  2
_FILLED
  0
ENDTAB
  0
TABLE
  2
DIMSTYLE
  5
A
100
AcDbSymbolTable
 70
1
100
AcDbDimStyleTable
 71
0
  0
DIMSTYLE
105
21B
100
AcDbSymbolTableRecord
100
AcDbDimStyleTableRecord
  2
STANDARD
 70
0
  3

  4

 40
1.0
 41
3.5
 42
1.0
 43
0.38
 44
3.0
 45
0.0
 46
0.0
 47
0.0001
 48
0.0001
140
4.0
141
0.09
142
0.0
143
25.4
144
1.0
145
0.0
146
1.0
147
0.625
 71
1.0
 72
0.0
 73
0
 74
0
 75
0
 76
0
 77
1
 78
8
 79
2
170
0
171
3
172
0
173
0
174
0
175
0
176
0
177
0
178
0
270
2
179
4
271
4
272
4
273
2
274
2
275
0
280
0
281
0
282
0
283
1
284
8
285
0
286
0
287
3
288
0
340
11
278
46
341
21A
342
21A
343
21A
344
21A
  0
ENDTAB
  0
ENDSEC
  0
SECTION
  2
BLOCKS
  0
BLOCK
  5
20
100
AcDbEntity
  8
0
100
AcDbBlockBegin
  2
*Model_Space
 70
0
 10
0.0
 20
0.0
 30
0.0
  3
*Model_Space
  1

  0
ENDBLK
  5
21
100
AcDbEntity
  8
0
100
AcDbBlockEnd
  0
BLOCK
  5
1C
100
AcDbEntity
  8
0
100
AcDbBlockBegin
  2
*Paper_Space
 70
0
 10
0.0
 20
0.0
 30
0.0
  3
*Paper_Space
  1

  0
ENDBLK
  5
1D
100
AcDbEntity
  8
0
100
AcDbBlockEnd
  0
BLOCK
  5
21C
100
AcDbEntity
  8
0
100
AcDbBlockBegin
  2
_FILLED
 70
64
 10
0.0
 20
0.0
  3
_FILLED
  1

  0
SOLID
  5
21D
100
AcDbEntity
  8
0
  6
BYBLOCK
 62
0
100
AcDbTrace
 10
0.0
 20
0.0
 11
-1.0
 21
0.2857142857
 12
-1.0
 22
-0.2857142857
 13
-1.0
 23
-0.2857142857
  0
ENDBLK
  5
21E
100
AcDbEntity
  8
0
  6
BYBLOCK
 62
0
100
AcDbBlockEnd
  0
ENDSEC
  0
SECTION
  2
ENTITIES
  0
LINE
  5
21F
100
AcDbEntity
  8
0
100
AcDbLine
 62
7
  6
CONTINUOUS
 10
242.5047553493
 20
214.354884377
 11
242.5047553493
 21
229.993137915
  0
LINE
  5
220
100
AcDbEntity
  8
0
100
AcDbLine
 62
9
  6
CONTINUOUS
 10
242.6461767055
 20
228.0425660262
 11
242.6461767055
 21
224.7809657701
  0
LINE
  5
221
100
AcDbEntity
  8
0
100
AcDbLine
 62
7
  6
CONTINUOUS
 10
242.7047553494
 20
214.3548838787
 11
242.7047553494
 21
215.4703451121
  0
LINE
  5
222
100
AcDbEntity
  8
0
100
AcDbLine
 62
9
  6
CONTINUOUS
 10
242.7875980617
 20
224.9881402914
 11
242.7875980617
 21
228.0796427525
  0
LINE
  5
223
100
AcDbEntity
  8
0
100
AcDbLine
 62
7
  6
CONTINUOUS
 10
242.8047553493
 20
229.993137915
 11
242.8047553493
 21
231.5197877897
  0
LINE
  5
224
100
AcDbEntity
  8
0
100
AcDbLine
 62
7
  6
CONTINUOUS
 10
243.0047553684
 20
215.5198075414
 11
243.0047553684
 21
216.2261714901
  0
LINE
  5
225
100
AcDbEntity
  8
0
100
AcDbLine
 62
9
  6
CONTINUOUS
 10
244.0461781606
 20
232.4198069827
 11
244.0461781606
 21
230.1623043777
  0
LINE
  5
226
100
AcDbEntity
  8
0
100
AcDbLine
 62
9
  6
CONTINUOUS
 10
244.1875980617
 20
230.0560848777
 11
244.1875980617
 21
232.4198074777
  0
LINE
  5
227
100
AcDbEntity
  8
0
100
AcDbLine
 62
7
  6
CONTINUOUS
 10
245.2547553493
 20
213.4575622366
 11
245.2547553493
 21
214.354884377
  0
LINE
  5
228
100
AcDbEntity
  8
0
100
AcDbLine
 62
9
  6
CONTINUOUS
 10
245.7047553493
 20
232.4198074777
 11
245.7047553493
 21
228.0796427525
  0
LINE
  5
229
100
AcDbEntity
  8
0
100
AcDbLine
 62
9
  6
CONTINUOUS
 10
245.7047553493
 20
218.7724676788
 11
245.7047553493
 21
216.0885048587
  0
LINE
  5
22A
100
AcDbEntity
  8
0
100
AcDbLine
 62
7
  6
CONTINUOUS
 10
245.7047553493
 20
213.2198152333
 11
245.7047553493
 21
214.3548843771
  0
LINE
  5
22B
100
AcDbEntity
  8
0
100
AcDbLine
 62
7
  6
CONTINUOUS
 10
242.8047553493
 20
231.5198074777
 11
243.7047553493
 21
232.4198074777
  0
LINE
  5
22C
100
AcDbEntity
  8
0
100
AcDbLine
 62
7
  6
CONTINUOUS
 10
245.9047553493
 20
218.8369647659
 11
245.9047553493
 21
216.2018012671
  0
LINE
  5
22D
100
AcDbEntity
  8
0
100
AcDbLine
 62
7
  6
CONTINUOUS
 10
245.9047553489
 20
215.5885368631
 11
245.9047553489
 21
215.5198074774
  0
LINE
  5
22E
100
AcDbEntity
  8
0
100
AcDbLine
 62
7
  6
CONTINUOUS
 10
245.9047553493
 20
228.3671231001
 11
245.9047553493
 21
232.4198074773
  0
LINE
  5
22F
100
AcDbEntity
  8
0
100
AcDbLine
 62
9
  6
CONTINUOUS
 10
246.10475535
 20
215.6572253955
 11
246.10475535
 21
218.8371099268
  0
LINE
  5
230
100
AcDbEntity
  8
0
100
AcDbLine
 62
7
  6
CONTINUOUS
 10
247.8047553493
 20
219.6514746673
 11
247.8047553493
 21
224.9881402953
  0
LINE
  5
231
100
AcDbEntity
  8
0
100
AcDbLine
 62
7
  6
CONTINUOUS
 10
248.2047553495
 20
219.6514746648
 11
248.2047553497
 21
231.4198074777
  0
LINE
  5
232
100
AcDbEntity
  8
0
100
AcDbLine
 62
7
  6
CONTINUOUS
 10
248.2047568508
 20
215.5198074779
 11
248.2047568508
 21
213.2198074777
  0
LINE
  5
233
100
AcDbEntity
  8
0
100
AcDbLine
 62
7
  6
CONTINUOUS
 10
248.6047553493
 20
212.2198074777
 11
248.6047553493
 21
232.4198074773
  0
LINE
  5
234
100
AcDbEntity
  8
0
100
AcDbLine
 62
7
  6
CONTINUOUS
 10
248.2047553493
 20
231.4198074777
 11
248.6047553493
 21
231.8198074777
  0
LINE
  5
235
100
AcDbEntity
  8
0
100
AcDbLine
 62
7
  6
CONTINUOUS
 10
248.2047561
 20
213.2198067269
 11
248.6047553493
 21
212.8198074777
  0
LINE
  5
236
100
AcDbEntity
  8
0
100
AcDbLine
 62
7
  6
CONTINUOUS
 10
251.9755757425
 20
232.8198074777
 11
251.9755757425
 21
232.4198074777
  0
LINE
  5
237
100
AcDbEntity
  8
0
100
AcDbLine
 62
9
  6
CONTINUOUS
 10
252.1414116639
 20
232.4198074777
 11
252.1414116639
 21
232.8163783463
  0
LINE
  5
238
100
AcDbEntity
  8
0
100
AcDbLine
 62
7
  6
CONTINUOUS
 10
293.1047553493
 20
202.3198074777
 11
294.0770111004
 21
202.3198074777
  0
LINE
  5
239
100
AcDbEntity
  8
0
100
AcDbLine
 62
9
  6
CONTINUOUS
 10
245.2804912805
 20
219.1783861214
 11
245.421912602
 21
219.0369648
  0
LINE
  5
23A
100
AcDbEntity
  8
0
100
AcDbLine
 62
7
  6
CONTINUOUS
 10
255.6047553493
 20
211.8198074777
 11
255.6047553493
 21
212.2198074784
  0
LINE
  5
23B
100
AcDbEntity
  8
0
100
AcDbLine
 62
7
  6
CONTINUOUS
 10
255.6047553493
 20
232.4198074777
 11
255.6047553493
 21
232.6275715417
  0
LINE
  5
23C
100
AcDbEntity
  8
0
100
AcDbLine
 62
7
  6
CONTINUOUS
 10
256.8047553493
 20
219.1198074777
 11
256.8047553493
 21
215.5198074777
  0
LINE
  5
23D
100
AcDbEntity
  8
0
100
AcDbLine
 62
7
  6
CONTINUOUS
 10
256.8047553497
 20
230.1460456489
 11
256.8047553493
 21
232.4198074777
  0
LINE
  5
23E
100
AcDbEntity
  8
0
100
AcDbLine
 62
7
  6
CONTINUOUS
 10
257.2047553493
 20
211.4448074777
 11
257.2047553493
 21
233.1948074777
  0
LINE
  5
23F
100
AcDbEntity
  8
0
100
AcDbLine
 62
9
  6
CONTINUOUS
 10
245.5633337749
 20
218.8321308396
 11
243.0047553684
 21
216.2261714901
  0
LINE
  5
240
100
AcDbEntity
  8
0
100
AcDbLine
 62
9
  6
CONTINUOUS
 10
242.5185442889
 20
216.4164391299
 11
245.2806033185
 21
219.1784981595
  0
LINE
  5
241
100
AcDbEntity
  8
0
100
AcDbLine
 62
7
  6
CONTINUOUS
 10
245.4219126368
 20
219.0369647652
 11
242.7266390721
 21
216.3416912005
  0
LINE
  5
242
100
AcDbEntity
  8
0
100
AcDbLine
 62
7
  6
CONTINUOUS
 10
282.2707807528
 20
207.3198074777
 11
290.8871428811
 21
207.3198074777
  0
LINE
  5
243
100
AcDbEntity
  8
0
100
AcDbLine
 62
7
  6
CONTINUOUS
 10
261.4047553493
 20
208.0698074777
 11
266.4047553493
 21
208.0698074777
  0
LINE
  5
244
100
AcDbEntity
  8
0
100
AcDbLine
 62
7
  6
CONTINUOUS
 10
261.4047553493
 20
208.7448074777
 11
260.1547553493
 21
208.7448074777
  0
LINE
  5
245
100
AcDbEntity
  8
0
100
AcDbLine
 62
7
  6
CONTINUOUS
 10
267.1547553493
 20
208.8198074777
 11
281.4047553493
 21
208.8198074777
  0
LINE
  5
246
100
AcDbEntity
  8
0
100
AcDbLine
 62
7
  6
CONTINUOUS
 10
260.1547553493
 20
208.7448074784
 11
260.1547553493
 21
235.894807477
  0
LINE
  5
247
100
AcDbEntity
  8
0
100
AcDbLine
 62
7
  6
CONTINUOUS
 10
261.4047553493
 20
208.0698074777
 11
261.4047553493
 21
236.5698074777
  0
LINE
  5
248
100
AcDbEntity
  8
0
100
AcDbLine
 62
7
  6
CONTINUOUS
 10
260.1547553493
 20
211.4448074777
 11
257.20475535
 21
211.4448074777
  0
LINE
  5
249
100
AcDbEntity
  8
0
100
AcDbLine
 62
7
  6
CONTINUOUS
 10
255.6047553493
 20
211.8198074777
 11
257.2047553493
 21
211.8198074777
  0
LINE
  5
24A
100
AcDbEntity
  8
0
100
AcDbLine
 62
7
  6
CONTINUOUS
 10
248.6047553493
 20
212.2198074777
 11
255.6047553493
 21
212.2198074777
  0
LINE
  5
24B
100
AcDbEntity
  8
0
100
AcDbLine
 62
7
  6
CONTINUOUS
 10
298.0355214182
 20
212.3198074777
 11
298.2538859621
 21
212.3198074777
  0
LINE
  5
24C
100
AcDbEntity
  8
0
100
AcDbLine
 62
7
  6
CONTINUOUS
 10
245.7047553493
 20
213.2198074777
 11
248.2047553493
 21
213.2198074777
  0
LINE
  5
24D
100
AcDbEntity
  8
0
100
AcDbLine
 62
9
  6
CONTINUOUS
 10
242.7400632826
 20
228.2987920998
 11
242.8814851426
 21
228.2062326133
  0
LINE
  5
24E
100
AcDbEntity
  8
0
100
AcDbLine
 62
9
  6
CONTINUOUS
 10
244.0461774909
 20
230.1623069971
 11
244.1875980617
 21
230.0560840813
  0
LINE
  5
24F
100
AcDbEntity
  8
0
100
AcDbLine
 62
7
  6
CONTINUOUS
 10
281.4047553493
 20
236.8198074777
 11
282.2707807527
 21
237.3198074775
  0
LINE
  5
250
100
AcDbEntity
  8
0
100
AcDbLine
 62
7
  6
CONTINUOUS
 10
245.2547553493
 20
213.4575123269
 11
245.7047553493
 21
213.4575123269
  0
LINE
  5
251
100
AcDbEntity
  8
0
100
AcDbLine
 62
7
  6
CONTINUOUS
 10
245.70475535
 20
213.6077669395
 11
245.2547553493
 21
213.6077669395
  0
LINE
  5
252
100
AcDbEntity
  8
0
100
AcDbLine
 62
7
  6
CONTINUOUS
 10
242.5047553493
 20
214.354884377
 11
245.7047553493
 21
214.354884377
  0
LINE
  5
253
100
AcDbEntity
  8
0
100
AcDbLine
 62
9
  6
CONTINUOUS
 10
269.6219126368
 20
214.3972853835
 11
274.5953065438
 21
214.3972853835
  0
LINE
  5
254
100
AcDbEntity
  8
0
100
AcDbLine
 62
9
  6
CONTINUOUS
 10
274.5953065442
 20
214.6878611618
 11
269.9239421213
 21
214.6878611618
  0
LINE
  5
255
100
AcDbEntity
  8
0
100
AcDbLine
 62
7
  6
CONTINUOUS
 10
271.0047553486
 20
215.2305850372
 11
274.5953065442
 21
215.2305850372
  0
LINE
  5
256
100
AcDbEntity
  8
0
100
AcDbLine
 62
9
  6
CONTINUOUS
 10
245.9047553493
 20
215.4703451121
 11
242.7047553494
 21
215.4703451121
  0
LINE
  5
257
100
AcDbEntity
  8
0
100
AcDbLine
 62
7
  6
CONTINUOUS
 10
242.5047553489
 20
215.5198074777
 11
256.8047553497
 21
215.5198074777
  0
LINE
  5
258
100
AcDbEntity
  8
0
100
AcDbLine
 62
7
  6
CONTINUOUS
 10
245.9047553489
 20
215.5885368631
 11
245.9266781167
 21
215.5885355952
  0
LINE
  5
259
100
AcDbEntity
  8
0
100
AcDbLine
 62
7
  6
CONTINUOUS
 10
281.4047553493
 20
207.8198074777
 11
282.2707807527
 21
207.3198074779
  0
LINE
  5
25A
100
AcDbEntity
  8
0
100
AcDbLine
 62
7
  6
CONTINUOUS
 10
266.4047553493
 20
236.5698074777
 11
266.4047553493
 21
208.0698074777
  0
LINE
  5
25B
100
AcDbEntity
  8
0
100
AcDbLine
 62
7
  6
CONTINUOUS
 10
274.5953065438
 20
216.6962259416
 11
269.8219517337
 21
216.6962259416
  0
LINE
  5
25C
100
AcDbEntity
  8
0
100
AcDbLine
 62
9
  6
CONTINUOUS
 10
274.5953065438
 20
216.8146683245
 11
269.6219126372
 21
216.8146683245
  0
LINE
  5
25D
100
AcDbEntity
  8
0
100
AcDbLine
 62
7
  6
CONTINUOUS
 10
261.4047553493
 20
217.268013242
 11
260.1547553493
 21
217.268013242
  0
LINE
  5
25E
100
AcDbEntity
  8
0
100
AcDbLine
 62
7
  6
CONTINUOUS
 10
267.1547553488
 20
208.8198074777
 11
267.1547553488
 21
235.8198074777
  0
LINE
  5
25F
100
AcDbEntity
  8
0
100
AcDbLine
 62
9
  6
CONTINUOUS
 10
245.9047553493
 20
218.8369647643
 11
246.10475535
 21
218.8369647643
  0
LINE
  5
260
100
AcDbEntity
  8
0
100
AcDbLine
 62
7
  6
CONTINUOUS
 10
256.8047553493
 20
219.1198074777
 11
248.6047553493
 21
219.1198074777
  0
LINE
  5
261
100
AcDbEntity
  8
0
100
AcDbLine
 62
7
  6
CONTINUOUS
 10
247.8047553493
 20
219.6514746648
 11
248.2047553496
 21
219.6514746648
  0
LINE
  5
262
100
AcDbEntity
  8
0
100
AcDbLine
 62
9
  6
CONTINUOUS
 10
269.6219126363
 20
216.8146683245
 11
269.6219126363
 21
214.3972853835
  0
LINE
  5
263
100
AcDbEntity
  8
0
100
AcDbLine
 62
9
  6
CONTINUOUS
 10
269.7633339934
 20
214.5472171828
 11
269.7633339934
 21
216.7090511806
  0
LINE
  5
264
100
AcDbEntity
  8
0
100
AcDbLine
 62
7
  6
CONTINUOUS
 10
271.0047553486
 20
215.2305850375
 11
271.0047553486
 21
216.6962259416
  0
LINE
  5
265
100
AcDbEntity
  8
0
100
AcDbLine
 62
7
  6
CONTINUOUS
 10
274.5953065438
 20
214.397285376
 11
274.5953065438
 21
216.8146683217
  0
LINE
  5
266
100
AcDbEntity
  8
0
100
AcDbLine
 62
7
  6
CONTINUOUS
 10
242.787598061
 20
224.9881402915
 11
247.8047553493
 21
224.9881402915
  0
LINE
  5
267
100
AcDbEntity
  8
0
100
AcDbLine
 62
9
  6
CONTINUOUS
 10
298.5902899696
 20
227.2319947114
 11
298.5516110377
 21
227.2319947114
  0
LINE
  5
268
100
AcDbEntity
  8
0
100
AcDbLine
 62
7
  6
CONTINUOUS
 10
267.154755349
 20
208.8198074774
 11
266.4047553493
 21
208.0698074777
  0
LINE
  5
269
100
AcDbEntity
  8
0
100
AcDbLine
 62
7
  6
CONTINUOUS
 10
260.1547553493
 20
227.3716017142
 11
261.4047553493
 21
227.3716017142
  0
LINE
  5
26A
100
AcDbEntity
  8
0
100
AcDbLine
 62
9
  6
CONTINUOUS
 10
298.2538859621
 20
227.9622282976
 11
298.0355214182
 21
227.9622282976
  0
LINE
  5
26B
100
AcDbEntity
  8
0
100
AcDbLine
 62
7
  6
CONTINUOUS
 10
298.0355214182
 20
228.0711677569
 11
298.2538859621
 21
228.0711677569
  0
LINE
  5
26C
100
AcDbEntity
  8
0
100
AcDbLine
 62
9
  6
CONTINUOUS
 10
245.7047553495
 20
228.0796427525
 11
242.7875980617
 21
228.0796427525
  0
LINE
  5
26D
100
AcDbEntity
  8
0
100
AcDbLine
 62
9
  6
CONTINUOUS
 10
245.8478376909
 20
228.2062325392
 11
242.8814850144
 21
228.2062324315
  0
LINE
  5
26E
100
AcDbEntity
  8
0
100
AcDbLine
 62
7
  6
CONTINUOUS
 10
267.154755349
 20
235.8198074779
 11
266.4047553493
 21
236.5698074777
  0
LINE
  5
26F
100
AcDbEntity
  8
0
100
AcDbLine
 62
7
  6
CONTINUOUS
 10
242.80475535
 20
229.993137915
 11
242.5047553493
 21
229.993137915
  0
LINE
  5
270
100
AcDbEntity
  8
0
100
AcDbLine
 62
9
  6
CONTINUOUS
 10
244.1875967727
 20
230.0560841029
 11
245.9047553493
 21
230.0560856525
  0
LINE
  5
271
100
AcDbEntity
  8
0
100
AcDbLine
 62
7
  6
CONTINUOUS
 10
256.8047553497
 20
230.1460456489
 11
248.6047553493
 21
230.1460456489
  0
LINE
  5
272
100
AcDbEntity
  8
0
100
AcDbLine
 62
9
  6
CONTINUOUS
 10
244.1875980617
 20
230.2063044843
 11
245.7047553493
 21
230.2063044843
  0
LINE
  5
273
100
AcDbEntity
  8
0
100
AcDbLine
 62
7
  6
CONTINUOUS
 10
248.6047553493
 20
230.8050888521
 11
256.8047553497
 21
230.8050888521
  0
LINE
  5
274
100
AcDbEntity
  8
0
100
AcDbLine
 62
7
  6
CONTINUOUS
 10
245.9047553493
 20
231.4198074777
 11
248.2047553493
 21
231.4198074777
  0
LINE
  5
275
100
AcDbEntity
  8
0
100
AcDbLine
 62
9
  6
CONTINUOUS
 10
297.898175851
 20
231.1953033253
 11
298.178977827
 21
231.1952779024
  0
LINE
  5
276
100
AcDbEntity
  8
0
100
AcDbLine
 62
7
  6
CONTINUOUS
 10
281.4047553493
 20
207.8198074777
 11
281.4047553493
 21
236.8198074777
  0
LINE
  5
277
100
AcDbEntity
  8
0
100
AcDbLine
 62
7
  6
CONTINUOUS
 10
282.2707807528
 20
207.3198074777
 11
282.2707807528
 21
237.3198074777
  0
LINE
  5
278
100
AcDbEntity
  8
0
100
AcDbLine
 62
9
  6
CONTINUOUS
 10
298.0155994967
 20
229.6415909651
 11
298.0082177411
 21
229.6355263395
  0
LINE
  5
279
100
AcDbEntity
  8
0
100
AcDbLine
 62
9
  6
CONTINUOUS
 10
297.993346879
 20
229.62340852
 11
297.985831758
 21
229.6173342108
  0
LINE
  5
27A
100
AcDbEntity
  8
0
100
AcDbLine
 62
7
  6
CONTINUOUS
 10
256.8047553497
 20
232.4198074777
 11
248.6047553493
 21
232.4198074777
  0
LINE
  5
27B
100
AcDbEntity
  8
0
100
AcDbLine
 62
7
  6
CONTINUOUS
 10
243.704844133
 20
232.4198074777
 11
245.9047553493
 21
232.4198074777
  0
LINE
  5
27C
100
AcDbEntity
  8
0
100
AcDbLine
 62
7
  6
CONTINUOUS
 10
252.1414116669
 20
232.8198074777
 11
257.2047553493
 21
232.8198074777
  0
LINE
  5
27D
100
AcDbEntity
  8
0
100
AcDbLine
 62
7
  6
CONTINUOUS
 10
260.1547553493
 20
233.1948074777
 11
257.2047553496
 21
233.1948074777
  0
LINE
  5
27E
100
AcDbEntity
  8
0
100
AcDbLine
 62
7
  6
CONTINUOUS
 10
267.1547553493
 20
235.8198074777
 11
281.4047553493
 21
235.8198074777
  0
LINE
  5
27F
100
AcDbEntity
  8
0
100
AcDbLine
 62
7
  6
CONTINUOUS
 10
261.4047553493
 20
235.8948074777
 11
260.1547553493
 21
235.8948074777
  0
LINE
  5
280
100
AcDbEntity
  8
0
100
AcDbLine
 62
7
  6
CONTINUOUS
 10
298.0177976218
 20
232.4277408592
 11
298.0175347606
 21
232.427363883
  0
LINE
  5
281
100
AcDbEntity
  8
0
100
AcDbLine
 62
7
  6
CONTINUOUS
 10
261.4047553493
 20
236.5698074777
 11
266.4047553493
 21
236.5698074777
  0
LINE
  5
282
100
AcDbEntity
  8
0
100
AcDbLine
 62
7
  6
CONTINUOUS
 10
282.2707807528
 20
237.3198074777
 11
290.8871428814
 21
237.3198074777
  0
LINE
  5
283
100
AcDbEntity
  8
0
100
AcDbLine
 62
7
  6
CONTINUOUS
 10
291.3852402308
 20
206.8633853491
 11
291.6104633021
 21
204.2890738636
  0
LINE
  5
284
100
AcDbEntity
  8
0
100
AcDbLine
 62
9
  6
CONTINUOUS
 10
290.8871428811
 20
237.3198074777
 11
290.8871428811
 21
207.3198074777
  0
LINE
  5
285
100
AcDbEntity
  8
0
100
AcDbLine
 62
9
  6
CONTINUOUS
 10
291.3852402308
 20
206.8633853491
 11
291.3852402308
 21
237.7762296063
  0
LINE
  5
286
100
AcDbEntity
  8
0
100
AcDbLine
 62
9
  6
CONTINUOUS
 10
291.6104633021
 20
240.3505410918
 11
291.6104633021
 21
204.2890738636
  0
LINE
  5
287
100
AcDbEntity
  8
0
100
AcDbLine
 62
7
  6
CONTINUOUS
 10
291.3852402308
 20
237.7762296063
 11
291.6104633021
 21
240.3505410918
  0
LINE
  5
288
100
AcDbEntity
  8
0
100
AcDbLine
 62
7
  6
CONTINUOUS
 10
293.1047553493
 20
242.3198074777
 11
294.0770111004
 21
242.3198074777
  0
LINE
  5
289
100
AcDbEntity
  8
0
100
AcDbLine
 62
7
  6
CONTINUOUS
 10
294.0770217962
 20
202.4460184842
 11
294.0770324403
 21
202.4443149332
  0
LINE
  5
28A
100
AcDbEntity
  8
0
100
AcDbLine
 62
7
  6
CONTINUOUS
 10
293.1047553493
 20
202.3199775983
 11
293.1047553493
 21
242.3195277679
  0
LINE
  5
28B
100
AcDbEntity
  8
0
100
AcDbLine
 62
7
  6
CONTINUOUS
 10
294.0770221846
 20
242.193565713
 11
294.0770217962
 21
202.4460184842
  0
LINE
  5
28C
100
AcDbEntity
  8
0
100
AcDbLine
 62
7
  6
CONTINUOUS
 10
294.0770324403
 20
202.4443149332
 11
294.077032416
 21
202.3198074777
  0
LINE
  5
28D
100
AcDbEntity
  8
0
100
AcDbLine
 62
7
  6
CONTINUOUS
 10
294.077032416
 20
242.3198074777
 11
294.0770328287
 21
242.1953000212
  0
LINE
  5
28E
100
AcDbEntity
  8
0
100
AcDbLine
 62
7
  6
CONTINUOUS
 10
294.0770328287
 20
242.1953000212
 11
294.0770221846
 21
242.193565713
  0
LINE
  5
28F
100
AcDbEntity
  8
0
100
AcDbLine
 62
7
  6
CONTINUOUS
 10
296.4587006035
 20
240.5797785039
 11
296.4584474831
 21
204.0589291049
  0
LINE
  5
290
100
AcDbEntity
  8
0
100
AcDbLine
 62
7
  6
CONTINUOUS
 10
297.5016857895
 20
231.7937961624
 11
297.5121790346
 21
231.879846788
  0
LINE
  5
291
100
AcDbEntity
  8
0
100
AcDbLine
 62
7
  6
CONTINUOUS
 10
297.5121790346
 20
231.879846788
 11
297.5142432771
 21
231.8908189211
  0
LWPOLYLINE
  5
292
100
AcDbEntity
  8
0
100
AcDbPolyline
 62
7
  6
CONTINUOUS
 90
15
 70
0
 10
297.8466007365
 20
229.7764312721
 10
297.8467971731
 20
229.7762037609
 10
297.8308072375
 20
229.8019740902
 10
297.7994294605
 20
229.8679019354
 10
297.7608598404
 20
229.9689050253
 10
297.7187810809
 20
230.1014609242
 10
297.6755046563
 20
230.2624025199
 10
297.6329442697
 20
230.4481629484
 10
297.5929435885
 20
230.654216542
 10
297.557480701
 20
230.8741069275
 10
297.5288026341
 20
231.0971964878
 10
297.5086366973
 20
231.3113284213
 10
297.4977940326
 20
231.504798328
 10
297.4959774388
 20
231.6677327362
 10
297.5016857895
 20
231.7937961624
  0
LINE
  5
293
100
AcDbEntity
  8
0
100
AcDbLine
 62
9
  6
CONTINUOUS
 10
298.0302108991
 20
210.0185526448
 11
298.0302108991
 21
229.6536946112
  0
LINE
  5
294
100
AcDbEntity
  8
0
100
AcDbLine
 62
7
  6
CONTINUOUS
 10
298.0355214182
 20
229.623136978
 11
298.0355214182
 21
210.0704801611
  0
LINE
  5
295
100
AcDbEntity
  8
0
100
AcDbLine
 62
9
  6
CONTINUOUS
 10
298.2538859624
 20
228.0711677569
 11
298.2538859621
 21
212.3198074777
  0
LINE
  5
296
100
AcDbEntity
  8
0
100
AcDbLine
 62
9
  6
CONTINUOUS
 10
298.5005351215
 20
212.5290129667
 11
298.5005350864
 21
227.8441858772
  0
LWPOLYLINE
  5
297
100
AcDbEntity
  8
0
100
AcDbPolyline
 62
7
  6
CONTINUOUS
 90
14
 70
0
 10
298.719196803
 20
226.2763735668
 10
298.7202136278
 20
226.2746171697
 10
298.7143164901
 20
226.2882106
 10
298.7000084461
 20
226.3296926292
 10
298.6820876683
 20
226.3935873854
 10
298.6623388181
 20
226.477223568
 10
298.641643992
 20
226.5791552254
 10
298.6205965873
 20
226.6981990449
 10
298.5996956304
 20
226.833270045
 10
298.5794366276
 20
226.9828962339
 10
298.5603776843
 20
227.1449441615
 10
298.5430455851
 20
227.3170474575
 10
298.5280140522
 20
227.4962367424
 10
298.5238518439
 20
227.5536140045
  0
LINE
  5
298
100
AcDbEntity
  8
0
100
AcDbLine
 62
7
  6
CONTINUOUS
 10
298.0302108991
 20
210.0185526448
 11
298.0355214182
 21
210.0698074777
  0
ARC
  5
299
100
AcDbEntity
  8
0
100
AcDbCircle
 62
7
  6
CONTINUOUS
 10
239.3047535104
 20
222.3198071911
 40
60.0000018388
100
AcDbArc
 50
0.0000002737
 51
17.7180308286
  0
ARC
  5
29A
100
AcDbEntity
  8
0
100
AcDbCircle
 62
7
  6
CONTINUOUS
 10
252.6596921252
 20
222.0506159828
 40
10.3790799699
100
AcDbArc
 50
164.7481245119
 51
168.0709553316
  0
ARC
  5
29B
100
AcDbEntity
  8
0
100
AcDbCircle
 62
9
  6
CONTINUOUS
 10
245.6219126368
 20
218.8369647652
 40
0.4828491226
100
AcDbArc
 50
0.0172253735
 51
134.9811982856
  0
ARC
  5
29C
100
AcDbEntity
  8
0
100
AcDbCircle
 62
9
  6
CONTINUOUS
 10
246.1289255705
 20
215.8974897655
 40
0.36925957
100
AcDbArc
 50
234.0690028754
 51
236.7914870148
  0
ARC
  5
29D
100
AcDbEntity
  8
0
100
AcDbCircle
 62
7
  6
CONTINUOUS
 10
245.6219126368
 20
218.8369647652
 40
0.2828427125
100
AcDbArc
 50
0.0000001519
 51
135.0
  0
ARC
  5
29E
100
AcDbEntity
  8
0
100
AcDbCircle
 62
7
  6
CONTINUOUS
 10
239.3047553493
 20
222.3198074777
 40
60.0
100
AcDbArc
 50
342.2810779456
 51
348.1692766702
  0
ARC
  5
29F
100
AcDbEntity
  8
0
100
AcDbCircle
 62
7
  6
CONTINUOUS
 10
239.3047553493
 20
222.3198074777
 40
60.0
100
AcDbArc
 50
350.6084818495
 51
360.0
  0
ARC
  5
2A0
100
AcDbEntity
  8
0
100
AcDbCircle
 62
9
  6
CONTINUOUS
 10
240.3673071504
 20
223.1616405379
 40
58.6116273872
100
AcDbArc
 50
5.9264022607
 51
7.881254512
  0
ARC
  5
2A1
100
AcDbEntity
  8
0
100
AcDbCircle
 62
9
  6
CONTINUOUS
 10
240.3788231457
 20
223.1629937513
 40
58.6000332208
100
AcDbArc
 50
3.9685477155
 51
5.9262488096
  0
ARC
  5
2A2
100
AcDbEntity
  8
0
100
AcDbCircle
 62
9
  6
CONTINUOUS
 10
240.3590193271
 20
223.1916151288
 40
58.3712790567
100
AcDbArc
 50
4.5706587585
 51
7.8810220056
  0
ARC
  5
2A3
100
AcDbEntity
  8
0
100
AcDbCircle
 62
9
  6
CONTINUOUS
 10
240.3784627605
 20
223.1936087314
 40
58.3517385916
100
AcDbArc
 50
4.2884984012
 51
4.5702288367
  0
ARC
  5
2A4
100
AcDbEntity
  8
0
100
AcDbCircle
 62
9
  6
CONTINUOUS
 10
240.3834592855
 20
223.1939821752
 40
58.3467281304
100
AcDbArc
 50
3.9684515604
 51
4.2884996136
  0
ARC
  5
2A5
100
AcDbEntity
  8
0
100
AcDbCircle
 62
9
  6
CONTINUOUS
 10
240.368096626
 20
223.5020765555
 40
58.2943763853
100
AcDbArc
 50
3.9896545444
 51
4.130956714
  0
ARC
  5
2A6
100
AcDbEntity
  8
0
100
AcDbCircle
 62
7
  6
CONTINUOUS
 10
240.3765281926
 20
223.4980724683
 40
58.2885879846
100
AcDbArc
 50
3.9896913118
 51
4.2717222438
  0
ARC
  5
2A7
100
AcDbEntity
  8
0
100
AcDbCircle
 62
9
  6
CONTINUOUS
 10
240.3808744341
 20
223.5029918098
 40
58.2815658422
100
AcDbArc
 50
4.1309641758
 51
4.2717221792
  0
ARC
  5
2A8
100
AcDbEntity
  8
0
100
AcDbCircle
 62
7
  6
CONTINUOUS
 10
240.3505790608
 20
223.190713601
 40
58.1016295209
100
AcDbArc
 50
6.3623379125
 51
7.9187547743
  0
ARC
  5
2A9
100
AcDbEntity
  8
0
100
AcDbCircle
 62
7
  6
CONTINUOUS
 10
240.3905517344
 20
223.1954571996
 40
58.0613773755
100
AcDbArc
 50
4.8165353967
 51
6.3620568839
  0
ARC
  5
2AA
100
AcDbEntity
  8
0
100
AcDbCircle
 62
7
  6
CONTINUOUS
 10
294.1651430701
 20
204.69917583
 40
2.381
100
AcDbArc
 50
267.8787300818
 51
344.401283374
  0
ARC
  5
2AB
100
AcDbEntity
  8
0
100
AcDbCircle
 62
7
  6
CONTINUOUS
 10
293.1047553493
 20
204.4198074777
 40
1.5
100
AcDbArc
 50
184.9999999993
 51
270.0
  0
ARC
  5
2AC
100
AcDbEntity
  8
0
100
AcDbCircle
 62
7
  6
CONTINUOUS
 10
290.8871428818
 20
206.8198074777
 40
0.5
100
AcDbArc
 50
5.0000000034
 51
90.0
  0
ARC
  5
2AD
100
AcDbEntity
  8
0
100
AcDbCircle
 62
7
  6
CONTINUOUS
 10
298.2538859621
 20
212.5698074777
 40
0.25
100
AcDbArc
 50
270.0
 51
350.6084816021
  0
ARC
  5
2AE
100
AcDbEntity
  8
0
100
AcDbCircle
 62
7
  6
CONTINUOUS
 10
288.522196827
 20
229.8907923617
 40
9.4662945323
100
AcDbArc
 50
7.9208236084
 51
8.7478443071
  0
ARC
  5
2AF
100
AcDbEntity
  8
0
100
AcDbCircle
 62
9
  6
CONTINUOUS
 10
290.5423645956
 20
229.8734716246
 40
7.7501593823
100
AcDbArc
 50
9.8200381417
 51
10.8359290145
  0
ARC
  5
2B0
100
AcDbEntity
  8
0
100
AcDbCircle
 62
9
  6
CONTINUOUS
 10
295.7235216711
 20
232.4240980169
 40
3.6049921127
100
AcDbArc
 50
309.023116779
 51
309.3279998743
  0
ARC
  5
2B1
100
AcDbEntity
  8
0
100
AcDbCircle
 62
9
  6
CONTINUOUS
 10
295.7884047838
 20
232.3451097022
 40
3.5027717384
100
AcDbArc
 50
309.4821510403
 51
309.7925050401
  0
ARC
  5
2B2
100
AcDbEntity
  8
0
100
AcDbCircle
 62
7
  6
CONTINUOUS
 10
294.1651430701
 20
239.9404391254
 40
2.381
100
AcDbArc
 50
15.5760487856
 51
92.1212699182
  0
ARC
  5
2B3
100
AcDbEntity
  8
0
100
AcDbCircle
 62
9
  6
CONTINUOUS
 10
299.9727592206
 20
230.7061954568
 40
2.3408570572
100
AcDbArc
 50
201.3731442342
 51
201.8279034416
  0
ARC
  5
2B4
100
AcDbEntity
  8
0
100
AcDbCircle
 62
7
  6
CONTINUOUS
 10
293.1047553493
 20
240.2198074777
 40
1.5
100
AcDbArc
 50
90.0
 51
175.0000000007
  0
ARC
  5
2B5
100
AcDbEntity
  8
0
100
AcDbCircle
 62
7
  6
CONTINUOUS
 10
290.8871428818
 20
237.8198074777
 40
0.5
100
AcDbArc
 50
270.0
 51
354.9999999966
  0
ARC
  5
2B6
100
AcDbEntity
  8
0
100
AcDbCircle
 62
9
  6
CONTINUOUS
 10
297.7807401727
 20
229.6180825799
 40
0.25199972
100
AcDbArc
 50
8.1241059152
 51
19.1410753146
  0
ARC
  5
2B7
100
AcDbEntity
  8
0
100
AcDbCircle
 62
9
  6
CONTINUOUS
 10
297.3195028471
 20
232.0620445034
 40
0.2509005894
100
AcDbArc
 50
0.0270299692
 51
10.5155156952
  0
ARC
  5
2B8
100
AcDbEntity
  8
0
100
AcDbCircle
 62
7
  6
CONTINUOUS
 10
298.2538859621
 20
227.8211677569
 40
0.25
100
AcDbArc
 50
4.2717221412
 51
90.0
  0
ARC
  5
2B9
100
AcDbEntity
  8
0
100
AcDbCircle
 62
7
  6
CONTINUOUS
 10
297.7855214182
 20
229.623136978
 40
0.25
100
AcDbArc
 50
0.0000001014
 51
86.9690075972
  0
ARC
  5
2BA
100
AcDbEntity
  8
0
100
AcDbCircle
 62
9
  6
CONTINUOUS
 10
297.8133366833
 20
232.5676828874
 40
0.2482956789
100
AcDbArc
 50
0.0251994826
 51
10.6161921557
  0
ARC
  5
2BB
100
AcDbEntity
  8
0
100
AcDbCircle
 62
9
  6
CONTINUOUS
 10
297.8162070776
 20
232.5678433275
 40
0.2454268657
100
AcDbArc
 50
325.2012630308
 51
359.9885753913
  0
SPLINE
  5
2BC
100
AcDbEntity
  8
0
100
AcDbSpline
 62
7
  6
CONTINUOUS
 70
0
 71
3
 72
9
 73
5
 74
0
 42
0.0000001
 43
0.0000001
 44
0.0000000001
 40
0.0
 40
0.0
 40
0.0
 40
0.0
 40
0.2682016431
 40
1.0
 40
1.0
 40
1.0
 40
1.0
 10
297.5105431507
 20
231.8968462042
 30
0.0
 10
297.561454153
 20
231.9384590208
 30
0.0
 10
297.7470877301
 20
232.0984085091
 30
0.0
 10
297.9153178377
 20
232.2804772717
 30
0.0
 10
298.0177973988
 20
232.4277405387
 30
0.0
  0
SPLINE
  5
2BD
100
AcDbEntity
  8
0
100
AcDbSpline
 62
7
  6
CONTINUOUS
 70
0
 71
3
 72
9
 73
5
 74
0
 42
0.0000001
 43
0.0000001
 44
0.0000000001
 40
0.0
 40
0.0
 40
0.0
 40
0.0
 40
0.4518314918
 40
1.0
 40
1.0
 40
1.0
 40
1.0
 10
297.7237049505
 20
232.0899083199
 30
0.0
 10
297.7552226935
 20
231.9774722346
 30
0.0
 10
297.8119510325
 20
231.7250625925
 30
0.0
 10
297.8568321252
 20
231.4705051015
 30
0.0
 10
297.878372163
 20
231.3304851255
 30
0.0
  0
SPLINE
  5
2BE
100
AcDbEntity
  8
0
100
AcDbSpline
 62
9
  6
CONTINUOUS
 70
0
 71
3
 72
9
 73
5
 74
0
 42
0.0000001
 43
0.0000001
 44
0.0000000001
 40
0.0
 40
0.0
 40
0.0
 40
0.0
 40
0.226932219
 40
1.0
 40
1.0
 40
1.0
 40
1.0
 10
298.6121328585
 20
226.7541198396
 30
0.0
 10
298.6123404722
 20
226.790312863
 30
0.0
 10
298.610729816
 20
226.9498132915
 30
0.0
 10
298.6009429879
 20
227.1091613529
 30
0.0
 10
298.5902897636
 20
227.2319975161
 30
0.0
  0
SPLINE
  5
2BF
100
AcDbEntity
  8
0
100
AcDbSpline
 62
9
  6
CONTINUOUS
 70
0
 71
3
 72
20
 73
16
 74
0
 42
0.0000001
 43
0.0000001
 44
0.0000000001
 40
0.0
 40
0.0
 40
0.0
 40
0.0
 40
0.0114670619
 40
0.023432932
 40
0.04344394
 40
0.0732050985
 40
0.1128189377
 40
0.1619371639
 40
0.220023017
 40
0.2863533737
 40
0.3601281623
 40
0.4404349356
 40
0.6166394595
 40
0.8063170717
 40
1.0
 40
1.0
 40
1.0
 40
1.0
 10
298.0573956087
 20
232.6134280786
 30
0.0
 10
298.0606702587
 20
232.6181354657
 30
0.0
 10
298.0714896373
 20
232.6273919191
 30
0.0
 10
298.0930624814
 20
232.6147227014
 30
0.0
 10
298.1100132762
 20
232.5896184547
 30
0.0
 10
298.1309182063
 20
232.5496600468
 30
0.0
 10
298.15291739
 20
232.4947096396
 30
0.0
 10
298.1768507063
 20
232.4252385532
 30
0.0
 10
298.201873682
 20
232.3421407449
 30
0.0
 10
298.2278158309
 20
232.2464725877
 30
0.0
 10
298.2542594062
 20
232.1394629741
 30
0.0
 10
298.2909013646
 20
231.9784039754
 30
0.0
 10
298.3350728175
 20
231.7596577811
 30
0.0
 10
298.3834125366
 20
231.4840175436
 30
0.0
 10
298.4120289937
 20
231.2944349467
 30
0.0
 10
298.425311262
 20
231.1984946217
 30
0.0
  0
SPLINE
  5
2C0
100
AcDbEntity
  8
0
100
AcDbSpline
 62
9
  6
CONTINUOUS
 70
0
 71
3
 72
9
 73
5
 74
0
 42
0.0000001
 43
0.0000001
 44
0.0000000001
 40
0.0
 40
0.0
 40
0.0
 40
0.0
 40
0.2560211965
 40
1.0
 40
1.0
 40
1.0
 40
1.0
 10
297.8461004513
 20
232.3599407659
 30
0.0
 10
297.8557790525
 20
232.3699012317
 30
0.0
 10
297.893253902
 20
232.4091235839
 30
0.0
 10
297.9293824198
 20
232.4496392263
 30
0.0
 10
297.9553437871
 20
232.4805393467
 30
0.0
  0
SPLINE
  5
2C1
100
AcDbEntity
  8
0
100
AcDbSpline
 62
9
  6
CONTINUOUS
 70
0
 71
3
 72
9
 73
5
 74
0
 42
0.0000001
 43
0.0000001
 44
0.0000000001
 40
0.0
 40
0.0
 40
0.0
 40
0.0
 40
0.2564519294
 40
1.0
 40
1.0
 40
1.0
 40
1.0
 10
297.9553437871
 20
232.4805393467
 30
0.0
 10
297.9645591325
 20
232.4915077706
 30
0.0
 10
298.0000428787
 20
232.5346525179
 30
0.0
 10
298.0336704037
 20
232.5793350362
 30
0.0
 10
298.0573956087
 20
232.6134280786
 30
0.0
  0
SPLINE
  5
2C2
100
AcDbEntity
  8
0
100
AcDbSpline
 62
9
  6
CONTINUOUS
 70
0
 71
3
 72
9
 73
5
 74
0
 42
0.0000001
 43
0.0000001
 44
0.0000000001
 40
0.0
 40
0.0
 40
0.0
 40
0.0
 40
0.2626605714
 40
1.0
 40
1.0
 40
1.0
 40
1.0
 10
297.5661909709
 20
232.1078269014
 30
0.0
 10
297.5919507012
 20
232.1284432374
 30
0.0
 10
297.6889530549
 20
232.2082456564
 30
0.0
 10
297.7815546253
 20
232.2935152081
 30
0.0
 10
297.8461004513
 20
232.3599407659
 30
0.0
  0
SPLINE
  5
2C3
100
AcDbEntity
  8
0
100
AcDbSpline
 62
9
  6
CONTINUOUS
 70
0
 71
3
 72
9
 73
5
 74
0
 42
0.0000001
 43
0.0000001
 44
0.0000000001
 40
0.0
 40
0.0
 40
0.0
 40
0.0
 40
0.2739077396
 40
1.0
 40
1.0
 40
1.0
 40
1.0
 10
297.985831758
 20
229.6173342108
 30
0.0
 10
297.9838499046
 20
229.615515153
 30
0.0
 10
297.9760560839
 20
229.609454516
 30
0.0
 10
297.9657029239
 20
229.6071246693
 30
0.0
 10
297.9585816336
 20
229.6074991126
 30
0.0
  0
SPLINE
  5
2C4
100
AcDbEntity
  8
0
100
AcDbSpline
 62
9
  6
CONTINUOUS
 70
0
 71
3
 72
11
 73
7
 74
0
 42
0.0000001
 43
0.0000001
 44
0.0000000001
 40
0.0
 40
0.0
 40
0.0
 40
0.0
 40
0.1350294142
 40
0.3373639103
 40
0.6271975188
 40
1.0
 40
1.0
 40
1.0
 40
1.0
 10
297.9585816336
 20
229.6074991126
 30
0.0
 10
297.9456845899
 20
229.6081772499
 30
0.0
 10
297.9151528848
 20
229.6243539798
 30
0.0
 10
297.8776173702
 20
229.6715194238
 30
0.0
 10
297.8375857457
 20
229.7442654671
 30
0.0
 10
297.8129875212
 20
229.8027176207
 30
0.0
 10
297.7997302424
 20
229.8358180548
 30
0.0
  0
SPLINE
  5
2C5
100
AcDbEntity
  8
0
100
AcDbSpline
 62
9
  6
CONTINUOUS
 70
0
 71
3
 72
12
 73
8
 74
0
 42
0.0000001
 43
0.0000001
 44
0.0000000001
 40
0.0
 40
0.0
 40
0.0
 40
0.0
 40
0.2198768759
 40
0.4968740009
 40
0.776763245
 40
0.8988977455
 40
1.0
 40
1.0
 40
1.0
 40
1.0
 10
297.7928905363
 20
229.8530927189
 30
0.0
 10
297.7386250245
 20
229.9917602209
 30
0.0
 10
297.6495843809
 20
230.3176426444
 30
0.0
 10
297.5514106157
 20
230.834482103
 30
0.0
 10
297.4995876133
 20
231.29216379
 30
0.0
 10
297.4857020958
 20
231.6327170428
 30
0.0
 10
297.4894602596
 20
231.7840693438
 30
0.0
 10
297.4948760538
 20
231.8523243957
 30
0.0
  0
SPLINE
  5
2C6
100
AcDbEntity
  8
0
100
AcDbSpline
 62
9
  6
CONTINUOUS
 70
0
 71
3
 72
9
 73
5
 74
0
 42
0.0000001
 43
0.0000001
 44
0.0000000001
 40
0.0
 40
0.0
 40
0.0
 40
0.0
 40
0.2896762794
 40
1.0
 40
1.0
 40
1.0
 40
1.0
 10
297.4948760538
 20
231.8523243957
 30
0.0
 10
297.4961689613
 20
231.8686188606
 30
0.0
 10
297.5014878818
 20
231.924754628
 30
0.0
 10
297.5097917361
 20
231.98090927
 30
0.0
 10
297.5204383556
 20
232.0195511337
 30
0.0
  0
SPLINE
  5
2C7
100
AcDbEntity
  8
0
100
AcDbSpline
 62
9
  6
CONTINUOUS
 70
0
 71
3
 72
9
 73
5
 74
0
 42
0.0000001
 43
0.0000001
 44
0.0000000001
 40
0.0
 40
0.0
 40
0.0
 40
0.0
 40
0.5865771256
 40
1.0
 40
1.0
 40
1.0
 40
1.0
 10
297.5204383556
 20
232.0195511337
 30
0.0
 10
297.525652704
 20
232.0384765908
 30
0.0
 10
297.5365136334
 20
232.0702481999
 30
0.0
 10
297.5557151302
 20
232.0987888761
 30
0.0
 10
297.5661909709
 20
232.1078269014
 30
0.0
  0
SPLINE
  5
2C8
100
AcDbEntity
  8
0
100
AcDbSpline
 62
9
  6
CONTINUOUS
 70
0
 71
3
 72
13
 73
9
 74
0
 42
0.0000001
 43
0.0000001
 44
0.0000000001
 40
0.0
 40
0.0
 40
0.0
 40
0.0
 40
0.333020068
 40
0.6533138854
 40
0.7855357563
 40
0.8892168608
 40
0.9599477003
 40
1.0
 40
1.0
 40
1.0
 40
1.0
 10
298.1789778591
 20
231.1952802506
 30
0.0
 10
298.2063296214
 20
231.1989971591
 30
0.0
 10
298.2601364126
 20
231.2050996741
 30
0.0
 10
298.3252177094
 20
231.2093098158
 30
0.0
 10
298.371261858
 20
231.2092009813
 30
0.0
 10
298.3968018367
 20
231.2075751869
 30
0.0
 10
298.4140469095
 20
231.2045275442
 30
0.0
 10
298.42314926
 20
231.2009929867
 30
0.0
 10
298.4253070501
 20
231.1984700496
 30
0.0
  0
SPLINE
  5
2C9
100
AcDbEntity
  8
0
100
AcDbSpline
 62
9
  6
CONTINUOUS
 70
0
 71
3
 72
9
 73
5
 74
0
 42
0.0000001
 43
0.0000001
 44
0.0000000001
 40
0.0
 40
0.0
 40
0.0
 40
0.0
 40
0.4881587489
 40
1.0
 40
1.0
 40
1.0
 40
1.0
 10
297.570404893
 20
232.0621640565
 30
0.0
 10
297.5704086794
 20
232.0308972602
 30
0.0
 10
297.5581738471
 20
231.9662198462
 30
0.0
 10
297.5214141792
 20
231.9112516386
 30
0.0
 10
297.498086029
 20
231.8882176084
 30
0.0
  0
SPLINE
  5
2CA
100
AcDbEntity
  8
0
100
AcDbSpline
 62
9
  6
CONTINUOUS
 70
0
 71
3
 72
9
 73
5
 74
0
 42
0.0000001
 43
0.0000001
 44
0.0000000001
 40
0.0
 40
0.0
 40
0.0
 40
0.0
 40
0.2565350535
 40
1.0
 40
1.0
 40
1.0
 40
1.0
 10
297.9321084036
 20
229.7407154103
 30
0.0
 10
297.9393775709
 20
229.7316957303
 30
0.0
 10
297.9651376887
 20
229.6945373265
 30
0.0
 10
297.9810910328
 20
229.6505698594
 30
0.0
 10
297.985822006
 20
229.6173324532
 30
0.0
  0
SPLINE
  5
2CB
100
AcDbEntity
  8
0
100
AcDbSpline
 62
9
  6
CONTINUOUS
 70
0
 71
3
 72
8
 73
4
 74
0
 42
0.0000001
 43
0.0000001
 44
0.0000000001
 40
0.0
 40
0.0
 40
0.0
 40
0.0
 40
1.0
 40
1.0
 40
1.0
 40
1.0
 10
297.8237727059
 20
229.819129133
 30
0.0
 10
297.8430170114
 20
229.8119134746
 30
0.0
 10
297.8614549227
 20
229.8021486374
 30
0.0
 10
297.8783592999
 20
229.7904588534
 30
0.0
  0
SPLINE
  5
2CC
100
AcDbEntity
  8
0
100
AcDbSpline
 62
9
  6
CONTINUOUS
 70
0
 71
3
 72
8
 73
4
 74
0
 42
0.0000001
 43
0.0000001
 44
0.0000000001
 40
0.0
 40
0.0
 40
0.0
 40
0.0
 40
1.0
 40
1.0
 40
1.0
 40
1.0
 10
297.8783592999
 20
229.7904588534
 30
0.0
 10
297.8984377413
 20
229.7765741276
 30
0.0
 10
297.9167895975
 20
229.7597223458
 30
0.0
 10
297.932107983
 20
229.7407150713
 30
0.0
  0
SPLINE
  5
2CD
100
AcDbEntity
  8
0
100
AcDbSpline
 62
9
  6
CONTINUOUS
 70
0
 71
3
 72
8
 73
4
 74
0
 42
0.0000001
 43
0.0000001
 44
0.0000000001
 40
0.0
 40
0.0
 40
0.0
 40
0.0
 40
1.0
 40
1.0
 40
1.0
 40
1.0
 10
298.0302108963
 20
229.6536946133
 30
0.0
 10
298.033637933
 20
229.6439405857
 30
0.0
 10
298.0355214174
 20
229.633475529
 30
0.0
 10
298.0355214182
 20
229.6231369781
 30
0.0
  0
SPLINE
  5
2CE
100
AcDbEntity
  8
0
100
AcDbSpline
 62
9
  6
CONTINUOUS
 70
0
 71
3
 72
8
 73
4
 74
0
 42
0.0000001
 43
0.0000001
 44
0.0000000001
 40
0.0
 40
0.0
 40
0.0
 40
0.0
 40
1.0
 40
1.0
 40
1.0
 40
1.0
 10
297.7995431447
 20
229.8704732705
 30
0.0
 10
297.8325405593
 20
229.8679271295
 30
0.0
 10
297.865634843
 20
229.8585322125
 30
0.0
 10
297.8950658818
 20
229.8433952985
 30
0.0
  0
SPLINE
  5
2CF
100
AcDbEntity
  8
0
100
AcDbSpline
 62
9
  6
CONTINUOUS
 70
0
 71
3
 72
8
 73
4
 74
0
 42
0.0000001
 43
0.0000001
 44
0.0000000001
 40
0.0
 40
0.0
 40
0.0
 40
0.0
 40
1.0
 40
1.0
 40
1.0
 40
1.0
 10
297.8950658818
 20
229.8433952985
 30
0.0
 10
297.9218219438
 20
229.8296341734
 30
0.0
 10
297.9464540723
 20
229.8107245611
 30
0.0
 10
297.9666731756
 20
229.7884435539
 30
0.0
  0
SPLINE
  5
2D0
100
AcDbEntity
  8
0
100
AcDbSpline
 62
9
  6
CONTINUOUS
 70
0
 71
3
 72
8
 73
4
 74
0
 42
0.0000001
 43
0.0000001
 44
0.0000000001
 40
0.0
 40
0.0
 40
0.0
 40
0.0
 40
1.0
 40
1.0
 40
1.0
 40
1.0
 10
297.9666731756
 20
229.7884435539
 30
0.0
 10
297.9895259892
 20
229.7632602556
 30
0.0
 10
298.0076467271
 20
229.7328710544
 30
0.0
 10
298.0187973287
 20
229.7007445282
 30
0.0
  0
SPLINE
  5
2D1
100
AcDbEntity
  8
0
100
AcDbSpline
 62
9
  6
CONTINUOUS
 70
0
 71
3
 72
11
 73
7
 74
0
 42
0.0000001
 43
0.0000001
 44
0.0000000001
 40
0.0
 40
0.0
 40
0.0
 40
0.0
 40
0.313938867
 40
0.6008633008
 40
0.836240055
 40
1.0
 40
1.0
 40
1.0
 40
1.0
 10
298.1543317903
 20
231.3304796261
 30
0.0
 10
298.1350796418
 20
231.4310818977
 30
0.0
 10
298.094488319
 20
231.6229057023
 30
0.0
 10
298.0272794194
 20
231.8875439838
 30
0.0
 10
297.9604306791
 20
232.1010210258
 30
0.0
 10
297.912209869
 20
232.2227307833
 30
0.0
 10
297.8861368586
 20
232.2693666387
 30
0.0
  0
SPLINE
  5
2D2
100
AcDbEntity
  8
0
100
AcDbSpline
 62
9
  6
CONTINUOUS
 70
0
 71
3
 72
8
 73
4
 74
0
 42
0.0000001
 43
0.0000001
 44
0.0000000001
 40
0.0
 40
0.0
 40
0.0
 40
0.0
 40
1.0
 40
1.0
 40
1.0
 40
1.0
 10
298.5005350909
 20
227.8441858608
 30
0.0
 10
298.5018425771
 20
227.8430803023
 30
0.0
 10
298.5030639087
 20
227.8414967958
 30
0.0
 10
298.5031914716
 20
227.8397893102
 30
0.0
  0
SPLINE
  5
2D3
100
AcDbEntity
  8
0
100
AcDbSpline
 62
9
  6
CONTINUOUS
 70
0
 71
3
 72
10
 73
6
 74
0
 42
0.0000001
 43
0.0000001
 44
0.0000000001
 40
0.0
 40
0.0
 40
0.0
 40
0.0
 40
0.3025211082
 40
0.5806235558
 40
1.0
 40
1.0
 40
1.0
 40
1.0
 10
298.2538859543
 20
227.9622282962
 30
0.0
 10
298.2827230767
 20
227.9622282972
 30
0.0
 10
298.3386260034
 20
227.9566749858
 30
0.0
 10
298.4285127993
 20
227.9292891308
 30
0.0
 10
298.4892900971
 20
227.8825477895
 30
0.0
 10
298.5005350909
 20
227.8441858608
 30
0.0
  0
SPLINE
  5
2D4
100
AcDbEntity
  8
0
100
AcDbSpline
 62
9
  6
CONTINUOUS
 70
0
 71
3
 72
10
 73
6
 74
0
 42
0.0000001
 43
0.0000001
 44
0.0000000001
 40
0.0
 40
0.0
 40
0.0
 40
0.0
 40
0.5559264895
 40
0.8006077328
 40
1.0
 40
1.0
 40
1.0
 40
1.0
 10
298.5212041325
 20
227.5579865008
 30
0.0
 10
298.5362179501
 20
227.3382454676
 30
0.0
 10
298.5678378335
 20
227.0223183288
 30
0.0
 10
298.6266934869
 20
226.6304890642
 30
0.0
 10
298.6607100593
 20
226.4577270766
 30
0.0
 10
298.6792457996
 20
226.3809349253
 30
0.0
  0
SPLINE
  5
2D5
100
AcDbEntity
  8
0
100
AcDbSpline
 62
9
  6
CONTINUOUS
 70
0
 71
3
 72
22
 73
18
 74
0
 42
0.0000001
 43
0.0000001
 44
0.0000000001
 40
0.0
 40
0.0
 40
0.0
 40
0.0
 40
0.0657908474
 40
0.1188901957
 40
0.1587806997
 40
0.1854993617
 40
0.2012592021
 40
0.2165611496
 40
0.2280106538
 40
0.2426456256
 40
0.2820712371
 40
0.3351057213
 40
0.4011623272
 40
0.4793344065
 40
0.568225336
 40
0.7720742732
 40
1.0
 40
1.0
 40
1.0
 40
1.0
 10
298.6792457996
 20
226.3809349253
 30
0.0
 10
298.6863462007
 20
226.3515185077
 30
0.0
 10
298.7002192429
 20
226.2985654543
 30
0.0
 10
298.7220655096
 20
226.2289664131
 30
0.0
 10
298.7441290946
 20
226.1779653896
 30
0.0
 10
298.7621896421
 20
226.1455596827
 30
0.0
 10
298.7878730181
 20
226.128230939
 30
0.0
 10
298.8058708681
 20
226.1429160433
 30
0.0
 10
298.8146421865
 20
226.1593523671
 30
0.0
 10
298.8258177292
 20
226.1876096293
 30
0.0
 10
298.8365882016
 20
226.2357535793
 30
0.0
 10
298.846774685
 20
226.3080052201
 30
0.0
 10
298.8542216136
 20
226.3984661961
 30
0.0
 10
298.8589314146
 20
226.5056066159
 30
0.0
 10
298.861456457
 20
226.676211626
 30
0.0
 10
298.8565283793
 20
226.9157142681
 30
0.0
 10
298.8458013299
 20
227.1140635133
 30
0.0
 10
298.8383447665
 20
227.2186349268
 30
0.0
  0
SPLINE
  5
2D6
100
AcDbEntity
  8
0
100
AcDbSpline
 62
9
  6
CONTINUOUS
 70
0
 71
3
 72
12
 73
8
 74
0
 42
0.0000001
 43
0.0000001
 44
0.0000000001
 40
0.0
 40
0.0
 40
0.0
 40
0.0
 40
0.040767232
 40
0.1118746556
 40
0.3473719656
 40
0.6671511698
 40
1.0
 40
1.0
 40
1.0
 40
1.0
 10
298.8383352761
 20
227.2186340809
 30
0.0
 10
298.8361846091
 20
227.2212747745
 30
0.0
 10
298.8272163097
 20
227.2253784255
 30
0.0
 10
298.7993197841
 20
227.232123514
 30
0.0
 10
298.7465760671
 20
227.2359475142
 30
0.0
 10
298.6725725798
 20
227.2364662292
 30
0.0
 10
298.6180299218
 20
227.2339094901
 30
0.0
 10
298.5902881394
 20
227.2320201816
 30
0.0
  0
SPLINE
  5
2D7
100
AcDbEntity
  8
0
100
AcDbSpline
 62
9
  6
CONTINUOUS
 70
0
 71
3
 72
8
 73
4
 74
0
 42
0.0000001
 43
0.0000001
 44
0.0000000001
 40
0.0
 40
0.0
 40
0.0
 40
0.0
 40
1.0
 40
1.0
 40
1.0
 40
1.0
 10
298.5211875173
 20
227.558049714
 30
0.0
 10
298.5225014033
 20
227.5569336217
 30
0.0
 10
298.5237294959
 20
227.555336467
 30
0.0
 10
298.5238516198
 20
227.5536168612
 30
0.0
  0
SPLINE
  5
2D8
100
AcDbEntity
  8
0
100
AcDbSpline
 62
9
  6
CONTINUOUS
 70
0
 71
3
 72
11
 73
7
 74
0
 42
0.0000001
 43
0.0000001
 44
0.0000000001
 40
0.0
 40
0.0
 40
0.0
 40
0.0
 40
0.2527256383
 40
0.5073636701
 40
0.756043263
 40
1.0
 40
1.0
 40
1.0
 40
1.0
 10
245.5633337749
 20
218.8321308396
 30
0.0
 10
245.5755590349
 20
218.8427832475
 30
0.0
 10
245.6054423098
 20
218.8594672969
 30
0.0
 10
245.6572935599
 20
218.8546687996
 30
0.0
 10
245.6946216214
 20
218.8197205922
 30
0.0
 10
245.7032614747
 20
218.7880487466
 30
0.0
 10
245.7047553493
 20
218.7724676788
 30
0.0
  0
SPLINE
  5
2D9
100
AcDbEntity
  8
0
100
AcDbSpline
 62
9
  6
CONTINUOUS
 70
0
 71
3
 72
12
 73
8
 74
0
 42
0.0000001
 43
0.0000001
 44
0.0000000001
 40
0.0
 40
0.0
 40
0.0
 40
0.0
 40
0.3515234201
 40
0.6669848647
 40
0.7889054696
 40
0.8827054538
 40
1.0
 40
1.0
 40
1.0
 40
1.0
 10
245.7047553493
 20
218.7724676779
 30
0.0
 10
245.7305976665
 20
218.772467678
 30
0.0
 10
245.7796552512
 20
218.7755558427
 30
0.0
 10
245.8368792598
 20
218.7867271252
 30
0.0
 10
245.8733236093
 20
218.8016409708
 30
0.0
 10
245.8940571896
 20
218.8139726133
 30
0.0
 10
245.9047553493
 20
218.8283418323
 30
0.0
 10
245.9047553493
 20
218.8369647653
 30
0.0
  0
SPLINE
  5
2DA
100
AcDbEntity
  8
0
100
AcDbSpline
 62
9
  6
CONTINUOUS
 70
0
 71
3
 72
9
 73
5
 74
0
 42
0.0000001
 43
0.0000001
 44
0.0000000001
 40
0.0
 40
0.0
 40
0.0
 40
0.0
 40
0.4831538589
 40
1.0
 40
1.0
 40
1.0
 40
1.0
 10
242.6461755913
 20
228.0425656039
 30
0.0
 10
242.6662458459
 20
228.0552695909
 30
0.0
 10
242.7130146034
 20
228.07308995
 30
0.0
 10
242.7621886371
 20
228.079644009
 30
0.0
 10
242.7875980617
 20
228.0796439426
 30
0.0
  0
SPLINE
  5
2DB
100
AcDbEntity
  8
0
100
AcDbSpline
 62
9
  6
CONTINUOUS
 70
0
 71
3
 72
12
 73
8
 74
0
 42
0.0000001
 43
0.0000001
 44
0.0000000001
 40
0.0
 40
0.0
 40
0.0
 40
0.0
 40
0.3181120258
 40
0.6499583654
 40
0.7876823339
 40
0.8929377255
 40
1.0
 40
1.0
 40
1.0
 40
1.0
 10
245.5633340167
 20
218.83213109
 30
0.0
 10
245.5431472631
 20
218.8502885085
 30
0.0
 10
245.5037021168
 20
218.8895776629
 30
0.0
 10
245.4605730001
 20
218.9407403495
 30
0.0
 10
245.4336095431
 20
218.9829075582
 30
0.0
 10
245.4209547428
 20
219.0078213782
 30
0.0
 10
245.4154511402
 20
219.0305032686
 30
0.0
 10
245.4219126368
 20
219.0369647652
 30
0.0
  0
SPLINE
  5
2DC
100
AcDbEntity
  8
0
100
AcDbSpline
 62
7
  6
CONTINUOUS
 70
0
 71
3
 72
8
 73
4
 74
0
 42
0.0000001
 43
0.0000001
 44
0.0000000001
 40
0.0
 40
0.0
 40
0.0
 40
0.0
 40
1.0
 40
1.0
 40
1.0
 40
1.0
 10
248.2047553496
 20
219.6514746648
 30
0.0
 10
248.318724749
 20
219.2627969372
 30
0.0
 10
248.4537893379
 20
218.8799284865
 30
0.0
 10
248.6047553493
 20
218.5040712485
 30
0.0
  0
SPLINE
  5
2DD
100
AcDbEntity
  8
0
100
AcDbSpline
 62
9
  6
CONTINUOUS
 70
0
 71
3
 72
9
 73
5
 74
0
 42
0.0000001
 43
0.0000001
 44
0.0000000001
 40
0.0
 40
0.0
 40
0.0
 40
0.0
 40
0.4916963322
 40
1.0
 40
1.0
 40
1.0
 40
1.0
 10
245.7047553493
 20
216.0885048587
 30
0.0
 10
245.7047547192
 20
215.998969422
 30
0.0
 10
245.730780756
 20
215.815771334
 30
0.0
 10
245.837286456
 20
215.652797951
 30
0.0
 10
245.9122401758
 20
215.5984913211
 30
0.0
  0
SPLINE
  5
2DE
100
AcDbEntity
  8
0
100
AcDbSpline
 62
7
  6
CONTINUOUS
 70
0
 71
3
 72
9
 73
5
 74
0
 42
0.0000001
 43
0.0000001
 44
0.0000000001
 40
0.0
 40
0.0
 40
0.0
 40
0.0
 40
0.2519337724
 40
1.0
 40
1.0
 40
1.0
 40
1.0
 10
246.10475535
 20
215.6572253955
 30
0.0
 10
246.0932914613
 20
215.6456782718
 30
0.0
 10
246.0419328541
 20
215.6057471982
 30
0.0
 10
245.9749925876
 20
215.5885341184
 30
0.0
 10
245.9266781167
 20
215.5885355952
 30
0.0
  0
SPLINE
  5
2DF
100
AcDbEntity
  8
0
100
AcDbSpline
 62
9
  6
CONTINUOUS
 70
0
 71
3
 72
11
 73
7
 74
0
 42
0.0000001
 43
0.0000001
 44
0.0000000001
 40
0.0
 40
0.0
 40
0.0
 40
0.0
 40
0.1765784241
 40
0.4125709004
 40
0.7028681258
 40
1.0
 40
1.0
 40
1.0
 40
1.0
 10
245.9047553493
 20
216.2018012665
 30
0.0
 10
245.9047553493
 20
216.1871330756
 30
0.0
 10
245.8915378359
 20
216.1527784595
 30
0.0
 10
245.8436458642
 20
216.1163069629
 30
0.0
 10
245.7784393912
 20
216.0935290112
 30
0.0
 10
245.7294377932
 20
216.0885048552
 30
0.0
 10
245.7047553493
 20
216.0885048552
 30
0.0
  0
SPLINE
  5
2E0
100
AcDbEntity
  8
0
100
AcDbSpline
 62
7
  6
CONTINUOUS
 70
0
 71
3
 72
10
 73
6
 74
0
 42
0.0000001
 43
0.0000001
 44
0.0000000001
 40
0.0
 40
0.0
 40
0.0
 40
0.0
 40
0.2471648438
 40
0.4981561283
 40
1.0
 40
1.0
 40
1.0
 40
1.0
 10
242.787598061
 20
224.9881402915
 30
0.0
 10
242.7659464997
 20
224.9881402915
 30
0.0
 10
242.7251861964
 20
224.9605304835
 30
0.0
 10
242.6781078819
 20
224.8874630987
 30
0.0
 10
242.6577232508
 20
224.8233836761
 30
0.0
 10
242.6461767057
 20
224.7809657705
 30
0.0
  0
SPLINE
  5
2E1
100
AcDbEntity
  8
0
100
AcDbSpline
 62
9
  6
CONTINUOUS
 70
0
 71
3
 72
14
 73
10
 74
0
 42
0.0000001
 43
0.0000001
 44
0.0000000001
 40
0.0
 40
0.0
 40
0.0
 40
0.0
 40
0.2754256454
 40
0.4106904787
 40
0.5433524979
 40
0.6721615763
 40
0.7935352564
 40
0.9039455227
 40
1.0
 40
1.0
 40
1.0
 40
1.0
 10
245.9047553493
 20
216.2018015996
 30
0.0
 10
245.9047556077
 20
216.1451827246
 30
0.0
 10
245.9089053423
 20
216.0606334346
 30
0.0
 10
245.9246641956
 20
215.9499737518
 30
0.0
 10
245.9424292669
 20
215.870293218
 30
0.0
 10
245.9666621962
 20
215.7951953369
 30
0.0
 10
246.000102321
 20
215.7286809699
 30
0.0
 10
246.0428454155
 20
215.6753717351
 30
0.0
 10
246.085009562
 20
215.6572280908
 30
0.0
 10
246.1047553501
 20
215.6572264587
 30
0.0
  0
SPLINE
  5
2E2
100
AcDbEntity
  8
0
100
AcDbSpline
 62
7
  6
CONTINUOUS
 70
0
 71
3
 72
11
 73
7
 74
0
 42
0.0000001
 43
0.0000001
 44
0.0000000001
 40
0.0
 40
0.0
 40
0.0
 40
0.0
 40
0.240515056
 40
0.5047849128
 40
0.7741962906
 40
1.0
 40
1.0
 40
1.0
 40
1.0
 10
243.0047553684
 20
216.22617377
 30
0.0
 10
243.0047554182
 20
216.2436312051
 30
0.0
 10
243.0020210109
 20
216.2803576732
 30
0.0
 10
242.9867548622
 20
216.3349590569
 30
0.0
 10
242.9558622643
 20
216.3823519902
 30
0.0
 10
242.9240531762
 20
216.4018817048
 30
0.0
 10
242.9084980709
 20
216.4070449192
 30
0.0
  0
SPLINE
  5
2E3
100
AcDbEntity
  8
0
100
AcDbSpline
 62
7
  6
CONTINUOUS
 70
0
 71
3
 72
10
 73
6
 74
0
 42
0.0000001
 43
0.0000001
 44
0.0000000001
 40
0.0
 40
0.0
 40
0.0
 40
0.0
 40
0.2702586028
 40
0.5163264301
 40
1.0
 40
1.0
 40
1.0
 40
1.0
 10
242.9084980709
 20
216.4070449192
 30
0.0
 10
242.8912076065
 20
216.4127841522
 30
0.0
 10
242.8550294559
 20
216.4151901522
 30
0.0
 10
242.7900090869
 20
216.3948852021
 30
0.0
 10
242.7495200456
 20
216.3644307394
 30
0.0
 10
242.726393706
 20
216.3414477638
 30
0.0
  0
SPLINE
  5
2E4
100
AcDbEntity
  8
0
100
AcDbSpline
 62
7
  6
CONTINUOUS
 70
0
 71
3
 72
8
 73
4
 74
0
 42
0.0000001
 43
0.0000001
 44
0.0000000001
 40
0.0
 40
0.0
 40
0.0
 40
0.0
 40
1.0
 40
1.0
 40
1.0
 40
1.0
 10
242.7262747738
 20
216.3413269718
 30
0.0
 10
242.7130338882
 20
216.3281107162
 30
0.0
 10
242.6954365543
 20
216.3179311963
 30
0.0
 10
242.6770829116
 20
216.3143070742
 30
0.0
  0
SPLINE
  5
2E5
100
AcDbEntity
  8
0
100
AcDbSpline
 62
7
  6
CONTINUOUS
 70
0
 71
3
 72
10
 73
6
 74
0
 42
0.0000001
 43
0.0000001
 44
0.0000000001
 40
0.0
 40
0.0
 40
0.0
 40
0.0
 40
0.4207390928
 40
0.696700191
 40
1.0
 40
1.0
 40
1.0
 40
1.0
 10
242.6770829116
 20
216.3143070742
 30
0.0
 10
242.6497888694
 20
216.3089175751
 30
0.0
 10
242.6004629789
 20
216.3235967062
 30
0.0
 10
242.5508940992
 20
216.3673564501
 30
0.0
 10
242.5283632667
 20
216.3989517122
 30
0.0
 10
242.5185442884
 20
216.4164391293
 30
0.0
  0
LINE
  5
2E6
100
AcDbEntity
  8
0
100
AcDbLine
 62
7
  6
CONTINUOUS
 10
242.5185442889
 20
216.4164391299
 11
242.5047553485
 21
216.4410320957
  0
SPLINE
  5
2E7
100
AcDbEntity
  8
0
100
AcDbSpline
 62
7
  6
CONTINUOUS
 70
0
 71
3
 72
9
 73
5
 74
0
 42
0.0000001
 43
0.0000001
 44
0.0000000001
 40
0.0
 40
0.0
 40
0.0
 40
0.0
 40
0.2762196685
 40
1.0
 40
1.0
 40
1.0
 40
1.0
 10
251.9755757424
 20
232.8198074777
 30
0.0
 10
251.9908481063
 20
232.8197824667
 30
0.0
 10
252.046107445
 20
232.817457099
 30
0.0
 10
252.1013965996
 20
232.8168898071
 30
0.0
 10
252.1414116669
 20
232.8163783463
 30
0.0
  0
SPLINE
  5
2E8
100
AcDbEntity
  8
0
100
AcDbSpline
 62
9
  6
CONTINUOUS
 70
0
 71
3
 72
11
 73
7
 74
0
 42
0.0000001
 43
0.0000001
 44
0.0000000001
 40
0.0
 40
0.0
 40
0.0
 40
0.0
 40
0.2165275767
 40
0.453979435
 40
0.7182738588
 40
1.0
 40
1.0
 40
1.0
 40
1.0
 10
245.9047553493
 20
230.0560856526
 30
0.0
 10
245.9047553493
 20
230.0759109117
 30
0.0
 10
245.892972302
 20
230.1180084619
 30
0.0
 10
245.8466187158
 20
230.1673083095
 30
0.0
 10
245.7808887606
 20
230.1990605169
 30
0.0
 10
245.7305501887
 20
230.2063044844
 30
0.0
 10
245.7047553509
 20
230.2063044845
 30
0.0
  0
SPLINE
  5
2E9
100
AcDbEntity
  8
0
100
AcDbSpline
 62
9
  6
CONTINUOUS
 70
0
 71
3
 72
9
 73
5
 74
0
 42
0.0000001
 43
0.0000001
 44
0.0000000001
 40
0.0
 40
0.0
 40
0.0
 40
0.0
 40
0.2379811984
 40
1.0
 40
1.0
 40
1.0
 40
1.0
 10
244.0461781606
 20
230.1623074535
 30
0.0
 10
244.0556646112
 20
230.1694325621
 30
0.0
 10
244.0983830857
 20
230.195516499
 30
0.0
 10
244.1496086524
 20
230.2063044843
 30
0.0
 10
244.1875980617
 20
230.2063044843
 30
0.0
  0
SPLINE
  5
2EA
100
AcDbEntity
  8
0
100
AcDbSpline
 62
9
  6
CONTINUOUS
 70
0
 71
3
 72
9
 73
5
 74
0
 42
0.0000001
 43
0.0000001
 44
0.0000000001
 40
0.0
 40
0.0
 40
0.0
 40
0.0
 40
0.4701802055
 40
1.0
 40
1.0
 40
1.0
 40
1.0
 10
242.6461767055
 20
228.0425660262
 30
0.0
 10
242.6460840345
 20
228.0857130457
 30
0.0
 10
242.6704424708
 20
228.1768271527
 30
0.0
 10
242.713912226
 20
228.257803599
 30
0.0
 10
242.7400635242
 20
228.2987916642
 30
0.0
  0
SPLINE
  5
2EB
100
AcDbEntity
  8
0
100
AcDbSpline
 62
9
  6
CONTINUOUS
 70
0
 71
3
 72
8
 73
4
 74
0
 42
0.0000001
 43
0.0000001
 44
0.0000000001
 40
0.0
 40
0.0
 40
0.0
 40
0.0
 40
1.0
 40
1.0
 40
1.0
 40
1.0
 10
242.7400635242
 20
228.2987916642
 30
0.0
 10
243.1528626553
 20
228.93518663
 30
0.0
 10
243.5923569408
 20
229.5544820552
 30
0.0
 10
244.0461781606
 20
230.1623043777
 30
0.0
  0
SPLINE
  5
2EC
100
AcDbEntity
  8
0
100
AcDbSpline
 62
7
  6
CONTINUOUS
 70
0
 71
3
 72
8
 73
4
 74
0
 42
0.0000001
 43
0.0000001
 44
0.0000000001
 40
0.0
 40
0.0
 40
0.0
 40
0.0
 40
1.0
 40
1.0
 40
1.0
 40
1.0
 10
269.7633340115
 20
216.7090511725
 30
0.0
 10
269.7812172312
 20
216.7000929956
 30
0.0
 10
269.8019499756
 20
216.6962211686
 30
0.0
 10
269.8219514372
 20
216.6962244931
 30
0.0
  0
SPLINE
  5
2ED
100
AcDbEntity
  8
0
100
AcDbSpline
 62
7
  6
CONTINUOUS
 70
0
 71
3
 72
9
 73
5
 74
0
 42
0.0000001
 43
0.0000001
 44
0.0000000001
 40
0.0
 40
0.0
 40
0.0
 40
0.0
 40
0.2566108805
 40
1.0
 40
1.0
 40
1.0
 40
1.0
 10
269.7633339946
 20
214.5472171844
 30
0.0
 10
269.7530832183
 20
214.532837766
 30
0.0
 10
269.7108622186
 20
214.4784519652
 30
0.0
 10
269.6615535783
 20
214.4296228124
 30
0.0
 10
269.6219126368
 20
214.3972853835
 30
0.0
  0
SPLINE
  5
2EE
100
AcDbEntity
  8
0
100
AcDbSpline
 62
7
  6
CONTINUOUS
 70
0
 71
3
 72
9
 73
5
 74
0
 42
0.0000001
 43
0.0000001
 44
0.0000000001
 40
0.0
 40
0.0
 40
0.0
 40
0.0
 40
0.4543156241
 40
1.0
 40
1.0
 40
1.0
 40
1.0
 10
269.7633340115
 20
216.7090511725
 30
0.0
 10
269.7393869793
 20
216.7210468731
 30
0.0
 10
269.6904908911
 20
216.7546981189
 30
0.0
 10
269.6455885541
 20
216.7928884645
 30
0.0
 10
269.6219126372
 20
216.8146683245
 30
0.0
  0
LINE
  5
2EF
100
AcDbEntity
  8
0
100
AcDbLine
 62
7
  6
CONTINUOUS
 10
269.9239421213
 20
214.6878611618
 11
271.0047553486
 21
215.2305850372
  0
SPLINE
  5
2F0
100
AcDbEntity
  8
0
100
AcDbSpline
 62
7
  6
CONTINUOUS
 70
0
 71
3
 72
9
 73
5
 74
0
 42
0.0000001
 43
0.0000001
 44
0.0000000001
 40
0.0
 40
0.0
 40
0.0
 40
0.0
 40
0.2713373076
 40
1.0
 40
1.0
 40
1.0
 40
1.0
 10
269.7633339946
 20
214.5472171844
 30
0.0
 10
269.7746018402
 20
214.563023311
 30
0.0
 10
269.8198995396
 20
214.6184116107
 30
0.0
 10
269.8773541346
 20
214.6644754624
 30
0.0
 10
269.9239421213
 20
214.687861162
 30
0.0
  0
SPLINE
  5
2F1
100
AcDbEntity
  8
0
100
AcDbSpline
 62
7
  6
CONTINUOUS
 70
0
 71
3
 72
9
 73
5
 74
0
 42
0.0000001
 43
0.0000001
 44
0.0000000001
 40
0.0
 40
0.0
 40
0.0
 40
0.0
 40
0.2426104052
 40
1.0
 40
1.0
 40
1.0
 40
1.0
 10
245.8478376904
 20
228.2062325381
 30
0.0
 10
245.8379643754
 20
228.1943141381
 30
0.0
 10
245.7946568487
 20
228.1472675472
 30
0.0
 10
245.7431147948
 20
228.1090193226
 30
0.0
 10
245.7047553495
 20
228.0796427525
 30
0.0
  0
SPLINE
  5
2F2
100
AcDbEntity
  8
0
100
AcDbSpline
 62
7
  6
CONTINUOUS
 70
0
 71
3
 72
9
 73
5
 74
0
 42
0.0000001
 43
0.0000001
 44
0.0000000001
 40
0.0
 40
0.0
 40
0.0
 40
0.0
 40
0.4859100585
 40
1.0
 40
1.0
 40
1.0
 40
1.0
 10
245.9047553493
 20
228.3671353841
 30
0.0
 10
245.904755338
 20
228.3390686169
 30
0.0
 10
245.8956539909
 20
228.2808673579
 30
0.0
 10
245.8667810975
 20
228.2290997416
 30
0.0
 10
245.8478376904
 20
228.2062325381
 30
0.0
  0
SPLINE
  5
2F3
100
AcDbEntity
  8
0
100
AcDbSpline
 62
9
  6
CONTINUOUS
 70
0
 71
3
 72
8
 73
4
 74
0
 42
0.0000001
 43
0.0000001
 44
0.0000000001
 40
0.0
 40
0.0
 40
0.0
 40
0.0
 40
1.0
 40
1.0
 40
1.0
 40
1.0
 10
244.1875082041
 20
230.0561506274
 30
0.0
 10
243.7341825123
 20
229.4526079444
 30
0.0
 10
243.2947522246
 20
228.837879626
 30
0.0
 10
242.8813923405
 20
228.2062930846
 30
0.0
  0
SPLINE
  5
2F4
100
AcDbEntity
  8
0
100
AcDbSpline
 62
9
  6
CONTINUOUS
 70
0
 71
3
 72
10
 73
6
 74
0
 42
0.0000001
 43
0.0000001
 44
0.0000000001
 40
0.0
 40
0.0
 40
0.0
 40
0.0
 40
0.5249624355
 40
0.7762830008
 40
1.0
 40
1.0
 40
1.0
 40
1.0
 10
242.8814822961
 20
228.2062324315
 30
0.0
 10
242.8590039307
 20
228.1890636625
 30
0.0
 10
242.8266651968
 20
228.161479721
 30
0.0
 10
242.7962113659
 20
228.1169281028
 30
0.0
 10
242.7875782127
 20
228.0916966365
 30
0.0
 10
242.7875976172
 20
228.0796427525
 30
0.0
  0
ELLIPSE
  5
2F5
100
AcDbEntity
  8
0
100
AcDbEllipse
 62
7
  6
CONTINUOUS
 10
251.6047553493
 20
222.3198074777
 30
0.0
 11
21.0
 21
0.0
 31
0.0
 40
0.5
 41
1.3791491318
 42
1.5452384819
  0
ENDSEC
  0
SECTION
  2
OBJECTS
  0
DICTIONARY
  5
C
100
AcDbDictionary
280
0
281
1
  3
ACAD_GROUP
350
D
  3
ACAD_MLINESTYLE
350
17
  3
ACAD_LAYOUT
350
1A
  3
ACAD_PLOTSETTINGS
350
19
  3
ACAD_PLOTSTYLENAME
350
E
  0
DICTIONARY
  5
D
102
{ACAD_REACTORS
330
C
102
}
100
AcDbDictionary
280
0
281
1
  0
ACDBDICTIONARYWDFLT
  5
E
102
{ACAD_REACTORS
330
C
102
}
100
AcDbDictionary
281
1
  3
Normal
350
F
100
AcDbDictionaryWithDefault
340
F
  0
DICTIONARY
  5
17
102
{ACAD_REACTORS
330
C
102
}
100
AcDbDictionary
280
0
281
1
  3
Standard
350
18
  0
DICTIONARY
  5
19
102
{ACAD_REACTORS
330
C
102
}
100
AcDbDictionary
281
1
  0
DICTIONARY
  5
1A
102
{ACAD_REACTORS
330
C
102
}
100
AcDbDictionary
281
1
  3
Model
350
2F6
  3
Layout1
350
2F7
  0
ACDBPLACEHOLDER
  5
F
102
{ACAD_REACTORS
330
E
102
}
  0
MLINESTYLE
  5
18
102
{ACAD_REACTORS
330
17
102
}
100
AcDbMlineStyle
  2
STANDARD
 70
0
  3

 62
256
 51
90.0
 52
90.0
 71
2
 49
0.5
 62
256
  6
BYLAYER
 49
-0.5
 62
256
  6
BYLAYER
  0
LAYOUT
  5
2F6
102
{ACAD_REACTORS
330
1A
102
}
100
AcDbPlotSettings
  1

  2
none_device
  4
ANSI_C_(22.00_x_17.00_Inches)
  6

 40
0.0
 41
0.0
 42
0.0
 43
0.0
 44
558.8
 45
431.8
 46
0.0
 47
0.0
 48
0.0
 49
0.0
140
0.0
141
0.0
142
1.0
143
1.0
 70
1024
 72
1
 73
0
 74
0
  7

 75
0
147
1.0
148
0.0
149
0.0
100
AcDbLayout
  1
Model
 70
0
 71
0
 10
0.0
 20
0.0
 11
558.8
 21
431.8
 12
0.0
 22
0.0
 32
0.0
 14
0.0
 24
0.0
 34
0.0
 15
0.0
 25
0.0
 35
0.0
146
0.0
 13
0.0
 23
0.0
 33
0.0
 16
1.0
 26
0.0
 36
0.0
 17
0.0
 27
1.0
 37
0.0
 76
0
330
218
345
0
346
0
  0
LAYOUT
  5
2F7
102
{ACAD_REACTORS
330
1A
102
}
100
AcDbPlotSettings
  1

  2
none_device
  4
ANSI_C_(22.00_x_17.00_Inches)
  6

 40
0.0
 41
0.0
 42
0.0
 43
0.0
 44
558.8
 45
431.8
 46
0.0
 47
0.0
 48
0.0
 49
0.0
140
0.0
141
0.0
142
1.0
143
1.0
 70
0
 72
1
 73
0
 74
0
  7

 75
0
147
1.0
148
0.0
149
0.0
100
AcDbLayout
  1
Layout1
 70
0
 71
1
 10
0.0
 20
0.0
 11
558.8
 21
431.8
 12
0.0
 22
0.0
 32
0.0
 14
0.0
 24
0.0
 34
0.0
 15
0.0
 25
0.0
 35
0.0
146
0.0
 13
0.0
 23
0.0
 33
0.0
 16
1.0
 26
0.0
 36
0.0
 17
0.0
 27
1.0
 37
0.0
 76
0
330
219
345
0
346
0
  0
ENDSEC
  0
EOF
