999
DXF file: Y:\001_SCHNEIDER_PARIS\maxime fuentes - génération CAD 2D\TRAVAIL\ZBY8101_CAD_2023\zby8101_2d-views_1.dxf
999
Pro/ENGINEER 2018260 by Parametric Technology Corporation
  0
SECTION
  2
HEADER
  9
$ACADVER
  1
AC1027
  9
$DWGCODEPAGE
  3
ANSI_1252
  9
$EXTMAX
 10
558.8
 20
431.8
 30
0.0
  9
$EXTMIN
 10
0.0
 20
0.0
 30
0.0
  9
$LIMMIN
 10
0.0
 20
0.0
  9
$LIMMAX
 10
558.8
 20
431.8
  9
$VIEWCTR
 10
279.4
 20
215.9
  9
$VIEWSIZE
 40
431.8
  9
$CLAYER
  8
0
  9
$LTSCALE
 40
30.734
  9
$CELTYPE
  6
BYLAYER
  9
$DIMSCALE
 40
1.0
  9
$DIMASZ
 40
3.5
  9
$DIMEXO
 40
1.0
  9
$DIMDLI
 40
21.2344
  9
$DIMEXE
 40
3.0
  9
$DIMCEN
 40
5.0292
  9
$DIMLFAC
 40
1.0
  9
$DIMBLK
  1
_FILLED
  9
$DIMALT
 70
0
  9
$DIMALTF
 40
0.0393700787
  9
$DIMTXT
 40
4.0
  9
$DIMTOL
 70
1
  9
$DIMLIM
 70
0
  9
$DIMTFAC
 40
1.0
  9
$DIMTP
 40
0.0001
  9
$DIMTM
 40
0.0001
  9
$DIMGAP
 40
0.625
  9
$DIMDSEP
 70
46
  9
$AUNITS
 70
0
  9
$PDMODE
 70
0
  9
$PDSIZE
 40
0.01
  9
$HANDSEED
  5
234
  9
$TILEMODE
 70
1
  9
$MEASUREMENT
 70
1
  9
$INSUNITS
 70
4
  0
ENDSEC
  0
SECTION
  2
CLASSES
  0
CLASS
  1
ACDBDICTIONARYWDFLT
  2
AcDbDictionaryWithDefault
  3
AutoCAD 2000
 90
0
 91
1
280
0
281
0
  0
CLASS
  1
ACDBPLACEHOLDER
  2
AcDbPlaceHolder
  3
AutoCAD 2000
 90
0
 91
1
280
0
281
0
  0
CLASS
  1
LAYOUT
  2
AcDbLayout
  3
AutoCAD 2000
 90
0
 91
0
280
0
281
0
  0
ENDSEC
  0
SECTION
  2
TABLES
  0
TABLE
  2
VPORT
  5
8
100
AcDbSymbolTable
 70
2
  0
VPORT
  5
1F4
100
AcDbSymbolTableRecord
100
AcDbViewportTableRecord
  2
*ACTIVE
 70
0
 10
0.0
 20
0.0
 11
1.0
 21
1.0
 12
279.4
 22
215.9
 13
0.0
 23
0.0
 14
1.0
 24
1.0
 15
0.0
 25
0.0
 16
0.0
 26
0.0
 36
1.0
 17
0.0
 27
0.0
 37
0.0
 40
431.8
 41
1.2941176471
 42
50.0
 43
0.0
 44
0.0
 50
0.0
 51
0.0
 71
0
 72
100
 73
1
 74
1
 75
0
 76
0
 77
0
 78
0
  0
ENDTAB
  0
TABLE
  2
LTYPE
  5
5
100
AcDbSymbolTable
 70
6
  0
LTYPE
  5
14
100
AcDbSymbolTableRecord
100
AcDbLinetypeTableRecord
  2
BYBLOCK
 70
0
  3

 72
65
 73
0
 40
0.0
  0
LTYPE
  5
15
100
AcDbSymbolTableRecord
100
AcDbLinetypeTableRecord
  2
BYLAYER
 70
0
  3

 72
65
 73
0
 40
0.0
  0
LTYPE
  5
16
100
AcDbSymbolTableRecord
100
AcDbLinetypeTableRecord
  2
CONTINUOUS
 70
64
  3
Solid line
 72
65
 73
0
 40
0.0
  0
LTYPE
  5
1F5
100
AcDbSymbolTableRecord
100
AcDbLinetypeTableRecord
  2
CENTER
 70
64
  3
____ _ ____ _ ____ _ ____ _ ____ _ ____ _ ____
 72
65
 73
4
 40
0.6
 49
0.375
 74
0
 49
-0.075
 74
0
 49
0.075
 74
0
 49
-0.075
 74
0
  0
LTYPE
  5
1F6
100
AcDbSymbolTableRecord
100
AcDbLinetypeTableRecord
  2
HIDDEN
 70
64
  3
- - - - - - - - - - - - - - - - - - - -
 72
65
 73
2
 40
0.2
 49
0.1
 74
0
 49
-0.1
 74
0
  0
LTYPE
  5
1F7
100
AcDbSymbolTableRecord
100
AcDbLinetypeTableRecord
  2
PHANTOM
 70
64
  3
_____ _ _ _____ _ _ _____ _ _ _____
 72
65
 73
6
 40
0.8
 49
0.45
 74
0
 49
-0.05
 74
0
 49
0.1
 74
0
 49
-0.05
 74
0
 49
0.1
 74
0
 49
-0.05
 74
0
  0
LTYPE
  5
1F8
100
AcDbSymbolTableRecord
100
AcDbLinetypeTableRecord
  2
DOT
 70
64
  3
. . . . . . . . . . . . . . . . . . . .
 72
65
 73
2
 40
0.2
 49
0.1
 74
0
 49
-0.1
 74
0
  0
LTYPE
  5
1F9
100
AcDbSymbolTableRecord
100
AcDbLinetypeTableRecord
  2
DASHED
 70
64
  3
- - - - - - - - - - - - - - - - - - - -
 72
65
 73
2
 40
0.2
 49
0.1
 74
0
 49
-0.1
 74
0
  0
ENDTAB
  0
TABLE
  2
LAYER
  5
2
100
AcDbSymbolTable
 70
36
  0
LAYER
  5
10
100
AcDbSymbolTableRecord
100
AcDbLayerTableRecord
  2
0
 70
0
 62
7
  6
CONTINUOUS
370
-3
390
F
  0
LAYER
  5
1FA
100
AcDbSymbolTableRecord
100
AcDbLayerTableRecord
  2
DEFAULT_1
 70
0
 62
7
  6
CENTER
370
-3
390
F
  0
LAYER
  5
1FB
100
AcDbSymbolTableRecord
100
AcDbLayerTableRecord
  2
DEFAULT_2
 70
0
 62
8
  6
HIDDEN
370
-3
390
F
  0
LAYER
  5
1FC
100
AcDbSymbolTableRecord
100
AcDbLayerTableRecord
  2
DEFAULT_3
 70
0
 62
7
  6
PHANTOM
370
-3
390
F
  0
LAYER
  5
1FD
100
AcDbSymbolTableRecord
100
AcDbLayerTableRecord
  2
01_ALL_DTM_PLN
 70
0
 62
7
  6
CONTINUOUS
370
-3
390
F
  0
LAYER
  5
1FE
100
AcDbSymbolTableRecord
100
AcDbLayerTableRecord
  2
01__ASM_ALL_DTM_PLN
 70
0
 62
7
  6
CONTINUOUS
370
-3
390
F
  0
LAYER
  5
1FF
100
AcDbSymbolTableRecord
100
AcDbLayerTableRecord
  2
01__ASM_DEF_DTM_PLN
 70
0
 62
7
  6
CONTINUOUS
370
-3
390
F
  0
LAYER
  5
200
100
AcDbSymbolTableRecord
100
AcDbLayerTableRecord
  2
01___PRT_ALL_DTM_PLN
 70
0
 62
7
  6
CONTINUOUS
370
-3
390
F
  0
LAYER
  5
201
100
AcDbSymbolTableRecord
100
AcDbLayerTableRecord
  2
01___PRT_DEF_DTM_PLN
 70
0
 62
7
  6
CONTINUOUS
370
-3
390
F
  0
LAYER
  5
202
100
AcDbSymbolTableRecord
100
AcDbLayerTableRecord
  2
02_ALL_AXES
 70
0
 62
7
  6
CONTINUOUS
370
-3
390
F
  0
LAYER
  5
203
100
AcDbSymbolTableRecord
100
AcDbLayerTableRecord
  2
02__ASM_ALL_AXES
 70
0
 62
7
  6
CONTINUOUS
370
-3
390
F
  0
LAYER
  5
204
100
AcDbSymbolTableRecord
100
AcDbLayerTableRecord
  2
02___PRT_ALL_AXES
 70
0
 62
7
  6
CONTINUOUS
370
-3
390
F
  0
LAYER
  5
205
100
AcDbSymbolTableRecord
100
AcDbLayerTableRecord
  2
03_ALL_CURVES
 70
0
 62
7
  6
CONTINUOUS
370
-3
390
F
  0
LAYER
  5
206
100
AcDbSymbolTableRecord
100
AcDbLayerTableRecord
  2
03__ASM_ALL_CURVES
 70
0
 62
7
  6
CONTINUOUS
370
-3
390
F
  0
LAYER
  5
207
100
AcDbSymbolTableRecord
100
AcDbLayerTableRecord
  2
03___PRT_ALL_CURVES
 70
0
 62
7
  6
CONTINUOUS
370
-3
390
F
  0
LAYER
  5
208
100
AcDbSymbolTableRecord
100
AcDbLayerTableRecord
  2
04_ALL_DTM_PNT
 70
0
 62
7
  6
CONTINUOUS
370
-3
390
F
  0
LAYER
  5
209
100
AcDbSymbolTableRecord
100
AcDbLayerTableRecord
  2
04__ASM_ALL_DTM_PNT
 70
0
 62
7
  6
CONTINUOUS
370
-3
390
F
  0
LAYER
  5
20A
100
AcDbSymbolTableRecord
100
AcDbLayerTableRecord
  2
04___PRT_ALL_DTM_PNT
 70
0
 62
7
  6
CONTINUOUS
370
-3
390
F
  0
LAYER
  5
20B
100
AcDbSymbolTableRecord
100
AcDbLayerTableRecord
  2
05_ALL_DTM_CSYS
 70
0
 62
7
  6
CONTINUOUS
370
-3
390
F
  0
LAYER
  5
20C
100
AcDbSymbolTableRecord
100
AcDbLayerTableRecord
  2
05__ASM_ALL_DTM_CSYS
 70
0
 62
7
  6
CONTINUOUS
370
-3
390
F
  0
LAYER
  5
20D
100
AcDbSymbolTableRecord
100
AcDbLayerTableRecord
  2
05__ASM_DEF_DTM_CSYS
 70
0
 62
7
  6
CONTINUOUS
370
-3
390
F
  0
LAYER
  5
20E
100
AcDbSymbolTableRecord
100
AcDbLayerTableRecord
  2
05___PRT_ALL_DTM_CSYS
 70
0
 62
7
  6
CONTINUOUS
370
-3
390
F
  0
LAYER
  5
20F
100
AcDbSymbolTableRecord
100
AcDbLayerTableRecord
  2
05___PRT_DEF_DTM_CSYS
 70
0
 62
7
  6
CONTINUOUS
370
-3
390
F
  0
LAYER
  5
210
100
AcDbSymbolTableRecord
100
AcDbLayerTableRecord
  2
06_ALL_SURFS
 70
0
 62
7
  6
CONTINUOUS
370
-3
390
F
  0
LAYER
  5
211
100
AcDbSymbolTableRecord
100
AcDbLayerTableRecord
  2
06__ASM_ALL_SURFS
 70
0
 62
7
  6
CONTINUOUS
370
-3
390
F
  0
LAYER
  5
212
100
AcDbSymbolTableRecord
100
AcDbLayerTableRecord
  2
06___PRT_ALL_SURFS
 70
0
 62
7
  6
CONTINUOUS
370
-3
390
F
  0
LAYER
  5
213
100
AcDbSymbolTableRecord
100
AcDbLayerTableRecord
  2
07__ASM_ALL_SKELETONS
 70
0
 62
7
  6
CONTINUOUS
370
-3
390
F
  0
LAYER
  5
214
100
AcDbSymbolTableRecord
100
AcDbLayerTableRecord
  2
CLOSED_SHELL
 70
0
 62
7
  6
CONTINUOUS
370
-3
390
F
  0
ENDTAB
  0
TABLE
  2
STYLE
  5
3
100
AcDbSymbolTable
 70
1
  0
STYLE
  5
11
100
AcDbSymbolTableRecord
100
AcDbTextStyleTableRecord
  2
STANDARD
 70
0
 40
0.0
 41
0.6
 50
0.0
 71
0
 42
0.2
  3
txt
  4

  0
STYLE
  5
215
100
AcDbSymbolTableRecord
100
AcDbTextStyleTableRecord
  2
TEXTSTYLE_1
 70
0
 40
0.0
 41
0.8
 50
0.0
 71
0
 42
0.2
  3
gdt
  4

  0
ENDTAB
  0
TABLE
  2
VIEW
  5
6
100
AcDbSymbolTable
 70
0
  0
ENDTAB
  0
TABLE
  2
UCS
  5
7
100
AcDbSymbolTable
 70
0
  0
ENDTAB
  0
TABLE
  2
APPID
  5
9
100
AcDbSymbolTable
 70
1
  0
APPID
  5
216
100
AcDbSymbolTableRecord
100
AcDbRegAppTableRecord
  2
ACAD
 70
0
  0
ENDTAB
  0
TABLE
  2
BLOCK_RECORD
  5
1
100
AcDbSymbolTable
 70
0
  0
BLOCK_RECORD
  5
217
100
AcDbSymbolTableRecord
100
AcDbBlockTableRecord
  2
*Model_Space
  0
BLOCK_RECORD
  5
218
100
AcDbSymbolTableRecord
100
AcDbBlockTableRecord
  2
*Paper_Space
  0
BLOCK_RECORD
  5
219
100
AcDbSymbolTableRecord
100
AcDbBlockTableRecord
  2
_FILLED
  0
ENDTAB
  0
TABLE
  2
DIMSTYLE
  5
A
100
AcDbSymbolTable
 70
1
100
AcDbDimStyleTable
 71
0
  0
DIMSTYLE
105
21A
100
AcDbSymbolTableRecord
100
AcDbDimStyleTableRecord
  2
STANDARD
 70
0
  3

  4

 40
1.0
 41
3.5
 42
1.0
 43
0.38
 44
3.0
 45
0.0
 46
0.0
 47
0.0001
 48
0.0001
140
4.0
141
0.09
142
0.0
143
25.4
144
1.0
145
0.0
146
1.0
147
0.625
 71
1.0
 72
0.0
 73
0
 74
0
 75
0
 76
0
 77
1
 78
8
 79
2
170
0
171
3
172
0
173
0
174
0
175
0
176
0
177
0
178
0
270
2
179
4
271
4
272
4
273
2
274
2
275
0
280
0
281
0
282
0
283
1
284
8
285
0
286
0
287
3
288
0
340
11
278
46
341
219
342
219
343
219
344
219
  0
ENDTAB
  0
ENDSEC
  0
SECTION
  2
BLOCKS
  0
BLOCK
  5
20
100
AcDbEntity
  8
0
100
AcDbBlockBegin
  2
*Model_Space
 70
0
 10
0.0
 20
0.0
 30
0.0
  3
*Model_Space
  1

  0
ENDBLK
  5
21
100
AcDbEntity
  8
0
100
AcDbBlockEnd
  0
BLOCK
  5
1C
100
AcDbEntity
  8
0
100
AcDbBlockBegin
  2
*Paper_Space
 70
0
 10
0.0
 20
0.0
 30
0.0
  3
*Paper_Space
  1

  0
ENDBLK
  5
1D
100
AcDbEntity
  8
0
100
AcDbBlockEnd
  0
BLOCK
  5
21B
100
AcDbEntity
  8
0
100
AcDbBlockBegin
  2
_FILLED
 70
64
 10
0.0
 20
0.0
  3
_FILLED
  1

  0
SOLID
  5
21C
100
AcDbEntity
  8
0
  6
BYBLOCK
 62
0
100
AcDbTrace
 10
0.0
 20
0.0
 11
-1.0
 21
0.2857142857
 12
-1.0
 22
-0.2857142857
 13
-1.0
 23
-0.2857142857
  0
ENDBLK
  5
21D
100
AcDbEntity
  8
0
  6
BYBLOCK
 62
0
100
AcDbBlockEnd
  0
ENDSEC
  0
SECTION
  2
ENTITIES
  0
LINE
  5
21E
100
AcDbEntity
  8
0
100
AcDbLine
 62
7
  6
CONTINUOUS
 10
-2.7907582194
 20
227.9052920118
 11
-2.7907582194
 21
218.2891222688
  0
LINE
  5
21F
100
AcDbEntity
  8
0
100
AcDbLine
 62
7
  6
CONTINUOUS
 10
17.8703995158
 20
223.8274588786
 11
17.4199870843
 21
224.0876087341
  0
LINE
  5
220
100
AcDbEntity
  8
0
100
AcDbLine
 62
7
  6
CONTINUOUS
 10
17.4199870843
 20
224.0876087342
 11
17.4199870843
 21
233.7037784779
  0
LINE
  5
221
100
AcDbEntity
  8
0
100
AcDbLine
 62
7
  6
CONTINUOUS
 10
17.8703995158
 20
223.8274588786
 11
17.8703995158
 21
233.4436286224
  0
LINE
  5
222
100
AcDbEntity
  8
0
100
AcDbLine
 62
7
  6
CONTINUOUS
 10
17.4199870843
 20
233.7037784779
 11
17.8703995158
 21
233.4436286224
  0
ARC
  5
223
100
AcDbEntity
  8
0
100
AcDbCircle
 62
7
  6
CONTINUOUS
 10
-1.9666522317
 20
209.4058707213
 40
25.9915093932
100
AcDbArc
 50
238.8461583044
 51
239.9885235448
  0
ARC
  5
224
100
AcDbEntity
  8
0
100
AcDbCircle
 62
7
  6
CONTINUOUS
 10
17.0528697312
 20
242.3382158591
 40
25.9784042916
100
AcDbArc
 50
59.9885779987
 51
61.1354097487
  0
ARC
  5
225
100
AcDbEntity
  8
0
100
AcDbCircle
 62
7
  6
CONTINUOUS
 10
8.7485878084
 20
229.6290732863
 40
9.887278758
100
AcDbArc
 50
22.6936855135
 51
25.3111095271
  0
SPLINE
  5
226
100
AcDbEntity
  8
0
100
AcDbSpline
 62
7
  6
CONTINUOUS
 70
0
 71
3
 72
20
 73
16
 74
0
 42
0.0000001
 43
0.0000001
 44
0.0000000001
 40
0.0
 40
0.0
 40
0.0
 40
0.0
 40
0.0523171856
 40
0.1053532799
 40
0.1597454075
 40
0.2159854538
 40
0.2743849527
 40
0.3350663323
 40
0.3979736361
 40
0.4628944934
 40
0.5971105929
 40
0.7341983677
 40
0.8025463433
 40
0.8699782156
 40
1.0
 40
1.0
 40
1.0
 40
1.0
 10
-14.9669153253
 20
186.8991668304
 30
0.0
 10
-13.5958393461
 20
186.1072119305
 30
0.0
 10
-10.681164566
 20
184.7635734732
 30
0.0
 10
-5.9741098057
 20
183.5581622575
 30
0.0
 10
-1.0115990287
 20
183.1753099831
 30
0.0
 10
4.1060161295
 20
183.618826632
 30
0.0
 10
9.2805905297
 20
184.875234736
 30
0.0
 10
14.4139673674
 20
186.9168055706
 30
0.0
 10
19.4104549433
 20
189.7025108006
 30
0.0
 10
25.8314659909
 20
194.3848794951
 30
0.0
 10
32.9607481478
 20
201.7694495827
 30
0.0
 10
38.4325456479
 20
210.5644322492
 30
0.0
 10
41.6467722669
 20
218.1877369246
 30
0.0
 10
43.962575474
 20
225.9013721294
 30
0.0
 10
44.7299045722
 20
231.9003105888
 30
0.0
 10
44.7299045722
 20
235.8353813429
 30
0.0
  0
SPLINE
  5
227
100
AcDbEntity
  8
0
100
AcDbSpline
 62
7
  6
CONTINUOUS
 70
0
 71
3
 72
20
 73
16
 74
0
 42
0.0000001
 43
0.0000001
 44
0.0000000001
 40
0.0
 40
0.0
 40
0.0
 40
0.0
 40
0.1300213695
 40
0.197453081
 40
0.2658009886
 40
0.4028890537
 40
0.5371055624
 40
0.6020266613
 40
0.6649341921
 40
0.7256156978
 40
0.7840151654
 40
0.8402550574
 40
0.8946469971
 40
0.9476829348
 40
1.0
 40
1.0
 40
1.0
 40
1.0
 10
-30.1006757078
 20
216.157519404
 30
0.0
 10
-30.1006757078
 20
220.0925776126
 30
0.0
 10
-29.3333507498
 20
226.0914983248
 30
0.0
 10
-27.0175606513
 20
233.8051171099
 30
0.0
 10
-23.8033398314
 20
241.4284262765
 30
0.0
 10
-18.3315389086
 20
250.2234298491
 30
0.0
 10
-11.2022380533
 20
257.6080226371
 30
0.0
 10
-4.7812039444
 20
262.2904051231
 30
0.0
 10
0.2153016803
 20
265.0761153259
 30
0.0
 10
5.3486902308
 20
267.1176834791
 30
0.0
 10
10.5232648694
 20
268.3740831854
 30
0.0
 10
15.6408693855
 20
268.8175909183
 30
0.0
 10
20.6033644088
 20
268.4347335593
 30
0.0
 10
25.3104045493
 20
267.2293224352
 30
0.0
 10
28.2250708281
 20
265.8856860723
 30
0.0
 10
29.5961438405
 20
265.0937333116
 30
0.0
  0
SPLINE
  5
228
100
AcDbEntity
  8
0
100
AcDbSpline
 62
7
  6
CONTINUOUS
 70
0
 71
3
 72
14
 73
10
 74
0
 42
0.0000001
 43
0.0000001
 44
0.0000000001
 40
0.0
 40
0.0
 40
0.0
 40
0.0
 40
0.1157579566
 40
0.2326188307
 40
0.3515979978
 40
0.4735487035
 40
0.5991176299
 40
0.7287037573
 40
1.0
 40
1.0
 40
1.0
 40
1.0
 10
-15.4173274077
 20
187.1593172909
 30
0.0
 10
-16.5539614845
 20
187.8158545335
 30
0.0
 10
-18.7412179273
 20
189.311427318
 30
0.0
 10
-21.6673285658
 20
192.0400061325
 30
0.0
 10
-24.208281048
 20
195.2209929664
 30
0.0
 10
-26.3299531033
 20
198.8092220312
 30
0.0
 10
-28.0057690204
 20
202.7567325435
 30
0.0
 10
-29.6425429369
 20
208.5093003414
 30
0.0
 10
-30.1006757078
 20
213.0811901498
 30
0.0
 10
-30.1006757078
 20
216.157519404
 30
0.0
  0
SPLINE
  5
229
100
AcDbEntity
  8
0
100
AcDbSpline
 62
7
  6
CONTINUOUS
 70
0
 71
3
 72
9
 73
5
 74
0
 42
0.0000001
 43
0.0000001
 44
0.0000000001
 40
0.0
 40
0.0
 40
0.0
 40
0.0
 40
0.5109845342
 40
1.0
 40
1.0
 40
1.0
 40
1.0
 10
17.4199870843
 20
233.7037784779
 30
0.0
 10
17.0891634059
 20
234.494662582
 30
0.0
 10
16.2383740912
 20
235.9691323121
 30
0.0
 10
14.9862995254
 20
237.1310272196
 30
0.0
 10
14.3044511605
 20
237.5873030903
 30
0.0
  0
SPLINE
  5
22A
100
AcDbEntity
  8
0
100
AcDbSpline
 62
7
  6
CONTINUOUS
 70
0
 71
3
 72
14
 73
10
 74
0
 42
0.0000001
 43
0.0000001
 44
0.0000000001
 40
0.0
 40
0.0
 40
0.0
 40
0.0
 40
0.2712955309
 40
0.4008814497
 40
0.5264502002
 40
0.6484009529
 40
0.7673803873
 40
0.8842416455
 40
1.0
 40
1.0
 40
1.0
 40
1.0
 10
44.7299045722
 20
235.8353813429
 30
0.0
 10
44.7299045722
 20
238.9117025812
 30
0.0
 10
44.2717738564
 20
243.4835816499
 30
0.0
 10
42.6350093175
 20
249.2361392775
 30
0.0
 10
40.959197825
 20
253.1836475897
 30
0.0
 10
38.8375287351
 20
256.7718802443
 30
0.0
 10
36.2965753215
 20
259.9528765633
 30
0.0
 10
33.3704586093
 20
262.6814667748
 30
0.0
 10
31.1831944724
 20
264.1770442855
 30
0.0
 10
30.0465566212
 20
264.833584061
 30
0.0
  0
SPLINE
  5
22B
100
AcDbEntity
  8
0
100
AcDbSpline
 62
7
  6
CONTINUOUS
 70
0
 71
3
 72
14
 73
10
 74
0
 42
0.0000001
 43
0.0000001
 44
0.0000000001
 40
0.0
 40
0.0
 40
0.0
 40
0.0
 40
0.2763375594
 40
0.4125543067
 40
0.5435206416
 40
0.6674651189
 40
0.7838734249
 40
0.8938212185
 40
1.0
 40
1.0
 40
1.0
 40
1.0
 10
-2.7907582199
 20
227.9052920127
 30
0.0
 10
-2.1305061576
 20
229.837692929
 30
0.0
 10
-0.6166655989
 20
232.5775561978
 30
0.0
 10
2.1758611112
 20
235.4849211817
 30
0.0
 10
4.5428299045
 20
237.1772273464
 30
0.0
 10
7.0718115693
 20
238.2953515723
 30
0.0
 10
9.6425951876
 20
238.7765699874
 30
0.0
 10
12.1228975206
 20
238.5824159609
 30
0.0
 10
13.637420172
 20
237.9923131254
 30
0.0
 10
14.3168461287
 20
237.5998300977
 30
0.0
  0
SPLINE
  5
22C
100
AcDbEntity
  8
0
100
AcDbSpline
 62
7
  6
CONTINUOUS
 70
0
 71
3
 72
14
 73
10
 74
0
 42
0.0000001
 43
0.0000001
 44
0.0000000001
 40
0.0
 40
0.0
 40
0.0
 40
0.0
 40
0.1061936817
 40
0.2166445479
 40
0.3336380106
 40
0.4579500697
 40
0.5889284085
 40
0.7248109061
 40
1.0
 40
1.0
 40
1.0
 40
1.0
 10
0.7652797494
 20
214.1509472044
 30
0.0
 10
1.4530017755
 20
213.8118330777
 30
0.0
 10
2.9672040195
 20
213.3267234572
 30
0.0
 10
5.4023687854
 20
213.2552937377
 30
0.0
 10
7.9036185589
 20
213.8181983851
 30
0.0
 10
10.3501718584
 20
214.9770793239
 30
0.0
 10
12.6317626009
 20
216.671789012
 30
0.0
 10
15.3179274532
 20
219.5368675408
 30
0.0
 10
16.7775321974
 20
222.2072959223
 30
0.0
 10
17.4199870843
 20
224.0876087342
 30
0.0
  0
SPLINE
  5
22D
100
AcDbEntity
  8
0
100
AcDbSpline
 62
7
  6
CONTINUOUS
 70
0
 71
3
 72
11
 73
7
 74
0
 42
0.0000001
 43
0.0000001
 44
0.0000000001
 40
0.0
 40
0.0
 40
0.0
 40
0.0
 40
0.2429740712
 40
0.4889090799
 40
0.7406065322
 40
1.0
 40
1.0
 40
1.0
 40
1.0
 10
0.7627951669
 20
214.1329207932
 30
0.0
 10
0.3727918422
 20
214.3582134601
 30
0.0
 10
-0.3741612074
 20
214.8807618322
 30
0.0
 10
-1.3528236102
 20
215.8524568477
 30
0.0
 10
-2.1760362214
 20
216.9962006733
 30
0.0
 10
-2.6052057621
 20
217.8455310185
 30
0.0
 10
-2.7907582199
 20
218.2891222694
 30
0.0
  0
SPLINE
  5
22E
100
AcDbEntity
  8
0
100
AcDbSpline
 62
7
  6
CONTINUOUS
 70
0
 71
3
 72
13
 73
9
 74
0
 42
0.0000001
 43
0.0000001
 44
0.0000000001
 40
0.0
 40
0.0
 40
0.0
 40
0.0
 40
0.2712263733
 40
0.5260920307
 40
0.6481922121
 40
0.7673116372
 40
0.8842582693
 40
1.0
 40
1.0
 40
1.0
 40
1.0
 10
-29.6502632762
 20
215.8973695485
 30
0.0
 10
-29.6502632762
 20
212.8699447076
 30
0.0
 10
-29.0718542392
 20
206.9755289983
 30
0.0
 10
-26.7238256179
 20
200.049670992
 30
0.0
 10
-23.9455451873
 20
195.2424323836
 30
0.0
 10
-21.4826862143
 20
192.0760714819
 30
0.0
 10
-18.6440275798
 20
189.3436394428
 30
0.0
 10
-16.5186320147
 20
187.8311743189
 30
0.0
 10
-15.4130411576
 20
187.1628226975
 30
0.0
  0
SPLINE
  5
22F
100
AcDbEntity
  8
0
100
AcDbSpline
 62
7
  6
CONTINUOUS
 70
0
 71
3
 72
14
 73
10
 74
0
 42
0.0000001
 43
0.0000001
 44
0.0000000001
 40
0.0
 40
0.0
 40
0.0
 40
0.0
 40
0.2763375594
 40
0.4125543067
 40
0.5435206416
 40
0.6674651189
 40
0.7838734249
 40
0.8938212185
 40
1.0
 40
1.0
 40
1.0
 40
1.0
 10
17.8703995158
 20
223.827458879
 30
0.0
 10
17.2101474534
 20
221.8950579626
 30
0.0
 10
15.6963068952
 20
219.1551946934
 30
0.0
 10
12.903780185
 20
216.2478297092
 30
0.0
 10
10.5368113916
 20
214.5555235443
 30
0.0
 10
8.0078297267
 20
213.4373993183
 30
0.0
 10
5.4370461083
 20
212.9561809032
 30
0.0
 10
2.9567437751
 20
213.1503349298
 30
0.0
 10
1.4422211236
 20
213.7404377655
 30
0.0
 10
0.7627951669
 20
214.1329207932
 30
0.0
  0
SPLINE
  5
230
100
AcDbEntity
  8
0
100
AcDbSpline
 62
7
  6
CONTINUOUS
 70
0
 71
3
 72
20
 73
16
 74
0
 42
0.0000001
 43
0.0000001
 44
0.0000000001
 40
0.0
 40
0.0
 40
0.0
 40
0.0
 40
0.0523017829
 40
0.1053867459
 40
0.1598708395
 40
0.2162233165
 40
0.2747351883
 40
0.3355126434
 40
0.4632122606
 40
0.5298061337
 40
0.5976004333
 40
0.7345512585
 40
0.8028072057
 40
0.8701437158
 40
1.0
 40
1.0
 40
1.0
 40
1.0
 10
29.5937168138
 20
265.0891420817
 30
0.0
 10
28.2154132676
 20
265.8488939498
 30
0.0
 10
25.2914135952
 20
267.1285420891
 30
0.0
 10
20.587778485
 20
268.2451460649
 30
0.0
 10
15.6412912718
 20
268.5495075567
 30
0.0
 10
10.5505158059
 20
268.0394998885
 30
0.0
 10
5.4107555915
 20
266.729084179
 30
0.0
 10
-1.4861217379
 20
263.9092062467
 30
0.0
 10
-7.9674055817
 20
259.6331359466
 30
0.0
 10
-13.7426300545
 20
254.2465998794
 30
0.0
 10
-19.0837153652
 20
248.0529218458
 30
0.0
 10
-23.4368312045
 20
241.0024579798
 30
0.0
 10
-26.6085165507
 20
233.4250276192
 30
0.0
 10
-28.8937531315
 20
225.7612639119
 30
0.0
 10
-29.6502632762
 20
219.8049194583
 30
0.0
 10
-29.6502632762
 20
215.8973695485
 30
0.0
  0
SPLINE
  5
231
100
AcDbEntity
  8
0
100
AcDbSpline
 62
7
  6
CONTINUOUS
 70
0
 71
3
 72
10
 73
6
 74
0
 42
0.0000001
 43
0.0000001
 44
0.0000000001
 40
0.0
 40
0.0
 40
0.0
 40
0.0
 40
0.2442344015
 40
0.4910059706
 40
1.0
 40
1.0
 40
1.0
 40
1.0
 10
14.3168461287
 20
237.5998300977
 30
0.0
 10
14.6766333875
 20
237.3919923028
 30
0.0
 10
15.3678342349
 20
236.9151519446
 30
0.0
 10
16.6028349639
 20
235.737785654
 30
0.0
 10
17.3163901317
 20
234.6389708392
 30
0.0
 10
17.686684532
 20
233.856212768
 30
0.0
  0
ENDSEC
  0
SECTION
  2
OBJECTS
  0
DICTIONARY
  5
C
100
AcDbDictionary
280
0
281
1
  3
ACAD_GROUP
350
D
  3
ACAD_MLINESTYLE
350
17
  3
ACAD_LAYOUT
350
1A
  3
ACAD_PLOTSETTINGS
350
19
  3
ACAD_PLOTSTYLENAME
350
E
  0
DICTIONARY
  5
D
102
{ACAD_REACTORS
330
C
102
}
100
AcDbDictionary
280
0
281
1
  0
ACDBDICTIONARYWDFLT
  5
E
102
{ACAD_REACTORS
330
C
102
}
100
AcDbDictionary
281
1
  3
Normal
350
F
100
AcDbDictionaryWithDefault
340
F
  0
DICTIONARY
  5
17
102
{ACAD_REACTORS
330
C
102
}
100
AcDbDictionary
280
0
281
1
  3
Standard
350
18
  0
DICTIONARY
  5
19
102
{ACAD_REACTORS
330
C
102
}
100
AcDbDictionary
281
1
  0
DICTIONARY
  5
1A
102
{ACAD_REACTORS
330
C
102
}
100
AcDbDictionary
281
1
  3
Model
350
232
  3
Layout1
350
233
  0
ACDBPLACEHOLDER
  5
F
102
{ACAD_REACTORS
330
E
102
}
  0
MLINESTYLE
  5
18
102
{ACAD_REACTORS
330
17
102
}
100
AcDbMlineStyle
  2
STANDARD
 70
0
  3

 62
256
 51
90.0
 52
90.0
 71
2
 49
0.5
 62
256
  6
BYLAYER
 49
-0.5
 62
256
  6
BYLAYER
  0
LAYOUT
  5
232
102
{ACAD_REACTORS
330
1A
102
}
100
AcDbPlotSettings
  1

  2
none_device
  4
ANSI_C_(22.00_x_17.00_Inches)
  6

 40
0.0
 41
0.0
 42
0.0
 43
0.0
 44
558.8
 45
431.8
 46
0.0
 47
0.0
 48
0.0
 49
0.0
140
0.0
141
0.0
142
1.0
143
1.0
 70
1024
 72
1
 73
0
 74
0
  7

 75
0
147
1.0
148
0.0
149
0.0
100
AcDbLayout
  1
Model
 70
0
 71
0
 10
0.0
 20
0.0
 11
558.8
 21
431.8
 12
0.0
 22
0.0
 32
0.0
 14
0.0
 24
0.0
 34
0.0
 15
0.0
 25
0.0
 35
0.0
146
0.0
 13
0.0
 23
0.0
 33
0.0
 16
1.0
 26
0.0
 36
0.0
 17
0.0
 27
1.0
 37
0.0
 76
0
330
217
345
0
346
0
  0
LAYOUT
  5
233
102
{ACAD_REACTORS
330
1A
102
}
100
AcDbPlotSettings
  1

  2
none_device
  4
ANSI_C_(22.00_x_17.00_Inches)
  6

 40
0.0
 41
0.0
 42
0.0
 43
0.0
 44
558.8
 45
431.8
 46
0.0
 47
0.0
 48
0.0
 49
0.0
140
0.0
141
0.0
142
1.0
143
1.0
 70
0
 72
1
 73
0
 74
0
  7

 75
0
147
1.0
148
0.0
149
0.0
100
AcDbLayout
  1
Layout1
 70
0
 71
1
 10
0.0
 20
0.0
 11
558.8
 21
431.8
 12
0.0
 22
0.0
 32
0.0
 14
0.0
 24
0.0
 34
0.0
 15
0.0
 25
0.0
 35
0.0
146
0.0
 13
0.0
 23
0.0
 33
0.0
 16
1.0
 26
0.0
 36
0.0
 17
0.0
 27
1.0
 37
0.0
 76
0
330
218
345
0
346
0
  0
ENDSEC
  0
EOF
