999
DXF file: C:\Gen2D\CAD\GV2ME016_3D-CAD\drw0001_1.dxf
999
Pro/ENGINEER 2019471 by Parametric Technology Corporation
  0
SECTION
  2
HEADER
  9
$ACADVER
  1
AC1024
  9
$DWGCODEPAGE
  3
ANSI_1252
  9
$EXTMAX
 10
99.0794368922
 20
140.1266321761
 30
0.0
  9
$EXTMIN
 10
0.0
 20
0.0
 30
0.0
  9
$LIMMIN
 10
0.0
 20
0.0
  9
$LIMMAX
 10
99.0794368922
 20
140.1266321761
  9
$VIEWCTR
 10
49.5397184461
 20
70.063316088
  9
$VIEWSIZE
 40
140.1266321761
  9
$CLAYER
  8
0
  9
$LTSCALE
 40
9.1341804678
  9
$CELTYPE
  6
BYLAYER
  9
$DIMSCALE
 40
1.0
  9
$DIMASZ
 40
1.1795171059
  9
$DIMEXO
 40
1.0
  9
$DIMDLI
 40
6.3108883232
  9
$DIMEXE
 40
1.0
  9
$DIMCEN
 40
1.4946840765
  9
$DIMLFAC
 40
1.0
  9
$DIMBLK
  1
_FILLED
  9
$DIMALT
 70
0
  9
$DIMALTF
 40
0.0393700787
  9
$DIMTXT
 40
1.6513239482
  9
$DIMTOL
 70
1
  9
$DIMLIM
 70
0
  9
$DIMTFAC
 40
1.0
  9
$DIMTP
 40
0.01
  9
$DIMTM
 40
0.01
  9
$DIMGAP
 40
0.625
  9
$DIMDSEP
 70
46
  9
$AUNITS
 70
0
  9
$PDMODE
 70
3
  9
$PDSIZE
 40
0.3125
  9
$HANDSEED
  5
3EF
  9
$TILEMODE
 70
1
  9
$MEASUREMENT
 70
1
  9
$INSUNITS
 70
4
  0
ENDSEC
  0
SECTION
  2
CLASSES
  0
CLASS
  1
ACDBDICTIONARYWDFLT
  2
AcDbDictionaryWithDefault
  3
AutoCAD 2000
 90
0
 91
1
280
0
281
0
  0
CLASS
  1
ACDBPLACEHOLDER
  2
AcDbPlaceHolder
  3
AutoCAD 2000
 90
0
 91
1
280
0
281
0
  0
CLASS
  1
LAYOUT
  2
AcDbLayout
  3
AutoCAD 2000
 90
0
 91
0
280
0
281
0
  0
ENDSEC
  0
SECTION
  2
TABLES
  0
TABLE
  2
VPORT
  5
8
100
AcDbSymbolTable
 70
2
  0
VPORT
  5
1F4
100
AcDbSymbolTableRecord
100
AcDbViewportTableRecord
  2
*ACTIVE
 70
0
 10
0.0
 20
0.0
 11
1.0
 21
1.0
 12
49.5397184461
 22
70.063316088
 13
0.0
 23
0.0
 14
1.0
 24
1.0
 15
0.0
 25
0.0
 16
0.0
 26
0.0
 36
1.0
 17
0.0
 27
0.0
 37
0.0
 40
140.1266321761
 41
0.7070707071
 42
50.0
 43
0.0
 44
0.0
 50
0.0
 51
0.0
 71
0
 72
100
 73
1
 74
1
 75
0
 76
0
 77
0
 78
0
  0
ENDTAB
  0
TABLE
  2
LTYPE
  5
5
100
AcDbSymbolTable
 70
6
  0
LTYPE
  5
14
100
AcDbSymbolTableRecord
100
AcDbLinetypeTableRecord
  2
BYBLOCK
 70
0
  3

 72
65
 73
0
 40
0.0
  0
LTYPE
  5
15
100
AcDbSymbolTableRecord
100
AcDbLinetypeTableRecord
  2
BYLAYER
 70
0
  3

 72
65
 73
0
 40
0.0
  0
LTYPE
  5
16
100
AcDbSymbolTableRecord
100
AcDbLinetypeTableRecord
  2
CONTINUOUS
 70
64
  3
Solid line
 72
65
 73
0
 40
0.0
  0
LTYPE
  5
1F5
100
AcDbSymbolTableRecord
100
AcDbLinetypeTableRecord
  2
CENTER
 70
64
  3
____ _ ____ _ ____ _ ____ _ ____ _ ____ _ ____
 72
65
 73
4
 40
0.6
 49
0.375
 74
0
 49
-0.075
 74
0
 49
0.075
 74
0
 49
-0.075
 74
0
  0
LTYPE
  5
1F6
100
AcDbSymbolTableRecord
100
AcDbLinetypeTableRecord
  2
HIDDEN
 70
64
  3
- - - - - - - - - - - - - - - - - - - -
 72
65
 73
2
 40
0.2
 49
0.1
 74
0
 49
-0.1
 74
0
  0
LTYPE
  5
1F7
100
AcDbSymbolTableRecord
100
AcDbLinetypeTableRecord
  2
PHANTOM
 70
64
  3
_____ _ _ _____ _ _ _____ _ _ _____
 72
65
 73
6
 40
0.8
 49
0.45
 74
0
 49
-0.05
 74
0
 49
0.1
 74
0
 49
-0.05
 74
0
 49
0.1
 74
0
 49
-0.05
 74
0
  0
LTYPE
  5
1F8
100
AcDbSymbolTableRecord
100
AcDbLinetypeTableRecord
  2
DOT
 70
64
  3
. . . . . . . . . . . . . . . . . . . .
 72
65
 73
2
 40
0.2
 49
0.1
 74
0
 49
-0.1
 74
0
  0
LTYPE
  5
1F9
100
AcDbSymbolTableRecord
100
AcDbLinetypeTableRecord
  2
DASHED
 70
64
  3
- - - - - - - - - - - - - - - - - - - -
 72
65
 73
2
 40
0.2
 49
0.1
 74
0
 49
-0.1
 74
0
  0
ENDTAB
  0
TABLE
  2
LAYER
  5
2
100
AcDbSymbolTable
 70
36
  0
LAYER
  5
10
100
AcDbSymbolTableRecord
100
AcDbLayerTableRecord
  2
0
 70
0
 62
7
  6
CONTINUOUS
370
-3
390
F
  0
LAYER
  5
1FA
100
AcDbSymbolTableRecord
100
AcDbLayerTableRecord
  2
DEFAULT_1
 70
0
 62
7
  6
CENTER
370
-3
390
F
  0
LAYER
  5
1FB
100
AcDbSymbolTableRecord
100
AcDbLayerTableRecord
  2
DEFAULT_2
 70
0
 62
8
  6
HIDDEN
370
-3
390
F
  0
LAYER
  5
1FC
100
AcDbSymbolTableRecord
100
AcDbLayerTableRecord
  2
DEFAULT_3
 70
0
 62
7
  6
PHANTOM
370
-3
390
F
  0
LAYER
  5
1FD
100
AcDbSymbolTableRecord
100
AcDbLayerTableRecord
  2
00_COMPONENTS
 70
0
 62
7
  6
CONTINUOUS
370
-3
390
F
  0
LAYER
  5
1FE
100
AcDbSymbolTableRecord
100
AcDbLayerTableRecord
  2
01_1_DEFAULT_DATUMS
 70
0
 62
7
  6
CONTINUOUS
370
-3
390
F
  0
LAYER
  5
1FF
100
AcDbSymbolTableRecord
100
AcDbLayerTableRecord
  2
01_PLANES
 70
0
 62
7
  6
CONTINUOUS
370
-3
390
F
  0
LAYER
  5
200
100
AcDbSymbolTableRecord
100
AcDbLayerTableRecord
  2
02_COORD_SYS
 70
0
 62
7
  6
CONTINUOUS
370
-3
390
F
  0
LAYER
  5
201
100
AcDbSymbolTableRecord
100
AcDbLayerTableRecord
  2
03_AXES
 70
0
 62
7
  6
CONTINUOUS
370
-3
390
F
  0
LAYER
  5
202
100
AcDbSymbolTableRecord
100
AcDbLayerTableRecord
  2
04_POINTS
 70
0
 62
7
  6
CONTINUOUS
370
-3
390
F
  0
LAYER
  5
203
100
AcDbSymbolTableRecord
100
AcDbLayerTableRecord
  2
05_CURVES
 70
0
 62
7
  6
CONTINUOUS
370
-3
390
F
  0
LAYER
  5
204
100
AcDbSymbolTableRecord
100
AcDbLayerTableRecord
  2
06_SURFS
 70
0
 62
7
  6
CONTINUOUS
370
-3
390
F
  0
LAYER
  5
205
100
AcDbSymbolTableRecord
100
AcDbLayerTableRecord
  2
07_COSMETICS
 70
0
 62
7
  6
CONTINUOUS
370
-3
390
F
  0
LAYER
  5
206
100
AcDbSymbolTableRecord
100
AcDbLayerTableRecord
  2
10_NOTES
 70
0
 62
7
  6
CONTINUOUS
370
-3
390
F
  0
LAYER
  5
207
100
AcDbSymbolTableRecord
100
AcDbLayerTableRecord
  2
11_NOTES_PUB
 70
0
 62
7
  6
CONTINUOUS
370
-3
390
F
  0
LAYER
  5
208
100
AcDbSymbolTableRecord
100
AcDbLayerTableRecord
  2
13_REF_GTOL
 70
0
 62
7
  6
CONTINUOUS
370
-3
390
F
  0
LAYER
  5
209
100
AcDbSymbolTableRecord
100
AcDbLayerTableRecord
  2
16_MISC
 70
0
 62
7
  6
CONTINUOUS
370
-3
390
F
  0
LAYER
  5
20A
100
AcDbSymbolTableRecord
100
AcDbLayerTableRecord
  2
17_NO_PRINT
 70
0
 62
7
  6
CONTINUOUS
370
-3
390
F
  0
LAYER
  5
20B
100
AcDbSymbolTableRecord
100
AcDbLayerTableRecord
  2
18_DATUM_CAMS_JOINTS
 70
0
 62
7
  6
CONTINUOUS
370
-3
390
F
  0
LAYER
  5
20C
100
AcDbSymbolTableRecord
100
AcDbLayerTableRecord
  2
19_DATUM_FUNCTIONAL
 70
0
 62
7
  6
CONTINUOUS
370
-3
390
F
  0
LAYER
  5
20D
100
AcDbSymbolTableRecord
100
AcDbLayerTableRecord
  2
20_DATUM_KINEMATIC_SCHEME
 70
0
 62
7
  6
CONTINUOUS
370
-3
390
F
  0
LAYER
  5
20E
100
AcDbSymbolTableRecord
100
AcDbLayerTableRecord
  2
INTFCLR_65
 70
0
 62
7
  6
CONTINUOUS
370
-3
390
F
  0
LAYER
  5
20F
100
AcDbSymbolTableRecord
100
AcDbLayerTableRecord
  2
INTFCLR_75
 70
0
 62
7
  6
CONTINUOUS
370
-3
390
F
  0
ENDTAB
  0
TABLE
  2
STYLE
  5
3
100
AcDbSymbolTable
 70
1
  0
STYLE
  5
11
100
AcDbSymbolTableRecord
100
AcDbTextStyleTableRecord
  2
STANDARD
 70
0
 40
0.0
 41
0.8
 50
0.0
 71
0
 42
0.2
  3
txt
  4

  0
STYLE
  5
210
100
AcDbSymbolTableRecord
100
AcDbTextStyleTableRecord
  2
TEXTSTYLE_1
 70
0
 40
0.0
 41
0.8
 50
0.0
 71
0
 42
0.2
  3
gdt
  4

  0
ENDTAB
  0
TABLE
  2
VIEW
  5
6
100
AcDbSymbolTable
 70
0
  0
ENDTAB
  0
TABLE
  2
UCS
  5
7
100
AcDbSymbolTable
 70
0
  0
ENDTAB
  0
TABLE
  2
APPID
  5
9
100
AcDbSymbolTable
 70
1
  0
APPID
  5
211
100
AcDbSymbolTableRecord
100
AcDbRegAppTableRecord
  2
ACAD
 70
0
  0
ENDTAB
  0
TABLE
  2
BLOCK_RECORD
  5
1
100
AcDbSymbolTable
 70
0
  0
BLOCK_RECORD
  5
212
100
AcDbSymbolTableRecord
100
AcDbBlockTableRecord
  2
*Model_Space
  0
BLOCK_RECORD
  5
213
100
AcDbSymbolTableRecord
100
AcDbBlockTableRecord
  2
*Paper_Space
  0
BLOCK_RECORD
  5
214
100
AcDbSymbolTableRecord
100
AcDbBlockTableRecord
  2
_FILLED
  0
ENDTAB
  0
TABLE
  2
DIMSTYLE
  5
A
100
AcDbSymbolTable
 70
1
100
AcDbDimStyleTable
 71
0
  0
DIMSTYLE
105
215
100
AcDbSymbolTableRecord
100
AcDbDimStyleTableRecord
  2
STANDARD
 70
0
  3

  4

 40
1.0
 41
1.1795171059
 42
1.0
 43
0.38
 44
1.0
 45
0.0
 46
0.0
 47
0.01
 48
0.01
140
1.6513239482
141
0.09
142
0.0
143
25.4
144
1.0
145
0.0
146
1.0
147
0.625
 71
1
 72
0
 73
0
 74
0
 75
0
 76
0
 77
1
 78
8
 79
2
170
0
171
1
172
0
173
0
174
0
175
0
176
0
177
0
178
0
270
2
179
2
271
2
272
2
273
2
274
2
275
0
280
0
281
0
282
0
283
1
284
8
285
0
286
0
287
3
288
0
340
11
278
46
341
214
342
214
343
214
344
214
  0
ENDTAB
  0
ENDSEC
  0
SECTION
  2
BLOCKS
  0
BLOCK
  5
20
100
AcDbEntity
  8
0
100
AcDbBlockBegin
  2
*Model_Space
 70
0
 10
0.0
 20
0.0
 30
0.0
  3
*Model_Space
  1

  0
ENDBLK
  5
21
100
AcDbEntity
  8
0
100
AcDbBlockEnd
  0
BLOCK
  5
1C
100
AcDbEntity
  8
0
100
AcDbBlockBegin
  2
*Paper_Space
 70
0
 10
0.0
 20
0.0
 30
0.0
  3
*Paper_Space
  1

  0
ENDBLK
  5
1D
100
AcDbEntity
  8
0
100
AcDbBlockEnd
  0
BLOCK
  5
216
100
AcDbEntity
  8
0
100
AcDbBlockBegin
  2
_FILLED
 70
64
 10
0.0
 20
0.0
  3
_FILLED
  1

  0
SOLID
  5
217
100
AcDbEntity
  8
0
  6
BYBLOCK
 62
0
100
AcDbTrace
 10
0.0
 20
0.0
 11
-1.0
 21
0.25
 12
-1.0
 22
-0.25
 13
-1.0
 23
-0.25
  0
ENDBLK
  5
218
100
AcDbEntity
  8
0
  6
BYBLOCK
 62
0
100
AcDbBlockEnd
  0
ENDSEC
  0
SECTION
  2
ENTITIES
  0
LINE
  5
219
100
AcDbEntity
  8
0
100
AcDbLine
 62
7
  6
CONTINUOUS
 10
23.2782245355
 20
105.2965628577
 11
56.4650895387
 21
124.4568939292
  0
LINE
  5
21A
100
AcDbEntity
  8
0
100
AcDbLine
 62
7
  6
CONTINUOUS
 10
25.9086684737
 20
104.365776385
 11
58.5864187142
 21
123.2321716656
  0
LINE
  5
21B
100
AcDbEntity
  8
0
100
AcDbLine
 62
7
  6
CONTINUOUS
 10
37.9647927253
 20
110.5695996069
 11
34.4646287311
 21
108.5487910452
  0
LINE
  5
21C
100
AcDbEntity
  8
0
100
AcDbLine
 62
7
  6
CONTINUOUS
 10
59.9999019599
 20
121.921986261
 11
57.0495326517
 21
120.2185999145
  0
LINE
  5
21D
100
AcDbEntity
  8
0
100
AcDbLine
 62
7
  6
CONTINUOUS
 10
40.9739113673
 20
27.2622686785
 11
41.0974081342
 21
27.2066834031
  0
LINE
  5
21E
100
AcDbEntity
  8
0
100
AcDbLine
 62
7
  6
CONTINUOUS
 10
40.9869723385
 20
27.2719316522
 11
41.1090124257
 21
27.2152855671
  0
LINE
  5
21F
100
AcDbEntity
  8
0
100
AcDbLine
 62
7
  6
CONTINUOUS
 10
40.2843222342
 20
26.9169883066
 11
29.9048349005
 21
32.9094525452
  0
LINE
  5
220
100
AcDbEntity
  8
0
100
AcDbLine
 62
7
  6
CONTINUOUS
 10
44.456246473
 20
27.2844072639
 11
44.1733989172
 21
27.4477056821
  0
LINE
  5
221
100
AcDbEntity
  8
0
100
AcDbLine
 62
7
  6
CONTINUOUS
 10
11.6008480737
 20
57.3245400617
 11
11.4912594657
 21
79.3064715014
  0
LINE
  5
222
100
AcDbEntity
  8
0
100
AcDbLine
 62
7
  6
CONTINUOUS
 10
11.5900387122
 20
80.9237062267
 11
11.5977910915
 21
79.3686881137
  0
LINE
  5
223
100
AcDbEntity
  8
0
100
AcDbLine
 62
7
  6
CONTINUOUS
 10
11.7086959805
 20
57.1227292513
 11
11.770778838
 21
44.6697823399
  0
LINE
  5
224
100
AcDbEntity
  8
0
100
AcDbLine
 62
7
  6
CONTINUOUS
 10
11.8081144194
 20
56.9729547736
 11
11.6985258114
 21
78.9548862133
  0
LINE
  5
225
100
AcDbEntity
  8
0
100
AcDbLine
 62
7
  6
CONTINUOUS
 10
11.797306381
 20
80.5721195739
 11
11.8050587603
 21
79.0171014609
  0
LINE
  5
226
100
AcDbEntity
  8
0
100
AcDbLine
 62
7
  6
CONTINUOUS
 10
11.9153490425
 20
56.8944240633
 11
11.9780399265
 21
44.3195156054
  0
LINE
  5
227
100
AcDbEntity
  8
0
100
AcDbLine
 62
7
  6
CONTINUOUS
 10
12.989863704
 20
82.0654745952
 11
12.989863704
 21
81.983357723
  0
LINE
  5
228
100
AcDbEntity
  8
0
100
AcDbLine
 62
7
  6
CONTINUOUS
 10
13.065234514
 20
60.458529409
 11
13.065234514
 21
59.4787265084
  0
LINE
  5
229
100
AcDbEntity
  8
0
100
AcDbLine
 62
7
  6
CONTINUOUS
 10
13.5485131826
 20
59.7849265551
 11
13.5485131826
 21
58.8051236545
  0
LINE
  5
22A
100
AcDbEntity
  8
0
100
AcDbLine
 62
7
  6
CONTINUOUS
 10
13.6899351277
 20
58.7234755036
 11
13.6899351277
 21
59.7032784042
  0
LINE
  5
22B
100
AcDbEntity
  8
0
100
AcDbLine
 62
7
  6
CONTINUOUS
 10
14.3192525381
 20
60.7606278733
 11
14.3192525381
 21
60.1575902682
  0
LINE
  5
22C
100
AcDbEntity
  8
0
100
AcDbLine
 62
7
  6
CONTINUOUS
 10
62.1477916504
 20
118.9605487396
 11
64.4265400299
 21
120.2761768767
  0
LINE
  5
22D
100
AcDbEntity
  8
0
100
AcDbLine
 62
7
  6
CONTINUOUS
 10
45.8844098712
 20
108.6727998013
 11
53.026158627
 21
112.7960657554
  0
LINE
  5
22E
100
AcDbEntity
  8
0
100
AcDbLine
 62
7
  6
CONTINUOUS
 10
49.3418546737
 20
26.7409757554
 11
47.3278732894
 21
27.9037221449
  0
LINE
  5
22F
100
AcDbEntity
  8
0
100
AcDbLine
 62
7
  6
CONTINUOUS
 10
29.9048349005
 20
39.4006467613
 11
40.2843222342
 21
33.4081825228
  0
LINE
  5
230
100
AcDbEntity
  8
0
100
AcDbLine
 62
7
  6
CONTINUOUS
 10
16.3427959401
 20
59.887693458
 11
16.3476666252
 21
58.910702632
  0
LINE
  5
231
100
AcDbEntity
  8
0
100
AcDbLine
 62
7
  6
CONTINUOUS
 10
19.6908159762
 20
73.3992533137
 11
19.7461242196
 21
62.3051985932
  0
LINE
  5
232
100
AcDbEntity
  8
0
100
AcDbLine
 62
7
  6
CONTINUOUS
 10
19.7840754922
 20
54.6927077754
 11
19.8004045842
 21
51.417321874
  0
LINE
  5
233
100
AcDbEntity
  8
0
100
AcDbLine
 62
7
  6
CONTINUOUS
 10
16.0233875056
 20
59.7032840131
 11
16.0233875056
 21
58.7234811126
  0
LINE
  5
234
100
AcDbEntity
  8
0
100
AcDbLine
 62
7
  6
CONTINUOUS
 10
38.813377387
 20
103.7738733542
 11
42.348896573
 21
105.8150941236
  0
LINE
  5
235
100
AcDbEntity
  8
0
100
AcDbLine
 62
7
  6
CONTINUOUS
 10
41.9246395698
 20
104.8353112137
 11
39.4497761396
 21
103.4064566752
  0
LINE
  5
236
100
AcDbEntity
  8
0
100
AcDbLine
 62
7
  6
CONTINUOUS
 10
42.9852953257
 20
105.4476774445
 11
47.2279183489
 21
107.8971423677
  0
LINE
  5
237
100
AcDbEntity
  8
0
100
AcDbLine
 62
7
  6
CONTINUOUS
 10
28.8054285449
 20
96.9001024786
 11
28.2359107104
 21
96.5712931663
  0
LINE
  5
238
100
AcDbEntity
  8
0
100
AcDbLine
 62
7
  6
CONTINUOUS
 10
63.455949941
 20
116.6539645091
 11
54.9000116179
 21
111.7142207013
  0
LINE
  5
239
100
AcDbEntity
  8
0
100
AcDbLine
 62
7
  6
CONTINUOUS
 10
39.2729987083
 20
102.6920144467
 11
34.0404303129
 21
99.671007708
  0
LINE
  5
23A
100
AcDbEntity
  8
0
100
AcDbLine
 62
7
  6
CONTINUOUS
 10
41.9246395698
 20
104.0188087966
 11
39.4497761396
 21
102.589954258
  0
LINE
  5
23B
100
AcDbEntity
  8
0
100
AcDbLine
 62
7
  6
CONTINUOUS
 10
48.2885829367
 20
107.284781236
 11
44.0459599134
 21
104.8353163127
  0
LINE
  5
23C
100
AcDbEntity
  8
0
100
AcDbLine
 62
7
  6
CONTINUOUS
 10
40.5104407273
 20
102.7940955434
 11
42.9853041576
 21
104.2229500819
  0
LINE
  5
23D
100
AcDbEntity
  8
0
100
AcDbLine
 62
7
  6
CONTINUOUS
 10
44.682358666
 20
104.4678996337
 11
41.1468394799
 21
102.4266788643
  0
LINE
  5
23E
100
AcDbEntity
  8
0
100
AcDbLine
 62
7
  6
CONTINUOUS
 10
48.2885829367
 20
106.4682788188
 11
44.682358666
 21
104.3862366935
  0
LINE
  5
23F
100
AcDbEntity
  8
0
100
AcDbLine
 62
7
  6
CONTINUOUS
 10
35.4546497632
 20
98.8545261989
 11
40.6872181586
 21
101.8755329376
  0
LINE
  5
240
100
AcDbEntity
  8
0
100
AcDbLine
 62
7
  6
CONTINUOUS
 10
44.682358666
 20
104.1821146166
 11
48.4653603679
 21
106.3662186302
  0
LINE
  5
241
100
AcDbEntity
  8
0
100
AcDbLine
 62
7
  6
CONTINUOUS
 10
56.3142310682
 20
110.8977391923
 11
64.8701693913
 21
115.837483
  0
LINE
  5
242
100
AcDbEntity
  8
INTFCLR_75
100
AcDbLine
 62
7
420
3604575
  6
CONTINUOUS
 10
29.9897006297
 20
95.2583345267
 11
27.9790930305
 21
94.0975166172
  0
LINE
  5
243
100
AcDbEntity
  8
0
100
AcDbLine
 62
7
  6
CONTINUOUS
 10
56.7738401703
 20
110.6323897565
 11
53.5211625191
 21
108.7544666487
  0
LINE
  5
244
100
AcDbEntity
  8
0
100
AcDbLine
 62
7
  6
CONTINUOUS
 10
52.4605067633
 20
108.1421004179
 11
49.6320914144
 21
106.5091238024
  0
LINE
  5
245
100
AcDbEntity
  8
0
100
AcDbLine
 62
7
  6
CONTINUOUS
 10
47.5107740148
 20
105.0583494209
 11
44.682358666
 21
103.4253728054
  0
LINE
  5
246
100
AcDbEntity
  8
0
100
AcDbLine
 62
7
  6
CONTINUOUS
 10
41.1468394799
 20
101.384152036
 11
44.0106100206
 21
103.0375408592
  0
LINE
  5
247
100
AcDbEntity
  8
0
100
AcDbLine
 62
7
  6
CONTINUOUS
 10
49.6320914144
 20
105.1788543838
 11
52.4605067633
 21
106.8118309993
  0
LINE
  5
248
100
AcDbEntity
  8
0
100
AcDbLine
 62
7
  6
CONTINUOUS
 10
54.6732260992
 20
108.0893374778
 11
56.7738401703
 21
109.3021203379
  0
LINE
  5
249
100
AcDbEntity
  8
0
100
AcDbLine
 62
7
  6
CONTINUOUS
 10
40.0911721244
 20
40.3292982464
 11
32.1666949352
 21
44.9043937822
  0
LINE
  5
24A
100
AcDbEntity
  8
0
100
AcDbLine
 62
7
  6
CONTINUOUS
 10
28.0172993532
 20
47.2999942427
 11
20.8529393329
 21
51.4362458545
  0
LINE
  5
24B
100
AcDbEntity
  8
0
100
AcDbLine
 62
7
  6
CONTINUOUS
 10
23.6910259279
 20
50.0644964191
 11
31.4692329045
 21
45.5738481194
  0
LINE
  5
24C
100
AcDbEntity
  8
0
100
AcDbLine
 62
7
  6
CONTINUOUS
 10
20.2659485144
 20
50.9316508025
 11
20.2175883691
 21
50.9625801688
  0
LINE
  5
24D
100
AcDbEntity
  8
0
100
AcDbLine
 62
7
  6
CONTINUOUS
 10
19.9069499526
 20
51.4795201228
 11
19.8912393883
 21
54.6308380708
  0
LINE
  5
24E
100
AcDbEntity
  8
0
100
AcDbLine
 62
7
  6
CONTINUOUS
 10
19.8477194642
 20
63.3603219637
 11
19.7973613446
 21
73.4614515624
  0
LINE
  5
24F
100
AcDbEntity
  8
0
100
AcDbLine
 62
7
  6
CONTINUOUS
 10
20.1297932626
 20
51.0187397684
 11
20.1124221465
 21
54.5031410348
  0
LINE
  5
250
100
AcDbEntity
  8
0
100
AcDbLine
 62
7
  6
CONTINUOUS
 10
20.0324224528
 20
70.5499529545
 11
20.0108633556
 21
74.8744042297
  0
LINE
  5
251
100
AcDbEntity
  8
0
100
AcDbLine
 62
7
  6
CONTINUOUS
 10
20.1579092394
 20
50.8692746703
 11
20.1579092394
 21
38.4421078816
  0
LINE
  5
252
100
AcDbEntity
  8
0
100
AcDbLine
 62
7
  6
CONTINUOUS
 10
20.8529393329
 20
51.4362458545
 11
20.8529393329
 21
54.0756129098
  0
LINE
  5
253
100
AcDbEntity
  8
0
100
AcDbLine
 62
7
  6
CONTINUOUS
 10
20.8529393329
 20
71.4433353143
 11
20.8529393329
 21
75.3661556228
  0
LINE
  5
254
100
AcDbEntity
  8
0
100
AcDbLine
 62
7
  6
CONTINUOUS
 10
22.9853342606
 20
36.6860574814
 11
22.9853342606
 21
33.9342620547
  0
LINE
  5
255
100
AcDbEntity
  8
0
100
AcDbLine
 62
7
  6
CONTINUOUS
 10
22.9853342606
 20
88.0438772378
 11
22.9853342606
 21
104.8883221032
  0
LINE
  5
256
100
AcDbEntity
  8
0
100
AcDbLine
 62
7
  6
CONTINUOUS
 10
23.3385494996
 20
36.4715607788
 11
23.3385494996
 21
33.4939391269
  0
LINE
  5
257
100
AcDbEntity
  8
0
100
AcDbLine
 62
7
  6
CONTINUOUS
 10
23.3385494996
 20
87.6035543101
 11
23.3385494996
 21
104.4479991755
  0
LINE
  5
258
100
AcDbEntity
  8
0
100
AcDbLine
 62
7
  6
CONTINUOUS
 10
23.0232519834
 20
87.9247234013
 11
12.989863704
 21
82.0654745952
  0
LINE
  5
259
100
AcDbEntity
  8
0
100
AcDbLine
 62
7
  6
CONTINUOUS
 10
13.0607310986
 20
82.0247425576
 11
11.8829083234
 21
81.3369227072
  0
LINE
  5
25A
100
AcDbEntity
  8
0
100
AcDbLine
 62
7
  6
CONTINUOUS
 10
30.2498920947
 20
93.0829944475
 11
30.6647177831
 21
93.3224927407
  0
LINE
  5
25B
100
AcDbEntity
  8
0
100
AcDbLine
 62
7
  6
CONTINUOUS
 10
31.6713964454
 20
45.5273847671
 11
31.4692607033
 21
45.5738962734
  0
LINE
  5
25C
100
AcDbEntity
  8
0
100
AcDbLine
 62
7
  6
CONTINUOUS
 10
31.4192358335
 20
46.6355211059
 11
23.6410288569
 21
51.1261694056
  0
LINE
  5
25D
100
AcDbEntity
  8
0
100
AcDbLine
 62
7
  6
CONTINUOUS
 10
24.1216906028
 20
52.1884411777
 11
19.0424523605
 21
55.1208744037
  0
LINE
  5
25E
100
AcDbEntity
  8
0
100
AcDbLine
 62
7
  6
CONTINUOUS
 10
13.6899351277
 20
58.7234755036
 11
13.5485131826
 21
58.8051236545
  0
LINE
  5
25F
100
AcDbEntity
  8
0
100
AcDbLine
 62
7
  6
CONTINUOUS
 10
18.8564247467
 20
55.7887369281
 11
24.322763499
 21
52.6328161744
  0
LINE
  5
260
100
AcDbEntity
  8
0
100
AcDbLine
 62
7
  6
CONTINUOUS
 10
13.5485131826
 20
59.7849265551
 11
13.6899351277
 21
59.7032784042
  0
LINE
  5
261
100
AcDbEntity
  8
0
100
AcDbLine
 62
7
  6
CONTINUOUS
 10
11.5978018675
 20
79.3686881656
 11
11.8050587603
 21
79.0171014609
  0
LINE
  5
262
100
AcDbEntity
  8
0
100
AcDbLine
 62
7
  6
CONTINUOUS
 10
28.0172993532
 20
46.182950811
 11
28.0172993532
 21
47.5667777984
  0
LINE
  5
263
100
AcDbEntity
  8
0
100
AcDbLine
 62
7
  6
CONTINUOUS
 10
28.0172993532
 20
61.6555988274
 11
28.0172993532
 21
70.1064483833
  0
LINE
  5
264
100
AcDbEntity
  8
0
100
AcDbLine
 62
7
  6
CONTINUOUS
 10
21.0297167642
 20
71.635811353
 11
19.9814487086
 21
70.4944525194
  0
LINE
  5
265
100
AcDbEntity
  8
0
100
AcDbLine
 62
7
  6
CONTINUOUS
 10
55.4303911606
 20
103.1615496153
 11
58.2588065095
 21
104.7945262308
  0
LINE
  5
266
100
AcDbEntity
  8
0
100
AcDbLine
 62
7
  6
CONTINUOUS
 10
59.3194622653
 20
105.4068924616
 11
62.5721399165
 21
107.2848155694
  0
LINE
  5
267
100
AcDbEntity
  8
0
100
AcDbLine
 62
7
  6
CONTINUOUS
 10
48.3593586764
 20
98.2626231682
 11
51.8948778625
 21
100.3038439376
  0
LINE
  5
268
100
AcDbEntity
  8
0
100
AcDbLine
 62
7
  6
CONTINUOUS
 10
51.4706208593
 20
99.3240610277
 11
48.9957574291
 21
97.8952064891
  0
LINE
  5
269
100
AcDbEntity
  8
0
100
AcDbLine
 62
7
  6
CONTINUOUS
 10
52.5312766151
 20
99.9364272585
 11
56.7738996384
 21
102.3858921817
  0
LINE
  5
26A
100
AcDbEntity
  8
0
100
AcDbLine
 62
7
  6
CONTINUOUS
 10
38.0480671655
 20
91.2137183664
 11
37.7818919999
 21
91.0600429803
  0
LINE
  5
26B
100
AcDbEntity
  8
0
100
AcDbLine
 62
7
  6
CONTINUOUS
 10
73.0019312305
 20
111.142714323
 11
64.4459929074
 21
106.2029705153
  0
LINE
  5
26C
100
AcDbEntity
  8
0
100
AcDbLine
 62
7
  6
CONTINUOUS
 10
48.8189799978
 20
97.1807642606
 11
43.5864116024
 21
94.159757522
  0
LINE
  5
26D
100
AcDbEntity
  8
0
100
AcDbLine
 62
7
  6
CONTINUOUS
 10
51.4706208593
 20
98.5075586106
 11
48.9957574291
 21
97.078704072
  0
LINE
  5
26E
100
AcDbEntity
  8
0
100
AcDbLine
 62
7
  6
CONTINUOUS
 10
57.8345642261
 20
101.7735310499
 11
53.5919412029
 21
99.3240661267
  0
LINE
  5
26F
100
AcDbEntity
  8
0
100
AcDbLine
 62
7
  6
CONTINUOUS
 10
50.0564220168
 20
97.2828453574
 11
52.531285447
 21
98.7116998959
  0
LINE
  5
270
100
AcDbEntity
  8
0
100
AcDbLine
 62
7
  6
CONTINUOUS
 10
54.2283399555
 20
98.9566494476
 11
50.6928207694
 21
96.9154286783
  0
LINE
  5
271
100
AcDbEntity
  8
0
100
AcDbLine
 62
7
  6
CONTINUOUS
 10
57.8345642261
 20
100.9570286328
 11
54.2283399555
 21
98.8749865075
  0
LINE
  5
272
100
AcDbEntity
  8
0
100
AcDbLine
 62
7
  6
CONTINUOUS
 10
45.0006310527
 20
93.3432760129
 11
50.2331994481
 21
96.3642827516
  0
LINE
  5
273
100
AcDbEntity
  8
0
100
AcDbLine
 62
7
  6
CONTINUOUS
 10
54.2283399555
 20
98.6708644306
 11
58.0113416574
 21
100.8549684442
  0
LINE
  5
274
100
AcDbEntity
  8
0
100
AcDbLine
 62
7
  6
CONTINUOUS
 10
65.8602123577
 20
105.3864890063
 11
74.4161506808
 21
110.326232814
  0
LINE
  5
275
100
AcDbEntity
  8
INTFCLR_75
100
AcDbLine
 62
7
420
3604575
  6
CONTINUOUS
 10
39.3425994468
 20
89.6356087887
 11
37.3294163794
 21
88.4733039408
  0
LINE
  5
276
100
AcDbEntity
  8
0
100
AcDbLine
 62
7
  6
CONTINUOUS
 10
66.3198214598
 20
105.1211395705
 11
59.1780727039
 21
100.9978736164
  0
LINE
  5
277
100
AcDbEntity
  8
0
100
AcDbLine
 62
7
  6
CONTINUOUS
 10
57.0567553043
 20
99.5470992348
 11
54.2283399555
 21
97.9141226194
  0
LINE
  5
278
100
AcDbEntity
  8
0
100
AcDbLine
 62
7
  6
CONTINUOUS
 10
50.6928207694
 20
95.87290185
 11
53.5565913101
 21
97.5262906732
  0
LINE
  5
279
100
AcDbEntity
  8
0
100
AcDbLine
 62
7
  6
CONTINUOUS
 10
33.0820168919
 20
45.5853635752
 11
31.6713964454
 21
45.5273847671
  0
LINE
  5
27A
100
AcDbEntity
  8
0
100
AcDbLine
 62
7
  6
CONTINUOUS
 10
29.9048349005
 20
39.4006467613
 11
29.9048349005
 21
32.9094525452
  0
LINE
  5
27B
100
AcDbEntity
  8
0
100
AcDbLine
 62
7
  6
CONTINUOUS
 10
30.2498920947
 20
93.0829944475
 11
30.2498920947
 21
94.7220028963
  0
LINE
  5
27C
100
AcDbEntity
  8
0
100
AcDbLine
 62
7
  6
CONTINUOUS
 10
31.3010365884
 20
68.328780641
 11
31.3010365884
 21
67.7186556069
  0
LINE
  5
27D
100
AcDbEntity
  8
0
100
AcDbLine
 62
7
  6
CONTINUOUS
 10
31.3010365884
 20
45.670954111
 11
31.3010365884
 21
44.4046086859
  0
LINE
  5
27E
100
AcDbEntity
  8
0
100
AcDbLine
 62
7
  6
CONTINUOUS
 10
32.1666949352
 20
44.9043937822
 11
32.1666949352
 21
45.5477423454
  0
LINE
  5
27F
100
AcDbEntity
  8
0
100
AcDbLine
 62
7
  6
CONTINUOUS
 10
32.1666949352
 20
68.2006438088
 11
32.1666949352
 21
68.8343035505
  0
LINE
  5
280
100
AcDbEntity
  8
0
100
AcDbLine
 62
7
  6
CONTINUOUS
 10
20.0108633556
 20
74.8744042297
 11
20.8529393329
 21
75.3661556228
  0
LINE
  5
281
100
AcDbEntity
  8
0
100
AcDbLine
 62
7
  6
CONTINUOUS
 10
19.7973613446
 20
73.4614515624
 11
19.6908159762
 21
73.3992533137
  0
LINE
  5
282
100
AcDbEntity
  8
0
100
AcDbLine
 62
7
  6
CONTINUOUS
 10
79.275844258
 20
111.7031210318
 11
76.9970958784
 21
110.3874928947
  0
LINE
  5
283
100
AcDbEntity
  8
0
100
AcDbLine
 62
7
  6
CONTINUOUS
 10
59.1780727039
 20
99.6676041978
 11
66.3198214598
 21
103.7908701519
  0
LINE
  5
284
100
AcDbEntity
  8
0
100
AcDbLine
 62
7
  6
CONTINUOUS
 10
39.7958733842
 20
87.5717442615
 11
40.0885806095
 21
87.7407378481
  0
LINE
  5
285
100
AcDbEntity
  8
0
100
AcDbLine
 62
7
  6
CONTINUOUS
 10
76.9970958784
 20
108.8188390017
 11
79.275844258
 21
110.1344671388
  0
LINE
  5
286
100
AcDbEntity
  8
0
100
AcDbLine
 62
7
  6
CONTINUOUS
 10
79.622448502
 20
108.5946483383
 11
81.0505544049
 21
109.4191607441
  0
LINE
  5
287
100
AcDbEntity
  8
0
100
AcDbLine
 62
7
  6
CONTINUOUS
 10
37.6775990319
 20
54.2472797022
 11
36.6876454167
 21
54.8188167586
  0
LINE
  5
288
100
AcDbEntity
  8
0
100
AcDbLine
 62
7
  6
CONTINUOUS
 10
36.5849349807
 20
55.0740622559
 11
36.6374822098
 21
55.0437247853
  0
LINE
  5
289
100
AcDbEntity
  8
0
100
AcDbLine
 62
7
  6
CONTINUOUS
 10
37.6776221566
 20
54.2473197592
 11
36.6027824436
 21
55.0702224587
  0
LINE
  5
28A
100
AcDbEntity
  8
0
100
AcDbLine
 62
7
  6
CONTINUOUS
 10
27.7596556852
 20
66.0038042197
 11
28.0172993532
 21
66.2843277698
  0
LINE
  5
28B
100
AcDbEntity
  8
0
100
AcDbLine
 62
7
  6
CONTINUOUS
 10
81.5862401143
 20
106.0526457327
 11
84.5366094225
 21
107.7560320792
  0
LINE
  5
28C
100
AcDbEntity
  8
0
100
AcDbLine
 62
7
  6
CONTINUOUS
 10
85.0323224347
 20
107.9639674466
 11
63.9510751245
 21
95.7927762894
  0
LINE
  5
28D
100
AcDbEntity
  8
0
100
AcDbLine
 62
7
  6
CONTINUOUS
 10
60.3032091274
 20
93.6866924456
 11
52.3545721942
 21
89.0975721659
  0
LINE
  5
28E
100
AcDbEntity
  8
0
100
AcDbLine
 62
7
  6
CONTINUOUS
 10
64.2692745008
 20
95.6090679499
 11
60.7691105066
 21
93.5882593882
  0
LINE
  5
28F
100
AcDbEntity
  8
0
100
AcDbLine
 62
7
  6
CONTINUOUS
 10
48.0103152654
 20
85.9427985009
 11
47.3278732894
 21
85.5487927942
  0
LINE
  5
290
100
AcDbEntity
  8
0
100
AcDbLine
 62
7
  6
CONTINUOUS
 10
19.8558735836
 20
70.1788750133
 11
27.6340805602
 21
65.6882267136
  0
LINE
  5
291
100
AcDbEntity
  8
0
100
AcDbLine
 62
7
  6
CONTINUOUS
 10
19.9814487086
 20
70.4944525194
 11
27.7596556852
 21
66.0038042197
  0
LINE
  5
292
100
AcDbEntity
  8
0
100
AcDbLine
 62
7
  6
CONTINUOUS
 10
37.329990639
 20
61.9824971028
 11
29.5517836624
 21
66.4731454025
  0
LINE
  5
293
100
AcDbEntity
  8
0
100
AcDbLine
 62
7
  6
CONTINUOUS
 10
21.0297167642
 20
71.635811353
 11
28.0172993532
 21
67.6016199298
  0
LINE
  5
294
100
AcDbEntity
  8
0
100
AcDbLine
 62
7
  6
CONTINUOUS
 10
29.8890447385
 20
66.9324754526
 11
37.6672517151
 21
62.4418271529
  0
LINE
  5
295
100
AcDbEntity
  8
0
100
AcDbLine
 62
7
  6
CONTINUOUS
 10
37.9647927253
 20
104.458057314
 11
37.9647927253
 21
110.5695996069
  0
LINE
  5
296
100
AcDbEntity
  8
0
100
AcDbLine
 62
7
  6
CONTINUOUS
 10
38.813377387
 20
103.7738733542
 11
38.813377387
 21
102.731346526
  0
LINE
  5
297
100
AcDbEntity
  8
0
100
AcDbLine
 62
7
  6
CONTINUOUS
 10
39.1034415744
 20
53.779158706
 11
39.1034415744
 21
46.4419813452
  0
LINE
  5
298
100
AcDbEntity
  8
0
100
AcDbLine
 62
7
  6
CONTINUOUS
 10
39.4497761396
 20
103.4064566752
 11
39.4497761396
 21
102.589954258
  0
LINE
  5
299
100
AcDbEntity
  8
0
100
AcDbLine
 62
7
  6
CONTINUOUS
 10
39.7958733842
 20
87.5717442615
 11
39.7958733842
 21
88.5994970847
  0
LINE
  5
29A
100
AcDbEntity
  8
0
100
AcDbLine
 62
7
  6
CONTINUOUS
 10
40.0911721244
 20
40.0899499711
 11
40.0911721244
 21
64.0184858017
  0
LINE
  5
29B
100
AcDbEntity
  8
0
100
AcDbLine
 62
7
  6
CONTINUOUS
 10
40.390388693
 20
33.2244710471
 11
40.390388693
 21
26.978227556
  0
LINE
  5
29C
100
AcDbEntity
  8
0
100
AcDbLine
 62
7
  6
CONTINUOUS
 10
40.5104407273
 20
102.7940955434
 11
40.5104407273
 21
101.9775931263
  0
LINE
  5
29D
100
AcDbEntity
  8
0
100
AcDbLine
 62
7
  6
CONTINUOUS
 10
41.1468394799
 20
102.4266788643
 11
41.1468394799
 21
101.384152036
  0
LINE
  5
29E
100
AcDbEntity
  8
0
100
AcDbLine
 62
7
  6
CONTINUOUS
 10
41.2245636903
 20
27.4598358405
 11
41.2245636903
 21
33.7060793315
  0
LINE
  5
29F
100
AcDbEntity
  8
0
100
AcDbLine
 62
7
  6
CONTINUOUS
 10
41.9025253585
 20
63.2033172499
 11
41.9025253585
 21
26.8469688756
  0
LINE
  5
2A0
100
AcDbEntity
  8
0
100
AcDbLine
 62
7
  6
CONTINUOUS
 10
41.9246395698
 20
104.8353112137
 11
41.9246395698
 21
104.0188087966
  0
LINE
  5
2A1
100
AcDbEntity
  8
0
100
AcDbLine
 62
7
  6
CONTINUOUS
 10
36.0321547248
 20
54.6240781054
 11
33.0820168919
 21
45.5853635752
  0
LINE
  5
2A2
100
AcDbEntity
  8
0
100
AcDbLine
 62
7
  6
CONTINUOUS
 10
28.0172993532
 20
70.1064483833
 11
28.9847011721
 21
70.6713869459
  0
LINE
  5
2A3
100
AcDbEntity
  8
INTFCLR_75
100
AcDbLine
 62
7
420
3604575
  6
CONTINUOUS
 10
49.4071102605
 20
84.423729976
 11
47.0710556095
 21
83.0750162452
  0
LINE
  5
2A4
100
AcDbEntity
  8
0
100
AcDbLine
 62
7
  6
CONTINUOUS
 10
49.4071140357
 20
84.42372369
 11
49.3418546737
 21
84.3860464047
  0
LINE
  5
2A5
100
AcDbEntity
  8
0
100
AcDbLine
 62
7
  6
CONTINUOUS
 10
54.7446073045
 20
87.1298492816
 11
87.9314723078
 21
106.2901803531
  0
LINE
  5
2A6
100
AcDbEntity
  8
0
100
AcDbLine
 62
7
  6
CONTINUOUS
 10
49.3418546737
 20
82.0604940755
 11
50.1903792784
 21
82.5503870601
  0
LINE
  5
2A7
100
AcDbEntity
  8
0
100
AcDbLine
 62
7
  6
CONTINUOUS
 10
13.5485034676
 20
61.1321266539
 11
14.106889086
 21
61.4545088167
  0
LINE
  5
2A8
100
AcDbEntity
  8
0
100
AcDbLine
 62
7
  6
CONTINUOUS
 10
14.3192525381
 20
60.7606278733
 11
14.7402616702
 21
61.0036961581
  0
LINE
  5
2A9
100
AcDbEntity
  8
0
100
AcDbLine
 62
7
  6
CONTINUOUS
 10
15.5062210091
 20
60.4661174483
 11
14.7451323552
 21
60.0267053321
  0
LINE
  5
2AA
100
AcDbEntity
  8
0
100
AcDbLine
 62
7
  6
CONTINUOUS
 10
15.3799171258
 20
60.1482667415
 11
15.698512297
 21
60.3322066514
  0
LINE
  5
2AB
100
AcDbEntity
  8
0
100
AcDbLine
 62
7
  6
CONTINUOUS
 10
40.0933951897
 20
63.792674788
 11
32.315188213
 21
68.2833230878
  0
LINE
  5
2AC
100
AcDbEntity
  8
0
100
AcDbLine
 62
7
  6
CONTINUOUS
 10
40.2984567744
 20
64.1395348735
 11
32.1666949352
 21
68.8343035505
  0
LINE
  5
2AD
100
AcDbEntity
  8
0
100
AcDbLine
 62
7
  6
CONTINUOUS
 10
28.9847011721
 20
70.6713869459
 11
20.8529393329
 21
75.3661556228
  0
LINE
  5
2AE
100
AcDbEntity
  8
0
100
AcDbLine
 62
7
  6
CONTINUOUS
 10
44.3855355005
 20
63.9395864769
 11
44.456246473
 21
63.8987610191
  0
LINE
  5
2AF
100
AcDbEntity
  8
0
100
AcDbLine
 62
7
  6
CONTINUOUS
 10
43.2188141691
 20
63.258248902
 11
43.2188141691
 21
26.8965792106
  0
LINE
  5
2B0
100
AcDbEntity
  8
0
100
AcDbLine
 62
7
  6
CONTINUOUS
 10
44.3856397819
 20
63.9396466835
 11
44.3855355005
 21
27.5701820645
  0
LINE
  5
2B1
100
AcDbEntity
  8
0
100
AcDbLine
 62
7
  6
CONTINUOUS
 10
44.456246473
 20
27.2844072639
 11
44.456246473
 21
63.8987610191
  0
LINE
  5
2B2
100
AcDbEntity
  8
0
100
AcDbLine
 62
7
  6
CONTINUOUS
 10
44.682358666
 20
104.4678996337
 11
44.682358666
 21
103.4253728054
  0
LINE
  5
2B3
100
AcDbEntity
  8
0
100
AcDbLine
 62
7
  6
CONTINUOUS
 10
45.8844098712
 20
108.6727998013
 11
45.8844098712
 21
107.3425303828
  0
LINE
  5
2B4
100
AcDbEntity
  8
0
100
AcDbLine
 62
7
  6
CONTINUOUS
 10
31.3010365884
 20
68.328780641
 11
32.1666949352
 21
68.8343035505
  0
LINE
  5
2B5
100
AcDbEntity
  8
0
100
AcDbLine
 62
7
  6
CONTINUOUS
 10
16.0233875056
 20
59.7032840131
 11
16.3427959401
 21
59.887693458
  0
LINE
  5
2B6
100
AcDbEntity
  8
0
100
AcDbLine
 62
7
  6
CONTINUOUS
 10
16.0233875056
 20
58.7234811126
 11
16.3476666252
 21
58.910702632
  0
LINE
  5
2B7
100
AcDbEntity
  8
0
100
AcDbLine
 62
7
  6
CONTINUOUS
 10
32.315188213
 20
68.2833230878
 11
29.8890447385
 21
66.9324754526
  0
LINE
  5
2B8
100
AcDbEntity
  8
0
100
AcDbLine
 62
7
  6
CONTINUOUS
 10
86.6491324396
 20
56.5596804765
 11
89.1027827547
 21
55.9921868168
  0
LINE
  5
2B9
100
AcDbEntity
  8
0
100
AcDbLine
 62
7
  6
CONTINUOUS
 10
47.5107740148
 20
98.946807128
 11
47.5107740148
 21
105.0583494209
  0
LINE
  5
2BA
100
AcDbEntity
  8
0
100
AcDbLine
 62
7
  6
CONTINUOUS
 10
48.2885829367
 20
107.284781236
 11
48.2885829367
 21
106.4682788188
  0
LINE
  5
2BB
100
AcDbEntity
  8
0
100
AcDbLine
 62
7
  6
CONTINUOUS
 10
48.3593586764
 20
98.2626231682
 11
48.3593586764
 21
97.2200963399
  0
LINE
  5
2BC
100
AcDbEntity
  8
0
100
AcDbLine
 62
7
  6
CONTINUOUS
 10
48.9957574291
 20
97.8952064891
 11
48.9957574291
 21
97.078704072
  0
LINE
  5
2BD
100
AcDbEntity
  8
0
100
AcDbLine
 62
7
  6
CONTINUOUS
 10
49.3418546737
 20
24.4154234261
 11
49.3418546737
 21
26.7409757554
  0
LINE
  5
2BE
100
AcDbEntity
  8
0
100
AcDbLine
 62
7
  6
CONTINUOUS
 10
49.3418546737
 20
82.0604940755
 11
49.3418546737
 21
84.3860464047
  0
LINE
  5
2BF
100
AcDbEntity
  8
0
100
AcDbLine
 62
7
  6
CONTINUOUS
 10
49.6320914144
 20
106.5091238024
 11
49.6320914144
 21
105.1788543838
  0
LINE
  5
2C0
100
AcDbEntity
  8
0
100
AcDbLine
 62
7
  6
CONTINUOUS
 10
50.0564220168
 20
97.2828453574
 11
50.0564220168
 21
96.4663429402
  0
LINE
  5
2C1
100
AcDbEntity
  8
0
100
AcDbLine
 62
7
  6
CONTINUOUS
 10
50.1903863439
 20
82.6140708472
 11
50.1903863439
 21
81.5706051701
  0
LINE
  5
2C2
100
AcDbEntity
  8
0
100
AcDbLine
 62
7
  6
CONTINUOUS
 10
50.1903863439
 20
24.9472244537
 11
50.1903863439
 21
23.9255345207
  0
LINE
  5
2C3
100
AcDbEntity
  8
0
100
AcDbLine
 62
7
  6
CONTINUOUS
 10
50.6928207694
 20
96.9154286783
 11
50.6928207694
 21
95.87290185
  0
LINE
  5
2C4
100
AcDbEntity
  8
0
100
AcDbLine
 62
7
  6
CONTINUOUS
 10
40.0911721244
 20
64.0184858017
 11
40.2984567744
 21
64.1395348735
  0
LINE
  5
2C5
100
AcDbEntity
  8
0
100
AcDbLine
 62
7
  6
CONTINUOUS
 10
51.4706208593
 20
99.3240610277
 11
51.4706208593
 21
98.5075586106
  0
LINE
  5
2C6
100
AcDbEntity
  8
0
100
AcDbLine
 62
7
  6
CONTINUOUS
 10
52.4605067633
 20
108.1421004179
 11
52.4605067633
 21
106.8118309993
  0
LINE
  5
2C7
100
AcDbEntity
  8
0
100
AcDbLine
 62
7
  6
CONTINUOUS
 10
53.6115582417
 20
32.509307769
 11
53.6115582417
 21
16.0616788042
  0
LINE
  5
2C8
100
AcDbEntity
  8
0
100
AcDbLine
 62
7
  6
CONTINUOUS
 10
53.6115582417
 20
70.1712939874
 11
53.6115582417
 21
87.0157388528
  0
LINE
  5
2C9
100
AcDbEntity
  8
0
100
AcDbLine
 62
7
  6
CONTINUOUS
 10
54.2283399555
 20
98.9566494476
 11
54.2283399555
 21
97.9141226194
  0
LINE
  5
2CA
100
AcDbEntity
  8
0
100
AcDbLine
 62
7
  6
CONTINUOUS
 10
54.7446073045
 20
87.1298492816
 11
54.7446073045
 21
70.2854044162
  0
LINE
  5
2CB
100
AcDbEntity
  8
0
100
AcDbLine
 62
7
  6
CONTINUOUS
 10
54.7446073045
 20
33.1559344236
 11
54.7446073045
 21
16.175789233
  0
LINE
  5
2CC
100
AcDbEntity
  8
0
100
AcDbLine
 62
7
  6
CONTINUOUS
 10
55.1830116836
 20
70.1629246797
 11
55.1830116836
 21
70.5385157916
  0
LINE
  5
2CD
100
AcDbEntity
  8
0
100
AcDbLine
 62
7
  6
CONTINUOUS
 10
43.2188141691
 20
63.258248902
 11
44.3856397819
 21
63.9396466835
  0
LINE
  5
2CE
100
AcDbEntity
  8
0
100
AcDbLine
 62
7
  6
CONTINUOUS
 10
44.456246473
 20
63.8987610191
 11
55.1830116836
 21
70.1629246797
  0
LINE
  5
2CF
100
AcDbEntity
  8
0
100
AcDbLine
 62
7
  6
CONTINUOUS
 10
19.9069499526
 20
51.4795201228
 11
19.8004045842
 21
51.417321874
  0
LINE
  5
2D0
100
AcDbEntity
  8
0
100
AcDbLine
 62
7
  6
CONTINUOUS
 10
20.8529393329
 20
51.4362458545
 11
20.1297932626
 21
51.0187397684
  0
LINE
  5
2D1
100
AcDbEntity
  8
0
100
AcDbLine
 62
7
  6
CONTINUOUS
 10
20.2659485144
 20
50.9316508025
 11
20.1579092394
 21
50.8692746703
  0
LINE
  5
2D2
100
AcDbEntity
  8
0
100
AcDbLine
 62
7
  6
CONTINUOUS
 10
55.1830116836
 20
70.5385157916
 11
54.7446073045
 21
70.2854044162
  0
LINE
  5
2D3
100
AcDbEntity
  8
0
100
AcDbLine
 62
7
  6
CONTINUOUS
 10
85.0510777675
 20
85.3495716481
 11
89.1239958698
 21
87.7020903338
  0
LINE
  5
2D4
100
AcDbEntity
  8
0
100
AcDbLine
 62
7
  6
CONTINUOUS
 10
86.7198228043
 20
85.7414166295
 11
85.0510777675
 21
84.7779719843
  0
LINE
  5
2D5
100
AcDbEntity
  8
0
100
AcDbLine
 62
7
  6
CONTINUOUS
 10
37.6672517151
 20
62.4418271528
 11
40.0933951897
 21
63.792674788
  0
LINE
  5
2D6
100
AcDbEntity
  8
0
100
AcDbLine
 62
7
  6
CONTINUOUS
 10
55.1830116836
 20
70.1629246797
 11
54.8577355891
 21
70.3507186719
  0
LINE
  5
2D7
100
AcDbEntity
  8
0
100
AcDbLine
 62
7
  6
CONTINUOUS
 10
55.4303911606
 20
103.1615496153
 11
55.4303911606
 21
101.8312801967
  0
LINE
  5
2D8
100
AcDbEntity
  8
0
100
AcDbLine
 62
7
  6
CONTINUOUS
 10
56.7738401703
 20
110.6323897565
 11
56.7738401703
 21
109.3021203379
  0
LINE
  5
2D9
100
AcDbEntity
  8
0
100
AcDbLine
 62
7
  6
CONTINUOUS
 10
57.0567553043
 20
93.4303585292
 11
57.0567553043
 21
99.5470992348
  0
LINE
  5
2DA
100
AcDbEntity
  8
0
100
AcDbLine
 62
7
  6
CONTINUOUS
 10
57.8345642261
 20
101.7735310499
 11
57.8345642261
 21
100.9570286328
  0
LINE
  5
2DB
100
AcDbEntity
  8
0
100
AcDbLine
 62
7
  6
CONTINUOUS
 10
59.1780727039
 20
100.9978736164
 11
59.1780727039
 21
99.6676041978
  0
LINE
  5
2DC
100
AcDbEntity
  8
0
100
AcDbLine
 62
7
  6
CONTINUOUS
 10
85.0510777675
 20
82.7367639133
 11
85.2349247652
 21
82.8429073933
  0
LINE
  5
2DD
100
AcDbEntity
  8
0
100
AcDbLine
 62
7
  6
CONTINUOUS
 10
86.1541597535
 20
55.4574071517
 11
85.2349247652
 21
55.9881157134
  0
LINE
  5
2DE
100
AcDbEntity
  8
0
100
AcDbLine
 62
7
  6
CONTINUOUS
 10
86.1541597535
 20
55.9473086019
 11
85.2349247652
 21
56.4780171637
  0
LINE
  5
2DF
100
AcDbEntity
  8
0
100
AcDbLine
 62
7
  6
CONTINUOUS
 10
86.4370012884
 20
56.4372072303
 11
85.2349247652
 21
57.1312107342
  0
LINE
  5
2E0
100
AcDbEntity
  8
0
100
AcDbLine
 62
7
  6
CONTINUOUS
 10
37.3295552862
 20
85.0114138896
 11
37.314850857
 21
85.0199043881
  0
LINE
  5
2E1
100
AcDbEntity
  8
0
100
AcDbLine
 62
7
  6
CONTINUOUS
 10
86.6491324396
 20
56.5596804765
 11
85.2349247652
 21
57.3761551869
  0
LINE
  5
2E2
100
AcDbEntity
  8
0
100
AcDbLine
 62
7
  6
CONTINUOUS
 10
89.1027827547
 20
55.9921868168
 11
85.2349247652
 21
58.2252451497
  0
LINE
  5
2E3
100
AcDbEntity
  8
0
100
AcDbLine
 62
7
  6
CONTINUOUS
 10
61.884190403
 20
117.0744434216
 11
61.884190403
 21
118.5931320605
  0
LINE
  5
2E4
100
AcDbEntity
  8
0
100
AcDbLine
 62
7
  6
CONTINUOUS
 10
62.1477969495
 20
118.2257123221
 11
62.1477969495
 21
116.8461795796
  0
LINE
  5
2E5
100
AcDbEntity
  8
0
100
AcDbLine
 62
7
  6
CONTINUOUS
 10
63.9510751245
 20
95.4285572551
 11
63.9510751245
 21
95.7927762894
  0
LINE
  5
2E6
100
AcDbEntity
  8
0
100
AcDbLine
 62
7
  6
CONTINUOUS
 10
32.1666949352
 20
44.9043937822
 11
31.3010365884
 21
44.4046086859
  0
LINE
  5
2E7
100
AcDbEntity
  8
0
100
AcDbLine
 62
7
  6
CONTINUOUS
 10
49.3418546737
 20
84.3860464047
 11
47.3278732894
 21
85.5487927942
  0
LINE
  5
2E8
100
AcDbEntity
  8
0
100
AcDbLine
 62
7
  6
CONTINUOUS
 10
38.6077218724
 20
90.5832606673
 11
37.7818919999
 21
91.0600429803
  0
LINE
  5
2E9
100
AcDbEntity
  8
0
100
AcDbLine
 62
7
  6
CONTINUOUS
 10
29.7872486058
 20
95.675648077
 11
28.2359107104
 21
96.5712931663
  0
LINE
  5
2EA
100
AcDbEntity
  8
0
100
AcDbLine
 62
7
  6
CONTINUOUS
 10
66.3198214598
 20
105.1211395705
 11
66.3198214598
 21
103.7908701519
  0
LINE
  5
2EB
100
AcDbEntity
  8
0
100
AcDbLine
 62
7
  6
CONTINUOUS
 10
85.5364191606
 20
76.6434499926
 11
88.0260343929
 21
76.0676381703
  0
LINE
  5
2EC
100
AcDbEntity
  8
0
100
AcDbLine
 62
7
  6
CONTINUOUS
 10
25.9086684737
 20
104.365776385
 11
34.0404303129
 21
99.671007708
  0
LINE
  5
2ED
100
AcDbEntity
  8
0
100
AcDbLine
 62
7
  6
CONTINUOUS
 10
35.4546497632
 20
98.8545261989
 11
43.5864116024
 21
94.159757522
  0
LINE
  5
2EE
100
AcDbEntity
  8
0
100
AcDbLine
 62
7
  6
CONTINUOUS
 10
45.0006310527
 20
93.3432760129
 11
52.3545721942
 21
89.0975721659
  0
LINE
  5
2EF
100
AcDbEntity
  8
0
100
AcDbLine
 62
7
  6
CONTINUOUS
 10
59.9999019599
 20
121.921986261
 11
60.4647426843
 21
118.3711296231
  0
LINE
  5
2F0
100
AcDbEntity
  8
0
100
AcDbLine
 62
7
  6
CONTINUOUS
 10
88.0260343929
 20
76.0676381703
 11
88.2147696675
 21
75.9936655007
  0
LINE
  5
2F1
100
AcDbEntity
  8
0
100
AcDbLine
 62
7
  6
CONTINUOUS
 10
85.442144027
 20
76.6805970485
 11
85.5364191606
 21
76.6434499926
  0
LINE
  5
2F2
100
AcDbEntity
  8
0
100
AcDbLine
 62
7
  6
CONTINUOUS
 10
50.2331994481
 20
96.3642827516
 11
50.0564220168
 21
96.4663429402
  0
LINE
  5
2F3
100
AcDbEntity
  8
0
100
AcDbLine
 62
7
  6
CONTINUOUS
 10
48.9957574291
 20
97.078704072
 11
48.8189799978
 21
97.1807642606
  0
LINE
  5
2F4
100
AcDbEntity
  8
0
100
AcDbLine
 62
7
  6
CONTINUOUS
 10
40.6872181586
 20
101.8755329376
 11
40.5104407273
 21
101.9775931263
  0
LINE
  5
2F5
100
AcDbEntity
  8
0
100
AcDbLine
 62
7
  6
CONTINUOUS
 10
39.4497761396
 20
102.589954258
 11
39.2729987083
 21
102.6920144467
  0
LINE
  5
2F6
100
AcDbEntity
  8
0
100
AcDbLine
 62
7
  6
CONTINUOUS
 10
75.7243036723
 20
109.0079570928
 11
75.7243036723
 21
110.3874898353
  0
LINE
  5
2F7
100
AcDbEntity
  8
0
100
AcDbLine
 62
7
  6
CONTINUOUS
 10
76.9970958784
 20
110.3874928947
 11
76.9970958784
 21
108.8188390017
  0
LINE
  5
2F8
100
AcDbEntity
  8
0
100
AcDbLine
 62
7
  6
CONTINUOUS
 10
79.4248785462
 20
110.373211641
 11
79.4233316509
 21
110.3422826268
  0
LINE
  5
2F9
100
AcDbEntity
  8
0
100
AcDbLine
 62
7
  6
CONTINUOUS
 10
79.4248686263
 20
111.9135354553
 11
79.4233316509
 21
111.8882725328
  0
LINE
  5
2FA
100
AcDbEntity
  8
0
100
AcDbLine
 62
7
  6
CONTINUOUS
 10
40.2843222342
 20
33.4081825228
 11
41.1052540106
 21
33.8821448757
  0
LINE
  5
2FB
100
AcDbEntity
  8
0
100
AcDbLine
 62
7
  6
CONTINUOUS
 10
41.2245636903
 20
33.7060793315
 11
40.390388693
 21
33.2244710471
  0
LINE
  5
2FC
100
AcDbEntity
  8
0
100
AcDbLine
 62
7
  6
CONTINUOUS
 10
60.3032091274
 20
93.6866924456
 11
60.7691105066
 21
93.5882593882
  0
LINE
  5
2FD
100
AcDbEntity
  8
0
100
AcDbLine
 62
7
  6
CONTINUOUS
 10
85.3698379163
 20
76.7396235432
 11
85.5364191606
 21
76.6434499926
  0
LINE
  5
2FE
100
AcDbEntity
  8
0
100
AcDbLine
 62
7
  6
CONTINUOUS
 10
50.6928207694
 20
96.9154286783
 11
50.0564220168
 21
97.2828453574
  0
LINE
  5
2FF
100
AcDbEntity
  8
0
100
AcDbLine
 62
7
  6
CONTINUOUS
 10
48.9957574291
 20
97.8952064891
 11
48.3593586764
 21
98.2626231682
  0
LINE
  5
300
100
AcDbEntity
  8
0
100
AcDbLine
 62
7
  6
CONTINUOUS
 10
41.1468394799
 20
102.4266788643
 11
40.5104407273
 21
102.7940955434
  0
LINE
  5
301
100
AcDbEntity
  8
0
100
AcDbLine
 62
7
  6
CONTINUOUS
 10
39.4497761396
 20
103.4064566752
 11
38.813377387
 21
103.7738733542
  0
LINE
  5
302
100
AcDbEntity
  8
0
100
AcDbLine
 62
7
  6
CONTINUOUS
 10
88.0260343929
 20
76.0676381703
 11
85.2349247652
 21
77.6790496102
  0
LINE
  5
303
100
AcDbEntity
  8
0
100
AcDbLine
 62
7
  6
CONTINUOUS
 10
85.2349247652
 20
77.7141075737
 11
88.2147985423
 21
75.9937155668
  0
LINE
  5
304
100
AcDbEntity
  8
0
100
AcDbLine
 62
7
  6
CONTINUOUS
 10
51.8241635027
 20
98.3034452879
 11
51.4706208593
 21
98.5075586106
  0
LINE
  5
305
100
AcDbEntity
  8
0
100
AcDbLine
 62
7
  6
CONTINUOUS
 10
42.2781822132
 20
103.8146954739
 11
41.9246395698
 21
104.0188087966
  0
LINE
  5
306
100
AcDbEntity
  8
0
100
AcDbLine
 62
7
  6
CONTINUOUS
 10
52.531285447
 20
98.7116998959
 11
51.4706208593
 21
99.3240610277
  0
LINE
  5
307
100
AcDbEntity
  8
0
100
AcDbLine
 62
7
  6
CONTINUOUS
 10
42.9853041576
 20
104.2229500819
 11
41.9246395698
 21
104.8353112137
  0
LINE
  5
308
100
AcDbEntity
  8
0
100
AcDbLine
 62
7
  6
CONTINUOUS
 10
42.348896573
 20
105.8150941236
 11
42.9852953257
 21
105.4476774445
  0
LINE
  5
309
100
AcDbEntity
  8
0
100
AcDbLine
 62
7
  6
CONTINUOUS
 10
44.0459599134
 20
104.8353163127
 11
44.682358666
 21
104.4678996337
  0
LINE
  5
30A
100
AcDbEntity
  8
0
100
AcDbLine
 62
7
  6
CONTINUOUS
 10
51.8948778625
 20
100.3038439376
 11
52.5312766151
 21
99.9364272585
  0
LINE
  5
30B
100
AcDbEntity
  8
0
100
AcDbLine
 62
7
  6
CONTINUOUS
 10
53.5919412029
 20
99.3240661267
 11
54.2283399555
 21
98.9566494476
  0
LINE
  5
30C
100
AcDbEntity
  8
0
100
AcDbLine
 62
7
  6
CONTINUOUS
 10
79.275844258
 20
110.1344671388
 11
79.275844258
 21
111.7031210318
  0
LINE
  5
30D
100
AcDbEntity
  8
0
100
AcDbLine
 62
7
  6
CONTINUOUS
 10
79.4233316509
 20
111.8882725328
 11
79.4233316509
 21
110.3422826268
  0
LINE
  5
30E
100
AcDbEntity
  8
0
100
AcDbLine
 62
7
  6
CONTINUOUS
 10
79.4249721432
 20
110.373200774
 11
79.4249721432
 21
111.9135354514
  0
LINE
  5
30F
100
AcDbEntity
  8
0
100
AcDbLine
 62
7
  6
CONTINUOUS
 10
86.4370012884
 20
56.4372072303
 11
86.6491324396
 21
56.5596804765
  0
LINE
  5
310
100
AcDbEntity
  8
0
100
AcDbLine
 62
7
  6
CONTINUOUS
 10
85.2349247652
 20
54.9266897516
 11
86.1541597535
 21
55.4574071517
  0
LINE
  5
311
100
AcDbEntity
  8
0
100
AcDbLine
 62
7
  6
CONTINUOUS
 10
85.2349247652
 20
82.8429073933
 11
85.0510777675
 21
82.9490491056
  0
LINE
  5
312
100
AcDbEntity
  8
0
100
AcDbLine
 62
7
  6
CONTINUOUS
 10
63.9510751245
 20
95.7927762894
 11
64.2692745008
 21
95.6090679499
  0
LINE
  5
313
100
AcDbEntity
  8
0
100
AcDbLine
 62
7
  6
CONTINUOUS
 10
58.0113416574
 20
100.8549684442
 11
57.8345642261
 21
100.9570286328
  0
LINE
  5
314
100
AcDbEntity
  8
0
100
AcDbLine
 62
7
  6
CONTINUOUS
 10
48.4653603679
 20
106.3662186302
 11
48.2885829367
 21
106.4682788188
  0
LINE
  5
315
100
AcDbEntity
  8
0
100
AcDbLine
 62
7
  6
CONTINUOUS
 10
59.1780727039
 20
100.9978736164
 11
57.8345642261
 21
101.7735310499
  0
LINE
  5
316
100
AcDbEntity
  8
0
100
AcDbLine
 62
7
  6
CONTINUOUS
 10
56.7738996384
 20
102.3858921817
 11
55.4303911606
 21
103.1615496153
  0
LINE
  5
317
100
AcDbEntity
  8
0
100
AcDbLine
 62
7
  6
CONTINUOUS
 10
49.6320914144
 20
106.5091238024
 11
48.2885829367
 21
107.284781236
  0
LINE
  5
318
100
AcDbEntity
  8
0
100
AcDbLine
 62
7
  6
CONTINUOUS
 10
47.2279183489
 20
107.8971423677
 11
45.8844098712
 21
108.6727998013
  0
LINE
  5
319
100
AcDbEntity
  8
0
100
AcDbLine
 62
7
  6
CONTINUOUS
 10
85.0510777675
 20
85.3495716481
 11
85.0510777675
 21
82.7367639133
  0
LINE
  5
31A
100
AcDbEntity
  8
0
100
AcDbLine
 62
7
  6
CONTINUOUS
 10
85.2349247652
 20
82.8429073933
 11
85.2349247652
 21
77.1381974422
  0
LINE
  5
31B
100
AcDbEntity
  8
0
100
AcDbLine
 62
7
  6
CONTINUOUS
 10
85.2349247652
 20
61.2954086052
 11
85.2349247652
 21
54.9266897516
  0
LINE
  5
31C
100
AcDbEntity
  8
0
100
AcDbLine
 62
7
  6
CONTINUOUS
 10
86.1541597535
 20
55.4574071517
 11
86.1541597535
 21
55.9473086019
  0
LINE
  5
31D
100
AcDbEntity
  8
0
100
AcDbLine
 62
7
  6
CONTINUOUS
 10
88.0259717075
 20
65.5885257145
 11
85.5364505033
 21
62.1383331563
  0
LINE
  5
31E
100
AcDbEntity
  8
0
100
AcDbLine
 62
7
  6
CONTINUOUS
 10
40.390388693
 20
26.978227556
 11
41.2245636903
 21
27.4598358405
  0
LINE
  5
31F
100
AcDbEntity
  8
0
100
AcDbLine
 62
7
  6
CONTINUOUS
 10
41.1896077014
 20
27.3889225352
 11
40.3593218985
 21
26.9095596648
  0
LINE
  5
320
100
AcDbEntity
  8
0
100
AcDbLine
 62
7
  6
CONTINUOUS
 10
43.2188141691
 20
26.8965792106
 11
44.3855355005
 21
27.5701820645
  0
LINE
  5
321
100
AcDbEntity
  8
0
100
AcDbLine
 62
7
  6
CONTINUOUS
 10
48.0040151422
 20
28.2940904954
 11
47.3278732894
 21
27.9037221449
  0
LINE
  5
322
100
AcDbEntity
  8
0
100
AcDbLine
 62
7
  6
CONTINUOUS
 10
54.7446073045
 20
33.1559344236
 11
44.456246473
 21
27.2844072639
  0
LINE
  5
323
100
AcDbEntity
  8
0
100
AcDbLine
 62
7
  6
CONTINUOUS
 10
56.8445626207
 20
103.9780170148
 11
53.507285569
 21
105.9047512304
  0
LINE
  5
324
100
AcDbEntity
  8
0
100
AcDbLine
 62
7
  6
CONTINUOUS
 10
58.2588065095
 20
104.7945262308
 11
52.4605067633
 21
108.1421004179
  0
LINE
  5
325
100
AcDbEntity
  8
0
100
AcDbLine
 62
7
  6
CONTINUOUS
 10
53.5211625191
 20
108.7544666487
 11
59.3194622653
 21
105.4068924616
  0
LINE
  5
326
100
AcDbEntity
  8
0
100
AcDbLine
 62
7
  6
CONTINUOUS
 10
79.1437834649
 20
107.3402072677
 11
79.0862253944
 21
107.6533329233
  0
LINE
  5
327
100
AcDbEntity
  8
0
100
AcDbLine
 62
7
  6
CONTINUOUS
 10
81.0505544049
 20
109.4191607441
 11
81.4876325329
 21
106.0803788976
  0
LINE
  5
328
100
AcDbEntity
  8
0
100
AcDbLine
 62
7
  6
CONTINUOUS
 10
86.7198228043
 20
86.3140517277
 11
86.7198228043
 21
85.7414166295
  0
LINE
  5
329
100
AcDbEntity
  8
0
100
AcDbLine
 62
7
  6
CONTINUOUS
 10
88.6290231838
 20
75.0781432711
 11
88.6290231838
 21
67.2743748167
  0
LINE
  5
32A
100
AcDbEntity
  8
0
100
AcDbLine
 62
7
  6
CONTINUOUS
 10
89.1027827547
 20
55.9921868168
 11
89.1027827547
 21
36.0123726696
  0
LINE
  5
32B
100
AcDbEntity
  8
0
100
AcDbLine
 62
7
  6
CONTINUOUS
 10
89.1239958698
 20
97.1806510373
 11
89.1239958698
 21
87.7020903338
  0
LINE
  5
32C
100
AcDbEntity
  8
0
100
AcDbLine
 62
7
  6
CONTINUOUS
 10
86.1541597535
 20
55.9473086019
 11
86.4370012884
 21
56.4372072303
  0
LINE
  5
32D
100
AcDbEntity
  8
INTFCLR_75
100
AcDbLine
 62
7
420
3604575
  6
CONTINUOUS
 10
49.4021536776
 20
26.7757976593
 11
47.0710556095
 21
25.4299455958
  0
LINE
  5
32E
100
AcDbEntity
  8
0
100
AcDbLine
 62
7
  6
CONTINUOUS
 10
49.4021575254
 20
26.7757914152
 11
49.3418546737
 21
26.7409757554
  0
LINE
  5
32F
100
AcDbEntity
  8
0
100
AcDbLine
 62
7
  6
CONTINUOUS
 10
49.3418546737
 20
24.4154234261
 11
50.1903792784
 21
24.9053164108
  0
LINE
  5
330
100
AcDbEntity
  8
0
100
AcDbLine
 62
7
  6
CONTINUOUS
 10
53.026158627
 20
112.7960657554
 11
56.7738401703
 21
110.6323897565
  0
LINE
  5
331
100
AcDbEntity
  8
0
100
AcDbLine
 62
7
  6
CONTINUOUS
 10
62.5721399165
 20
107.2848155694
 11
66.3198214598
 21
105.1211395705
  0
LINE
  5
332
100
AcDbEntity
  8
0
100
AcDbLine
 62
7
  6
CONTINUOUS
 10
87.9314723078
 20
106.2901803531
 11
89.1239958698
 21
97.1806510373
  0
LINE
  5
333
100
AcDbEntity
  8
0
100
AcDbLine
 62
7
  6
CONTINUOUS
 10
54.7446073045
 20
16.175789233
 11
89.1027827547
 21
36.0123726696
  0
LINE
  5
334
100
AcDbEntity
  8
0
100
AcDbLine
 62
7
  6
CONTINUOUS
 10
70.7884213783
 20
111.604153504
 11
67.0836792435
 21
113.7430389848
  0
LINE
  5
335
100
AcDbEntity
  8
0
100
AcDbLine
 62
7
  6
CONTINUOUS
 10
74.4161506808
 20
110.326232814
 11
73.0019312305
 21
111.142714323
  0
LINE
  5
336
100
AcDbEntity
  8
0
100
AcDbLine
 62
7
  6
CONTINUOUS
 10
64.8701693913
 20
115.837483
 11
63.455949941
 21
116.6539645091
  0
LINE
  5
337
100
AcDbEntity
  8
0
100
AcDbLine
 62
7
  6
CONTINUOUS
 10
75.7243036723
 20
110.3874898353
 11
62.1477969495
 21
118.2257123221
  0
LINE
  5
338
100
AcDbEntity
  8
0
100
AcDbLine
 62
7
  6
CONTINUOUS
 10
79.622448502
 20
108.5946483383
 11
79.6334607005
 21
108.5873965332
  0
LINE
  5
339
100
AcDbEntity
  8
0
100
AcDbLine
 62
7
  6
CONTINUOUS
 10
87.9314723078
 20
106.2901803531
 11
85.0323224347
 21
107.9639674466
  0
LINE
  5
33A
100
AcDbEntity
  8
0
100
AcDbLine
 62
7
  6
CONTINUOUS
 10
58.5864187142
 20
123.2321716656
 11
56.4650895387
 21
124.4568939292
  0
LINE
  5
33B
100
AcDbEntity
  8
0
100
AcDbLine
 62
7
  6
CONTINUOUS
 10
65.1031290697
 20
120.3098420178
 11
79.3341485875
 21
112.0937449413
  0
ARC
  5
33C
100
AcDbEntity
  8
0
100
AcDbCircle
 62
7
  6
CONTINUOUS
 10
237.46064811
 20
431.7583467366
 40
400.3280923309
100
AcDbArc
 50
240.005444137
 51
240.5638042009
  0
ARC
  5
33D
100
AcDbEntity
  8
0
100
AcDbCircle
 62
7
  6
CONTINUOUS
 10
224.105970185
 20
408.5789948175
 40
373.5768442128
100
AcDbArc
 50
239.4175201504
 51
240.0021246156
  0
ARC
  5
33E
100
AcDbEntity
  8
0
100
AcDbCircle
 62
7
  6
CONTINUOUS
 10
116.8737218183
 20
195.7292382651
 40
184.7752721897
100
AcDbArc
 50
245.7888918504
 51
246.0623303321
  0
ARC
  5
33F
100
AcDbEntity
  8
0
100
AcDbCircle
 62
7
  6
CONTINUOUS
 10
116.0781105226
 20
230.5843908224
 40
183.0798064301
100
AcDbArc
 50
245.4776500633
 51
246.0991983565
  0
ARC
  5
340
100
AcDbEntity
  8
0
100
AcDbCircle
 62
7
  6
CONTINUOUS
 10
108.3344364668
 20
178.1725422994
 40
165.2487846977
100
AcDbArc
 50
241.6304697079
 51
242.8688946586
  0
ARC
  5
341
100
AcDbEntity
  8
0
100
AcDbCircle
 62
7
  6
CONTINUOUS
 10
106.7440390062
 20
211.6100623584
 40
161.9295288216
100
AcDbArc
 50
240.9102524874
 51
242.2315019631
  0
ARC
  5
342
100
AcDbEntity
  8
0
100
AcDbCircle
 62
7
  6
CONTINUOUS
 10
104.9347348297
 20
171.924089502
 40
158.1353742093
100
AcDbArc
 50
240.0039965664
 51
241.6385893834
  0
ARC
  5
343
100
AcDbEntity
  8
0
100
AcDbCircle
 62
7
  6
CONTINUOUS
 10
116.0189916758
 20
221.3505497364
 40
157.4178749785
100
AcDbArc
 50
240.0081955693
 51
241.422158186
  0
ARC
  5
344
100
AcDbEntity
  8
0
100
AcDbCircle
 62
7
  6
CONTINUOUS
 10
104.5556570541
 20
183.6924701284
 40
157.3753096978
100
AcDbArc
 50
240.0036146267
 51
240.8995097542
  0
ARC
  5
345
100
AcDbEntity
  8
0
100
AcDbCircle
 62
7
  6
CONTINUOUS
 10
112.6788312963
 20
215.5376170751
 40
150.7136452771
100
AcDbArc
 50
238.547718399
 51
239.9968578573
  0
ARC
  5
346
100
AcDbEntity
  8
0
100
AcDbCircle
 62
7
  6
CONTINUOUS
 10
92.5499977739
 20
171.0326517136
 40
134.7617874509
100
AcDbArc
 50
235.2304882245
 51
235.5632842097
  0
ARC
  5
347
100
AcDbEntity
  8
0
100
AcDbCircle
 62
7
  6
CONTINUOUS
 10
91.5686552688
 20
169.622348258
 40
133.043653163
100
AcDbArc
 50
234.7273793729
 51
235.2312907736
  0
ARC
  5
348
100
AcDbEntity
  8
0
100
AcDbCircle
 62
7
  6
CONTINUOUS
 10
90.6468836419
 20
168.3196040762
 40
131.447781843
100
AcDbArc
 50
234.3886229603
 51
234.7274902699
  0
ARC
  5
349
100
AcDbEntity
  8
0
100
AcDbCircle
 62
7
  6
CONTINUOUS
 10
-23.80464401
 20
62.4037266007
 40
51.5525500504
100
AcDbArc
 50
358.032076472
 51
359.9848790106
  0
ARC
  5
34A
100
AcDbEntity
  8
0
100
AcDbCircle
 62
7
  6
CONTINUOUS
 10
65.542806456
 20
110.2237313091
 40
20.6511108915
100
AcDbArc
 50
222.1538466398
 51
224.0206862417
  0
ARC
  5
34B
100
AcDbEntity
  8
0
100
AcDbCircle
 62
7
  6
CONTINUOUS
 10
55.9968251664
 20
115.7349814951
 40
20.6511108914
100
AcDbArc
 50
222.1538466398
 51
224.0206862417
  0
ARC
  5
34C
100
AcDbEntity
  8
0
100
AcDbCircle
 62
7
  6
CONTINUOUS
 10
72.7762505254
 20
114.1963925511
 40
19.8996515316
100
AcDbArc
 50
222.1006519737
 51
226.8950004068
  0
ARC
  5
34D
100
AcDbEntity
  8
0
100
AcDbCircle
 62
7
  6
CONTINUOUS
 10
63.230269236
 20
119.7076427371
 40
19.8996515316
100
AcDbArc
 50
222.1006519737
 51
226.8950004068
  0
ARC
  5
34E
100
AcDbEntity
  8
0
100
AcDbCircle
 62
7
  6
CONTINUOUS
 10
64.599008274
 20
119.7622425622
 40
17.7498275646
100
AcDbArc
 50
226.8535195334
 51
231.3257495286
  0
ARC
  5
34F
100
AcDbEntity
  8
0
100
AcDbCircle
 62
7
  6
CONTINUOUS
 10
47.5348309275
 20
114.8535714822
 40
7.6902293893
100
AcDbArc
 50
257.6071924888
 51
259.7936828741
  0
ARC
  5
350
100
AcDbEntity
  8
0
100
AcDbCircle
 62
7
  6
CONTINUOUS
 10
57.0808122169
 20
109.3423212961
 40
7.6902293892
100
AcDbArc
 50
257.6071924888
 51
259.7936828741
  0
ARC
  5
351
100
AcDbEntity
  8
0
100
AcDbCircle
 62
7
  6
CONTINUOUS
 10
49.1543521156
 20
103.8049643103
 40
6.6326842798
100
AcDbArc
 50
263.1159780047
 51
267.1016856134
  0
ARC
  5
352
100
AcDbEntity
  8
0
100
AcDbCircle
 62
7
  6
CONTINUOUS
 10
39.6083708261
 20
109.3162144964
 40
6.6326842798
100
AcDbArc
 50
263.1159780047
 51
267.1016856134
  0
ARC
  5
353
100
AcDbEntity
  8
0
100
AcDbCircle
 62
7
  6
CONTINUOUS
 10
39.1917876482
 20
59.1560017263
 40
5.0081804409
100
AcDbArc
 50
235.6732022554
 51
239.9993329695
  0
ARC
  5
354
100
AcDbEntity
  8
0
100
AcDbCircle
 62
7
  6
CONTINUOUS
 10
47.5493133334
 20
27.0732675925
 40
3.3173059742
100
AcDbArc
 50
175.1094738533
 51
180.0731523521
  0
ARC
  5
355
100
AcDbEntity
  8
0
100
AcDbCircle
 62
7
  6
CONTINUOUS
 10
47.3428067127
 20
27.0896274172
 40
3.1101567232
100
AcDbArc
 50
174.1415250806
 51
175.0854352731
  0
ARC
  5
356
100
AcDbEntity
  8
0
100
AcDbCircle
 62
7
  6
CONTINUOUS
 10
51.0139149298
 20
26.107225324
 40
2.3319464173
100
AcDbArc
 50
249.3198504459
 51
253.5063375552
  0
ARC
  5
357
100
AcDbEntity
  8
0
100
AcDbCircle
 62
7
  6
CONTINUOUS
 10
51.0137648755
 20
83.7518571906
 40
2.3314829151
100
AcDbArc
 50
249.3194923737
 51
253.5201952228
  0
ARC
  5
358
100
AcDbEntity
  8
0
100
AcDbCircle
 62
7
  6
CONTINUOUS
 10
50.9782119031
 20
25.9889401853
 40
2.208392252
100
AcDbArc
 50
253.5232440368
 51
254.3664916066
  0
ARC
  5
359
100
AcDbEntity
  8
0
100
AcDbCircle
 62
7
  6
CONTINUOUS
 10
50.9781052845
 20
83.6336368479
 40
2.2080033689
100
AcDbArc
 50
253.537276281
 51
254.3665406815
  0
ARC
  5
35A
100
AcDbEntity
  8
0
100
AcDbCircle
 62
7
  6
CONTINUOUS
 10
38.6627525952
 20
28.5602058376
 40
1.384195284
100
AcDbArc
 50
299.9864363445
 51
303.3372141095
  0
ARC
  5
35B
100
AcDbEntity
  8
0
100
AcDbCircle
 62
7
  6
CONTINUOUS
 10
23.7828043501
 20
105.3561000162
 40
1.0109448596
100
AcDbArc
 50
240.0587835155
 51
243.9315129085
  0
ARC
  5
35C
100
AcDbEntity
  8
0
100
AcDbCircle
 62
7
  6
CONTINUOUS
 10
23.7735729183
 20
88.4942968988
 40
0.9912959872
100
AcDbArc
 50
240.0203870028
 51
243.9699094213
  0
ARC
  5
35D
100
AcDbEntity
  8
0
100
AcDbCircle
 62
7
  6
CONTINUOUS
 10
11.9385046745
 20
57.3255717205
 40
0.3375706554
100
AcDbArc
 50
180.1750421038
 51
187.6686442572
  0
ARC
  5
35E
100
AcDbEntity
  8
0
100
AcDbCircle
 62
7
  6
CONTINUOUS
 10
11.8289116617
 20
79.3075029134
 40
0.3375662897
100
AcDbArc
 50
180.1750025208
 51
187.6642445703
  0
ARC
  5
35F
100
AcDbEntity
  8
0
100
AcDbCircle
 62
7
  6
CONTINUOUS
 10
20.1216205465
 20
70.1974272074
 40
0.2663937541
100
AcDbArc
 50
179.9597713244
 51
183.993425208
  0
ARC
  5
360
100
AcDbEntity
  8
0
100
AcDbCircle
 62
7
  6
CONTINUOUS
 10
27.8998275231
 20
65.7067789077
 40
0.2663937541
100
AcDbArc
 50
179.9597713243
 51
183.993425208
  0
SPLINE
  5
361
100
AcDbEntity
  8
0
100
AcDbSpline
 62
7
  6
CONTINUOUS
 70
0
 71
3
 72
16
 73
12
 74
0
 42
0.0000001
 43
0.0000001
 44
0.0000000001
 40
0.0
 40
0.0
 40
0.0
 40
0.0
 40
0.043377596
 40
0.0879369185
 40
0.1842636558
 40
0.2946229385
 40
0.4198604174
 40
0.5577228671
 40
0.703966038
 40
0.8533027275
 40
1.0
 40
1.0
 40
1.0
 40
1.0
 10
36.6028048133
 20
55.0702612017
 30
0.0
 10
36.5927598364
 20
55.0760620526
 30
0.0
 10
36.5710948432
 20
55.0857117901
 30
0.0
 10
36.5226530013
 20
55.0962297186
 30
0.0
 10
36.4542466203
 20
55.0910666077
 30
0.0
 10
36.3705461166
 20
55.0590815863
 30
0.0
 10
36.2865427092
 20
55.0039285458
 30
0.0
 10
36.2064764868
 20
54.9286153458
 30
0.0
 10
36.1345218852
 20
54.8372408791
 30
0.0
 10
36.074657235
 20
54.734840629
 30
0.0
 10
36.0443265244
 20
54.6613704043
 30
0.0
 10
36.0321547248
 20
54.6240781054
 30
0.0
  0
SPLINE
  5
362
100
AcDbEntity
  8
0
100
AcDbSpline
 62
7
  6
CONTINUOUS
 70
0
 71
3
 72
13
 73
9
 74
0
 42
0.0000001
 43
0.0000001
 44
0.0000000001
 40
0.0
 40
0.0
 40
0.0
 40
0.0
 40
0.2676218462
 40
0.5216487735
 40
0.6443931168
 40
0.7647340442
 40
0.8831099031
 40
1.0
 40
1.0
 40
1.0
 40
1.0
 10
39.1034415744
 20
46.4419813452
 30
0.0
 10
38.6027791808
 20
46.3370743078
 30
0.0
 10
37.6139535935
 20
46.1882220161
 30
0.0
 10
36.3782180582
 20
46.1661236721
 30
0.0
 10
35.431285165
 20
46.2536096523
 30
0.0
 10
34.7493832731
 20
46.3690939078
 30
0.0
 10
34.0895193623
 20
46.5349563639
 30
0.0
 10
33.6631187844
 20
46.6796595014
 30
0.0
 10
33.4547015173
 20
46.7601639398
 30
0.0
  0
SPLINE
  5
363
100
AcDbEntity
  8
0
100
AcDbSpline
 62
7
  6
CONTINUOUS
 70
0
 71
3
 72
11
 73
7
 74
0
 42
0.0000001
 43
0.0000001
 44
0.0000000001
 40
0.0
 40
0.0
 40
0.0
 40
0.0
 40
0.2581555279
 40
0.5094732239
 40
0.7559641028
 40
1.0
 40
1.0
 40
1.0
 40
1.0
 10
40.0910308871
 20
53.5537441728
 30
0.0
 10
39.8733591158
 20
53.565433181
 30
0.0
 10
39.4445739592
 20
53.6111271858
 30
0.0
 10
38.8202109592
 20
53.7505452594
 30
0.0
 10
38.2280169887
 20
53.9592207062
 30
0.0
 10
37.8560584457
 20
54.1442547929
 30
0.0
 10
37.6776005499
 20
54.2472823341
 30
0.0
  0
SPLINE
  5
364
100
AcDbEntity
  8
0
100
AcDbSpline
 62
7
  6
CONTINUOUS
 70
0
 71
3
 72
11
 73
7
 74
0
 42
0.0000001
 43
0.0000001
 44
0.0000000001
 40
0.0
 40
0.0
 40
0.0
 40
0.0
 40
0.2284612103
 40
0.4811002414
 40
0.7436818163
 40
1.0
 40
1.0
 40
1.0
 40
1.0
 10
29.8890447385
 20
66.9324754526
 30
0.0
 10
29.8502826561
 20
66.9108931892
 30
0.0
 10
29.7750107233
 20
66.8538267527
 30
0.0
 10
29.6793381848
 20
66.7446540477
 30
0.0
 10
29.6014927525
 20
66.6157885796
 30
0.0
 10
29.5649324945
 20
66.521152332
 30
0.0
 10
29.5517836624
 20
66.4731454027
 30
0.0
  0
SPLINE
  5
365
100
AcDbEntity
  8
0
100
AcDbSpline
 62
7
  6
CONTINUOUS
 70
0
 71
3
 72
11
 73
7
 74
0
 42
0.0000001
 43
0.0000001
 44
0.0000000001
 40
0.0
 40
0.0
 40
0.0
 40
0.0
 40
0.2441874762
 40
0.4929169921
 40
0.7451998652
 40
1.0
 40
1.0
 40
1.0
 40
1.0
 10
29.5517836624
 20
66.4731454027
 30
0.0
 10
29.1976438781
 20
65.1801664118
 30
0.0
 10
28.4139345892
 20
62.5885423414
 30
0.0
 10
27.0350698771
 20
58.7350554094
 30
0.0
 10
25.4493123088
 20
54.8989172203
 30
0.0
 10
24.2650329579
 20
52.3781441189
 30
0.0
 10
23.6410288568
 20
51.1261694055
 30
0.0
  0
SPLINE
  5
366
100
AcDbEntity
  8
0
100
AcDbSpline
 62
7
  6
CONTINUOUS
 70
0
 71
3
 72
11
 73
7
 74
0
 42
0.0000001
 43
0.0000001
 44
0.0000000001
 40
0.0
 40
0.0
 40
0.0
 40
0.0
 40
0.2664834405
 40
0.5248991788
 40
0.7706321503
 40
1.0
 40
1.0
 40
1.0
 40
1.0
 10
23.6410288568
 20
51.1261694055
 30
0.0
 10
23.6161047932
 20
51.0761628472
 30
0.0
 10
23.571793608
 20
50.9751885125
 30
0.0
 10
23.5221716921
 20
50.8211040779
 30
0.0
 10
23.491500766
 20
50.6700654349
 30
0.0
 10
23.4839136072
 20
50.5703741821
 30
0.0
 10
23.4839136072
 20
50.522282567
 30
0.0
  0
SPLINE
  5
367
100
AcDbEntity
  8
0
100
AcDbSpline
 62
7
  6
CONTINUOUS
 70
0
 71
3
 72
12
 73
8
 74
0
 42
0.0000001
 43
0.0000001
 44
0.0000000001
 40
0.0
 40
0.0
 40
0.0
 40
0.0
 40
0.2895568509
 40
0.5486620065
 40
0.7816481509
 40
0.8918530374
 40
1.0
 40
1.0
 40
1.0
 40
1.0
 10
23.4839136072
 20
50.522282567
 30
0.0
 10
23.4839136072
 20
50.4716011777
 30
0.0
 10
23.491604991
 20
50.3752279451
 30
0.0
 10
23.5305507007
 20
50.2428812511
 30
0.0
 10
23.5865833283
 20
50.1515936129
 30
0.0
 10
23.643109804
 20
50.0959587154
 30
0.0
 10
23.6746334844
 20
50.0739619941
 30
0.0
 10
23.6910264505
 20
50.0644973291
 30
0.0
  0
SPLINE
  5
368
100
AcDbEntity
  8
0
100
AcDbSpline
 62
7
  6
CONTINUOUS
 70
0
 71
3
 72
11
 73
7
 74
0
 42
0.0000001
 43
0.0000001
 44
0.0000000001
 40
0.0
 40
0.0
 40
0.0
 40
0.0
 40
0.2548001348
 40
0.5070830079
 40
0.7558125238
 40
1.0
 40
1.0
 40
1.0
 40
1.0
 10
31.4192358334
 20
46.6355211058
 30
0.0
 10
32.0432399346
 20
47.8874958192
 30
0.0
 10
33.2275192854
 20
50.4082689206
 30
0.0
 10
34.8132768537
 20
54.2444071097
 30
0.0
 10
36.1921415658
 20
58.0978940416
 30
0.0
 10
36.9758508548
 20
60.6895181121
 30
0.0
 10
37.3299906391
 20
61.982497103
 30
0.0
  0
SPLINE
  5
369
100
AcDbEntity
  8
0
100
AcDbSpline
 62
7
  6
CONTINUOUS
 70
0
 71
3
 72
11
 73
7
 74
0
 42
0.0000001
 43
0.0000001
 44
0.0000000001
 40
0.0
 40
0.0
 40
0.0
 40
0.0
 40
0.2563182789
 40
0.5188998803
 40
0.7715388777
 40
1.0
 40
1.0
 40
1.0
 40
1.0
 10
37.3299906391
 20
61.982497103
 30
0.0
 10
37.343139476
 20
62.0305040501
 30
0.0
 10
37.3796997462
 20
62.1251403191
 30
0.0
 10
37.4575451967
 20
62.2540057963
 30
0.0
 10
37.5532177315
 20
62.36317848
 30
0.0
 10
37.6284896476
 20
62.4202448978
 30
0.0
 10
37.6672517151
 20
62.4418271528
 30
0.0
  0
SPLINE
  5
36A
100
AcDbEntity
  8
0
100
AcDbSpline
 62
7
  6
CONTINUOUS
 70
0
 71
3
 72
12
 73
8
 74
0
 42
0.0000001
 43
0.0000001
 44
0.0000000001
 40
0.0
 40
0.0
 40
0.0
 40
0.0
 40
0.1081469835
 40
0.2183518817
 40
0.4513380551
 40
0.7104431735
 40
1.0
 40
1.0
 40
1.0
 40
1.0
 10
31.4692334275
 20
45.5738490298
 30
0.0
 10
31.4528404584
 20
45.5833136972
 30
0.0
 10
31.4213167721
 20
45.6053104202
 30
0.0
 10
31.3647902907
 20
45.6609453283
 30
0.0
 10
31.3087576699
 20
45.7522329713
 30
0.0
 10
31.2698119589
 20
45.8845796591
 30
0.0
 10
31.2621205838
 20
45.980952882
 30
0.0
 10
31.2621205838
 20
46.0316342672
 30
0.0
  0
SPLINE
  5
36B
100
AcDbEntity
  8
0
100
AcDbSpline
 62
7
  6
CONTINUOUS
 70
0
 71
3
 72
11
 73
7
 74
0
 42
0.0000001
 43
0.0000001
 44
0.0000000001
 40
0.0
 40
0.0
 40
0.0
 40
0.0
 40
0.2293678497
 40
0.4751008212
 40
0.7335165595
 40
1.0
 40
1.0
 40
1.0
 40
1.0
 10
31.2621205838
 20
46.0316342672
 30
0.0
 10
31.2621205838
 20
46.0797258824
 30
0.0
 10
31.2697077426
 20
46.1794171352
 30
0.0
 10
31.3003786687
 20
46.3304557781
 30
0.0
 10
31.3500005846
 20
46.4845402127
 30
0.0
 10
31.3943117698
 20
46.5855145475
 30
0.0
 10
31.4192358334
 20
46.6355211058
 30
0.0
  0
SPLINE
  5
36C
100
AcDbEntity
  8
0
100
AcDbSpline
 62
7
  6
CONTINUOUS
 70
0
 71
3
 72
11
 73
7
 74
0
 42
0.0000001
 43
0.0000001
 44
0.0000000001
 40
0.0
 40
0.0
 40
0.0
 40
0.0
 40
0.2178456863
 40
0.4509551812
 40
0.710271094
 40
1.0
 40
1.0
 40
1.0
 40
1.0
 10
88.2147838425
 20
75.9936900592
 30
0.0
 10
88.2807887558
 20
75.9556113297
 30
0.0
 10
88.4042540332
 20
75.8518353162
 30
0.0
 10
88.535595509
 20
75.6369482764
 30
0.0
 10
88.6136942644
 20
75.3722014464
 30
0.0
 10
88.6290231838
 20
75.1794889523
 30
0.0
 10
88.6290231838
 20
75.0781432711
 30
0.0
  0
SPLINE
  5
36D
100
AcDbEntity
  8
0
100
AcDbSpline
 62
7
  6
CONTINUOUS
 70
0
 71
3
 72
11
 73
7
 74
0
 42
0.0000001
 43
0.0000001
 44
0.0000000001
 40
0.0
 40
0.0
 40
0.0
 40
0.0
 40
0.2375925078
 40
0.4836175565
 40
0.7378627673
 40
1.0
 40
1.0
 40
1.0
 40
1.0
 10
23.338549501
 20
33.493939126
 30
0.0
 10
25.5546730768
 20
31.8283269738
 30
0.0
 10
30.1794944512
 20
28.5873336414
 30
0.0
 10
37.5214610574
 20
24.081795856
 30
0.0
 10
45.3594461175
 20
19.8650379677
 30
0.0
 10
50.813055415
 20
17.2960932871
 30
0.0
 10
53.6115582417
 20
16.0616788042
 30
0.0
  0
SPLINE
  5
36E
100
AcDbEntity
  8
0
100
AcDbSpline
 62
7
  6
CONTINUOUS
 70
0
 71
3
 72
11
 73
7
 74
0
 42
0.0000001
 43
0.0000001
 44
0.0000000001
 40
0.0
 40
0.0
 40
0.0
 40
0.0
 40
0.2551131399
 40
0.5172652926
 40
0.770335939
 40
1.0
 40
1.0
 40
1.0
 40
1.0
 10
53.6115582417
 20
16.0616788042
 30
0.0
 10
53.707063671
 20
16.0357203063
 30
0.0
 10
53.9064172073
 20
16.0028525871
 30
0.0
 10
54.2066830076
 20
16.0061839561
 30
0.0
 10
54.4921001628
 20
16.0599876462
 30
0.0
 10
54.6674465247
 20
16.131240702
 30
0.0
 10
54.7446073045
 20
16.175789233
 30
0.0
  0
SPLINE
  5
36F
100
AcDbEntity
  8
0
100
AcDbSpline
 62
7
  6
CONTINUOUS
 70
0
 71
3
 72
11
 73
7
 74
0
 42
0.0000001
 43
0.0000001
 44
0.0000000001
 40
0.0
 40
0.0
 40
0.0
 40
0.0
 40
0.2177438688
 40
0.4508811915
 40
0.7104582954
 40
1.0
 40
1.0
 40
1.0
 40
1.0
 10
61.8842407606
 20
118.5931320602
 30
0.0
 10
61.8842407683
 20
118.6274045666
 30
0.0
 10
61.8968262588
 20
118.6988594827
 30
0.0
 10
61.9510302939
 20
118.7984349723
 30
0.0
 10
62.036702988
 20
118.888377157
 30
0.0
 10
62.1083239032
 20
118.9377621612
 30
0.0
 10
62.1477916504
 20
118.9605487396
 30
0.0
  0
SPLINE
  5
370
100
AcDbEntity
  8
0
100
AcDbSpline
 62
7
  6
CONTINUOUS
 70
0
 71
3
 72
12
 73
8
 74
0
 42
0.0000001
 43
0.0000001
 44
0.0000000001
 40
0.0
 40
0.0
 40
0.0
 40
0.0
 40
0.1040378826
 40
0.2112868755
 40
0.4422277647
 40
0.7040744854
 40
1.0
 40
1.0
 40
1.0
 40
1.0
 10
30.0380982171
 20
90.6502441656
 30
0.0
 10
30.0999379522
 20
90.6857450641
 30
0.0
 10
30.2191095116
 20
90.769686072
 30
0.0
 10
30.432929618
 20
90.9863976013
 30
0.0
 10
30.6436158818
 20
91.3473206386
 30
0.0
 10
30.7894364992
 20
91.8720754481
 30
0.0
 10
30.818138577
 20
92.2556086664
 30
0.0
 10
30.818138577
 20
92.4584299878
 30
0.0
  0
SPLINE
  5
371
100
AcDbEntity
  8
0
100
AcDbSpline
 62
7
  6
CONTINUOUS
 70
0
 71
3
 72
12
 73
8
 74
0
 42
0.0000001
 43
0.0000001
 44
0.0000000001
 40
0.0
 40
0.0
 40
0.0
 40
0.0
 40
0.109115299
 40
0.2201333597
 40
0.453945849
 40
0.7123783768
 40
1.0
 40
1.0
 40
1.0
 40
1.0
 10
39.3545481201
 20
85.0063942664
 30
0.0
 10
39.4215085238
 20
85.0450531635
 30
0.0
 10
39.5502699002
 20
85.1346330871
 30
0.0
 10
39.7814416801
 20
85.3600792304
 30
0.0
 10
40.0111359821
 20
85.7286404152
 30
0.0
 10
40.1718088964
 20
86.2623314122
 30
0.0
 10
40.2036100646
 20
86.6507019323
 30
0.0
 10
40.2036100646
 20
86.8545099777
 30
0.0
  0
SPLINE
  5
372
100
AcDbEntity
  8
0
100
AcDbSpline
 62
7
  6
CONTINUOUS
 70
0
 71
3
 72
12
 73
8
 74
0
 42
0.0000001
 43
0.0000001
 44
0.0000000001
 40
0.0
 40
0.0
 40
0.0
 40
0.0
 40
0.1136230165
 40
0.2280258137
 40
0.4645164776
 40
0.7200944563
 40
1.0
 40
1.0
 40
1.0
 40
1.0
 10
49.4641478941
 20
79.8206344705
 30
0.0
 10
49.5362851529
 20
79.862083406
 30
0.0
 10
49.6748552247
 20
79.9567027244
 30
0.0
 10
49.9231641822
 20
80.190856242
 30
0.0
 10
50.1715820949
 20
80.5672291524
 30
0.0
 10
50.3473789691
 20
81.1100889698
 30
0.0
 10
50.3826608168
 20
81.5038072567
 30
0.0
 10
50.3826608168
 20
81.7087604346
 30
0.0
  0
SPLINE
  5
373
100
AcDbEntity
  8
0
100
AcDbSpline
 62
7
  6
CONTINUOUS
 70
0
 71
3
 72
11
 73
7
 74
0
 42
0.0000001
 43
0.0000001
 44
0.0000000001
 40
0.0
 40
0.0
 40
0.0
 40
0.0
 40
0.2177438688
 40
0.4508811915
 40
0.7104582954
 40
1.0
 40
1.0
 40
1.0
 40
1.0
 10
22.9853902136
 20
104.8883221029
 30
0.0
 10
22.985390222
 20
104.9264026655
 30
0.0
 10
22.9993741004
 20
105.0057970167
 30
0.0
 10
23.059600806
 20
105.1164364496
 30
0.0
 10
23.1547926884
 20
105.2163722104
 30
0.0
 10
23.234371483
 20
105.2712444373
 30
0.0
 10
23.2782245355
 20
105.2965628577
 30
0.0
  0
SPLINE
  5
374
100
AcDbEntity
  8
0
100
AcDbSpline
 62
7
  6
CONTINUOUS
 70
0
 71
3
 72
11
 73
7
 74
0
 42
0.0000001
 43
0.0000001
 44
0.0000000001
 40
0.0
 40
0.0
 40
0.0
 40
0.0
 40
0.2177434119
 40
0.4508805377
 40
0.710457812
 40
1.0
 40
1.0
 40
1.0
 40
1.0
 10
22.9853902136
 20
88.0438772382
 30
0.0
 10
22.9853902254
 20
88.0057962649
 30
0.0
 10
22.9993744226
 20
87.926400998
 30
0.0
 10
23.0596024314
 20
87.8157604946
 30
0.0
 10
23.1547962437
 20
87.7158239929
 30
0.0
 10
23.2343765502
 20
87.6609515567
 30
0.0
 10
23.2782304234
 20
87.635633084
 30
0.0
  0
SPLINE
  5
375
100
AcDbEntity
  8
0
100
AcDbSpline
 62
7
  6
CONTINUOUS
 70
0
 71
3
 72
11
 73
7
 74
0
 42
0.0000001
 43
0.0000001
 44
0.0000000001
 40
0.0
 40
0.0
 40
0.0
 40
0.0
 40
0.2177817009
 40
0.4509079353
 40
0.7102947134
 40
1.0
 40
1.0
 40
1.0
 40
1.0
 10
13.0652427473
 20
59.4787265084
 30
0.0
 10
13.065242759
 20
59.4158806257
 30
0.0
 10
13.0884674251
 20
59.2848899132
 30
0.0
 10
13.1877719555
 20
59.1023779384
 30
0.0
 10
13.3447582983
 20
58.9373946021
 30
0.0
 10
13.4761121178
 20
58.8469234832
 30
0.0
 10
13.5485131826
 20
58.8051236545
 30
0.0
  0
SPLINE
  5
376
100
AcDbEntity
  8
0
100
AcDbSpline
 62
7
  6
CONTINUOUS
 70
0
 71
3
 72
11
 73
7
 74
0
 42
0.0000001
 43
0.0000001
 44
0.0000000001
 40
0.0
 40
0.0
 40
0.0
 40
0.0
 40
0.2177821605
 40
0.4509085882
 40
0.7102951949
 40
1.0
 40
1.0
 40
1.0
 40
1.0
 10
13.0652427473
 20
60.458529409
 30
0.0
 10
13.0652427649
 20
60.5213746148
 30
0.0
 10
13.0884668855
 20
60.652363817
 30
0.0
 10
13.1877692769
 20
60.8348740237
 30
0.0
 10
13.3447524305
 20
60.9998561373
 30
0.0
 10
13.4761037571
 20
61.0903269111
 30
0.0
 10
13.5485034676
 20
61.1321266539
 30
0.0
  0
SPLINE
  5
377
100
AcDbEntity
  8
0
100
AcDbSpline
 62
7
  6
CONTINUOUS
 70
0
 71
3
 72
16
 73
12
 74
0
 42
0.0000001
 43
0.0000001
 44
0.0000000001
 40
0.0
 40
0.0
 40
0.0
 40
0.0
 40
0.0428749623
 40
0.0875151049
 40
0.1869202934
 40
0.3042380553
 40
0.4379619166
 40
0.5823661762
 40
0.7295553815
 40
0.8712854959
 40
1.0
 40
1.0
 40
1.0
 40
1.0
 10
14.0996167905
 20
60.4544473292
 30
0.0
 10
14.0996318798
 20
60.4330988528
 30
0.0
 10
14.1053313611
 20
60.3893409743
 30
0.0
 10
14.1399445758
 20
60.3020675591
 30
0.0
 10
14.2277116578
 20
60.2013034256
 30
0.0
 10
14.3783449684
 20
60.1098927697
 30
0.0
 10
14.5663490514
 20
60.0469585748
 30
0.0
 10
14.7770992098
 20
60.0174177786
 30
0.0
 10
14.9938198487
 20
60.0233388192
 30
0.0
 10
15.1986800511
 20
60.0643828984
 30
0.0
 10
15.3244134159
 20
60.1162218509
 30
0.0
 10
15.3799171258
 20
60.1482667415
 30
0.0
  0
SPLINE
  5
378
100
AcDbEntity
  8
0
100
AcDbSpline
 62
7
  6
CONTINUOUS
 70
0
 71
3
 72
9
 73
5
 74
0
 42
0.0000001
 43
0.0000001
 44
0.0000000001
 40
0.0
 40
0.0
 40
0.0
 40
0.0
 40
0.2464735816
 40
1.0
 40
1.0
 40
1.0
 40
1.0
 10
11.4913469467
 20
79.3064718625
 30
0.0
 10
11.4913132762
 20
79.3177240638
 30
0.0
 10
11.4934393314
 20
79.3633727142
 30
0.0
 10
11.5047873182
 20
79.4084524275
 30
0.0
 10
11.5174569669
 20
79.4404350727
 30
0.0
  0
SPLINE
  5
379
100
AcDbEntity
  8
0
100
AcDbSpline
 62
7
  6
CONTINUOUS
 70
0
 71
3
 72
9
 73
5
 74
0
 42
0.0000001
 43
0.0000001
 44
0.0000000001
 40
0.0
 40
0.0
 40
0.0
 40
0.0
 40
0.2436663829
 40
1.0
 40
1.0
 40
1.0
 40
1.0
 10
11.5174569669
 20
79.4404350727
 30
0.0
 10
11.5203094719
 20
79.4476357974
 30
0.0
 10
11.5328759308
 20
79.4768423086
 30
0.0
 10
11.5488518919
 20
79.5045583362
 30
0.0
 10
11.5624641507
 20
79.5243740318
 30
0.0
  0
SPLINE
  5
37A
100
AcDbEntity
  8
0
100
AcDbSpline
 62
7
  6
CONTINUOUS
 70
0
 71
3
 72
9
 73
5
 74
0
 42
0.0000001
 43
0.0000001
 44
0.0000000001
 40
0.0
 40
0.0
 40
0.0
 40
0.0
 40
0.4634435115
 40
1.0
 40
1.0
 40
1.0
 40
1.0
 10
11.6039531239
 20
57.2805249963
 30
0.0
 10
11.6117194602
 20
57.2228801526
 30
0.0
 10
11.6622995228
 20
57.1024678211
 30
0.0
 10
11.754287821
 20
57.0134223842
 30
0.0
 10
11.8081144194
 20
56.9729547736
 30
0.0
  0
SPLINE
  5
37B
100
AcDbEntity
  8
0
100
AcDbSpline
 62
7
  6
CONTINUOUS
 70
0
 71
3
 72
9
 73
5
 74
0
 42
0.0000001
 43
0.0000001
 44
0.0000000001
 40
0.0
 40
0.0
 40
0.0
 40
0.0
 40
0.4499631795
 40
1.0
 40
1.0
 40
1.0
 40
1.0
 10
40.3593288174
 20
26.909547674
 30
0.0
 10
40.349196937
 20
26.9036980582
 30
0.0
 10
40.3214991649
 20
26.8996470689
 30
0.0
 10
40.2967075412
 20
26.9098378081
 30
0.0
 10
40.2843222342
 20
26.9169883066
 30
0.0
  0
SPLINE
  5
37C
100
AcDbEntity
  8
0
100
AcDbSpline
 62
7
  6
CONTINUOUS
 70
0
 71
3
 72
11
 73
7
 74
0
 42
0.0000001
 43
0.0000001
 44
0.0000000001
 40
0.0
 40
0.0
 40
0.0
 40
0.0
 40
0.2133041007
 40
0.4446421622
 40
0.7060059482
 40
1.0
 40
1.0
 40
1.0
 40
1.0
 10
22.9853970195
 20
33.9342622117
 30
0.0
 10
22.985416261
 20
33.892129593
 30
0.0
 10
23.0027777326
 20
33.8036168687
 30
0.0
 10
23.0765009645
 20
33.6826436214
 30
0.0
 10
23.1914761345
 20
33.5759453885
 30
0.0
 10
23.2863945531
 20
33.5194749762
 30
0.0
 10
23.338549501
 20
33.493939126
 30
0.0
  0
SPLINE
  5
37D
100
AcDbEntity
  8
0
100
AcDbSpline
 62
7
  6
CONTINUOUS
 70
0
 71
3
 72
11
 73
7
 74
0
 42
0.0000001
 43
0.0000001
 44
0.0000000001
 40
0.0
 40
0.0
 40
0.0
 40
0.0
 40
0.2275285697
 40
0.4641731122
 40
0.719900819
 40
1.0
 40
1.0
 40
1.0
 40
1.0
 10
49.4642066704
 20
22.1754651488
 30
0.0
 10
49.6083994691
 20
22.25866744
 30
0.0
 10
49.8774058132
 20
22.4765001855
 30
0.0
 10
50.1712694615
 20
22.922156581
 30
0.0
 10
50.3475276719
 20
23.4651119035
 30
0.0
 10
50.3826608168
 20
23.8587496804
 30
0.0
 10
50.3826608168
 20
24.0636897852
 30
0.0
  0
SPLINE
  5
37E
100
AcDbEntity
  8
0
100
AcDbSpline
 62
7
  6
CONTINUOUS
 70
0
 71
3
 72
15
 73
11
 74
0
 42
0.0000001
 43
0.0000001
 44
0.0000000001
 40
0.0
 40
0.0
 40
0.0
 40
0.0
 40
0.1133514881
 40
0.2353586144
 40
0.3638125917
 40
0.4960102799
 40
0.6288708064
 40
0.7591116319
 40
0.8836933241
 40
1.0
 40
1.0
 40
1.0
 40
1.0
 10
50.3826608168
 20
24.0636897852
 30
0.0
 10
50.3826608168
 20
24.291752495
 30
0.0
 10
50.3354293814
 20
24.7659039002
 30
0.0
 10
50.1462407538
 20
25.4755898184
 30
0.0
 10
49.8454501599
 20
26.1868468134
 30
0.0
 10
49.4444963592
 20
26.8720383862
 30
0.0
 10
48.9591829152
 20
27.5046044654
 30
0.0
 10
48.4121448411
 20
28.0635302607
 30
0.0
 10
47.8226141701
 20
28.5254182488
 30
0.0
 10
47.3994079096
 20
28.7665724539
 30
0.0
 10
47.1866882981
 20
28.8640935354
 30
0.0
  0
SPLINE
  5
37F
100
AcDbEntity
  8
0
100
AcDbSpline
 62
7
  6
CONTINUOUS
 70
0
 71
3
 72
11
 73
7
 74
0
 42
0.0000001
 43
0.0000001
 44
0.0000000001
 40
0.0
 40
0.0
 40
0.0
 40
0.0
 40
0.2894518349
 40
0.5489688158
 40
0.7820614701
 40
1.0
 40
1.0
 40
1.0
 40
1.0
 10
85.2349247652
 20
77.1381974422
 30
0.0
 10
85.2349247652
 20
77.0875741342
 30
0.0
 10
85.2426739092
 20
76.9912459927
 30
0.0
 10
85.2815718384
 20
76.8588600007
 30
0.0
 10
85.3472526184
 20
76.7513358532
 30
0.0
 10
85.4090645626
 20
76.6995338959
 30
0.0
 10
85.4420736648
 20
76.6804751777
 30
0.0
  0
SPLINE
  5
380
100
AcDbEntity
  8
0
100
AcDbSpline
 62
7
  6
CONTINUOUS
 70
0
 71
3
 72
11
 73
7
 74
0
 42
0.0000001
 43
0.0000001
 44
0.0000000001
 40
0.0
 40
0.0
 40
0.0
 40
0.0
 40
0.2277108509
 40
0.4759499745
 40
0.7366034294
 40
1.0
 40
1.0
 40
1.0
 40
1.0
 10
88.6290231838
 20
67.2743748167
 30
0.0
 10
88.6290231838
 20
67.1365307161
 30
0.0
 10
88.5978651369
 20
66.8481046818
 30
0.0
 10
88.4771873951
 20
66.4171968621
 30
0.0
 10
88.2869370665
 20
65.9885240821
 30
0.0
 10
88.119269762
 20
65.7178261811
 30
0.0
 10
88.0259717075
 20
65.5885257145
 30
0.0
  0
SPLINE
  5
381
100
AcDbEntity
  8
0
100
AcDbSpline
 62
7
  6
CONTINUOUS
 70
0
 71
3
 72
10
 73
6
 74
0
 42
0.0000001
 43
0.0000001
 44
0.0000000001
 40
0.0
 40
0.0
 40
0.0
 40
0.0
 40
0.5234513602
 40
0.7720801968
 40
1.0
 40
1.0
 40
1.0
 40
1.0
 10
85.5364505033
 20
62.1383331563
 30
0.0
 10
85.4438625978
 20
62.0100168752
 30
0.0
 10
85.3321992725
 20
61.800379792
 30
0.0
 10
85.2505714429
 20
61.5085566851
 30
0.0
 10
85.2349247652
 20
61.3643058691
 30
0.0
 10
85.2349247652
 20
61.2954086052
 30
0.0
  0
SPLINE
  5
382
100
AcDbEntity
  8
0
100
AcDbSpline
 62
7
  6
CONTINUOUS
 70
0
 71
3
 72
9
 73
5
 74
0
 42
0.0000001
 43
0.0000001
 44
0.0000000001
 40
0.0
 40
0.0
 40
0.0
 40
0.0
 40
0.2475770607
 40
1.0
 40
1.0
 40
1.0
 40
1.0
 10
20.1579092394
 20
38.4421078816
 30
0.0
 10
20.6232318949
 20
38.1448432722
 30
0.0
 10
22.5096647339
 20
36.9550174741
 30
0.0
 10
24.4232937382
 20
35.8083714152
 30
0.0
 10
25.8766005718
 20
34.9693233054
 30
0.0
  0
SPLINE
  5
383
100
AcDbEntity
  8
0
100
AcDbSpline
 62
7
  6
CONTINUOUS
 70
0
 71
3
 72
11
 73
7
 74
0
 42
0.0000001
 43
0.0000001
 44
0.0000000001
 40
0.0
 40
0.0
 40
0.0
 40
0.0
 40
0.244865911
 40
0.5076032008
 40
0.7662641352
 40
1.0
 40
1.0
 40
1.0
 40
1.0
 10
41.9025253585
 20
26.8469688755
 30
0.0
 10
42.0037801678
 20
26.8020630463
 30
0.0
 10
42.2272989987
 20
26.7388644087
 30
0.0
 10
42.5754303499
 20
26.7168103206
 30
0.0
 10
42.9160078608
 20
26.7637149076
 30
0.0
 10
43.1272481934
 20
26.8437138854
 30
0.0
 10
43.2188141691
 20
26.8965792106
 30
0.0
  0
SPLINE
  5
384
100
AcDbEntity
  8
0
100
AcDbSpline
 62
7
  6
CONTINUOUS
 70
0
 71
3
 72
11
 73
7
 74
0
 42
0.0000001
 43
0.0000001
 44
0.0000000001
 40
0.0
 40
0.0
 40
0.0
 40
0.0
 40
0.2422036115
 40
0.4999991942
 40
0.7577952019
 40
1.0
 40
1.0
 40
1.0
 40
1.0
 10
49.3418546737
 20
24.4154234261
 30
0.0
 10
49.0797969934
 20
24.6193726526
 30
0.0
 10
48.5874011241
 20
25.1044097721
 30
0.0
 10
47.9897421881
 20
25.9603122477
 30
0.0
 10
47.5473333593
 20
26.9058507522
 30
0.0
 10
47.3734723947
 20
27.5747976598
 30
0.0
 10
47.3278732894
 20
27.9037221449
 30
0.0
  0
SPLINE
  5
385
100
AcDbEntity
  8
0
100
AcDbSpline
 62
7
  6
CONTINUOUS
 70
0
 71
3
 72
9
 73
5
 74
0
 42
0.0000001
 43
0.0000001
 44
0.0000000001
 40
0.0
 40
0.0
 40
0.0
 40
0.0
 40
0.5199966399
 40
1.0
 40
1.0
 40
1.0
 40
1.0
 10
19.9814487086
 20
70.4944525194
 30
0.0
 10
19.9430444805
 20
70.4526378282
 30
0.0
 10
19.8834615497
 20
70.3588751182
 30
0.0
 10
19.8552268581
 20
70.2500222602
 30
0.0
 10
19.8552268581
 20
70.1976142485
 30
0.0
  0
SPLINE
  5
386
100
AcDbEntity
  8
0
100
AcDbSpline
 62
7
  6
CONTINUOUS
 70
0
 71
3
 72
9
 73
5
 74
0
 42
0.0000001
 43
0.0000001
 44
0.0000000001
 40
0.0
 40
0.0
 40
0.0
 40
0.0
 40
0.2462126807
 40
1.0
 40
1.0
 40
1.0
 40
1.0
 10
19.8558735835
 20
70.1788750133
 30
0.0
 10
19.8749332284
 20
69.9086750175
 30
0.0
 10
19.9422289646
 20
68.81055211
 30
0.0
 10
19.9696972685
 20
67.7100502794
 30
0.0
 10
19.9696972685
 20
66.8807696129
 30
0.0
  0
SPLINE
  5
387
100
AcDbEntity
  8
0
100
AcDbSpline
 62
7
  6
CONTINUOUS
 70
0
 71
3
 72
9
 73
5
 74
0
 42
0.0000001
 43
0.0000001
 44
0.0000000001
 40
0.0
 40
0.0
 40
0.0
 40
0.0
 40
0.4867729892
 40
1.0
 40
1.0
 40
1.0
 40
1.0
 10
19.9696972685
 20
66.8807696129
 30
0.0
 10
19.9696972685
 20
65.0699333903
 30
0.0
 10
19.7675241507
 20
61.3481797158
 30
0.0
 10
19.2170233572
 20
57.6636220602
 30
0.0
 10
18.8564247467
 20
55.7887369281
 30
0.0
  0
SPLINE
  5
388
100
AcDbEntity
  8
0
100
AcDbSpline
 62
7
  6
CONTINUOUS
 70
0
 71
3
 72
9
 73
5
 74
0
 42
0.0000001
 43
0.0000001
 44
0.0000000001
 40
0.0
 40
0.0
 40
0.0
 40
0.0
 40
0.2598561321
 40
1.0
 40
1.0
 40
1.0
 40
1.0
 10
18.8564247467
 20
55.7887369281
 30
0.0
 10
18.8529678802
 20
55.7707634046
 30
0.0
 10
18.8411366608
 20
55.701331497
 30
0.0
 10
18.8353400398
 20
55.630792498
 30
0.0
 10
18.8353400398
 20
55.5786605515
 30
0.0
  0
SPLINE
  5
389
100
AcDbEntity
  8
0
100
AcDbSpline
 62
7
  6
CONTINUOUS
 70
0
 71
3
 72
11
 73
7
 74
0
 42
0.0000001
 43
0.0000001
 44
0.0000000001
 40
0.0
 40
0.0
 40
0.0
 40
0.0
 40
0.2895411595
 40
0.5491183966
 40
0.7822559144
 40
1.0
 40
1.0
 40
1.0
 40
1.0
 10
18.8353400398
 20
55.5786605515
 30
0.0
 10
18.8353400398
 20
55.5280216996
 30
0.0
 10
18.8430720813
 20
55.4316648473
 30
0.0
 10
18.8820251894
 20
55.299253684
 30
0.0
 10
18.947731754
 20
55.1917725471
 30
0.0
 10
19.0095001556
 20
55.1399635404
 30
0.0
 10
19.0424803363
 20
55.1209228608
 30
0.0
  0
SPLINE
  5
38A
100
AcDbEntity
  8
0
100
AcDbSpline
 62
7
  6
CONTINUOUS
 70
0
 71
3
 72
13
 73
9
 74
0
 42
0.0000001
 43
0.0000001
 44
0.0000000001
 40
0.0
 40
0.0
 40
0.0
 40
0.0
 40
0.1142253587
 40
0.237559206
 40
0.5000004539
 40
0.7624414493
 40
0.885775028
 40
1.0
 40
1.0
 40
1.0
 40
1.0
 10
13.6899351277
 20
58.7234755036
 30
0.0
 10
13.7697849907
 20
58.6773752067
 30
0.0
 10
13.944475059
 20
58.5960525562
 30
0.0
 10
14.3315683777
 20
58.4784453095
 30
0.0
 10
14.8566630008
 20
58.4213538827
 30
0.0
 10
15.3817571865
 20
58.4784476773
 30
0.0
 10
15.7688491585
 20
58.5960568632
 30
0.0
 10
15.9435382453
 20
58.6773803958
 30
0.0
 10
16.0233875056
 20
58.7234811126
 30
0.0
  0
SPLINE
  5
38B
100
AcDbEntity
  8
0
100
AcDbSpline
 62
7
  6
CONTINUOUS
 70
0
 71
3
 72
9
 73
5
 74
0
 42
0.0000001
 43
0.0000001
 44
0.0000000001
 40
0.0
 40
0.0
 40
0.0
 40
0.0
 40
0.2435610853
 40
1.0
 40
1.0
 40
1.0
 40
1.0
 10
23.3385494997
 20
87.60355431
 30
0.0
 10
24.4258743107
 20
86.7863338994
 30
0.0
 10
28.9448689053
 20
83.5041374963
 30
0.0
 10
33.6710850965
 20
80.509915276
 30
0.0
 10
37.3295552862
 20
78.3977443108
 30
0.0
  0
SPLINE
  5
38C
100
AcDbEntity
  8
0
100
AcDbSpline
 62
7
  6
CONTINUOUS
 70
0
 71
3
 72
9
 73
5
 74
0
 42
0.0000001
 43
0.0000001
 44
0.0000000001
 40
0.0
 40
0.0
 40
0.0
 40
0.0
 40
0.4922767722
 40
1.0
 40
1.0
 40
1.0
 40
1.0
 10
37.3295552862
 20
78.3977443108
 30
0.0
 10
39.9228803833
 20
76.9005212397
 30
0.0
 10
45.2806630352
 20
74.0125497394
 30
0.0
 10
50.7857922253
 20
71.4177342135
 30
0.0
 10
53.6115582417
 20
70.1712939874
 30
0.0
  0
SPLINE
  5
38D
100
AcDbEntity
  8
0
100
AcDbSpline
 62
7
  6
CONTINUOUS
 70
0
 71
3
 72
11
 73
7
 74
0
 42
0.0000001
 43
0.0000001
 44
0.0000000001
 40
0.0
 40
0.0
 40
0.0
 40
0.0
 40
0.2551131399
 40
0.5172652926
 40
0.770335939
 40
1.0
 40
1.0
 40
1.0
 40
1.0
 10
53.6115582417
 20
70.1712939874
 30
0.0
 10
53.707063671
 20
70.1453354895
 30
0.0
 10
53.9064172073
 20
70.1124677703
 30
0.0
 10
54.2066830076
 20
70.1157991392
 30
0.0
 10
54.4921001628
 20
70.1696028293
 30
0.0
 10
54.6674465247
 20
70.2408558852
 30
0.0
 10
54.7446073045
 20
70.2854044162
 30
0.0
  0
SPLINE
  5
38E
100
AcDbEntity
  8
0
100
AcDbSpline
 62
7
  6
CONTINUOUS
 70
0
 71
3
 72
9
 73
5
 74
0
 42
0.0000001
 43
0.0000001
 44
0.0000000001
 40
0.0
 40
0.0
 40
0.0
 40
0.0
 40
0.4780495192
 40
1.0
 40
1.0
 40
1.0
 40
1.0
 10
55.0900865403
 20
94.3450881012
 30
0.0
 10
55.1544546745
 20
94.2329654949
 30
0.0
 10
55.3266822591
 20
94.0189708802
 30
0.0
 10
55.5478128859
 20
93.8583791434
 30
0.0
 10
55.6700601812
 20
93.7878012313
 30
0.0
  0
SPLINE
  5
38F
100
AcDbEntity
  8
0
100
AcDbSpline
 62
7
  6
CONTINUOUS
 70
0
 71
3
 72
9
 73
5
 74
0
 42
0.0000001
 43
0.0000001
 44
0.0000000001
 40
0.0
 40
0.0
 40
0.0
 40
0.0
 40
0.2360819463
 40
1.0
 40
1.0
 40
1.0
 40
1.0
 10
55.6700601812
 20
93.7878012313
 30
0.0
 10
55.7355379951
 20
93.749998453
 30
0.0
 10
56.0220810819
 20
93.6058386577
 30
0.0
 10
56.336777428
 20
93.5222352692
 30
0.0
 10
56.5786791316
 20
93.4856682106
 30
0.0
  0
SPLINE
  5
390
100
AcDbEntity
  8
0
100
AcDbSpline
 62
7
  6
CONTINUOUS
 70
0
 71
3
 72
13
 73
9
 74
0
 42
0.0000001
 43
0.0000001
 44
0.0000000001
 40
0.0
 40
0.0
 40
0.0
 40
0.0
 40
0.298289911
 40
0.5610582703
 40
0.6797127665
 40
0.7910605595
 40
0.8969808047
 40
1.0
 40
1.0
 40
1.0
 40
1.0
 10
61.1723675547
 20
93.8532592189
 30
0.0
 10
60.9595856009
 20
94.0209425377
 30
0.0
 10
60.532058162
 20
94.3042271597
 30
0.0
 10
59.9489425887
 20
94.5285293081
 30
0.0
 10
59.5042666613
 20
94.5928102711
 30
0.0
 10
59.1976160993
 20
94.5854945692
 30
0.0
 10
58.9114924692
 20
94.5238187701
 30
0.0
 10
58.7365731982
 20
94.4461347145
 30
0.0
 10
58.6555358811
 20
94.3993671839
 30
0.0
  0
SPLINE
  5
391
100
AcDbEntity
  8
0
100
AcDbSpline
 62
7
  6
CONTINUOUS
 70
0
 71
3
 72
9
 73
5
 74
0
 42
0.0000001
 43
0.0000001
 44
0.0000000001
 40
0.0
 40
0.0
 40
0.0
 40
0.0
 40
0.4763751468
 40
1.0
 40
1.0
 40
1.0
 40
1.0
 10
45.6246617305
 20
99.7173599003
 30
0.0
 10
45.6764220756
 20
99.6292286946
 30
0.0
 10
45.814743706
 20
99.460925917
 30
0.0
 10
45.9905425487
 20
99.3342987417
 30
0.0
 10
46.0878355187
 20
99.278126421
 30
0.0
  0
SPLINE
  5
392
100
AcDbEntity
  8
0
100
AcDbSpline
 62
7
  6
CONTINUOUS
 70
0
 71
3
 72
9
 73
5
 74
0
 42
0.0000001
 43
0.0000001
 44
0.0000000001
 40
0.0
 40
0.0
 40
0.0
 40
0.0
 40
0.2356199053
 40
1.0
 40
1.0
 40
1.0
 40
1.0
 10
46.0878355187
 20
99.278126421
 30
0.0
 10
46.1408411352
 20
99.2475235061
 30
0.0
 10
46.3730938708
 20
99.1303075169
 30
0.0
 10
46.6277568847
 20
99.0610278373
 30
0.0
 10
46.8238288176
 20
99.0297009329
 30
0.0
  0
SPLINE
  5
393
100
AcDbEntity
  8
0
100
AcDbSpline
 62
7
  6
CONTINUOUS
 70
0
 71
3
 72
11
 73
7
 74
0
 42
0.0000001
 43
0.0000001
 44
0.0000000001
 40
0.0
 40
0.0
 40
0.0
 40
0.0
 40
0.2867835408
 40
0.5449702661
 40
0.7793829771
 40
1.0
 40
1.0
 40
1.0
 40
1.0
 10
50.972358617
 20
99.7910325637
 30
0.0
 10
50.8075058143
 20
99.8765152736
 30
0.0
 10
50.4803648893
 20
100.01474239
 30
0.0
 10
49.9812459456
 20
100.1140628506
 30
0.0
 10
49.514397065
 20
100.0880146898
 30
0.0
 10
49.2332824781
 20
99.9820220996
 30
0.0
 10
49.1095545917
 20
99.9106173699
 30
0.0
  0
SPLINE
  5
394
100
AcDbEntity
  8
0
100
AcDbSpline
 62
7
  6
CONTINUOUS
 70
0
 71
3
 72
11
 73
7
 74
0
 42
0.0000001
 43
0.0000001
 44
0.0000000001
 40
0.0
 40
0.0
 40
0.0
 40
0.0
 40
0.2168853078
 40
0.4555519694
 40
0.7174624284
 40
1.0
 40
1.0
 40
1.0
 40
1.0
 10
36.078680441
 20
105.2286100863
 30
0.0
 10
36.1308005758
 20
105.1398662746
 30
0.0
 10
36.2706140301
 20
104.9705074959
 30
0.0
 10
36.549574219
 20
104.7703213661
 30
0.0
 10
36.8927376923
 20
104.6217594788
 30
0.0
 10
37.1454557866
 20
104.5621036795
 30
0.0
 10
37.2778475281
 20
104.5409511189
 30
0.0
  0
SPLINE
  5
395
100
AcDbEntity
  8
0
100
AcDbSpline
 62
7
  6
CONTINUOUS
 70
0
 71
3
 72
11
 73
7
 74
0
 42
0.0000001
 43
0.0000001
 44
0.0000000001
 40
0.0
 40
0.0
 40
0.0
 40
0.0
 40
0.2867835408
 40
0.5449702661
 40
0.7793829771
 40
1.0
 40
1.0
 40
1.0
 40
1.0
 10
41.4263773275
 20
105.3022827498
 30
0.0
 10
41.2615245248
 20
105.3877654596
 30
0.0
 10
40.9343835998
 20
105.525992576
 30
0.0
 10
40.4352646561
 20
105.6253130366
 30
0.0
 10
39.9684157755
 20
105.5992648758
 30
0.0
 10
39.6873011886
 20
105.4932722856
 30
0.0
 10
39.5635733022
 20
105.4218675559
 30
0.0
  0
SPLINE
  5
396
100
AcDbEntity
  8
0
100
AcDbSpline
 62
7
  6
CONTINUOUS
 70
0
 71
3
 72
20
 73
16
 74
0
 42
0.0000001
 43
0.0000001
 44
0.0000000001
 40
0.0
 40
0.0
 40
0.0
 40
0.0
 40
0.0641896956
 40
0.1326761226
 40
0.2786333629
 40
0.4297433405
 40
0.5766697739
 40
0.6458373635
 40
0.7108287988
 40
0.7709212159
 40
0.8256884305
 40
0.87512133
 40
0.9197436478
 40
0.9607453585
 40
1.0
 40
1.0
 40
1.0
 40
1.0
 10
30.818138577
 20
92.4584299878
 30
0.0
 10
30.818138577
 20
92.6255730848
 30
0.0
 10
30.7966536576
 20
92.9712564982
 30
0.0
 10
30.6772148759
 20
93.6878444742
 30
0.0
 10
30.3899031753
 20
94.6007667366
 30
0.0
 10
29.8738872411
 20
95.6398027014
 30
0.0
 10
29.320670854
 20
96.4254004317
 30
0.0
 10
28.8247101504
 20
96.9648397214
 30
0.0
 10
28.4479004362
 20
97.3035957395
 30
0.0
 10
28.0667166686
 20
97.5775134828
 30
0.0
 10
27.6887473449
 20
97.7809399943
 30
0.0
 10
27.3210880849
 20
97.9094504731
 30
0.0
 10
26.9701557894
 20
97.9592603705
 30
0.0
 10
26.6430243207
 20
97.9269974933
 30
0.0
 10
26.445761302
 20
97.8483757193
 30
0.0
 10
26.3572251994
 20
97.7972949865
 30
0.0
  0
SPLINE
  5
397
100
AcDbEntity
  8
0
100
AcDbSpline
 62
7
  6
CONTINUOUS
 70
0
 71
3
 72
15
 73
11
 74
0
 42
0.0000001
 43
0.0000001
 44
0.0000000001
 40
0.0
 40
0.0
 40
0.0
 40
0.0
 40
0.1140130403
 40
0.236986796
 40
0.3664307774
 40
0.4993603919
 40
0.6324407893
 40
0.7622597324
 40
0.8856963231
 40
1.0
 40
1.0
 40
1.0
 40
1.0
 10
40.2036100646
 20
86.8545099777
 30
0.0
 10
40.2036100646
 20
87.0786661841
 30
0.0
 10
40.1617687498
 20
87.545088136
 30
0.0
 10
39.9934707524
 20
88.2476346293
 30
0.0
 10
39.7250734159
 20
88.9581041527
 30
0.0
 10
39.3673719581
 20
89.6502995015
 30
0.0
 10
38.933505973
 20
90.2983492716
 30
0.0
 10
38.4407127315
 20
90.878673586
 30
0.0
 10
37.9089132464
 20
91.3705256967
 30
0.0
 10
37.5241762102
 20
91.6397164344
 30
0.0
 10
37.3295552862
 20
91.7520783353
 30
0.0
  0
SPLINE
  5
398
100
AcDbEntity
  8
0
100
AcDbSpline
 62
7
  6
CONTINUOUS
 70
0
 71
3
 72
12
 73
8
 74
0
 42
0.0000001
 43
0.0000001
 44
0.0000000001
 40
0.0
 40
0.0
 40
0.0
 40
0.0
 40
0.2914256125
 40
0.5511671492
 40
0.7834239825
 40
0.8928148973
 40
1.0
 40
1.0
 40
1.0
 40
1.0
 10
37.3295552862
 20
91.7520783353
 30
0.0
 10
37.1536864942
 20
91.8536139327
 30
0.0
 10
36.8046490332
 20
92.0197789114
 30
0.0
 10
36.2705943783
 20
92.1522365527
 30
0.0
 10
35.84482304
 20
92.1445600849
 30
0.0
 10
35.5416803709
 20
92.0624197022
 30
0.0
 10
35.4041152908
 20
91.9981704398
 30
0.0
 10
35.3394583536
 20
91.9607795969
 30
0.0
  0
SPLINE
  5
399
100
AcDbEntity
  8
0
100
AcDbSpline
 62
7
  6
CONTINUOUS
 70
0
 71
3
 72
17
 73
13
 74
0
 42
0.0000001
 43
0.0000001
 44
0.0000000001
 40
0.0
 40
0.0
 40
0.0
 40
0.0
 40
0.1254266166
 40
0.2631285135
 40
0.4070473576
 40
0.5497599764
 40
0.6839799193
 40
0.8040033021
 40
0.8579999771
 40
0.9081192574
 40
0.9550651263
 40
1.0
 40
1.0
 40
1.0
 40
1.0
 10
50.3826608168
 20
81.7087604346
 30
0.0
 10
50.3826608168
 20
82.0507247009
 30
0.0
 10
50.276212681
 20
82.7692798067
 30
0.0
 10
49.8765491613
 20
83.8116832623
 30
0.0
 10
49.265009543
 20
84.8014221555
 30
0.0
 10
48.4935041547
 20
85.6593750031
 30
0.0
 10
47.627534451
 20
86.3194349937
 30
0.0
 10
46.8537672494
 20
86.6737870197
 30
0.0
 10
46.2526947297
 20
86.7970505453
 30
0.0
 10
45.8385589375
 20
86.808932877
 30
0.0
 10
45.4543379326
 20
86.7421043704
 30
0.0
 10
45.2212030584
 20
86.6431302794
 30
0.0
 10
45.1150896675
 20
86.5819023765
 30
0.0
  0
SPLINE
  5
39A
100
AcDbEntity
  8
0
100
AcDbSpline
 62
7
  6
CONTINUOUS
 70
0
 71
3
 72
11
 73
7
 74
0
 42
0.0000001
 43
0.0000001
 44
0.0000000001
 40
0.0
 40
0.0
 40
0.0
 40
0.0
 40
0.2422036115
 40
0.4999991942
 40
0.7577952019
 40
1.0
 40
1.0
 40
1.0
 40
1.0
 10
49.3418546737
 20
82.0604940755
 30
0.0
 10
49.0797969934
 20
82.264443302
 30
0.0
 10
48.5874011241
 20
82.7494804214
 30
0.0
 10
47.9897421881
 20
83.605382897
 30
0.0
 10
47.5473333593
 20
84.5509214015
 30
0.0
 10
47.3734723947
 20
85.2198683092
 30
0.0
 10
47.3278732894
 20
85.5487927942
 30
0.0
  0
SPLINE
  5
39B
100
AcDbEntity
  8
0
100
AcDbSpline
 62
7
  6
CONTINUOUS
 70
0
 71
3
 72
11
 73
7
 74
0
 42
0.0000001
 43
0.0000001
 44
0.0000000001
 40
0.0
 40
0.0
 40
0.0
 40
0.0
 40
0.2422036115
 40
0.4999991942
 40
0.7577952019
 40
1.0
 40
1.0
 40
1.0
 40
1.0
 10
30.2498920947
 20
93.0829944475
 30
0.0
 10
29.9878344144
 20
93.286943674
 30
0.0
 10
29.4954385451
 20
93.7719807935
 30
0.0
 10
28.8977796091
 20
94.627883269
 30
0.0
 10
28.4553707803
 20
95.5734217736
 30
0.0
 10
28.2815098158
 20
96.2423686812
 30
0.0
 10
28.2359107104
 20
96.5712931663
 30
0.0
  0
SPLINE
  5
39C
100
AcDbEntity
  8
0
100
AcDbSpline
 62
7
  6
CONTINUOUS
 70
0
 71
3
 72
10
 73
6
 74
0
 42
0.0000001
 43
0.0000001
 44
0.0000000001
 40
0.0
 40
0.0
 40
0.0
 40
0.0
 40
0.2399309089
 40
0.4907062074
 40
1.0
 40
1.0
 40
1.0
 40
1.0
 10
61.9065094715
 20
118.5824373545
 30
0.0
 10
61.7656178729
 20
118.5293759691
 30
0.0
 10
61.4701424809
 20
118.4393295304
 30
0.0
 10
60.8521747867
 20
118.3267789487
 30
0.0
 10
60.3687884599
 20
118.3227917336
 30
0.0
 10
60.0517258428
 20
118.3627639088
 30
0.0
  0
SPLINE
  5
39D
100
AcDbEntity
  8
0
100
AcDbSpline
 62
7
  6
CONTINUOUS
 70
0
 71
3
 72
9
 73
5
 74
0
 42
0.0000001
 43
0.0000001
 44
0.0000000001
 40
0.0
 40
0.0
 40
0.0
 40
0.0
 40
0.5181533949
 40
1.0
 40
1.0
 40
1.0
 40
1.0
 10
60.0517258428
 20
118.3627639088
 30
0.0
 10
59.8253673678
 20
118.3913009867
 30
0.0
 10
59.3922953722
 20
118.4887944885
 30
0.0
 10
58.9918998504
 20
118.6856032065
 30
0.0
 10
58.8173069645
 20
118.8061470411
 30
0.0
  0
SPLINE
  5
39E
100
AcDbEntity
  8
0
100
AcDbSpline
 62
7
  6
CONTINUOUS
 70
0
 71
3
 72
9
 73
5
 74
0
 42
0.0000001
 43
0.0000001
 44
0.0000000001
 40
0.0
 40
0.0
 40
0.0
 40
0.0
 40
0.243187467
 40
1.0
 40
1.0
 40
1.0
 40
1.0
 10
58.8173069645
 20
118.8061470411
 30
0.0
 10
58.6662989667
 20
118.9104072063
 30
0.0
 10
58.0532400827
 20
119.3505100736
 30
0.0
 10
57.471588405
 20
119.8339004242
 30
0.0
 10
57.0495326517
 20
120.2185999145
 30
0.0
  0
SPLINE
  5
39F
100
AcDbEntity
  8
0
100
AcDbSpline
 62
7
  6
CONTINUOUS
 70
0
 71
3
 72
9
 73
5
 74
0
 42
0.0000001
 43
0.0000001
 44
0.0000000001
 40
0.0
 40
0.0
 40
0.0
 40
0.0
 40
0.5129606624
 40
1.0
 40
1.0
 40
1.0
 40
1.0
 10
64.7472351933
 20
120.3613290871
 30
0.0
 10
64.8089583273
 20
120.3640129185
 30
0.0
 10
64.9299460995
 20
120.3583648202
 30
0.0
 10
65.0481964631
 20
120.3304172894
 30
0.0
 10
65.1031290697
 20
120.3098420178
 30
0.0
  0
SPLINE
  5
3A0
100
AcDbEntity
  8
0
100
AcDbSpline
 62
7
  6
CONTINUOUS
 70
0
 71
3
 72
9
 73
5
 74
0
 42
0.0000001
 43
0.0000001
 44
0.0000000001
 40
0.0
 40
0.0
 40
0.0
 40
0.0
 40
0.532259433
 40
1.0
 40
1.0
 40
1.0
 40
1.0
 10
79.3341485875
 20
112.0937449413
 30
0.0
 10
79.3615160657
 20
112.0693903716
 30
0.0
 10
79.4069451328
 20
112.0151982995
 30
0.0
 10
79.4249721425
 20
111.9457296807
 30
0.0
 10
79.4249721432
 20
111.9135354553
 30
0.0
  0
SPLINE
  5
3A1
100
AcDbEntity
  8
0
100
AcDbSpline
 62
7
  6
CONTINUOUS
 70
0
 71
3
 72
11
 73
7
 74
0
 42
0.0000001
 43
0.0000001
 44
0.0000000001
 40
0.0
 40
0.0
 40
0.0
 40
0.0
 40
0.2763745747
 40
0.533257639
 40
0.7730520825
 40
1.0
 40
1.0
 40
1.0
 40
1.0
 10
79.8184658014
 20
106.6813966319
 30
0.0
 10
79.7377889776
 20
106.7188505501
 30
0.0
 10
79.5868655054
 20
106.8022533788
 30
0.0
 10
79.3914315024
 20
106.958398405
 30
0.0
 10
79.2400524436
 20
107.1374505985
 30
0.0
 10
79.1696233062
 20
107.2718911224
 30
0.0
 10
79.1437834649
 20
107.3402072677
 30
0.0
  0
SPLINE
  5
3A2
100
AcDbEntity
  8
0
100
AcDbSpline
 62
7
  6
CONTINUOUS
 70
0
 71
3
 72
9
 73
5
 74
0
 42
0.0000001
 43
0.0000001
 44
0.0000000001
 40
0.0
 40
0.0
 40
0.0
 40
0.0
 40
0.2403699873
 40
1.0
 40
1.0
 40
1.0
 40
1.0
 10
81.5862401143
 20
106.0526457327
 30
0.0
 10
81.4400304809
 20
106.0882016745
 30
0.0
 10
80.835870009
 20
106.2528726019
 30
0.0
 10
80.2497786693
 20
106.4811612222
 30
0.0
 10
79.8184658014
 20
106.6813966319
 30
0.0
  0
SPLINE
  5
3A3
100
AcDbEntity
  8
0
100
AcDbSpline
 62
7
  6
CONTINUOUS
 70
0
 71
3
 72
11
 73
7
 74
0
 42
0.0000001
 43
0.0000001
 44
0.0000000001
 40
0.0
 40
0.0
 40
0.0
 40
0.0
 40
0.2422036115
 40
0.4999991942
 40
0.7577952019
 40
1.0
 40
1.0
 40
1.0
 40
1.0
 10
39.7958733842
 20
87.5717442615
 30
0.0
 10
39.5338157039
 20
87.775693488
 30
0.0
 10
39.0414198346
 20
88.2607306075
 30
0.0
 10
38.4437608986
 20
89.116633083
 30
0.0
 10
38.0013520698
 20
90.0621715876
 30
0.0
 10
37.8274911053
 20
90.7311184952
 30
0.0
 10
37.7818919999
 20
91.0600429803
 30
0.0
  0
SPLINE
  5
3A4
100
AcDbEntity
  8
0
100
AcDbSpline
 62
7
  6
CONTINUOUS
 70
0
 71
3
 72
12
 73
8
 74
0
 42
0.0000001
 43
0.0000001
 44
0.0000000001
 40
0.0
 40
0.0
 40
0.0
 40
0.0
 40
0.1018692579
 40
0.2072899898
 40
0.4364188676
 40
0.6996548999
 40
1.0
 40
1.0
 40
1.0
 40
1.0
 10
26.3572251994
 20
97.7972949865
 30
0.0
 10
26.2977847209
 20
97.7630009177
 30
0.0
 10
26.1833023785
 20
97.6813496266
 30
0.0
 10
25.978003382
 20
97.4690010647
 30
0.0
 10
25.7770366033
 20
97.112418643
 30
0.0
 10
25.6394037664
 20
96.5925640689
 30
0.0
 10
25.6126071449
 20
96.2117608829
 30
0.0
 10
25.6126071449
 20
96.0094340654
 30
0.0
  0
LINE
  5
3A5
100
AcDbEntity
  8
0
100
AcDbLine
 62
7
  6
CONTINUOUS
 10
13.060731102
 20
82.0247418684
 11
12.989863704
 21
82.0654745952
  0
SPLINE
  5
3A6
100
AcDbEntity
  8
0
100
AcDbSpline
 62
7
  6
CONTINUOUS
 70
0
 71
3
 72
9
 73
5
 74
0
 42
0.0000001
 43
0.0000001
 44
0.0000000001
 40
0.0
 40
0.0
 40
0.0
 40
0.0
 40
0.5184727966
 40
1.0
 40
1.0
 40
1.0
 40
1.0
 10
57.0567553043
 20
99.5470992348
 30
0.0
 10
57.6121315143
 20
98.972468211
 30
0.0
 10
58.7494526612
 20
97.9255862281
 30
0.0
 10
60.0202425253
 20
97.0415641863
 30
0.0
 10
60.6630149026
 20
96.6704677765
 30
0.0
  0
SPLINE
  5
3A7
100
AcDbEntity
  8
0
100
AcDbSpline
 62
7
  6
CONTINUOUS
 70
0
 71
3
 72
9
 73
5
 74
0
 42
0.0000001
 43
0.0000001
 44
0.0000000001
 40
0.0
 40
0.0
 40
0.0
 40
0.0
 40
0.524090572
 40
1.0
 40
1.0
 40
1.0
 40
1.0
 10
60.6630149026
 20
96.6704677765
 30
0.0
 10
61.1968970486
 20
96.3622377489
 30
0.0
 10
62.2588321096
 20
95.8442473008
 30
0.0
 10
63.3988147902
 20
95.5201038415
 30
0.0
 10
63.9510751245
 20
95.4285572551
 30
0.0
  0
SPLINE
  5
3A8
100
AcDbEntity
  8
0
100
AcDbSpline
 62
7
  6
CONTINUOUS
 70
0
 71
3
 72
12
 73
8
 74
0
 42
0.0000001
 43
0.0000001
 44
0.0000000001
 40
0.0
 40
0.0
 40
0.0
 40
0.0
 40
0.107185834
 40
0.2165693875
 40
0.4487368329
 40
0.7084079025
 40
1.0
 40
1.0
 40
1.0
 40
1.0
 10
35.3394583536
 20
91.9607795969
 30
0.0
 10
35.274793782
 20
91.923384339
 30
0.0
 10
35.1504876286
 20
91.8361955436
 30
0.0
 10
34.9278628423
 20
91.6147374811
 30
0.0
 10
34.7078359838
 20
91.2502785822
 30
0.0
 10
34.5551981459
 20
90.7214285182
 30
0.0
 10
34.5255189717
 20
90.3358964943
 30
0.0
 10
34.5255189717
 20
90.1326832365
 30
0.0
  0
SPLINE
  5
3A9
100
AcDbEntity
  8
0
100
AcDbSpline
 62
7
  6
CONTINUOUS
 70
0
 71
3
 72
8
 73
4
 74
0
 42
0.0000001
 43
0.0000001
 44
0.0000000001
 40
0.0
 40
0.0
 40
0.0
 40
0.0
 40
1.0
 40
1.0
 40
1.0
 40
1.0
 10
79.4233316509
 20
110.3422826268
 30
0.0
 10
79.4203548995
 20
110.3145773144
 30
0.0
 10
79.4123920914
 20
110.2870126532
 30
0.0
 10
79.400221623
 20
110.2619462397
 30
0.0
  0
SPLINE
  5
3AA
100
AcDbEntity
  8
0
100
AcDbSpline
 62
7
  6
CONTINUOUS
 70
0
 71
3
 72
9
 73
5
 74
0
 42
0.0000001
 43
0.0000001
 44
0.0000000001
 40
0.0
 40
0.0
 40
0.0
 40
0.0
 40
0.4798173464
 40
1.0
 40
1.0
 40
1.0
 40
1.0
 10
79.400221623
 20
110.2619462397
 30
0.0
 10
79.3876402939
 20
110.2360336135
 30
0.0
 10
79.3516649492
 20
110.1864627787
 30
0.0
 10
79.3028891896
 20
110.1500814442
 30
0.0
 10
79.275844258
 20
110.1344671388
 30
0.0
  0
SPLINE
  5
3AB
100
AcDbEntity
  8
0
100
AcDbSpline
 62
7
  6
CONTINUOUS
 70
0
 71
3
 72
11
 73
7
 74
0
 42
0.0000001
 43
0.0000001
 44
0.0000000001
 40
0.0
 40
0.0
 40
0.0
 40
0.0
 40
0.2306705992
 40
0.4861889858
 40
0.7484288695
 40
1.0
 40
1.0
 40
1.0
 40
1.0
 10
76.9970958784
 20
108.8188390017
 30
0.0
 10
76.9064844075
 20
108.7665247568
 30
0.0
 10
76.6904794478
 20
108.6986733771
 30
0.0
 10
76.346726876
 20
108.7021207247
 30
0.0
 10
76.0077889961
 20
108.8019673749
 30
0.0
 10
75.8084392353
 20
108.9308720461
 30
0.0
 10
75.7243036723
 20
109.0079570928
 30
0.0
  0
SPLINE
  5
3AC
100
AcDbEntity
  8
0
100
AcDbSpline
 62
7
  6
CONTINUOUS
 70
0
 71
3
 72
9
 73
5
 74
0
 42
0.0000001
 43
0.0000001
 44
0.0000000001
 40
0.0
 40
0.0
 40
0.0
 40
0.0
 40
0.2378220142
 40
1.0
 40
1.0
 40
1.0
 40
1.0
 10
73.0019312305
 20
111.142714323
 30
0.0
 10
72.8225463563
 20
111.1517533405
 30
0.0
 10
72.0699023841
 20
111.2214569952
 30
0.0
 10
71.3308943089
 20
111.4116202755
 30
0.0
 10
70.7884213783
 20
111.604153504
 30
0.0
  0
SPLINE
  5
3AD
100
AcDbEntity
  8
0
100
AcDbSpline
 62
7
  6
CONTINUOUS
 70
0
 71
3
 72
9
 73
5
 74
0
 42
0.0000001
 43
0.0000001
 44
0.0000000001
 40
0.0
 40
0.0
 40
0.0
 40
0.0
 40
0.2428169282
 40
1.0
 40
1.0
 40
1.0
 40
1.0
 10
67.0836792435
 20
113.7430389848
 30
0.0
 10
66.8909381775
 20
113.8971849526
 30
0.0
 10
66.111160105
 20
114.5494108449
 30
0.0
 10
65.3867573238
 20
115.26702246
 30
0.0
 10
64.8701693913
 20
115.837483
 30
0.0
  0
SPLINE
  5
3AE
100
AcDbEntity
  8
0
100
AcDbSpline
 62
7
  6
CONTINUOUS
 70
0
 71
3
 72
9
 73
5
 74
0
 42
0.0000001
 43
0.0000001
 44
0.0000000001
 40
0.0
 40
0.0
 40
0.0
 40
0.0
 40
0.2427361341
 40
1.0
 40
1.0
 40
1.0
 40
1.0
 10
63.455949941
 20
116.6539645091
 30
0.0
 10
63.3490174172
 20
116.6593527279
 30
0.0
 10
62.9090710721
 20
116.6925797999
 30
0.0
 10
62.4727065356
 20
116.768697125
 30
0.0
 10
62.1477969495
 20
116.8461795796
 30
0.0
  0
SPLINE
  5
3AF
100
AcDbEntity
  8
0
100
AcDbSpline
 62
7
  6
CONTINUOUS
 70
0
 71
3
 72
9
 73
5
 74
0
 42
0.0000001
 43
0.0000001
 44
0.0000000001
 40
0.0
 40
0.0
 40
0.0
 40
0.0
 40
0.2461322353
 40
1.0
 40
1.0
 40
1.0
 40
1.0
 10
75.7243036723
 20
109.0079570928
 30
0.0
 10
75.6119339209
 20
109.1109103176
 30
0.0
 10
75.1605198699
 20
109.5347682693
 30
0.0
 10
74.7294753741
 20
109.9802329125
 30
0.0
 10
74.4161506808
 20
110.326232814
 30
0.0
  0
SPLINE
  5
3B0
100
AcDbEntity
  8
0
100
AcDbSpline
 62
7
  6
CONTINUOUS
 70
0
 71
3
 72
9
 73
5
 74
0
 42
0.0000001
 43
0.0000001
 44
0.0000000001
 40
0.0
 40
0.0
 40
0.0
 40
0.0
 40
0.2530053151
 40
1.0
 40
1.0
 40
1.0
 40
1.0
 10
40.0911721244
 20
40.0899499711
 30
0.0
 10
39.340002434
 20
40.4331731617
 30
0.0
 10
36.3802769285
 20
41.8099099234
 30
0.0
 10
33.4582909048
 20
43.2680028258
 30
0.0
 10
31.3010365884
 20
44.4046086859
 30
0.0
  0
SPLINE
  5
3B1
100
AcDbEntity
  8
0
100
AcDbSpline
 62
7
  6
CONTINUOUS
 70
0
 71
3
 72
13
 73
9
 74
0
 42
0.0000001
 43
0.0000001
 44
0.0000000001
 40
0.0
 40
0.0
 40
0.0
 40
0.0
 40
0.3017712894
 40
0.5692068655
 40
0.6891042401
 40
0.8000440083
 40
0.9030747876
 40
1.0
 40
1.0
 40
1.0
 40
1.0
 10
27.2937043636
 20
34.0979014424
 30
0.0
 10
27.4773407847
 20
33.885476227
 30
0.0
 10
27.8527803207
 20
33.5084805363
 30
0.0
 10
28.3844625062
 20
33.1404009444
 30
0.0
 10
28.8094899041
 20
32.9519641452
 30
0.0
 10
29.1097342932
 20
32.8673828452
 30
0.0
 10
29.3987853142
 20
32.8361546242
 30
0.0
 10
29.5857063822
 20
32.8519843126
 30
0.0
 10
29.6742042926
 20
32.8693646311
 30
0.0
  0
LINE
  5
3B2
100
AcDbEntity
  8
0
100
AcDbLine
 62
7
  6
CONTINUOUS
 10
20.2175883691
 20
50.9625801688
 11
20.1297932626
 21
51.0187397684
  0
SPLINE
  5
3B3
100
AcDbEntity
  8
0
100
AcDbSpline
 62
7
  6
CONTINUOUS
 70
0
 71
3
 72
9
 73
5
 74
0
 42
0.0000001
 43
0.0000001
 44
0.0000000001
 40
0.0
 40
0.0
 40
0.0
 40
0.0
 40
0.252429696
 40
1.0
 40
1.0
 40
1.0
 40
1.0
 10
25.8766005718
 20
47.3964900941
 30
0.0
 10
25.3890322657
 20
47.6779814187
 30
0.0
 10
23.4636286077
 20
48.8036293857
 30
0.0
 10
21.5629715076
 20
49.9716710799
 30
0.0
 10
20.1579092394
 20
50.8692746703
 30
0.0
  0
SPLINE
  5
3B4
100
AcDbEntity
  8
0
100
AcDbSpline
 62
7
  6
CONTINUOUS
 70
0
 71
3
 72
11
 73
7
 74
0
 42
0.0000001
 43
0.0000001
 44
0.0000000001
 40
0.0
 40
0.0
 40
0.0
 40
0.0
 40
0.2370449797
 40
0.4999970706
 40
0.7629515519
 40
1.0
 40
1.0
 40
1.0
 40
1.0
 10
40.2843222342
 20
33.4081825228
 30
0.0
 10
40.2993672012
 20
33.3994965036
 30
0.0
 10
40.3278110764
 20
33.3754656436
 30
0.0
 10
40.3611828977
 20
33.3300842034
 30
0.0
 10
40.3837987698
 20
33.2784925244
 30
0.0
 10
40.390388693
 20
33.2418436345
 30
0.0
 10
40.390388693
 20
33.2244710471
 30
0.0
  0
SPLINE
  5
3B5
100
AcDbEntity
  8
0
100
AcDbSpline
 62
7
  6
CONTINUOUS
 70
0
 71
3
 72
9
 73
5
 74
0
 42
0.0000001
 43
0.0000001
 44
0.0000000001
 40
0.0
 40
0.0
 40
0.0
 40
0.0
 40
0.5500390311
 40
1.0
 40
1.0
 40
1.0
 40
1.0
 10
40.390388693
 20
26.978227556
 30
0.0
 10
40.390388693
 20
26.9639258652
 30
0.0
 10
40.3868187558
 20
26.9373594385
 30
0.0
 10
40.3694609268
 20
26.915397422
 30
0.0
 10
40.3593288174
 20
26.909547674
 30
0.0
  0
SPLINE
  5
3B6
100
AcDbEntity
  8
0
100
AcDbSpline
 62
7
  6
CONTINUOUS
 70
0
 71
3
 72
16
 73
12
 74
0
 42
0.0000001
 43
0.0000001
 44
0.0000000001
 40
0.0
 40
0.0
 40
0.0
 40
0.0
 40
0.1544232544
 40
0.3049878986
 40
0.4481213102
 40
0.580935989
 40
0.7016203489
 40
0.8099671876
 40
0.9078922105
 40
0.9543503599
 40
1.0
 40
1.0
 40
1.0
 40
1.0
 10
35.3141191992
 20
29.724791498
 30
0.0
 10
35.4419531082
 20
29.494140393
 30
0.0
 10
35.7204277264
 20
29.0524130273
 30
0.0
 10
36.2025552582
 20
28.4558297662
 30
0.0
 10
36.729935371
 20
27.9502572535
 30
0.0
 10
37.2835358848
 20
27.5552467179
 30
0.0
 10
37.8440272548
 20
27.2862751422
 30
0.0
 10
38.3917151783
 20
27.1546226024
 30
0.0
 10
38.8300221008
 20
27.1676085246
 30
0.0
 10
39.1438279957
 20
27.2551733809
 30
0.0
 10
39.2870454974
 20
27.3223325489
 30
0.0
 10
39.3545664376
 20
27.3612937508
 30
0.0
  0
SPLINE
  5
3B7
100
AcDbEntity
  8
0
100
AcDbSpline
 62
7
  6
CONTINUOUS
 70
0
 71
3
 72
9
 73
5
 74
0
 42
0.0000001
 43
0.0000001
 44
0.0000000001
 40
0.0
 40
0.0
 40
0.0
 40
0.0
 40
0.246150169
 40
1.0
 40
1.0
 40
1.0
 40
1.0
 10
29.9048349004
 20
39.4006467614
 30
0.0
 10
30.8066811438
 20
38.9143292313
 30
0.0
 10
34.4890757535
 20
36.9732393319
 30
0.0
 10
38.2432667824
 20
35.1688808656
 30
0.0
 10
41.1052540106
 20
33.8821448757
 30
0.0
  0
SPLINE
  5
3B8
100
AcDbEntity
  8
0
100
AcDbSpline
 62
7
  6
CONTINUOUS
 70
0
 71
3
 72
10
 73
6
 74
0
 42
0.0000001
 43
0.0000001
 44
0.0000000001
 40
0.0
 40
0.0
 40
0.0
 40
0.0
 40
0.5050936593
 40
0.7655246812
 40
1.0
 40
1.0
 40
1.0
 40
1.0
 10
41.1052540106
 20
33.8821448757
 30
0.0
 10
41.1392372333
 20
33.8668661787
 30
0.0
 10
41.1832857432
 20
33.825802966
 30
0.0
 10
41.2170694074
 20
33.7599743755
 30
0.0
 10
41.2245636903
 20
33.7233761635
 30
0.0
 10
41.2245636903
 20
33.7060793315
 30
0.0
  0
SPLINE
  5
3B9
100
AcDbEntity
  8
0
100
AcDbSpline
 62
7
  6
CONTINUOUS
 70
0
 71
3
 72
9
 73
5
 74
0
 42
0.0000001
 43
0.0000001
 44
0.0000000001
 40
0.0
 40
0.0
 40
0.0
 40
0.0
 40
0.5184727966
 40
1.0
 40
1.0
 40
1.0
 40
1.0
 10
47.5107740148
 20
105.0583494209
 30
0.0
 10
48.0661502248
 20
104.483718397
 30
0.0
 10
49.2034713717
 20
103.4368364141
 30
0.0
 10
50.4742612358
 20
102.5528143723
 30
0.0
 10
51.1170336131
 20
102.1817179625
 30
0.0
  0
SPLINE
  5
3BA
100
AcDbEntity
  8
0
100
AcDbSpline
 62
7
  6
CONTINUOUS
 70
0
 71
3
 72
9
 73
5
 74
0
 42
0.0000001
 43
0.0000001
 44
0.0000000001
 40
0.0
 40
0.0
 40
0.0
 40
0.0
 40
0.5235042042
 40
1.0
 40
1.0
 40
1.0
 40
1.0
 10
51.1170336131
 20
102.1817179625
 30
0.0
 10
51.6394980185
 20
101.8800798214
 30
0.0
 10
52.6789386365
 20
101.3711850519
 30
0.0
 10
53.7933591946
 20
101.0469936
 30
0.0
 10
54.3341820374
 20
100.9519312941
 30
0.0
  0
SPLINE
  5
3BB
100
AcDbEntity
  8
0
100
AcDbSpline
 62
7
  6
CONTINUOUS
 70
0
 71
3
 72
9
 73
5
 74
0
 42
0.0000001
 43
0.0000001
 44
0.0000000001
 40
0.0
 40
0.0
 40
0.0
 40
0.0
 40
0.5336006745
 40
1.0
 40
1.0
 40
1.0
 40
1.0
 10
41.2245636903
 20
27.4598358405
 30
0.0
 10
41.2245636903
 20
27.445261831
 30
0.0
 10
41.2199141485
 20
27.4172293048
 30
0.0
 10
41.2006459359
 20
27.3952762749
 30
0.0
 10
41.1896134106
 20
27.3889080346
 30
0.0
  0
SPLINE
  5
3BC
100
AcDbEntity
  8
0
100
AcDbSpline
 62
7
  6
CONTINUOUS
 70
0
 71
3
 72
18
 73
14
 74
0
 42
0.0000001
 43
0.0000001
 44
0.0000000001
 40
0.0
 40
0.0
 40
0.0
 40
0.0
 40
0.1252168012
 40
0.2627997185
 40
0.4062363655
 40
0.5480200019
 40
0.6161560483
 40
0.6814078737
 40
0.8010017334
 40
0.8552517607
 40
0.9059949504
 40
0.9538981223
 40
1.0
 40
1.0
 40
1.0
 40
1.0
 10
44.232010063
 20
27.0690322252
 30
0.0
 10
44.232010063
 20
26.7262160494
 30
0.0
 10
44.3337361674
 20
26.0057163749
 30
0.0
 10
44.7160050126
 20
24.9546883409
 30
0.0
 10
45.3067872716
 20
23.9519308127
 30
0.0
 10
45.9443686822
 20
23.2160105683
 30
0.0
 10
46.5186477179
 20
22.7262143218
 30
0.0
 10
47.0914827439
 20
22.3357633174
 30
0.0
 10
47.6964195578
 20
22.0612965185
 30
0.0
 10
48.3025118844
 20
21.9437654614
 30
0.0
 10
48.7235720064
 20
21.9370457371
 30
0.0
 10
49.1159818029
 20
22.0097133024
 30
0.0
 10
49.3548840997
 20
22.1123837158
 30
0.0
 10
49.4642066704
 20
22.1754651488
 30
0.0
  0
SPLINE
  5
3BD
100
AcDbEntity
  8
0
100
AcDbSpline
 62
7
  6
CONTINUOUS
 70
0
 71
3
 72
9
 73
5
 74
0
 42
0.0000001
 43
0.0000001
 44
0.0000000001
 40
0.0
 40
0.0
 40
0.0
 40
0.0
 40
0.2538067502
 40
1.0
 40
1.0
 40
1.0
 40
1.0
 10
27.7479042451
 20
62.3901213132
 30
0.0
 10
27.7479042451
 20
62.6693466734
 30
0.0
 10
27.738647743
 20
63.769468727
 30
0.0
 10
27.6918442172
 20
64.8693373778
 30
0.0
 10
27.6340805602
 20
65.6882267136
 30
0.0
  0
SPLINE
  5
3BE
100
AcDbEntity
  8
0
100
AcDbSpline
 62
7
  6
CONTINUOUS
 70
0
 71
3
 72
9
 73
5
 74
0
 42
0.0000001
 43
0.0000001
 44
0.0000000001
 40
0.0
 40
0.0
 40
0.0
 40
0.0
 40
0.4800022545
 40
1.0
 40
1.0
 40
1.0
 40
1.0
 10
27.6334338347
 20
65.7069659488
 30
0.0
 10
27.6334338347
 20
65.7593738399
 30
0.0
 10
27.6616684675
 20
65.868226697
 30
0.0
 10
27.7212513753
 20
65.9619894395
 30
0.0
 10
27.7596556852
 20
66.0038042197
 30
0.0
  0
SPLINE
  5
3BF
100
AcDbEntity
  8
0
100
AcDbSpline
 62
7
  6
CONTINUOUS
 70
0
 71
3
 72
11
 73
7
 74
0
 42
0.0000001
 43
0.0000001
 44
0.0000000001
 40
0.0
 40
0.0
 40
0.0
 40
0.0
 40
0.233493402
 40
0.4741779027
 40
0.7281525945
 40
1.0
 40
1.0
 40
1.0
 40
1.0
 10
49.1095545917
 20
99.9106173699
 30
0.0
 10
49.0247051362
 20
99.8616498121
 30
0.0
 10
48.8629904881
 20
99.7425780912
 30
0.0
 10
48.6597783336
 20
99.5117051568
 30
0.0
 10
48.4973125452
 20
99.2320980636
 30
0.0
 10
48.4203651716
 20
99.0241773965
 30
0.0
 10
48.3885169671
 20
98.9146565503
 30
0.0
  0
SPLINE
  5
3C0
100
AcDbEntity
  8
0
100
AcDbSpline
 62
7
  6
CONTINUOUS
 70
0
 71
3
 72
9
 73
5
 74
0
 42
0.0000001
 43
0.0000001
 44
0.0000000001
 40
0.0
 40
0.0
 40
0.0
 40
0.0
 40
0.5184727966
 40
1.0
 40
1.0
 40
1.0
 40
1.0
 10
37.9647927253
 20
110.5695996069
 30
0.0
 10
38.5201689353
 20
109.994968583
 30
0.0
 10
39.6574900822
 20
108.9480866001
 30
0.0
 10
40.9282799463
 20
108.0640645583
 30
0.0
 10
41.5710523236
 20
107.6929681486
 30
0.0
  0
SPLINE
  5
3C1
100
AcDbEntity
  8
0
100
AcDbSpline
 62
7
  6
CONTINUOUS
 70
0
 71
3
 72
9
 73
5
 74
0
 42
0.0000001
 43
0.0000001
 44
0.0000000001
 40
0.0
 40
0.0
 40
0.0
 40
0.0
 40
0.5235042042
 40
1.0
 40
1.0
 40
1.0
 40
1.0
 10
41.5710523236
 20
107.6929681486
 30
0.0
 10
42.093516729
 20
107.3913300074
 30
0.0
 10
43.132957347
 20
106.882435238
 30
0.0
 10
44.2473779052
 20
106.558243786
 30
0.0
 10
44.788200748
 20
106.4631814802
 30
0.0
  0
SPLINE
  5
3C2
100
AcDbEntity
  8
0
100
AcDbSpline
 62
7
  6
CONTINUOUS
 70
0
 71
3
 72
12
 73
8
 74
0
 42
0.0000001
 43
0.0000001
 44
0.0000000001
 40
0.0
 40
0.0
 40
0.0
 40
0.0
 40
0.1119219245
 40
0.2248544237
 40
0.4598050995
 40
0.7164612914
 40
1.0
 40
1.0
 40
1.0
 40
1.0
 10
45.1150896675
 20
86.5819023765
 30
0.0
 10
45.0452648968
 20
86.5416131705
 30
0.0
 10
44.9112434915
 20
86.4491867339
 30
0.0
 10
44.671249095
 20
86.2192234336
 30
0.0
 10
44.4323678576
 20
85.8469424779
 30
0.0
 10
44.2651748287
 20
85.3089257955
 30
0.0
 10
44.232010063
 20
84.918328887
 30
0.0
 10
44.232010063
 20
84.7141028746
 30
0.0
  0
SPLINE
  5
3C3
100
AcDbEntity
  8
0
100
AcDbSpline
 62
7
  6
CONTINUOUS
 70
0
 71
3
 72
21
 73
17
 74
0
 42
0.0000001
 43
0.0000001
 44
0.0000000001
 40
0.0
 40
0.0
 40
0.0
 40
0.0
 40
0.0639926317
 40
0.1323886775
 40
0.278075334
 40
0.4284852791
 40
0.5025930514
 40
0.574441959
 40
0.6430358423
 40
0.7075112009
 40
0.7672329965
 40
0.8220123164
 40
0.8718677026
 40
0.9172316199
 40
0.9593648165
 40
1.0
 40
1.0
 40
1.0
 40
1.0
 10
25.6126071449
 20
96.0094340654
 30
0.0
 10
25.6126071449
 20
95.8419690558
 30
0.0
 10
25.6331300389
 20
95.4953378224
 30
0.0
 10
25.7463030089
 20
94.7756396418
 30
0.0
 10
26.0182354547
 20
93.8565649974
 30
0.0
 10
26.4328696486
 20
92.9765967868
 30
0.0
 10
26.8433709269
 20
92.3177301466
 30
0.0
 10
27.1787696664
 20
91.8665632872
 30
0.0
 10
27.5367693075
 20
91.4662268782
 30
0.0
 10
27.9099703113
 20
91.125252258
 30
0.0
 10
28.2912584065
 20
90.8511292501
 30
0.0
 10
28.6722924157
 20
90.648429669
 30
0.0
 10
29.0458288172
 20
90.5209962414
 30
0.0
 10
29.4055200605
 20
90.4760848146
 30
0.0
 10
29.7420073091
 20
90.5152225957
 30
0.0
 10
29.9458747908
 20
90.5973006256
 30
0.0
 10
30.0380982171
 20
90.6502441656
 30
0.0
  0
SPLINE
  5
3C4
100
AcDbEntity
  8
0
100
AcDbSpline
 62
7
  6
CONTINUOUS
 70
0
 71
3
 72
9
 73
5
 74
0
 42
0.0000001
 43
0.0000001
 44
0.0000000001
 40
0.0
 40
0.0
 40
0.0
 40
0.0
 40
0.5365581762
 40
1.0
 40
1.0
 40
1.0
 40
1.0
 10
11.6985258114
 20
78.9548862133
 30
0.0
 10
11.6446953827
 20
78.9953567035
 30
0.0
 10
11.5527011122
 20
79.0844092324
 30
0.0
 10
11.5021233893
 20
79.2048333109
 30
0.0
 10
11.4943609798
 20
79.2624824614
 30
0.0
  0
SPLINE
  5
3C5
100
AcDbEntity
  8
0
100
AcDbSpline
 62
7
  6
CONTINUOUS
 70
0
 71
3
 72
15
 73
11
 74
0
 42
0.0000001
 43
0.0000001
 44
0.0000000001
 40
0.0
 40
0.0
 40
0.0
 40
0.0
 40
0.114604265
 40
0.238462122
 40
0.3687899856
 40
0.5022638183
 40
0.6353525739
 40
0.7646116794
 40
0.8869630243
 40
1.0
 40
1.0
 40
1.0
 40
1.0
 10
34.5255189717
 20
90.1326832365
 30
0.0
 10
34.5255189717
 20
89.9041109225
 30
0.0
 10
34.5670788778
 20
89.4280881451
 30
0.0
 10
34.7322456076
 20
88.7094214567
 30
0.0
 10
34.9970798191
 20
87.9810510453
 30
0.0
 10
35.3521078938
 20
87.2716460168
 30
0.0
 10
35.7844289375
 20
86.6090006958
 30
0.0
 10
36.2782852154
 20
86.0191685681
 30
0.0
 10
36.8151593237
 20
85.5254364051
 30
0.0
 10
37.2063537415
 20
85.2612627287
 30
0.0
 10
37.4042076034
 20
85.1531889353
 30
0.0
  0
SPLINE
  5
3C6
100
AcDbEntity
  8
0
100
AcDbSpline
 62
7
  6
CONTINUOUS
 70
0
 71
3
 72
11
 73
7
 74
0
 42
0.0000001
 43
0.0000001
 44
0.0000000001
 40
0.0
 40
0.0
 40
0.0
 40
0.0
 40
0.2863215316
 40
0.5444290953
 40
0.7790327099
 40
1.0
 40
1.0
 40
1.0
 40
1.0
 10
37.4042076034
 20
85.1531889353
 30
0.0
 10
37.5749962479
 20
85.0598989864
 30
0.0
 10
37.9153232814
 20
84.9083193575
 30
0.0
 10
38.4377848652
 20
84.7970487649
 30
0.0
 10
38.9285669778
 20
84.8206283725
 30
0.0
 10
39.2244819234
 20
84.9313018919
 30
0.0
 10
39.3545481201
 20
85.0063942664
 30
0.0
  0
SPLINE
  5
3C7
100
AcDbEntity
  8
0
100
AcDbSpline
 62
7
  6
CONTINUOUS
 70
0
 71
3
 72
19
 73
15
 74
0
 42
0.0000001
 43
0.0000001
 44
0.0000000001
 40
0.0
 40
0.0
 40
0.0
 40
0.0
 40
0.0608154138
 40
0.1254262151
 40
0.2629579037
 40
0.4063648535
 40
0.54813599
 40
0.6812637681
 40
0.7429911053
 40
0.8010350771
 40
0.8553143738
 40
0.9060161538
 40
0.9538972989
 40
1.0
 40
1.0
 40
1.0
 40
1.0
 10
44.232010063
 20
84.7141028746
 30
0.0
 10
44.232010063
 20
84.5475557723
 30
0.0
 10
44.2561305726
 20
84.2037926946
 30
0.0
 10
44.3904806341
 20
83.4950687765
 30
0.0
 10
44.7156298761
 20
82.5989779794
 30
0.0
 10
45.3074711316
 20
81.5969936064
 30
0.0
 10
46.0610980772
 20
80.725972681
 30
0.0
 10
46.795485103
 20
80.1551364768
 30
0.0
 10
47.4122944244
 20
79.8363937065
 30
0.0
 10
47.8624006617
 20
79.6749006494
 30
0.0
 10
48.3023611034
 20
79.5880272809
 30
0.0
 10
48.7235491415
 20
79.5817939741
 30
0.0
 10
49.1156394516
 20
79.6555215336
 30
0.0
 10
49.3546766764
 20
79.7577340289
 30
0.0
 10
49.4641478941
 20
79.8206344705
 30
0.0
  0
SPLINE
  5
3C8
100
AcDbEntity
  8
0
100
AcDbSpline
 62
7
  6
CONTINUOUS
 70
0
 71
3
 72
10
 73
6
 74
0
 42
0.0000001
 43
0.0000001
 44
0.0000000001
 40
0.0
 40
0.0
 40
0.0
 40
0.0
 40
0.5265676118
 40
0.7679322869
 40
1.0
 40
1.0
 40
1.0
 40
1.0
 10
38.9602222137
 20
104.4198248785
 30
0.0
 10
39.0112041811
 20
104.6230881648
 30
0.0
 10
39.1240188683
 20
104.9142368477
 30
0.0
 10
39.3619092378
 20
105.23554461
 30
0.0
 10
39.5019442226
 20
105.3638449087
 30
0.0
 10
39.5761071993
 20
105.4188865544
 30
0.0
  0
SPLINE
  5
3C9
100
AcDbEntity
  8
0
100
AcDbSpline
 62
7
  6
CONTINUOUS
 70
0
 71
3
 72
11
 73
7
 74
0
 42
0.0000001
 43
0.0000001
 44
0.0000000001
 40
0.0
 40
0.0
 40
0.0
 40
0.0
 40
0.2893980704
 40
0.5491296536
 40
0.782314874
 40
1.0
 40
1.0
 40
1.0
 40
1.0
 10
14.3192525381
 20
60.7606278733
 30
0.0
 10
14.2863793162
 20
60.7416486231
 30
0.0
 10
14.2267187473
 20
60.7004676549
 30
0.0
 10
14.155269953
 20
60.6255510306
 30
0.0
 10
14.1101358663
 20
60.5425371789
 30
0.0
 10
14.0995966094
 20
60.4829998204
 30
0.0
 10
14.0996167905
 20
60.4544473292
 30
0.0
  0
SPLINE
  5
3CA
100
AcDbEntity
  8
0
100
AcDbSpline
 62
7
  6
CONTINUOUS
 70
0
 71
3
 72
13
 73
9
 74
0
 42
0.0000001
 43
0.0000001
 44
0.0000000001
 40
0.0
 40
0.0
 40
0.0
 40
0.0
 40
0.1142249338
 40
0.2375584468
 40
0.4999994088
 40
0.7624406902
 40
0.885774603
 40
1.0
 40
1.0
 40
1.0
 40
1.0
 10
16.0233875056
 20
59.7032840131
 30
0.0
 10
15.9435382721
 20
59.6571833118
 30
0.0
 10
15.7688492739
 20
59.5758597888
 30
0.0
 10
15.3817574062
 20
59.4582506378
 30
0.0
 10
14.8566632879
 20
59.4011567832
 30
0.0
 10
14.3315685974
 20
59.4582481501
 30
0.0
 10
13.9444751744
 20
59.5758554317
 30
0.0
 10
13.7697850174
 20
59.6571780918
 30
0.0
 10
13.6899351277
 20
59.7032784042
 30
0.0
  0
SPLINE
  5
3CB
100
AcDbEntity
  8
0
100
AcDbSpline
 62
7
  6
CONTINUOUS
 70
0
 71
3
 72
11
 73
7
 74
0
 42
0.0000001
 43
0.0000001
 44
0.0000000001
 40
0.0
 40
0.0
 40
0.0
 40
0.0
 40
0.2897052857
 40
0.5490919933
 40
0.7822182543
 40
1.0
 40
1.0
 40
1.0
 40
1.0
 10
13.5485131826
 20
59.7849265551
 30
0.0
 10
13.4761121178
 20
59.8267263837
 30
0.0
 10
13.3447582995
 20
59.9171974691
 30
0.0
 10
13.1877719759
 20
60.0821808131
 30
0.0
 10
13.0884674529
 20
60.2646927795
 30
0.0
 10
13.0652427297
 20
60.3956835131
 30
0.0
 10
13.0652427473
 20
60.458529409
 30
0.0
  0
SPLINE
  5
3CC
100
AcDbEntity
  8
0
100
AcDbSpline
 62
7
  6
CONTINUOUS
 70
0
 71
3
 72
11
 73
7
 74
0
 42
0.0000001
 43
0.0000001
 44
0.0000000001
 40
0.0
 40
0.0
 40
0.0
 40
0.0
 40
0.2334919778
 40
0.474175723
 40
0.7281508156
 40
1.0
 40
1.0
 40
1.0
 40
1.0
 10
58.6555358811
 20
94.3993671839
 30
0.0
 10
58.5706820049
 20
94.3503970748
 30
0.0
 10
58.408959239
 20
94.2313179003
 30
0.0
 10
58.205739428
 20
94.0004286094
 30
0.0
 10
58.0432706703
 20
93.7208006333
 30
0.0
 10
57.9663246056
 20
93.5128646867
 30
0.0
 10
57.9344777276
 20
93.4033357644
 30
0.0
  0
SPLINE
  5
3CD
100
AcDbEntity
  8
0
100
AcDbSpline
 62
7
  6
CONTINUOUS
 70
0
 71
3
 72
11
 73
7
 74
0
 42
0.0000001
 43
0.0000001
 44
0.0000000001
 40
0.0
 40
0.0
 40
0.0
 40
0.0
 40
0.2261941156
 40
0.4643039879
 40
0.7210241791
 40
1.0
 40
1.0
 40
1.0
 40
1.0
 10
79.08622744
 20
107.6533012324
 30
0.0
 10
79.0862082257
 20
107.7378219152
 30
0.0
 10
79.1116546442
 20
107.9121274949
 30
0.0
 10
79.2210475089
 20
108.1613363052
 30
0.0
 10
79.3974804915
 20
108.3933085896
 30
0.0
 10
79.5494310615
 20
108.5257062479
 30
0.0
 10
79.6334607005
 20
108.5873965332
 30
0.0
  0
SPLINE
  5
3CE
100
AcDbEntity
  8
0
100
AcDbSpline
 62
7
  6
CONTINUOUS
 70
0
 71
3
 72
10
 73
6
 74
0
 42
0.0000001
 43
0.0000001
 44
0.0000000001
 40
0.0
 40
0.0
 40
0.0
 40
0.0
 40
0.5265989549
 40
0.7679535063
 40
1.0
 40
1.0
 40
1.0
 40
1.0
 10
58.0519117515
 20
93.3962348661
 30
0.0
 10
58.1028532387
 20
93.5997231632
 30
0.0
 10
58.2156591739
 20
93.8912052688
 30
0.0
 10
58.4536970552
 20
94.2128724557
 30
0.0
 10
58.5938442467
 20
94.3412981102
 30
0.0
 10
58.6680697783
 20
94.3963861824
 30
0.0
  0
SPLINE
  5
3CF
100
AcDbEntity
  8
0
100
AcDbSpline
 62
7
  6
CONTINUOUS
 70
0
 71
3
 72
11
 73
7
 74
0
 42
0.0000001
 43
0.0000001
 44
0.0000000001
 40
0.0
 40
0.0
 40
0.0
 40
0.0
 40
0.2372524156
 40
0.4999996414
 40
0.7627470637
 40
1.0
 40
1.0
 40
1.0
 40
1.0
 10
76.9970958784
 20
110.3874928947
 30
0.0
 10
76.9067412081
 20
110.3353269128
 30
0.0
 10
76.6966353129
 20
110.2591920795
 30
0.0
 10
76.3607005912
 20
110.2227922602
 30
0.0
 10
76.0247654793
 20
110.2591906186
 30
0.0
 10
75.8146589172
 20
110.3353243905
 30
0.0
 10
75.7243036723
 20
110.3874898353
 30
0.0
  0
SPLINE
  5
3D0
100
AcDbEntity
  8
0
100
AcDbSpline
 62
7
  6
CONTINUOUS
 70
0
 71
3
 72
11
 73
7
 74
0
 42
0.0000001
 43
0.0000001
 44
0.0000000001
 40
0.0
 40
0.0
 40
0.0
 40
0.0
 40
0.2895421522
 40
0.5491196247
 40
0.782256727
 40
1.0
 40
1.0
 40
1.0
 40
1.0
 10
62.1477969495
 20
118.2257123221
 30
0.0
 10
62.1083284692
 20
118.2484989443
 30
0.0
 10
62.0367062073
 20
118.2978841915
 30
0.0
 10
61.9510317127
 20
118.3878270155
 30
0.0
 10
61.8968265532
 20
118.4874034976
 30
0.0
 10
61.884240753
 20
118.5588592067
 30
0.0
 10
61.8842407606
 20
118.5931320602
 30
0.0
  0
SPLINE
  5
3D1
100
AcDbEntity
  8
0
100
AcDbSpline
 62
7
  6
CONTINUOUS
 70
0
 71
3
 72
11
 73
7
 74
0
 42
0.0000001
 43
0.0000001
 44
0.0000000001
 40
0.0
 40
0.0
 40
0.0
 40
0.0
 40
0.3121851206
 40
0.5743901208
 40
0.7954544394
 40
1.0
 40
1.0
 40
1.0
 40
1.0
 10
62.1477969495
 20
116.8461795796
 30
0.0
 10
62.1098917435
 20
116.8552189817
 30
0.0
 10
62.0411259282
 20
116.8771325628
 30
0.0
 10
61.9544975553
 20
116.9279429219
 30
0.0
 10
61.8971410743
 20
116.9949193708
 30
0.0
 10
61.8842351078
 20
117.0489271103
 30
0.0
 10
61.8842350811
 20
117.0744592647
 30
0.0
  0
SPLINE
  5
3D2
100
AcDbEntity
  8
0
100
AcDbSpline
 62
7
  6
CONTINUOUS
 70
0
 71
3
 72
10
 73
6
 74
0
 42
0.0000001
 43
0.0000001
 44
0.0000000001
 40
0.0
 40
0.0
 40
0.0
 40
0.0
 40
0.5265676118
 40
0.7679322869
 40
1.0
 40
1.0
 40
1.0
 40
1.0
 10
48.5062035032
 20
98.9085746924
 30
0.0
 10
48.5571854706
 20
99.1118379787
 30
0.0
 10
48.6700001578
 20
99.4029866617
 30
0.0
 10
48.9078905273
 20
99.724294424
 30
0.0
 10
49.047925512
 20
99.8525947227
 30
0.0
 10
49.1220884888
 20
99.9076363684
 30
0.0
  0
SPLINE
  5
3D3
100
AcDbEntity
  8
0
100
AcDbSpline
 62
7
  6
CONTINUOUS
 70
0
 71
3
 72
11
 73
7
 74
0
 42
0.0000001
 43
0.0000001
 44
0.0000000001
 40
0.0
 40
0.0
 40
0.0
 40
0.0
 40
0.229664061
 40
0.4827347074
 40
0.7448868601
 40
1.0
 40
1.0
 40
1.0
 40
1.0
 10
54.7446073045
 20
87.1298492816
 30
0.0
 10
54.6674465247
 20
87.0853007505
 30
0.0
 10
54.4921001628
 20
87.0140476947
 30
0.0
 10
54.2066830076
 20
86.9602440046
 30
0.0
 10
53.9064172073
 20
86.9569126356
 30
0.0
 10
53.707063671
 20
86.9897803549
 30
0.0
 10
53.6115582417
 20
87.0157388527
 30
0.0
  0
SPLINE
  5
3D4
100
AcDbEntity
  8
0
100
AcDbSpline
 62
7
  6
CONTINUOUS
 70
0
 71
3
 72
9
 73
5
 74
0
 42
0.0000001
 43
0.0000001
 44
0.0000000001
 40
0.0
 40
0.0
 40
0.0
 40
0.0
 40
0.5077232278
 40
1.0
 40
1.0
 40
1.0
 40
1.0
 10
53.6115582417
 20
87.0157388527
 30
0.0
 10
50.7857922253
 20
88.2621790788
 30
0.0
 10
45.2806630352
 20
90.8569946048
 30
0.0
 10
39.9228803833
 20
93.7449661051
 30
0.0
 10
37.3295552862
 20
95.2421891762
 30
0.0
  0
SPLINE
  5
3D5
100
AcDbEntity
  8
0
100
AcDbSpline
 62
7
  6
CONTINUOUS
 70
0
 71
3
 72
9
 73
5
 74
0
 42
0.0000001
 43
0.0000001
 44
0.0000000001
 40
0.0
 40
0.0
 40
0.0
 40
0.0
 40
0.2523368912
 40
1.0
 40
1.0
 40
1.0
 40
1.0
 10
37.3295552862
 20
95.2421891762
 30
0.0
 10
36.8621683883
 20
95.512029023
 30
0.0
 10
35.0155922041
 20
96.5911548478
 30
0.0
 10
33.1919550734
 20
97.709590087
 30
0.0
 10
31.8430896694
 20
98.5684269844
 30
0.0
  0
SPLINE
  5
3D6
100
AcDbEntity
  8
0
100
AcDbSpline
 62
7
  6
CONTINUOUS
 70
0
 71
3
 72
9
 73
5
 74
0
 42
0.0000001
 43
0.0000001
 44
0.0000000001
 40
0.0
 40
0.0
 40
0.0
 40
0.0
 40
0.2541437665
 40
1.0
 40
1.0
 40
1.0
 40
1.0
 10
31.8430896694
 20
98.5684269844
 30
0.0
 10
31.1041643556
 20
99.0389085625
 30
0.0
 10
28.2138260735
 20
100.9169208535
 30
0.0
 10
25.3936594783
 20
102.90340293
 30
0.0
 10
23.3385494997
 20
104.4479991754
 30
0.0
  0
SPLINE
  5
3D7
100
AcDbEntity
  8
0
100
AcDbSpline
 62
7
  6
CONTINUOUS
 70
0
 71
3
 72
11
 73
7
 74
0
 42
0.0000001
 43
0.0000001
 44
0.0000000001
 40
0.0
 40
0.0
 40
0.0
 40
0.0
 40
0.2895421522
 40
0.5491196247
 40
0.782256727
 40
1.0
 40
1.0
 40
1.0
 40
1.0
 10
23.2782304234
 20
104.4800779494
 30
0.0
 10
23.2343765564
 20
104.5053964185
 30
0.0
 10
23.1547962654
 20
104.5602689154
 30
0.0
 10
23.0596023825
 20
104.6602053866
 30
0.0
 10
22.9993744276
 20
104.7708459221
 30
0.0
 10
22.9853902051
 20
104.8502411545
 30
0.0
 10
22.9853902136
 20
104.8883221029
 30
0.0
  0
SPLINE
  5
3D8
100
AcDbEntity
  8
0
100
AcDbSpline
 62
7
  6
CONTINUOUS
 70
0
 71
3
 72
11
 73
7
 74
0
 42
0.0000001
 43
0.0000001
 44
0.0000000001
 40
0.0
 40
0.0
 40
0.0
 40
0.0
 40
0.233493402
 40
0.4741779027
 40
0.7281525945
 40
1.0
 40
1.0
 40
1.0
 40
1.0
 10
39.5635733022
 20
105.4218675559
 30
0.0
 10
39.4787238467
 20
105.3728999981
 30
0.0
 10
39.3170091986
 20
105.2538282773
 30
0.0
 10
39.1137970441
 20
105.0229553429
 30
0.0
 10
38.9513312557
 20
104.7433482496
 30
0.0
 10
38.8743838821
 20
104.5354275825
 30
0.0
 10
38.8425356776
 20
104.4259067363
 30
0.0
  0
ELLIPSE
  5
3D9
100
AcDbEntity
  8
0
100
AcDbEllipse
 62
7
  6
CONTINUOUS
 10
12.7707746958
 20
44.6714440838
 30
0.0
 11
1.0
 21
-0.0
 31
0.0
 40
0.5773420155
 41
-3.1387142526
 42
-2.4860787419
  0
ELLIPSE
  5
3DA
100
AcDbEntity
  8
0
100
AcDbEllipse
 62
7
  6
CONTINUOUS
 10
142.2170957906
 20
102.1381385939
 30
0.0
 11
164.2908333333
 21
-0.0
 31
0.0
 40
0.5773420155
 41
-2.4860787419
 42
-2.4082785904
  0
ELLIPSE
  5
3DB
100
AcDbEntity
  8
0
100
AcDbEllipse
 62
7
  6
CONTINUOUS
 10
142.0411706397
 20
115.5516005726
 30
0.0
 11
164.2854658469
 21
0.8146480067
 31
0.0
 40
0.5806466835
 41
-2.4889351948
 42
-2.4128207442
  0
ELLIPSE
  5
3DC
100
AcDbEntity
  8
0
100
AcDbEllipse
 62
7
  6
CONTINUOUS
 10
55.4888948751
 20
104.9917644947
 30
0.0
 11
-3.3855983652
 21
13.9813489351
 31
0.0
 40
0.2867589148
 41
-4.2199563628
 42
-3.9189232999
  0
ELLIPSE
  5
3DD
100
AcDbEntity
  8
0
100
AcDbEllipse
 62
7
  6
CONTINUOUS
 10
55.4888948751
 20
104.9917644947
 30
0.0
 11
13.5479145332
 21
-6.5674576216
 31
0.0
 40
0.7153689945
 41
-1.1609197412
 42
-0.9433113491
  0
ELLIPSE
  5
3DE
100
AcDbEntity
  8
0
100
AcDbEllipse
 62
7
  6
CONTINUOUS
 10
80.4921124726
 20
119.4272927367
 30
0.0
 11
-8.2010882534
 21
11.2354550875
 31
0.0
 40
0.4919318787
 41
2.0555635957
 42
2.2203175324
  0
ELLIPSE
  5
3DF
100
AcDbEntity
  8
0
100
AcDbEllipse
 62
7
  6
CONTINUOUS
 10
80.4921124726
 20
119.4272927367
 30
0.0
 11
-8.2010882534
 21
11.2354550875
 31
0.0
 40
0.4919318787
 41
-3.6980507193
 42
-3.687721321
  0
ELLIPSE
  5
3E0
100
AcDbEntity
  8
0
100
AcDbEllipse
 62
7
  6
CONTINUOUS
 10
61.4001498936
 20
130.4497931087
 30
0.0
 11
-8.2010882534
 21
11.2354550875
 31
0.0
 40
0.4919318787
 41
-4.4078609439
 42
-4.2614284343
  0
ELLIPSE
  5
3E1
100
AcDbEntity
  8
0
100
AcDbEllipse
 62
7
  6
CONTINUOUS
 10
45.9429135857
 20
110.5030146807
 30
0.0
 11
-3.3855983652
 21
13.9813489351
 31
0.0
 40
0.2867589148
 41
-4.2199563628
 42
-3.9035358762
  0
ELLIPSE
  5
3E2
100
AcDbEntity
  8
0
100
AcDbEllipse
 62
7
  6
CONTINUOUS
 10
45.9429135857
 20
110.5030146807
 30
0.0
 11
13.5479145332
 21
-6.5674576216
 31
0.0
 40
0.7153689945
 41
-1.175520468
 42
-0.9994930185
  0
ELLIPSE
  5
3E3
100
AcDbEntity
  8
0
100
AcDbEllipse
 62
7
  6
CONTINUOUS
 10
36.3969322962
 20
116.0142648667
 30
0.0
 11
-3.3855983652
 21
13.9813489351
 31
0.0
 40
0.2867589148
 41
-4.2199563628
 42
-3.9035358762
  0
ELLIPSE
  5
3E4
100
AcDbEntity
  8
0
100
AcDbEllipse
 62
7
  6
CONTINUOUS
 10
36.3969322962
 20
116.0142648667
 30
0.0
 11
13.5479145332
 21
-6.5674576216
 31
0.0
 40
0.7153689945
 41
-1.175520468
 42
-0.9994930185
  0
ELLIPSE
  5
3E5
100
AcDbEntity
  8
0
100
AcDbEllipse
 62
7
  6
CONTINUOUS
 10
64.7800948925
 20
120.0720564995
 30
0.0
 11
0.5024568755
 21
0.0042549357
 31
0.0
 40
0.5772868539
 41
1.6313517226
 42
2.3464203568
  0
ELLIPSE
  5
3E6
100
AcDbEntity
  8
0
100
AcDbEllipse
 62
7
  6
CONTINUOUS
 10
81.5862253944
 20
106.0768087443
 30
0.0
 11
-1.9229940385
 21
13.5402937682
 31
0.0
 40
0.1179832188
 41
1.3675731502
 42
1.5112168134
  0
ELLIPSE
  5
3E7
100
AcDbEntity
  8
0
100
AcDbEllipse
 62
7
  6
CONTINUOUS
 10
142.0325668274
 20
139.1520499266
 30
0.0
 11
164.2874424518
 21
0.8166668398
 31
0.0
 40
0.5806466372
 41
-2.4889486324
 42
-2.4108208451
  0
ELLIPSE
  5
3E8
100
AcDbEntity
  8
0
100
AcDbEllipse
 62
7
  6
CONTINUOUS
 10
12.5900180485
 20
80.9286819527
 30
0.0
 11
0.9999793605
 21
0.0049708607
 31
0.0
 40
0.5806466372
 41
2.3533287631
 42
3.7942366748
  0
ELLIPSE
  5
3E9
100
AcDbEntity
  8
0
100
AcDbEllipse
 62
7
  6
CONTINUOUS
 10
142.0403192067
 20
137.5970318136
 30
0.0
 11
164.2874424518
 21
0.8166668398
 31
0.0
 40
0.5806466372
 41
-2.4889486324
 42
-2.4128343912
  0
ELLIPSE
  5
3EA
100
AcDbEntity
  8
0
100
AcDbEllipse
 62
7
  6
CONTINUOUS
 10
141.9315820317
 20
137.5335320123
 30
0.0
 11
164.2854658469
 21
0.8146480067
 31
0.0
 40
0.5806466835
 41
-2.4889351948
 42
-2.4128207442
  0
ELLIPSE
  5
3EB
100
AcDbEntity
  8
0
100
AcDbEllipse
 62
7
  6
CONTINUOUS
 10
78.9222893954
 20
111.9072414091
 30
0.0
 11
0.5024568755
 21
0.0042549357
 31
0.0
 40
0.5772868539
 41
-0.7951722968
 42
-0.0801036626
  0
ELLIPSE
  5
3EC
100
AcDbEntity
  8
0
100
AcDbEllipse
 62
7
  6
CONTINUOUS
 10
42.511704444
 20
63.6664896566
 30
0.0
 11
0.9999957859
 21
0.0049998054
 31
0.0
 40
0.5806465269
 41
-2.2287244711
 42
-0.7882971237
  0
ENDSEC
  0
SECTION
  2
OBJECTS
  0
DICTIONARY
  5
C
100
AcDbDictionary
280
0
281
1
  3
ACAD_GROUP
350
D
  3
ACAD_MLINESTYLE
350
17
  3
ACAD_LAYOUT
350
1A
  3
ACAD_PLOTSETTINGS
350
19
  3
ACAD_PLOTSTYLENAME
350
E
  0
DICTIONARY
  5
D
102
{ACAD_REACTORS
330
C
102
}
100
AcDbDictionary
280
0
281
1
  0
ACDBDICTIONARYWDFLT
  5
E
102
{ACAD_REACTORS
330
C
102
}
100
AcDbDictionary
281
1
  3
Normal
350
F
100
AcDbDictionaryWithDefault
340
F
  0
DICTIONARY
  5
17
102
{ACAD_REACTORS
330
C
102
}
100
AcDbDictionary
280
0
281
1
  3
Standard
350
18
  0
DICTIONARY
  5
19
102
{ACAD_REACTORS
330
C
102
}
100
AcDbDictionary
281
1
  0
DICTIONARY
  5
1A
102
{ACAD_REACTORS
330
C
102
}
100
AcDbDictionary
281
1
  3
Model
350
3ED
  3
Layout1
350
3EE
  0
ACDBPLACEHOLDER
  5
F
102
{ACAD_REACTORS
330
E
102
}
  0
MLINESTYLE
  5
18
102
{ACAD_REACTORS
330
17
102
}
100
AcDbMlineStyle
  2
STANDARD
 70
0
  3

 62
256
 51
90.0
 52
90.0
 71
2
 49
0.5
 62
256
  6
BYLAYER
 49
-0.5
 62
256
  6
BYLAYER
  0
LAYOUT
  5
3ED
102
{ACAD_REACTORS
330
1A
102
}
100
AcDbPlotSettings
  1

  2
none_device
  4

  6

 40
0.0
 41
0.0
 42
0.0
 43
0.0
 44
210.0
 45
297.0
 46
0.0
 47
0.0
 48
0.0
 49
0.0
140
0.0
141
0.0
142
1.0
143
1.0
 70
1024
 72
1
 73
0
 74
0
  7

 75
0
147
1.0
148
0.0
149
0.0
100
AcDbLayout
  1
Model
 70
0
 71
0
 10
0.0
 20
0.0
 11
210.0
 21
297.0
 12
0.0
 22
0.0
 32
0.0
 14
0.0
 24
0.0
 34
0.0
 15
0.0
 25
0.0
 35
0.0
146
0.0
 13
0.0
 23
0.0
 33
0.0
 16
1.0
 26
0.0
 36
0.0
 17
0.0
 27
1.0
 37
0.0
 76
0
330
212
345
0
346
0
  0
LAYOUT
  5
3EE
102
{ACAD_REACTORS
330
1A
102
}
100
AcDbPlotSettings
  1

  2
none_device
  4

  6

 40
0.0
 41
0.0
 42
0.0
 43
0.0
 44
210.0
 45
297.0
 46
0.0
 47
0.0
 48
0.0
 49
0.0
140
0.0
141
0.0
142
1.0
143
1.0
 70
0
 72
1
 73
0
 74
0
  7

 75
0
147
1.0
148
0.0
149
0.0
100
AcDbLayout
  1
Layout1
 70
0
 71
1
 10
0.0
 20
0.0
 11
210.0
 21
297.0
 12
0.0
 22
0.0
 32
0.0
 14
0.0
 24
0.0
 34
0.0
 15
0.0
 25
0.0
 35
0.0
146
0.0
 13
0.0
 23
0.0
 33
0.0
 16
1.0
 26
0.0
 36
0.0
 17
0.0
 27
1.0
 37
0.0
 76
0
330
213
345
0
346
0
  0
ENDSEC
  0
EOF
