999
DXF file: C:\Users\sesa63760\Dev\_Creo\CAD\MCADID0000053_3D-CAD\drw0001_6.dxf
999
Pro/ENGINEER 2019471 by Parametric Technology Corporation
  0
SECTION
  2
HEADER
  9
$ACADVER
  1
AC1024
  9
$DWGCODEPAGE
  3
ANSI_1252
  9
$EXTMAX
 10
200.6071282067
 20
283.7157956066
 30
0.0
  9
$EXTMIN
 10
0.0
 20
0.0
 30
0.0
  9
$LIMMIN
 10
0.0
 20
0.0
  9
$LIMMAX
 10
200.6071282067
 20
283.7157956066
  9
$VIEWCTR
 10
100.3035641034
 20
141.8578978033
  9
$VIEWSIZE
 40
283.7157956066
  9
$CLAYER
  8
0
  9
$LTSCALE
 40
18.4940666766
  9
$CELTYPE
  6
BYLAYER
  9
$DIMSCALE
 40
1.0
  9
$DIMASZ
 40
2.3881800977
  9
$DIMEXO
 40
1.0
  9
$DIMDLI
 40
12.7777187947
  9
$DIMEXE
 40
1.0
  9
$DIMCEN
 40
3.0263018198
  9
$DIMLFAC
 40
1.0
  9
$DIMBLK
  1
_FILLED
  9
$DIMALT
 70
0
  9
$DIMALTF
 40
0.0393700787
  9
$DIMTXT
 40
3.3434521368
  9
$DIMTOL
 70
1
  9
$DIMLIM
 70
0
  9
$DIMTFAC
 40
1.0
  9
$DIMTP
 40
0.01
  9
$DIMTM
 40
0.01
  9
$DIMGAP
 40
0.625
  9
$DIMDSEP
 70
46
  9
$AUNITS
 70
0
  9
$PDMODE
 70
3
  9
$PDSIZE
 40
0.3125
  9
$HANDSEED
  5
34D
  9
$TILEMODE
 70
1
  9
$MEASUREMENT
 70
1
  9
$INSUNITS
 70
4
  0
ENDSEC
  0
SECTION
  2
CLASSES
  0
CLASS
  1
ACDBDICTIONARYWDFLT
  2
AcDbDictionaryWithDefault
  3
AutoCAD 2000
 90
0
 91
1
280
0
281
0
  0
CLASS
  1
ACDBPLACEHOLDER
  2
AcDbPlaceHolder
  3
AutoCAD 2000
 90
0
 91
1
280
0
281
0
  0
CLASS
  1
LAYOUT
  2
AcDbLayout
  3
AutoCAD 2000
 90
0
 91
0
280
0
281
0
  0
ENDSEC
  0
SECTION
  2
TABLES
  0
TABLE
  2
VPORT
  5
8
100
AcDbSymbolTable
 70
2
  0
VPORT
  5
1F4
100
AcDbSymbolTableRecord
100
AcDbViewportTableRecord
  2
*ACTIVE
 70
0
 10
0.0
 20
0.0
 11
1.0
 21
1.0
 12
100.3035641034
 22
141.8578978033
 13
0.0
 23
0.0
 14
1.0
 24
1.0
 15
0.0
 25
0.0
 16
0.0
 26
0.0
 36
1.0
 17
0.0
 27
0.0
 37
0.0
 40
283.7157956066
 41
0.7070707071
 42
50.0
 43
0.0
 44
0.0
 50
0.0
 51
0.0
 71
0
 72
100
 73
1
 74
1
 75
0
 76
0
 77
0
 78
0
  0
ENDTAB
  0
TABLE
  2
LTYPE
  5
5
100
AcDbSymbolTable
 70
6
  0
LTYPE
  5
14
100
AcDbSymbolTableRecord
100
AcDbLinetypeTableRecord
  2
BYBLOCK
 70
0
  3

 72
65
 73
0
 40
0.0
  0
LTYPE
  5
15
100
AcDbSymbolTableRecord
100
AcDbLinetypeTableRecord
  2
BYLAYER
 70
0
  3

 72
65
 73
0
 40
0.0
  0
LTYPE
  5
16
100
AcDbSymbolTableRecord
100
AcDbLinetypeTableRecord
  2
CONTINUOUS
 70
64
  3
Solid line
 72
65
 73
0
 40
0.0
  0
LTYPE
  5
1F5
100
AcDbSymbolTableRecord
100
AcDbLinetypeTableRecord
  2
CENTER
 70
64
  3
____ _ ____ _ ____ _ ____ _ ____ _ ____ _ ____
 72
65
 73
4
 40
0.6
 49
0.375
 74
0
 49
-0.075
 74
0
 49
0.075
 74
0
 49
-0.075
 74
0
  0
LTYPE
  5
1F6
100
AcDbSymbolTableRecord
100
AcDbLinetypeTableRecord
  2
HIDDEN
 70
64
  3
- - - - - - - - - - - - - - - - - - - -
 72
65
 73
2
 40
0.2
 49
0.1
 74
0
 49
-0.1
 74
0
  0
LTYPE
  5
1F7
100
AcDbSymbolTableRecord
100
AcDbLinetypeTableRecord
  2
PHANTOM
 70
64
  3
_____ _ _ _____ _ _ _____ _ _ _____
 72
65
 73
6
 40
0.8
 49
0.45
 74
0
 49
-0.05
 74
0
 49
0.1
 74
0
 49
-0.05
 74
0
 49
0.1
 74
0
 49
-0.05
 74
0
  0
LTYPE
  5
1F8
100
AcDbSymbolTableRecord
100
AcDbLinetypeTableRecord
  2
DOT
 70
64
  3
. . . . . . . . . . . . . . . . . . . .
 72
65
 73
2
 40
0.2
 49
0.1
 74
0
 49
-0.1
 74
0
  0
LTYPE
  5
1F9
100
AcDbSymbolTableRecord
100
AcDbLinetypeTableRecord
  2
DASHED
 70
64
  3
- - - - - - - - - - - - - - - - - - - -
 72
65
 73
2
 40
0.2
 49
0.1
 74
0
 49
-0.1
 74
0
  0
ENDTAB
  0
TABLE
  2
LAYER
  5
2
100
AcDbSymbolTable
 70
36
  0
LAYER
  5
10
100
AcDbSymbolTableRecord
100
AcDbLayerTableRecord
  2
0
 70
0
 62
7
  6
CONTINUOUS
370
-3
390
F
  0
LAYER
  5
1FA
100
AcDbSymbolTableRecord
100
AcDbLayerTableRecord
  2
DEFAULT_1
 70
0
 62
7
  6
CENTER
370
-3
390
F
  0
LAYER
  5
1FB
100
AcDbSymbolTableRecord
100
AcDbLayerTableRecord
  2
DEFAULT_2
 70
0
 62
8
  6
HIDDEN
370
-3
390
F
  0
LAYER
  5
1FC
100
AcDbSymbolTableRecord
100
AcDbLayerTableRecord
  2
DEFAULT_3
 70
0
 62
7
  6
PHANTOM
370
-3
390
F
  0
LAYER
  5
1FD
100
AcDbSymbolTableRecord
100
AcDbLayerTableRecord
  2
00_COMPONENTS
 70
0
 62
7
  6
CONTINUOUS
370
-3
390
F
  0
LAYER
  5
1FE
100
AcDbSymbolTableRecord
100
AcDbLayerTableRecord
  2
01_1_DEFAULT_DATUMS
 70
0
 62
7
  6
CONTINUOUS
370
-3
390
F
  0
LAYER
  5
1FF
100
AcDbSymbolTableRecord
100
AcDbLayerTableRecord
  2
01_PLANES
 70
0
 62
7
  6
CONTINUOUS
370
-3
390
F
  0
LAYER
  5
200
100
AcDbSymbolTableRecord
100
AcDbLayerTableRecord
  2
02_COORD_SYS
 70
0
 62
7
  6
CONTINUOUS
370
-3
390
F
  0
LAYER
  5
201
100
AcDbSymbolTableRecord
100
AcDbLayerTableRecord
  2
03_AXES
 70
0
 62
7
  6
CONTINUOUS
370
-3
390
F
  0
LAYER
  5
202
100
AcDbSymbolTableRecord
100
AcDbLayerTableRecord
  2
04_POINTS
 70
0
 62
7
  6
CONTINUOUS
370
-3
390
F
  0
LAYER
  5
203
100
AcDbSymbolTableRecord
100
AcDbLayerTableRecord
  2
05_CURVES
 70
0
 62
7
  6
CONTINUOUS
370
-3
390
F
  0
LAYER
  5
204
100
AcDbSymbolTableRecord
100
AcDbLayerTableRecord
  2
06_SURFS
 70
0
 62
7
  6
CONTINUOUS
370
-3
390
F
  0
LAYER
  5
205
100
AcDbSymbolTableRecord
100
AcDbLayerTableRecord
  2
07_COSMETICS
 70
0
 62
7
  6
CONTINUOUS
370
-3
390
F
  0
LAYER
  5
206
100
AcDbSymbolTableRecord
100
AcDbLayerTableRecord
  2
10_NOTES
 70
0
 62
7
  6
CONTINUOUS
370
-3
390
F
  0
LAYER
  5
207
100
AcDbSymbolTableRecord
100
AcDbLayerTableRecord
  2
11_NOTES_PUB
 70
0
 62
7
  6
CONTINUOUS
370
-3
390
F
  0
LAYER
  5
208
100
AcDbSymbolTableRecord
100
AcDbLayerTableRecord
  2
13_REF_GTOL
 70
0
 62
7
  6
CONTINUOUS
370
-3
390
F
  0
LAYER
  5
209
100
AcDbSymbolTableRecord
100
AcDbLayerTableRecord
  2
16_MISC
 70
0
 62
7
  6
CONTINUOUS
370
-3
390
F
  0
LAYER
  5
20A
100
AcDbSymbolTableRecord
100
AcDbLayerTableRecord
  2
17_NO_PRINT
 70
0
 62
7
  6
CONTINUOUS
370
-3
390
F
  0
LAYER
  5
20B
100
AcDbSymbolTableRecord
100
AcDbLayerTableRecord
  2
18_DATUM_CAMS_JOINTS
 70
0
 62
7
  6
CONTINUOUS
370
-3
390
F
  0
LAYER
  5
20C
100
AcDbSymbolTableRecord
100
AcDbLayerTableRecord
  2
19_DATUM_FUNCTIONAL
 70
0
 62
7
  6
CONTINUOUS
370
-3
390
F
  0
LAYER
  5
20D
100
AcDbSymbolTableRecord
100
AcDbLayerTableRecord
  2
20_DATUM_KINEMATIC_SCHEME
 70
0
 62
7
  6
CONTINUOUS
370
-3
390
F
  0
ENDTAB
  0
TABLE
  2
STYLE
  5
3
100
AcDbSymbolTable
 70
1
  0
STYLE
  5
11
100
AcDbSymbolTableRecord
100
AcDbTextStyleTableRecord
  2
STANDARD
 70
0
 40
0.0
 41
0.8
 50
0.0
 71
0
 42
0.2
  3
txt
  4

  0
STYLE
  5
20E
100
AcDbSymbolTableRecord
100
AcDbTextStyleTableRecord
  2
TEXTSTYLE_1
 70
0
 40
0.0
 41
0.8
 50
0.0
 71
0
 42
0.2
  3
gdt
  4

  0
ENDTAB
  0
TABLE
  2
VIEW
  5
6
100
AcDbSymbolTable
 70
0
  0
ENDTAB
  0
TABLE
  2
UCS
  5
7
100
AcDbSymbolTable
 70
0
  0
ENDTAB
  0
TABLE
  2
APPID
  5
9
100
AcDbSymbolTable
 70
1
  0
APPID
  5
20F
100
AcDbSymbolTableRecord
100
AcDbRegAppTableRecord
  2
ACAD
 70
0
  0
ENDTAB
  0
TABLE
  2
BLOCK_RECORD
  5
1
100
AcDbSymbolTable
 70
0
  0
BLOCK_RECORD
  5
210
100
AcDbSymbolTableRecord
100
AcDbBlockTableRecord
  2
*Model_Space
  0
BLOCK_RECORD
  5
211
100
AcDbSymbolTableRecord
100
AcDbBlockTableRecord
  2
*Paper_Space
  0
BLOCK_RECORD
  5
212
100
AcDbSymbolTableRecord
100
AcDbBlockTableRecord
  2
_FILLED
  0
ENDTAB
  0
TABLE
  2
DIMSTYLE
  5
A
100
AcDbSymbolTable
 70
1
100
AcDbDimStyleTable
 71
0
  0
DIMSTYLE
105
213
100
AcDbSymbolTableRecord
100
AcDbDimStyleTableRecord
  2
STANDARD
 70
0
  3

  4

 40
1.0
 41
2.3881800977
 42
1.0
 43
0.38
 44
1.0
 45
0.0
 46
0.0
 47
0.01
 48
0.01
140
3.3434521368
141
0.09
142
0.0
143
25.4
144
1.0
145
0.0
146
1.0
147
0.625
 71
1
 72
0
 73
0
 74
0
 75
0
 76
0
 77
1
 78
8
 79
2
170
0
171
1
172
0
173
0
174
0
175
0
176
0
177
0
178
0
270
2
179
2
271
2
272
2
273
2
274
2
275
0
280
0
281
0
282
0
283
1
284
8
285
0
286
0
287
3
288
0
340
11
278
46
341
212
342
212
343
212
344
212
  0
ENDTAB
  0
ENDSEC
  0
SECTION
  2
BLOCKS
  0
BLOCK
  5
20
100
AcDbEntity
  8
0
100
AcDbBlockBegin
  2
*Model_Space
 70
0
 10
0.0
 20
0.0
 30
0.0
  3
*Model_Space
  1

  0
ENDBLK
  5
21
100
AcDbEntity
  8
0
100
AcDbBlockEnd
  0
BLOCK
  5
1C
100
AcDbEntity
  8
0
100
AcDbBlockBegin
  2
*Paper_Space
 70
0
 10
0.0
 20
0.0
 30
0.0
  3
*Paper_Space
  1

  0
ENDBLK
  5
1D
100
AcDbEntity
  8
0
100
AcDbBlockEnd
  0
BLOCK
  5
214
100
AcDbEntity
  8
0
100
AcDbBlockBegin
  2
_FILLED
 70
64
 10
0.0
 20
0.0
  3
_FILLED
  1

  0
SOLID
  5
215
100
AcDbEntity
  8
0
  6
BYBLOCK
 62
0
100
AcDbTrace
 10
0.0
 20
0.0
 11
-1.0
 21
0.25
 12
-1.0
 22
-0.25
 13
-1.0
 23
-0.25
  0
ENDBLK
  5
216
100
AcDbEntity
  8
0
  6
BYBLOCK
 62
0
100
AcDbBlockEnd
  0
ENDSEC
  0
SECTION
  2
ENTITIES
  0
LINE
  5
217
100
AcDbEntity
  8
0
100
AcDbLine
 62
7
  6
CONTINUOUS
 10
27.5397571045
 20
212.8073957589
 11
26.6897571045
 21
211.8073957589
  0
LINE
  5
218
100
AcDbEntity
  8
0
100
AcDbLine
 62
7
  6
CONTINUOUS
 10
29.9057825083
 20
213.3073957589
 11
29.0397571045
 21
212.8073957589
  0
LINE
  5
219
100
AcDbEntity
  8
0
100
AcDbLine
 62
7
  6
CONTINUOUS
 10
22.6897571045
 20
196.5423957589
 11
22.6897571045
 21
199.9923957589
  0
LINE
  5
21A
100
AcDbEntity
  8
0
100
AcDbLine
 62
7
  6
CONTINUOUS
 10
22.6897571045
 20
200.6823957589
 11
22.6897571045
 21
204.1323957589
  0
LINE
  5
21B
100
AcDbEntity
  8
0
100
AcDbLine
 62
7
  6
CONTINUOUS
 10
22.6897571045
 20
204.8223957589
 11
22.6897571045
 21
208.2723957589
  0
LINE
  5
21C
100
AcDbEntity
  8
0
100
AcDbLine
 62
7
  6
CONTINUOUS
 10
26.6897571045
 20
211.8073957589
 11
26.6897571045
 21
210.8073957589
  0
LINE
  5
21D
100
AcDbEntity
  8
0
100
AcDbLine
 62
7
  6
CONTINUOUS
 10
28.539935768
 20
132.4593998477
 11
28.539935768
 21
129.0593998477
  0
LINE
  5
21E
100
AcDbEntity
  8
0
100
AcDbLine
 62
7
  6
CONTINUOUS
 10
28.5399336312
 20
124.8593998477
 11
28.539935768
 21
128.2593998477
  0
LINE
  5
21F
100
AcDbEntity
  8
0
100
AcDbLine
 62
7
  6
CONTINUOUS
 10
29.0397571045
 20
209.5073957589
 11
29.0397571045
 21
212.8073957589
  0
LINE
  5
220
100
AcDbEntity
  8
0
100
AcDbLine
 62
7
  6
CONTINUOUS
 10
31.1399292151
 20
135.0593998477
 11
31.1399292151
 21
136.3593998477
  0
LINE
  5
221
100
AcDbEntity
  8
0
100
AcDbLine
 62
7
  6
CONTINUOUS
 10
147.8892678868
 20
70.4083998477
 11
134.8902463222
 21
70.4083998477
  0
LINE
  5
222
100
AcDbEntity
  8
0
100
AcDbLine
 62
7
  6
CONTINUOUS
 10
148.3897571045
 20
70.9083998477
 11
134.3897571045
 21
70.9083998477
  0
LINE
  5
223
100
AcDbEntity
  8
0
100
AcDbLine
 62
7
  6
CONTINUOUS
 10
34.1399292151
 20
133.5593998477
 11
34.0086962198
 21
135.0593998477
  0
LINE
  5
224
100
AcDbEntity
  8
0
100
AcDbLine
 62
7
  6
CONTINUOUS
 10
31.9897571045
 20
195.4073957589
 11
31.9897571045
 21
209.4073957589
  0
LINE
  5
225
100
AcDbEntity
  8
0
100
AcDbLine
 62
7
  6
CONTINUOUS
 10
32.6897571045
 20
212.8073957589
 11
32.6897571045
 21
210.1073957589
  0
LINE
  5
226
100
AcDbEntity
  8
0
100
AcDbLine
 62
7
  6
CONTINUOUS
 10
37.4399317081
 20
123.7094200033
 11
37.4399386171
 21
133.5593998477
  0
LINE
  5
227
100
AcDbEntity
  8
0
100
AcDbLine
 62
7
  6
CONTINUOUS
 10
38.689932634
 20
133.8593998477
 11
38.689932634
 21
136.3593998477
  0
LINE
  5
228
100
AcDbEntity
  8
0
100
AcDbLine
 62
7
  6
CONTINUOUS
 10
52.3897571045
 20
194.4073957589
 11
61.3897571045
 21
198.4073957589
  0
LINE
  5
229
100
AcDbEntity
  8
0
100
AcDbLine
 62
7
  6
CONTINUOUS
 10
39.1897571045
 20
213.3073957589
 11
39.1897571045
 21
212.8073957589
  0
LINE
  5
22A
100
AcDbEntity
  8
0
100
AcDbLine
 62
7
  6
CONTINUOUS
 10
40.1897571045
 20
211.8073957589
 11
40.1897571045
 21
213.3073957589
  0
LINE
  5
22B
100
AcDbEntity
  8
0
100
AcDbLine
 62
7
  6
CONTINUOUS
 10
40.189932634
 20
134.7593998477
 11
40.189932634
 21
133.8593998477
  0
LINE
  5
22C
100
AcDbEntity
  8
0
100
AcDbLine
 62
7
  6
CONTINUOUS
 10
42.3897571045
 20
194.4073957589
 11
42.3897571045
 21
210.4073957589
  0
LINE
  5
22D
100
AcDbEntity
  8
0
100
AcDbLine
 62
7
  6
CONTINUOUS
 10
44.4399326339
 20
137.0593998477
 11
44.4399326339
 21
137.3593998477
  0
LINE
  5
22E
100
AcDbEntity
  8
0
100
AcDbLine
 62
7
  6
CONTINUOUS
 10
45.6399377623
 20
122.6093998477
 11
45.6399377623
 21
134.9093998477
  0
LINE
  5
22F
100
AcDbEntity
  8
0
100
AcDbLine
 62
7
  6
CONTINUOUS
 10
45.9399326339
 20
137.3593998477
 11
45.9399326339
 21
135.4457258978
  0
LINE
  5
230
100
AcDbEntity
  8
0
100
AcDbLine
 62
7
  6
CONTINUOUS
 10
31.1399292151
 20
135.0593998477
 11
32.6399292151
 21
133.5593998477
  0
LINE
  5
231
100
AcDbEntity
  8
0
100
AcDbLine
 62
7
  6
CONTINUOUS
 10
88.4763596449
 20
208.9073957589
 11
88.3897571045
 21
208.7573957589
  0
LINE
  5
232
100
AcDbEntity
  8
0
100
AcDbLine
 62
7
  6
CONTINUOUS
 10
44.4399326339
 20
137.0593998477
 11
43.9399326339
 21
136.3593998477
  0
LINE
  5
233
100
AcDbEntity
  8
0
100
AcDbLine
 62
7
  6
CONTINUOUS
 10
31.8399292151
 20
137.0593998477
 11
31.1399292151
 21
136.3593998477
  0
LINE
  5
234
100
AcDbEntity
  8
0
100
AcDbLine
 62
7
  6
CONTINUOUS
 10
150.8847571045
 20
94.9083998477
 11
131.8947571045
 21
94.9083998477
  0
LINE
  5
235
100
AcDbEntity
  8
0
100
AcDbLine
 62
7
  6
CONTINUOUS
 10
151.3847571045
 20
95.4083998477
 11
131.3947571045
 21
95.4083998477
  0
LINE
  5
236
100
AcDbEntity
  8
0
100
AcDbLine
 62
7
  6
CONTINUOUS
 10
175.8899249491
 20
97.4093998477
 11
106.8899249411
 21
97.4093998477
  0
LINE
  5
237
100
AcDbEntity
  8
0
100
AcDbLine
 62
7
  6
CONTINUOUS
 10
176.3899249409
 20
97.9093998477
 11
106.3899249411
 21
97.9093998477
  0
LINE
  5
238
100
AcDbEntity
  8
0
100
AcDbLine
 62
7
  6
CONTINUOUS
 10
63.1394640113
 20
132.7643998476
 11
63.1397005399
 21
131.9915560773
  0
LINE
  5
239
100
AcDbEntity
  8
0
100
AcDbLine
 62
7
  6
CONTINUOUS
 10
66.3897571045
 20
206.4073957589
 11
66.3897571045
 21
198.4073957589
  0
LINE
  5
23A
100
AcDbEntity
  8
0
100
AcDbLine
 62
7
  6
CONTINUOUS
 10
63.1396997349
 20
125.5736443606
 11
63.1394640112
 21
124.7543998477
  0
LINE
  5
23B
100
AcDbEntity
  8
0
100
AcDbLine
 62
7
  6
CONTINUOUS
 10
101.3900246596
 20
100.4093998477
 11
181.3899057479
 21
100.4093998477
  0
LINE
  5
23C
100
AcDbEntity
  8
0
100
AcDbLine
 62
7
  6
CONTINUOUS
 10
68.1399249413
 20
132.763864674
 11
68.1399249413
 21
124.7549350215
  0
LINE
  5
23D
100
AcDbEntity
  8
0
100
AcDbLine
 62
7
  6
CONTINUOUS
 10
101.3900246596
 20
108.4093998477
 11
118.3900154217
 21
108.4093998477
  0
LINE
  5
23E
100
AcDbEntity
  8
0
100
AcDbLine
 62
7
  6
CONTINUOUS
 10
164.3900154218
 20
108.4093998477
 11
181.3899057486
 21
108.4093998477
  0
LINE
  5
23F
100
AcDbEntity
  8
0
100
AcDbLine
 62
7
  6
CONTINUOUS
 10
106.3899249411
 20
97.9093998477
 11
106.8899249411
 21
97.4093998477
  0
LINE
  5
240
100
AcDbEntity
  8
0
100
AcDbLine
 62
7
  6
CONTINUOUS
 10
134.8897571045
 20
70.4083998477
 11
134.3897571045
 21
70.9083998477
  0
LINE
  5
241
100
AcDbEntity
  8
0
100
AcDbLine
 62
7
  6
CONTINUOUS
 10
26.6897571045
 20
210.8073957589
 11
27.5397571045
 21
209.5073957589
  0
LINE
  5
242
100
AcDbEntity
  8
0
100
AcDbLine
 62
7
  6
CONTINUOUS
 10
85.1399249412
 20
132.4593998477
 11
85.1399249412
 21
125.0593998477
  0
LINE
  5
243
100
AcDbEntity
  8
0
100
AcDbLine
 62
7
  6
CONTINUOUS
 10
86.3897571045
 20
197.0573957589
 11
86.3897571045
 21
207.7573957589
  0
LINE
  5
244
100
AcDbEntity
  8
0
100
AcDbLine
 62
7
  6
CONTINUOUS
 10
86.3898953614
 20
167.7915680934
 11
86.3898953614
 21
141.0272316021
  0
LINE
  5
245
100
AcDbEntity
  8
0
100
AcDbLine
 62
7
  6
CONTINUOUS
 10
86.8812243799
 20
152.870609869
 11
86.8812243799
 21
157.9481898265
  0
LINE
  5
246
100
AcDbEntity
  8
0
100
AcDbLine
 62
7
  6
CONTINUOUS
 10
86.8855941123
 20
141.5272125636
 11
86.8855941149
 21
151.8706860185
  0
LINE
  5
247
100
AcDbEntity
  8
0
100
AcDbLine
 62
7
  6
CONTINUOUS
 10
86.8855941142
 20
158.948113677
 11
86.8855941129
 21
167.2915871318
  0
LINE
  5
248
100
AcDbEntity
  8
0
100
AcDbLine
 62
7
  6
CONTINUOUS
 10
86.8899505831
 20
153.309399936
 11
86.8899505831
 21
157.5093997452
  0
LINE
  5
249
100
AcDbEntity
  8
0
100
AcDbLine
 62
7
  6
CONTINUOUS
 10
87.1399505831
 20
153.0593999431
 11
87.1399505831
 21
157.7593997524
  0
LINE
  5
24A
100
AcDbEntity
  8
0
100
AcDbLine
 62
7
  6
CONTINUOUS
 10
87.3897571045
 20
196.0573957589
 11
87.3897571045
 21
208.7573957589
  0
LINE
  5
24B
100
AcDbEntity
  8
0
100
AcDbLine
 62
7
  6
CONTINUOUS
 10
88.3897571045
 20
208.7573957589
 11
88.3897571045
 21
196.0573957589
  0
LINE
  5
24C
100
AcDbEntity
  8
0
100
AcDbLine
 62
7
  6
CONTINUOUS
 10
45.6399377623
 20
122.6093998477
 11
48.1399394226
 21
122.6093998477
  0
LINE
  5
24D
100
AcDbEntity
  8
0
100
AcDbLine
 62
7
  6
CONTINUOUS
 10
48.1399419417
 20
123.259397061
 11
45.6399396142
 21
123.2593998481
  0
LINE
  5
24E
100
AcDbEntity
  8
0
100
AcDbLine
 62
7
  6
CONTINUOUS
 10
37.4399317081
 20
123.7093998477
 11
45.639931708
 21
123.7093998477
  0
LINE
  5
24F
100
AcDbEntity
  8
0
100
AcDbLine
 62
7
  6
CONTINUOUS
 10
45.639938617
 20
123.9593998477
 11
37.4399386171
 21
123.9593998477
  0
LINE
  5
250
100
AcDbEntity
  8
0
100
AcDbLine
 62
7
  6
CONTINUOUS
 10
68.1399249413
 20
124.7543998477
 11
63.1390009684
 21
124.7543998477
  0
LINE
  5
251
100
AcDbEntity
  8
0
100
AcDbLine
 62
7
  6
CONTINUOUS
 10
28.5399336312
 20
124.8593998477
 11
37.4399336312
 21
124.8593998477
  0
LINE
  5
252
100
AcDbEntity
  8
0
100
AcDbLine
 62
7
  6
CONTINUOUS
 10
68.1399249413
 20
125.0593998477
 11
85.1399249412
 21
125.0593998477
  0
LINE
  5
253
100
AcDbEntity
  8
0
100
AcDbLine
 62
7
  6
CONTINUOUS
 10
28.539935768
 20
125.6093998477
 11
37.439935768
 21
125.6093998477
  0
LINE
  5
254
100
AcDbEntity
  8
0
100
AcDbLine
 62
7
  6
CONTINUOUS
 10
28.539935768
 20
128.2593998477
 11
37.439935768
 21
128.2593998477
  0
LINE
  5
255
100
AcDbEntity
  8
0
100
AcDbLine
 62
7
  6
CONTINUOUS
 10
63.1390004838
 20
132.7643998476
 11
48.1400646847
 21
134.9093998477
  0
LINE
  5
256
100
AcDbEntity
  8
0
100
AcDbLine
 62
7
  6
CONTINUOUS
 10
63.1399157113
 20
131.6144046679
 11
48.1399482482
 21
134.2593956882
  0
LINE
  5
257
100
AcDbEntity
  8
0
100
AcDbLine
 62
7
  6
CONTINUOUS
 10
48.139929047
 20
134.909419981
 11
63.1394930503
 21
131.9916309683
  0
LINE
  5
258
100
AcDbEntity
  8
0
100
AcDbLine
 62
7
  6
CONTINUOUS
 10
88.9093723467
 20
195.9073957589
 11
88.9093723467
 21
196.3763213263
  0
LINE
  5
259
100
AcDbEntity
  8
0
100
AcDbLine
 62
7
  6
CONTINUOUS
 10
88.9093723467
 20
201.9384701916
 11
88.9093723467
 21
202.8763213263
  0
LINE
  5
25A
100
AcDbEntity
  8
0
100
AcDbLine
 62
7
  6
CONTINUOUS
 10
88.9093723467
 20
208.4384701916
 11
88.9093723467
 21
208.9073957589
  0
LINE
  5
25B
100
AcDbEntity
  8
0
100
AcDbLine
 62
7
  6
CONTINUOUS
 10
89.3899249412
 20
140.2593998477
 11
89.3899249412
 21
140.5053951653
  0
LINE
  5
25C
100
AcDbEntity
  8
0
100
AcDbLine
 62
7
  6
CONTINUOUS
 10
89.3899574323
 20
158.9043998535
 11
89.3899574323
 21
151.9143998419
  0
LINE
  5
25D
100
AcDbEntity
  8
0
100
AcDbLine
 62
7
  6
CONTINUOUS
 10
90.8897571045
 20
208.9073957589
 11
90.8897571045
 21
195.9073957589
  0
LINE
  5
25E
100
AcDbEntity
  8
0
100
AcDbLine
 62
7
  6
CONTINUOUS
 10
91.3897571045
 20
182.903055453
 11
91.3897571045
 21
211.9073992518
  0
LINE
  5
25F
100
AcDbEntity
  8
0
100
AcDbLine
 62
7
  6
CONTINUOUS
 10
91.4399249412
 20
138.7593998477
 11
91.4399249412
 21
140.2593998477
  0
LINE
  5
260
100
AcDbEntity
  8
0
100
AcDbLine
 62
7
  6
CONTINUOUS
 10
91.8853938554
 20
183.9030173761
 11
91.8853938444
 21
210.9073998478
  0
LINE
  5
261
100
AcDbEntity
  8
0
100
AcDbLine
 62
7
  6
CONTINUOUS
 10
95.1399413235
 20
140.2593998477
 11
95.1399413211
 21
140.4552159036
  0
LINE
  5
262
100
AcDbEntity
  8
0
100
AcDbLine
 62
7
  6
CONTINUOUS
 10
63.1399236294
 20
125.5736714807
 11
48.139929049
 21
122.6093748
  0
LINE
  5
263
100
AcDbEntity
  8
0
100
AcDbLine
 62
7
  6
CONTINUOUS
 10
63.1399323211
 20
125.9592743294
 11
48.1399402767
 21
123.2593974263
  0
LINE
  5
264
100
AcDbEntity
  8
0
100
AcDbLine
 62
7
  6
CONTINUOUS
 10
48.1400643019
 20
122.6093998477
 11
63.1390009695
 21
124.7543998478
  0
LINE
  5
265
100
AcDbEntity
  8
0
100
AcDbLine
 62
7
  6
CONTINUOUS
 10
28.539935768
 20
129.0593998477
 11
37.439935768
 21
129.0593998477
  0
LINE
  5
266
100
AcDbEntity
  8
0
100
AcDbLine
 62
7
  6
CONTINUOUS
 10
28.539935768
 20
132.4593998477
 11
37.439935768
 21
132.4593998477
  0
LINE
  5
267
100
AcDbEntity
  8
0
100
AcDbLine
 62
7
  6
CONTINUOUS
 10
68.1399249413
 20
132.4593998477
 11
85.1399249412
 21
132.4593998477
  0
LINE
  5
268
100
AcDbEntity
  8
0
100
AcDbLine
 62
7
  6
CONTINUOUS
 10
68.1399249413
 20
132.7643998477
 11
63.1390004826
 21
132.7643998477
  0
LINE
  5
269
100
AcDbEntity
  8
0
100
AcDbLine
 62
7
  6
CONTINUOUS
 10
34.1399292151
 20
133.5593998477
 11
32.6399292151
 21
133.5593998477
  0
LINE
  5
26A
100
AcDbEntity
  8
0
100
AcDbLine
 62
7
  6
CONTINUOUS
 10
37.4399386171
 20
133.5593998477
 11
45.6399386171
 21
133.5593998477
  0
LINE
  5
26B
100
AcDbEntity
  8
0
100
AcDbLine
 62
7
  6
CONTINUOUS
 10
45.6399396142
 20
134.2593998417
 11
48.1399424979
 21
134.2593957058
  0
LINE
  5
26C
100
AcDbEntity
  8
0
100
AcDbLine
 62
7
  6
CONTINUOUS
 10
48.1399390631
 20
134.9093998477
 11
45.6399377623
 21
134.9093998477
  0
LINE
  5
26D
100
AcDbEntity
  8
0
100
AcDbLine
 62
7
  6
CONTINUOUS
 10
38.6899292151
 20
135.0593998477
 11
34.0086962198
 21
135.0593998477
  0
LINE
  5
26E
100
AcDbEntity
  8
0
100
AcDbLine
 62
7
  6
CONTINUOUS
 10
131.3947571045
 20
95.4083998477
 11
131.8947571045
 21
94.9083998477
  0
LINE
  5
26F
100
AcDbEntity
  8
0
100
AcDbLine
 62
7
  6
CONTINUOUS
 10
98.8399249412
 20
138.7593998477
 11
98.8399249412
 21
140.2593998477
  0
LINE
  5
270
100
AcDbEntity
  8
0
100
AcDbLine
 62
7
  6
CONTINUOUS
 10
99.3899552841
 20
139.0593998477
 11
99.389955284
 21
169.7593998477
  0
LINE
  5
271
100
AcDbEntity
  8
0
100
AcDbLine
 62
7
  6
CONTINUOUS
 10
101.3897571045
 20
176.4073998477
 11
101.3900246596
 21
100.4093998477
  0
LINE
  5
272
100
AcDbEntity
  8
0
100
AcDbLine
 62
7
  6
CONTINUOUS
 10
102.6399873554
 20
173.9083998477
 11
102.6399873554
 21
175.6083998477
  0
LINE
  5
273
100
AcDbEntity
  8
0
100
AcDbLine
 62
7
  6
CONTINUOUS
 10
102.8897571045
 20
175.9083998477
 11
102.8897571045
 21
176.4073998477
  0
LINE
  5
274
100
AcDbEntity
  8
0
100
AcDbLine
 62
7
  6
CONTINUOUS
 10
100.9588236063
 20
183.8238347541
 11
101.1951783121
 21
210.9073998474
  0
LINE
  5
275
100
AcDbEntity
  8
0
100
AcDbLine
 62
7
  6
CONTINUOUS
 10
101.3897571045
 20
176.4073998477
 11
101.6995989909
 21
211.9117633686
  0
LINE
  5
276
100
AcDbEntity
  8
0
100
AcDbLine
 62
7
  6
CONTINUOUS
 10
40.3725014854
 20
134.9586387873
 11
45.9399326339
 21
135.4457258978
  0
LINE
  5
277
100
AcDbEntity
  8
0
100
AcDbLine
 62
7
  6
CONTINUOUS
 10
38.689932634
 20
136.3593998477
 11
43.9399326339
 21
136.3593998477
  0
LINE
  5
278
100
AcDbEntity
  8
0
100
AcDbLine
 62
7
  6
CONTINUOUS
 10
31.8399292151
 20
137.0593998477
 11
44.439929215
 21
137.0593998477
  0
LINE
  5
279
100
AcDbEntity
  8
0
100
AcDbLine
 62
7
  6
CONTINUOUS
 10
44.4399326339
 20
137.3593998477
 11
45.9399326339
 21
137.3593998477
  0
LINE
  5
27A
100
AcDbEntity
  8
0
100
AcDbLine
 62
7
  6
CONTINUOUS
 10
98.8399249412
 20
138.7593998477
 11
91.4399249412
 21
138.7593998477
  0
LINE
  5
27B
100
AcDbEntity
  8
0
100
AcDbLine
 62
7
  6
CONTINUOUS
 10
99.389955284
 20
139.0593998477
 11
101.389955284
 21
139.0593998477
  0
LINE
  5
27C
100
AcDbEntity
  8
0
100
AcDbLine
 62
7
  6
CONTINUOUS
 10
89.3899249412
 20
140.2593998477
 11
99.389955284
 21
140.2593998477
  0
LINE
  5
27D
100
AcDbEntity
  8
0
100
AcDbLine
 62
7
  6
CONTINUOUS
 10
86.3899545211
 20
141.0272316021
 11
86.3898953614
 21
141.0272316021
  0
LINE
  5
27E
100
AcDbEntity
  8
0
100
AcDbLine
 62
7
  6
CONTINUOUS
 10
101.3899615521
 20
141.2593998477
 11
99.3899615521
 21
141.2593998477
  0
LINE
  5
27F
100
AcDbEntity
  8
0
100
AcDbLine
 62
7
  6
CONTINUOUS
 10
86.8855941136
 20
141.5272125636
 11
86.3899559456
 21
141.5272125636
  0
LINE
  5
280
100
AcDbEntity
  8
0
100
AcDbLine
 62
7
  6
CONTINUOUS
 10
99.3913403669
 20
140.4181146241
 11
86.8855912637
 21
140.5272506405
  0
LINE
  5
281
100
AcDbEntity
  8
0
100
AcDbLine
 62
7
  6
CONTINUOUS
 10
86.8855941123
 20
141.5272125636
 11
99.3913463024
 21
141.4180765203
  0
LINE
  5
282
100
AcDbEntity
  8
0
100
AcDbLine
 62
7
  6
CONTINUOUS
 10
104.3899788582
 20
108.4093998477
 11
104.3897571045
 21
173.9083998477
  0
LINE
  5
283
100
AcDbEntity
  8
0
100
AcDbLine
 62
7
  6
CONTINUOUS
 10
104.6994847579
 20
211.9117632239
 11
104.6994847579
 21
212.4073998456
  0
LINE
  5
284
100
AcDbEntity
  8
0
100
AcDbLine
 62
7
  6
CONTINUOUS
 10
105.3897571045
 20
176.4073998477
 11
105.3897571045
 21
175.9083998477
  0
LINE
  5
285
100
AcDbEntity
  8
0
100
AcDbLine
 62
7
  6
CONTINUOUS
 10
106.3899249411
 20
97.9093998477
 11
106.390038905
 21
108.4093998477
  0
LINE
  5
286
100
AcDbEntity
  8
0
100
AcDbLine
 62
7
  6
CONTINUOUS
 10
108.1143552633
 20
173.9083998477
 11
108.1143552633
 21
173.408399847
  0
LINE
  5
287
100
AcDbEntity
  8
0
100
AcDbLine
 62
7
  6
CONTINUOUS
 10
108.1399873554
 20
173.9596639961
 11
108.1399873554
 21
175.6083998477
  0
LINE
  5
288
100
AcDbEntity
  8
0
100
AcDbLine
 62
7
  6
CONTINUOUS
 10
108.3897571045
 20
212.4073998456
 11
108.3897571045
 21
176.4073998477
  0
LINE
  5
289
100
AcDbEntity
  8
0
100
AcDbLine
 62
7
  6
CONTINUOUS
 10
108.389772129
 20
173.4387701209
 11
108.3899788582
 21
108.4093998477
  0
LINE
  5
28A
100
AcDbEntity
  8
0
100
AcDbLine
 62
7
  6
CONTINUOUS
 10
108.419428455
 20
176.4073998477
 11
108.419428455
 21
174.4083998477
  0
LINE
  5
28B
100
AcDbEntity
  8
0
100
AcDbLine
 62
7
  6
CONTINUOUS
 10
109.6494864519
 20
174.4083998477
 11
109.6494864519
 21
176.4073998477
  0
LINE
  5
28C
100
AcDbEntity
  8
0
100
AcDbLine
 62
7
  6
CONTINUOUS
 10
104.6994847514
 20
211.9117633085
 11
104.3896428726
 21
176.4073998477
  0
LINE
  5
28D
100
AcDbEntity
  8
0
100
AcDbLine
 62
7
  6
CONTINUOUS
 10
115.3897571045
 20
176.4073999164
 11
115.3900303577
 21
108.4093998477
  0
LINE
  5
28E
100
AcDbEntity
  8
0
100
AcDbLine
 62
7
  6
CONTINUOUS
 10
116.6397571045
 20
208.9073998477
 11
116.6397571045
 21
211.6073998477
  0
LINE
  5
28F
100
AcDbEntity
  8
0
100
AcDbLine
 62
7
  6
CONTINUOUS
 10
116.9074533601
 20
211.9073999816
 11
116.9074533601
 21
212.4073998477
  0
LINE
  5
290
100
AcDbEntity
  8
0
100
AcDbLine
 62
7
  6
CONTINUOUS
 10
115.3897571051
 20
176.4073999164
 11
115.6733803076
 21
208.907399836
  0
LINE
  5
291
100
AcDbEntity
  8
0
100
AcDbLine
 62
7
  6
CONTINUOUS
 10
115.4571756472
 20
211.9117633014
 11
115.4303588727
 21
208.9073998458
  0
LINE
  5
292
100
AcDbEntity
  8
0
100
AcDbLine
 62
7
  6
CONTINUOUS
 10
86.8855941149
 20
151.8706860185
 11
89.3899574323
 21
151.9143998419
  0
LINE
  5
293
100
AcDbEntity
  8
0
100
AcDbLine
 62
7
  6
CONTINUOUS
 10
89.3899545835
 20
152.9143998477
 11
86.8812283341
 21
152.8706098692
  0
LINE
  5
294
100
AcDbEntity
  8
0
100
AcDbLine
 62
7
  6
CONTINUOUS
 10
86.3899559456
 20
151.8706860185
 11
86.8855941136
 21
151.8706860185
  0
LINE
  5
295
100
AcDbEntity
  8
0
100
AcDbLine
 62
7
  6
CONTINUOUS
 10
89.3899505831
 20
153.0593999431
 11
87.1399505831
 21
153.0593999431
  0
LINE
  5
296
100
AcDbEntity
  8
0
100
AcDbLine
 62
7
  6
CONTINUOUS
 10
108.2832105147
 20
173.9235817996
 11
108.3897724563
 21
173.4387686319
  0
LINE
  5
297
100
AcDbEntity
  8
0
100
AcDbLine
 62
7
  6
CONTINUOUS
 10
118.3900154217
 20
108.4093998477
 11
118.3897104635
 21
176.4074000588
  0
LINE
  5
298
100
AcDbEntity
  8
0
100
AcDbLine
 62
7
  6
CONTINUOUS
 10
119.3897571045
 20
212.4073998477
 11
119.3897571045
 21
211.9073999816
  0
LINE
  5
299
100
AcDbEntity
  8
0
100
AcDbLine
 62
7
  6
CONTINUOUS
 10
122.1397571045
 20
208.9073998477
 11
122.1397571045
 21
211.6073998477
  0
LINE
  5
29A
100
AcDbEntity
  8
0
100
AcDbLine
 62
7
  6
CONTINUOUS
 10
122.6397571045
 20
211.9073998409
 11
122.6397571045
 21
208.9073998477
  0
LINE
  5
29B
100
AcDbEntity
  8
0
100
AcDbLine
 62
7
  6
CONTINUOUS
 10
124.1397571045
 20
208.9073998477
 11
124.1397571045
 21
212.4073998477
  0
LINE
  5
29C
100
AcDbEntity
  8
0
100
AcDbLine
 62
7
  6
CONTINUOUS
 10
118.6732660769
 20
208.9073998477
 11
118.3897104635
 21
176.4074000588
  0
LINE
  5
29D
100
AcDbEntity
  8
0
100
AcDbLine
 62
7
  6
CONTINUOUS
 10
89.3899505831
 20
157.7593997524
 11
87.1399505831
 21
157.7593997524
  0
LINE
  5
29E
100
AcDbEntity
  8
0
100
AcDbLine
 62
7
  6
CONTINUOUS
 10
86.8855941135
 20
158.948113677
 11
86.3899559456
 21
158.948113677
  0
LINE
  5
29F
100
AcDbEntity
  8
0
100
AcDbLine
 62
7
  6
CONTINUOUS
 10
86.881228335
 20
157.9481898262
 11
89.3899545835
 21
157.9043998477
  0
LINE
  5
2A0
100
AcDbEntity
  8
0
100
AcDbLine
 62
7
  6
CONTINUOUS
 10
89.3899574323
 20
158.9043998535
 11
86.8855941142
 21
158.948113677
  0
LINE
  5
2A1
100
AcDbEntity
  8
0
100
AcDbLine
 62
7
  6
CONTINUOUS
 10
88.4763596449
 20
195.9073957589
 11
88.3897571045
 21
196.0573957589
  0
LINE
  5
2A2
100
AcDbEntity
  8
0
100
AcDbLine
 62
7
  6
CONTINUOUS
 10
131.3947571045
 20
97.4093998477
 11
131.3947571045
 21
95.4083998477
  0
LINE
  5
2A3
100
AcDbEntity
  8
0
100
AcDbLine
 62
7
  6
CONTINUOUS
 10
99.3913463024
 20
167.4007231752
 11
86.8855941129
 21
167.2915871318
  0
LINE
  5
2A4
100
AcDbEntity
  8
0
100
AcDbLine
 62
7
  6
CONTINUOUS
 10
86.8855912631
 20
168.291549055
 11
99.3912796857
 21
168.4006845418
  0
LINE
  5
2A5
100
AcDbEntity
  8
0
100
AcDbLine
 62
7
  6
CONTINUOUS
 10
86.3899559456
 20
167.2915871318
 11
86.8855941135
 21
167.2915871318
  0
LINE
  5
2A6
100
AcDbEntity
  8
0
100
AcDbLine
 62
7
  6
CONTINUOUS
 10
99.3899615521
 20
167.5593998477
 11
101.3899615521
 21
167.5593998477
  0
LINE
  5
2A7
100
AcDbEntity
  8
0
100
AcDbLine
 62
7
  6
CONTINUOUS
 10
86.3898953614
 20
167.7915680934
 11
86.3899545211
 21
167.7915680934
  0
LINE
  5
2A8
100
AcDbEntity
  8
0
100
AcDbLine
 62
7
  6
CONTINUOUS
 10
101.389955284
 20
169.7593998477
 11
99.3899552841
 21
169.7593998477
  0
LINE
  5
2A9
100
AcDbEntity
  8
0
100
AcDbLine
 62
7
  6
CONTINUOUS
 10
134.3897571045
 20
94.9083998477
 11
134.3897571045
 21
70.9083998477
  0
LINE
  5
2AA
100
AcDbEntity
  8
0
100
AcDbLine
 62
7
  6
CONTINUOUS
 10
101.3897571045
 20
173.4083998477
 11
108.1143552633
 21
173.4083998464
  0
LINE
  5
2AB
100
AcDbEntity
  8
0
100
AcDbLine
 62
7
  6
CONTINUOUS
 10
174.6651589456
 20
173.4083998466
 11
181.3897571039
 21
173.4083998477
  0
LINE
  5
2AC
100
AcDbEntity
  8
0
100
AcDbLine
 62
7
  6
CONTINUOUS
 10
101.8897571045
 20
173.9083998477
 11
108.1143552792
 21
173.9083998477
  0
LINE
  5
2AD
100
AcDbEntity
  8
0
100
AcDbLine
 62
7
  6
CONTINUOUS
 10
174.6651589303
 20
173.9083998477
 11
180.8897571045
 21
173.9083998477
  0
LINE
  5
2AE
100
AcDbEntity
  8
0
100
AcDbLine
 62
7
  6
CONTINUOUS
 10
181.3897571045
 20
174.4083998477
 11
180.1399873554
 21
174.4083998477
  0
LINE
  5
2AF
100
AcDbEntity
  8
0
100
AcDbLine
 62
7
  6
CONTINUOUS
 10
174.6399873554
 20
174.4083998477
 11
173.130027757
 21
174.4083998477
  0
LINE
  5
2B0
100
AcDbEntity
  8
0
100
AcDbLine
 62
7
  6
CONTINUOUS
 10
109.6494864519
 20
174.4083998477
 11
108.1399873554
 21
174.4083998477
  0
LINE
  5
2B1
100
AcDbEntity
  8
0
100
AcDbLine
 62
7
  6
CONTINUOUS
 10
102.6399873554
 20
174.4083998477
 11
101.3897571045
 21
174.4083998477
  0
LINE
  5
2B2
100
AcDbEntity
  8
0
100
AcDbLine
 62
7
  6
CONTINUOUS
 10
102.6399873554
 20
175.6083998477
 11
108.1399873554
 21
175.6083998477
  0
LINE
  5
2B3
100
AcDbEntity
  8
0
100
AcDbLine
 62
7
  6
CONTINUOUS
 10
174.6399873554
 20
175.6083998477
 11
180.1399873554
 21
175.6083998477
  0
LINE
  5
2B4
100
AcDbEntity
  8
0
100
AcDbLine
 62
7
  6
CONTINUOUS
 10
102.9399873554
 20
175.9083998477
 11
107.8399873554
 21
175.9083998477
  0
LINE
  5
2B5
100
AcDbEntity
  8
0
100
AcDbLine
 62
7
  6
CONTINUOUS
 10
174.9399873554
 20
175.9083998477
 11
179.8399873554
 21
175.9083998477
  0
LINE
  5
2B6
100
AcDbEntity
  8
0
100
AcDbLine
 62
7
  6
CONTINUOUS
 10
101.3897571045
 20
176.4073998477
 11
181.3897571045
 21
176.4073998477
  0
LINE
  5
2B7
100
AcDbEntity
  8
0
100
AcDbLine
 62
7
  6
CONTINUOUS
 10
91.8853938499
 20
183.9030173761
 11
91.3897571045
 21
183.9030173761
  0
LINE
  5
2B8
100
AcDbEntity
  8
0
100
AcDbLine
 62
7
  6
CONTINUOUS
 10
100.9413718447
 20
182.3240441687
 11
91.8853938573
 21
182.4030744913
  0
LINE
  5
2B9
100
AcDbEntity
  8
0
100
AcDbLine
 62
7
  6
CONTINUOUS
 10
101.4544412727
 20
183.8194714891
 11
91.8853938554
 21
183.9030173761
  0
LINE
  5
2BA
100
AcDbEntity
  8
0
100
AcDbLine
 62
7
  6
CONTINUOUS
 10
61.3897571045
 20
206.4073957589
 11
52.3897571045
 21
210.4073957589
  0
LINE
  5
2BB
100
AcDbEntity
  8
0
100
AcDbLine
 62
7
  6
CONTINUOUS
 10
148.3897571045
 20
94.9083998477
 11
148.3897571045
 21
70.9083998477
  0
LINE
  5
2BC
100
AcDbEntity
  8
0
100
AcDbLine
 62
7
  6
CONTINUOUS
 10
151.3847571045
 20
97.4093998477
 11
151.3847571045
 21
95.4083998477
  0
LINE
  5
2BD
100
AcDbEntity
  8
0
100
AcDbLine
 62
7
  6
CONTINUOUS
 10
158.6397571045
 20
212.4073998477
 11
158.6397571045
 21
208.9073998477
  0
LINE
  5
2BE
100
AcDbEntity
  8
0
100
AcDbLine
 62
7
  6
CONTINUOUS
 10
52.3897571045
 20
194.4073957589
 11
42.3897571045
 21
194.4073957589
  0
LINE
  5
2BF
100
AcDbEntity
  8
0
100
AcDbLine
 62
7
  6
CONTINUOUS
 10
31.9897571045
 20
195.4073957589
 11
42.3897571045
 21
195.4073957589
  0
LINE
  5
2C0
100
AcDbEntity
  8
0
100
AcDbLine
 62
7
  6
CONTINUOUS
 10
42.3897571045
 20
195.9073957589
 11
31.9897571045
 21
195.9073957589
  0
LINE
  5
2C1
100
AcDbEntity
  8
0
100
AcDbLine
 62
7
  6
CONTINUOUS
 10
88.4763596449
 20
195.9073957589
 11
90.8897571045
 21
195.9073957589
  0
LINE
  5
2C2
100
AcDbEntity
  8
0
100
AcDbLine
 62
7
  6
CONTINUOUS
 10
88.3897571045
 20
196.0573957589
 11
87.3897571045
 21
196.0573957589
  0
LINE
  5
2C3
100
AcDbEntity
  8
0
100
AcDbLine
 62
7
  6
CONTINUOUS
 10
90.8897571045
 20
196.3763213262
 11
88.9093723467
 21
196.3763213262
  0
LINE
  5
2C4
100
AcDbEntity
  8
0
100
AcDbLine
 62
7
  6
CONTINUOUS
 10
31.9897571045
 20
196.5423957589
 11
22.6897571045
 21
196.5423957589
  0
LINE
  5
2C5
100
AcDbEntity
  8
0
100
AcDbLine
 62
7
  6
CONTINUOUS
 10
91.3897571045
 20
197.2573957589
 11
90.8897571045
 21
197.2573957589
  0
LINE
  5
2C6
100
AcDbEntity
  8
0
100
AcDbLine
 62
7
  6
CONTINUOUS
 10
61.3897571045
 20
198.4073957589
 11
66.3897571045
 21
198.4073957589
  0
LINE
  5
2C7
100
AcDbEntity
  8
0
100
AcDbLine
 62
7
  6
CONTINUOUS
 10
164.3898318327
 20
176.4073999164
 11
164.1062386129
 21
208.9073998359
  0
LINE
  5
2C8
100
AcDbEntity
  8
0
100
AcDbLine
 62
7
  6
CONTINUOUS
 10
160.1397571045
 20
208.9073998477
 11
160.1397571045
 21
211.9073998414
  0
LINE
  5
2C9
100
AcDbEntity
  8
0
100
AcDbLine
 62
7
  6
CONTINUOUS
 10
160.6397571045
 20
208.9073998477
 11
160.6397571045
 21
211.6073998477
  0
LINE
  5
2CA
100
AcDbEntity
  8
0
100
AcDbLine
 62
7
  6
CONTINUOUS
 10
163.3897571045
 20
211.9073999954
 11
163.3897571045
 21
212.4073998477
  0
LINE
  5
2CB
100
AcDbEntity
  8
0
100
AcDbLine
 62
7
  6
CONTINUOUS
 10
164.3898318327
 20
176.4073999164
 11
164.3900154218
 21
108.4093998477
  0
LINE
  5
2CC
100
AcDbEntity
  8
0
100
AcDbLine
 62
7
  6
CONTINUOUS
 10
165.8720608489
 20
212.4073998477
 11
165.8720608489
 21
211.9073999954
  0
LINE
  5
2CD
100
AcDbEntity
  8
0
100
AcDbLine
 62
7
  6
CONTINUOUS
 10
166.1397571045
 20
208.9073998477
 11
166.1397571045
 21
211.6073998477
  0
LINE
  5
2CE
100
AcDbEntity
  8
0
100
AcDbLine
 62
7
  6
CONTINUOUS
 10
174.496308367
 20
173.9235809914
 11
174.3897722381
 21
173.4387566471
  0
LINE
  5
2CF
100
AcDbEntity
  8
0
100
AcDbLine
 62
7
  6
CONTINUOUS
 10
66.3897571045
 20
199.9073957589
 11
86.3897571045
 21
199.9073957589
  0
LINE
  5
2D0
100
AcDbEntity
  8
0
100
AcDbLine
 62
7
  6
CONTINUOUS
 10
31.9897571045
 20
199.9923957589
 11
22.6897571045
 21
199.9923957589
  0
LINE
  5
2D1
100
AcDbEntity
  8
0
100
AcDbLine
 62
7
  6
CONTINUOUS
 10
31.9897571045
 20
200.6823957589
 11
22.6897571045
 21
200.6823957589
  0
LINE
  5
2D2
100
AcDbEntity
  8
0
100
AcDbLine
 62
7
  6
CONTINUOUS
 10
88.9093723467
 20
201.9384701916
 11
90.8897571045
 21
201.9384701916
  0
LINE
  5
2D3
100
AcDbEntity
  8
0
100
AcDbLine
 62
7
  6
CONTINUOUS
 10
90.8897571045
 20
202.8763213263
 11
88.9093723467
 21
202.8763213263
  0
LINE
  5
2D4
100
AcDbEntity
  8
0
100
AcDbLine
 62
7
  6
CONTINUOUS
 10
31.9897571045
 20
204.1323957589
 11
22.6897571045
 21
204.1323957589
  0
LINE
  5
2D5
100
AcDbEntity
  8
0
100
AcDbLine
 62
7
  6
CONTINUOUS
 10
31.9897571045
 20
204.8223957589
 11
22.6897571045
 21
204.8223957589
  0
LINE
  5
2D6
100
AcDbEntity
  8
0
100
AcDbLine
 62
7
  6
CONTINUOUS
 10
66.3897571045
 20
204.9073957589
 11
86.3897571045
 21
204.9073957589
  0
LINE
  5
2D7
100
AcDbEntity
  8
0
100
AcDbLine
 62
7
  6
CONTINUOUS
 10
61.3897571045
 20
206.4073957589
 11
66.3897571045
 21
206.4073957589
  0
LINE
  5
2D8
100
AcDbEntity
  8
0
100
AcDbLine
 62
7
  6
CONTINUOUS
 10
167.3491554729
 20
208.9073998481
 11
167.3223384675
 21
211.9117634009
  0
LINE
  5
2D9
100
AcDbEntity
  8
0
100
AcDbLine
 62
7
  6
CONTINUOUS
 10
167.1061339014
 20
208.9073998359
 11
167.3897571036
 21
176.407399943
  0
LINE
  5
2DA
100
AcDbEntity
  8
0
100
AcDbLine
 62
7
  6
CONTINUOUS
 10
167.3900303575
 20
108.4093998477
 11
167.3897571045
 21
176.407399943
  0
LINE
  5
2DB
100
AcDbEntity
  8
0
100
AcDbLine
 62
7
  6
CONTINUOUS
 10
173.130027757
 20
176.4073998477
 11
173.130027757
 21
174.4083998477
  0
LINE
  5
2DC
100
AcDbEntity
  8
0
100
AcDbLine
 62
7
  6
CONTINUOUS
 10
151.3847571045
 20
95.4083998477
 11
150.8847571045
 21
94.9083998477
  0
LINE
  5
2DD
100
AcDbEntity
  8
0
100
AcDbLine
 62
7
  6
CONTINUOUS
 10
91.3897571045
 20
207.5573957589
 11
90.8897571045
 21
207.5573957589
  0
LINE
  5
2DE
100
AcDbEntity
  8
0
100
AcDbLine
 62
7
  6
CONTINUOUS
 10
31.9897571045
 20
208.2723957589
 11
22.6897571045
 21
208.2723957589
  0
LINE
  5
2DF
100
AcDbEntity
  8
0
100
AcDbLine
 62
7
  6
CONTINUOUS
 10
88.9093723467
 20
208.4384701916
 11
90.8897571045
 21
208.4384701916
  0
LINE
  5
2E0
100
AcDbEntity
  8
0
100
AcDbLine
 62
7
  6
CONTINUOUS
 10
88.3897571045
 20
208.7573957589
 11
87.3897571045
 21
208.7573957589
  0
LINE
  5
2E1
100
AcDbEntity
  8
0
100
AcDbLine
 62
7
  6
CONTINUOUS
 10
90.8897571045
 20
208.9073957589
 11
88.4763596449
 21
208.9073957589
  0
LINE
  5
2E2
100
AcDbEntity
  8
0
100
AcDbLine
 62
7
  6
CONTINUOUS
 10
31.9897571045
 20
208.9073957589
 11
42.3897571045
 21
208.9073957589
  0
LINE
  5
2E3
100
AcDbEntity
  8
0
100
AcDbLine
 62
7
  6
CONTINUOUS
 10
115.4303588061
 20
208.9073998477
 11
124.1397571045
 21
208.9073998477
  0
LINE
  5
2E4
100
AcDbEntity
  8
0
100
AcDbLine
 62
7
  6
CONTINUOUS
 10
158.6397571045
 20
208.9073998477
 11
167.3491553755
 21
208.9073998477
  0
LINE
  5
2E5
100
AcDbEntity
  8
0
100
AcDbLine
 62
7
  6
CONTINUOUS
 10
42.3897571045
 20
209.4073957589
 11
31.9897571045
 21
209.4073957589
  0
LINE
  5
2E6
100
AcDbEntity
  8
0
100
AcDbLine
 62
7
  6
CONTINUOUS
 10
27.5397571045
 20
209.5073957589
 11
29.0397571045
 21
209.5073957589
  0
LINE
  5
2E7
100
AcDbEntity
  8
0
100
AcDbLine
 62
7
  6
CONTINUOUS
 10
52.3897571045
 20
210.4073957589
 11
42.3897571045
 21
210.4073957589
  0
LINE
  5
2E8
100
AcDbEntity
  8
0
100
AcDbLine
 62
7
  6
CONTINUOUS
 10
32.6897571045
 20
210.6073957589
 11
29.0397571045
 21
210.6073957589
  0
LINE
  5
2E9
100
AcDbEntity
  8
0
100
AcDbLine
 62
7
  6
CONTINUOUS
 10
91.3897571045
 20
210.9073998477
 11
101.1951783121
 21
210.9073998474
  0
LINE
  5
2EA
100
AcDbEntity
  8
0
100
AcDbLine
 62
7
  6
CONTINUOUS
 10
116.6397571045
 20
211.6073998477
 11
122.1397571045
 21
211.6073998477
  0
LINE
  5
2EB
100
AcDbEntity
  8
0
100
AcDbLine
 62
7
  6
CONTINUOUS
 10
160.6397571045
 20
211.6073998477
 11
166.1397571045
 21
211.6073998477
  0
LINE
  5
2EC
100
AcDbEntity
  8
0
100
AcDbLine
 62
7
  6
CONTINUOUS
 10
116.9397571045
 20
211.9073998477
 11
122.6397571045
 21
211.9073998477
  0
LINE
  5
2ED
100
AcDbEntity
  8
0
100
AcDbLine
 62
7
  6
CONTINUOUS
 10
160.1397571045
 20
211.9073998477
 11
165.8397571045
 21
211.9073998477
  0
LINE
  5
2EE
100
AcDbEntity
  8
0
100
AcDbLine
 62
7
  6
CONTINUOUS
 10
124.1397571045
 20
211.9117631089
 11
158.6397571045
 21
211.9117631084
  0
LINE
  5
2EF
100
AcDbEntity
  8
0
100
AcDbLine
 62
7
  6
CONTINUOUS
 10
165.8720608635
 20
211.9074001225
 11
178.0800802341
 21
211.9116922959
  0
LINE
  5
2F0
100
AcDbEntity
  8
0
100
AcDbLine
 62
7
  6
CONTINUOUS
 10
91.8897571105
 20
212.4073998477
 11
180.5800262
 21
212.4073998477
  0
LINE
  5
2F1
100
AcDbEntity
  8
0
100
AcDbLine
 62
7
  6
CONTINUOUS
 10
27.5397571045
 20
212.8073957589
 11
39.1897571045
 21
212.8073957589
  0
LINE
  5
2F2
100
AcDbEntity
  8
0
100
AcDbLine
 62
7
  6
CONTINUOUS
 10
29.9057825083
 20
213.3073957589
 11
40.1897571045
 21
213.3073957589
  0
LINE
  5
2F3
100
AcDbEntity
  8
0
100
AcDbLine
 62
7
  6
CONTINUOUS
 10
116.907456611
 20
211.9074001532
 11
104.6994847514
 21
211.9117633085
  0
LINE
  5
2F4
100
AcDbEntity
  8
0
100
AcDbLine
 62
7
  6
CONTINUOUS
 10
101.1951783051
 20
210.9073998474
 11
101.6907959646
 21
210.9030365825
  0
LINE
  5
2F5
100
AcDbEntity
  8
0
100
AcDbLine
 62
7
  6
CONTINUOUS
 10
178.3898713353
 20
176.4073998477
 11
178.0800802341
 21
211.9116922959
  0
LINE
  5
2F6
100
AcDbEntity
  8
0
100
AcDbLine
 62
7
  6
CONTINUOUS
 10
178.0802312916
 20
211.9117277183
 11
178.0798698945
 21
212.4073998456
  0
LINE
  5
2F7
100
AcDbEntity
  8
0
100
AcDbLine
 62
7
  6
CONTINUOUS
 10
174.360085754
 20
174.4083998477
 11
174.360085754
 21
176.4073998477
  0
LINE
  5
2F8
100
AcDbEntity
  8
0
100
AcDbLine
 62
7
  6
CONTINUOUS
 10
174.3897571045
 20
176.4073998477
 11
174.3897571045
 21
212.4073998456
  0
LINE
  5
2F9
100
AcDbEntity
  8
0
100
AcDbLine
 62
7
  6
CONTINUOUS
 10
174.3899788578
 20
108.4093998477
 11
174.3897722381
 21
173.4387566471
  0
LINE
  5
2FA
100
AcDbEntity
  8
0
100
AcDbLine
 62
7
  6
CONTINUOUS
 10
174.6399873554
 20
173.9594871015
 11
174.6399873554
 21
175.6083998477
  0
LINE
  5
2FB
100
AcDbEntity
  8
0
100
AcDbLine
 62
7
  6
CONTINUOUS
 10
174.6651589456
 20
173.4083998477
 11
174.6651589456
 21
173.9083998477
  0
LINE
  5
2FC
100
AcDbEntity
  8
0
100
AcDbLine
 62
7
  6
CONTINUOUS
 10
176.3900389047
 20
108.4093998477
 11
176.3899249409
 21
97.9093998477
  0
LINE
  5
2FD
100
AcDbEntity
  8
0
100
AcDbLine
 62
7
  6
CONTINUOUS
 10
177.3897571045
 20
175.9083998477
 11
177.3897571045
 21
176.4073998477
  0
LINE
  5
2FE
100
AcDbEntity
  8
0
100
AcDbLine
 62
7
  6
CONTINUOUS
 10
178.3897571045
 20
173.9083998477
 11
178.3899788583
 21
108.4093998477
  0
LINE
  5
2FF
100
AcDbEntity
  8
0
100
AcDbLine
 62
7
  6
CONTINUOUS
 10
179.8897571045
 20
176.4073998477
 11
179.8897571045
 21
175.9083998477
  0
LINE
  5
300
100
AcDbEntity
  8
0
100
AcDbLine
 62
7
  6
CONTINUOUS
 10
180.1399873554
 20
173.9083998477
 11
180.1399873554
 21
175.6083998477
  0
LINE
  5
301
100
AcDbEntity
  8
0
100
AcDbLine
 62
7
  6
CONTINUOUS
 10
181.0799235114
 20
211.9108130422
 11
181.3897571045
 21
176.4073998458
  0
LINE
  5
302
100
AcDbEntity
  8
0
100
AcDbLine
 62
7
  6
CONTINUOUS
 10
181.3897571045
 20
100.4093998477
 11
181.3897571045
 21
176.4073998477
  0
LINE
  5
303
100
AcDbEntity
  8
0
100
AcDbLine
 62
7
  6
CONTINUOUS
 10
147.8897571045
 20
70.4083998477
 11
148.3897571045
 21
70.9083998477
  0
LINE
  5
304
100
AcDbEntity
  8
0
100
AcDbLine
 62
7
  6
CONTINUOUS
 10
176.3899249409
 20
97.9093998477
 11
175.8899249409
 21
97.4093998477
  0
LINE
  5
305
100
AcDbEntity
  8
0
100
AcDbLine
 62
7
  6
CONTINUOUS
 10
34.7614836271
 20
210.7955424838
 11
40.1897571045
 21
211.8073957589
  0
ARC
  5
306
100
AcDbEntity
  8
0
100
AcDbCircle
 62
7
  6
CONTINUOUS
 10
85.1399249412
 20
138.7593998477
 40
13.7
100
AcDbArc
 50
270.0
 51
360.0
  0
ARC
  5
307
100
AcDbEntity
  8
0
100
AcDbCircle
 62
7
  6
CONTINUOUS
 10
85.1399249412
 20
138.7593998477
 40
6.3
100
AcDbArc
 50
270.0
 51
360.0
  0
ARC
  5
308
100
AcDbEntity
  8
0
100
AcDbCircle
 62
7
  6
CONTINUOUS
 10
86.8898953614
 20
141.0272316021
 40
0.5
100
AcDbArc
 50
180.0
 51
269.5000011502
  0
ARC
  5
309
100
AcDbEntity
  8
0
100
AcDbCircle
 62
7
  6
CONTINUOUS
 10
86.8899545211
 20
167.7915680934
 40
0.5
100
AcDbArc
 50
90.4999988506
 51
180.0
  0
ARC
  5
30A
100
AcDbEntity
  8
0
100
AcDbCircle
 62
7
  6
CONTINUOUS
 10
86.8899505831
 20
152.3706860214
 40
0.5
100
AcDbArc
 50
90.9999990333
 51
179.9999415089
  0
ARC
  5
30B
100
AcDbEntity
  8
0
100
AcDbCircle
 62
7
  6
CONTINUOUS
 10
86.8899545212
 20
158.4481136741
 40
0.5
100
AcDbArc
 50
180.0000584896
 51
269.000001015
  0
ARC
  5
30C
100
AcDbEntity
  8
0
100
AcDbCircle
 62
7
  6
CONTINUOUS
 10
40.489932634
 20
133.8593998477
 40
0.3
100
AcDbArc
 50
179.9999999982
 51
269.9999999942
  0
ARC
  5
30D
100
AcDbEntity
  8
0
100
AcDbCircle
 62
7
  6
CONTINUOUS
 10
38.389932634
 20
133.8593998477
 40
0.3
100
AcDbArc
 50
269.9999999902
 51
360.0
  0
ARC
  5
30E
100
AcDbEntity
  8
0
100
AcDbCircle
 62
7
  6
CONTINUOUS
 10
87.1399505831
 20
153.3093999431
 40
0.25
100
AcDbArc
 50
180.0
 51
270.0
  0
ARC
  5
30F
100
AcDbEntity
  8
0
100
AcDbCircle
 62
7
  6
CONTINUOUS
 10
87.1399505831
 20
157.5093997524
 40
0.25
100
AcDbArc
 50
90.0
 51
179.9999999999
  0
ARC
  5
310
100
AcDbEntity
  8
0
100
AcDbCircle
 62
7
  6
CONTINUOUS
 10
40.389932634
 20
134.7593998477
 40
0.2
100
AcDbArc
 50
95.0000000199
 51
180.0000000011
  0
ARC
  5
311
100
AcDbEntity
  8
0
100
AcDbCircle
 62
7
  6
CONTINUOUS
 10
87.3897571045
 20
207.7573957589
 40
1.0
100
AcDbArc
 50
90.0
 51
180.0
  0
ARC
  5
312
100
AcDbEntity
  8
0
100
AcDbCircle
 62
7
  6
CONTINUOUS
 10
87.3897571045
 20
197.0573957589
 40
1.0
100
AcDbArc
 50
180.0
 51
270.0
  0
ARC
  5
313
100
AcDbEntity
  8
0
100
AcDbCircle
 62
7
  6
CONTINUOUS
 10
31.9897571045
 20
210.1073957589
 40
0.7
100
AcDbArc
 50
270.0
 51
360.0
  0
ARC
  5
314
100
AcDbEntity
  8
0
100
AcDbCircle
 62
7
  6
CONTINUOUS
 10
34.8897571045
 20
210.1073957589
 40
0.7
100
AcDbArc
 50
100.5589938841
 51
270.0
  0
ARC
  5
315
100
AcDbEntity
  8
0
100
AcDbCircle
 62
7
  6
CONTINUOUS
 10
91.8897571045
 20
182.903055453
 40
0.5
100
AcDbArc
 50
180.0
 51
269.5000022849
  0
ARC
  5
316
100
AcDbEntity
  8
0
100
AcDbCircle
 62
7
  6
CONTINUOUS
 10
91.8897571045
 20
211.9073998477
 40
0.5
100
AcDbArc
 50
90.0
 51
180.0000684652
  0
ARC
  5
317
100
AcDbEntity
  8
0
100
AcDbCircle
 62
7
  6
CONTINUOUS
 10
123.1397571045
 20
211.9073998477
 40
0.5
100
AcDbArc
 50
90.0
 51
180.0000004085
  0
ARC
  5
318
100
AcDbEntity
  8
0
100
AcDbCircle
 62
7
  6
CONTINUOUS
 10
159.6397571045
 20
211.9073998477
 40
0.5
100
AcDbArc
 50
359.9999996194
 51
90.0000341441
  0
ARC
  5
319
100
AcDbEntity
  8
0
100
AcDbCircle
 62
7
  6
CONTINUOUS
 10
180.5799342587
 20
211.9073998477
 40
0.5
100
AcDbArc
 50
0.4378025489
 51
90.0
  0
ARC
  5
31A
100
AcDbEntity
  8
0
100
AcDbCircle
 62
7
  6
CONTINUOUS
 10
100.9370085703
 20
181.8240632072
 40
0.5
100
AcDbArc
 50
0.0
 51
89.4999992219
  0
ARC
  5
31B
100
AcDbEntity
  8
0
100
AcDbCircle
 62
7
  6
CONTINUOUS
 10
101.8897571045
 20
173.4083998477
 40
0.5
100
AcDbArc
 50
90.0000449653
 51
180.0000003091
  0
ARC
  5
31C
100
AcDbEntity
  8
0
100
AcDbCircle
 62
7
  6
CONTINUOUS
 10
107.919428455
 20
174.4083998477
 40
0.5
100
AcDbArc
 50
291.176774228
 51
360.0
  0
ARC
  5
31D
100
AcDbEntity
  8
0
100
AcDbCircle
 62
7
  6
CONTINUOUS
 10
180.8897571045
 20
173.4083998477
 40
0.5
100
AcDbArc
 50
0.0
 51
89.9999553225
  0
ARC
  5
31E
100
AcDbEntity
  8
0
100
AcDbCircle
 62
7
  6
CONTINUOUS
 10
174.860085754
 20
174.4083998477
 40
0.5
100
AcDbArc
 50
180.0
 51
270.0
  0
ARC
  5
31F
100
AcDbEntity
  8
0
100
AcDbCircle
 62
7
  6
CONTINUOUS
 10
102.1994705632
 20
211.9071850458
 40
0.4999992408
100
AcDbArc
 50
89.9927373666
 51
179.4752615063
  0
ARC
  5
320
100
AcDbEntity
  8
0
100
AcDbCircle
 62
7
  6
CONTINUOUS
 10
107.8399873554
 20
175.6083998477
 40
0.3
100
AcDbArc
 50
0.0
 51
90.0
  0
ARC
  5
321
100
AcDbEntity
  8
0
100
AcDbCircle
 62
7
  6
CONTINUOUS
 10
102.9399873554
 20
175.6083998477
 40
0.3
100
AcDbArc
 50
90.0
 51
180.0
  0
ARC
  5
322
100
AcDbEntity
  8
0
100
AcDbCircle
 62
7
  6
CONTINUOUS
 10
179.8399873554
 20
175.6083998477
 40
0.3
100
AcDbArc
 50
0.0
 51
90.0
  0
ARC
  5
323
100
AcDbEntity
  8
0
100
AcDbCircle
 62
7
  6
CONTINUOUS
 10
174.9399873554
 20
175.6083998477
 40
0.3
100
AcDbArc
 50
90.0
 51
180.0
  0
ARC
  5
324
100
AcDbEntity
  8
0
100
AcDbCircle
 62
7
  6
CONTINUOUS
 10
160.9397571045
 20
211.6073998477
 40
0.3
100
AcDbArc
 50
90.0
 51
180.0
  0
ARC
  5
325
100
AcDbEntity
  8
0
100
AcDbCircle
 62
7
  6
CONTINUOUS
 10
165.8397571045
 20
211.6073998477
 40
0.3
100
AcDbArc
 50
0.0
 51
90.0
  0
ARC
  5
326
100
AcDbEntity
  8
0
100
AcDbCircle
 62
7
  6
CONTINUOUS
 10
116.9397571045
 20
211.6073998477
 40
0.3
100
AcDbArc
 50
90.0
 51
180.0
  0
ARC
  5
327
100
AcDbEntity
  8
0
100
AcDbCircle
 62
7
  6
CONTINUOUS
 10
121.8397571045
 20
211.6073998477
 40
0.3
100
AcDbArc
 50
0.0
 51
90.0
  0
ARC
  5
328
100
AcDbEntity
  8
0
100
AcDbCircle
 62
7
  6
CONTINUOUS
 10
663.7076386924
 20
127.3998312949
 40
600.5694364921
100
AcDbArc
 50
179.8702937548
 51
180.137429499
  0
ARC
  5
329
100
AcDbEntity
  8
0
100
AcDbCircle
 62
7
  6
CONTINUOUS
 10
593.9544076672
 20
130.1598007472
 40
530.8163608415
100
AcDbArc
 50
179.8429872674
 51
180.1511580278
  0
SPLINE
  5
32A
100
AcDbEntity
  8
0
100
AcDbSpline
 62
7
  6
CONTINUOUS
 70
0
 71
3
 72
8
 73
4
 74
0
 42
0.0000001
 43
0.0000001
 44
0.0000000001
 40
0.0
 40
0.0
 40
0.0
 40
0.0
 40
1.0
 40
1.0
 40
1.0
 40
1.0
 10
108.3897727944
 20
173.4387670933
 30
0.0
 10
108.2995636608
 20
173.4189407267
 30
0.0
 10
108.2067174449
 20
173.408400391
 30
0.0
 10
108.1143552633
 20
173.4084003862
 30
0.0
  0
SPLINE
  5
32B
100
AcDbEntity
  8
0
100
AcDbSpline
 62
7
  6
CONTINUOUS
 70
0
 71
3
 72
21
 73
17
 74
0
 42
0.0000001
 43
0.0000001
 44
0.0000000001
 40
0.0
 40
0.0
 40
0.0
 40
0.0
 40
0.195087576
 40
0.3826765596
 40
0.555558782
 40
0.7070912133
 40
0.7729902579
 40
0.8314512608
 40
0.8818988336
 40
0.9238605711
 40
0.956918459
 40
0.9807690167
 40
0.9891595587
 40
0.995168246
 40
0.998784108
 40
1.0
 40
1.0
 40
1.0
 40
1.0
 10
91.8853939139
 20
183.9030173758
 30
0.0
 10
91.885110207
 20
183.8054762098
 30
0.0
 10
91.8846075344
 20
183.6141429611
 30
0.0
 10
91.8840393976
 20
183.336370218
 30
0.0
 10
91.8836842219
 20
183.0803750942
 30
0.0
 10
91.8835658203
 20
182.8852208988
 30
0.0
 10
91.8836048637
 20
182.7472808308
 30
0.0
 10
91.8836828689
 20
182.6598715808
 30
0.0
 10
91.883841199
 20
182.5844606665
 30
0.0
 10
91.8839838517
 20
182.521665318
 30
0.0
 10
91.8843595184
 20
182.4723975465
 30
0.0
 10
91.8843385265
 20
182.4394021786
 30
0.0
 10
91.884961564
 20
182.4207495461
 30
0.0
 10
91.8845204262
 20
182.410966742
 30
0.0
 10
91.8857735187
 20
182.406926601
 30
0.0
 10
91.8847860048
 20
182.4030797959
 30
0.0
 10
91.8853939139
 20
182.4030744908
 30
0.0
  0
SPLINE
  5
32C
100
AcDbEntity
  8
0
100
AcDbSpline
 62
7
  6
CONTINUOUS
 70
0
 71
3
 72
11
 73
7
 74
0
 42
0.0000001
 43
0.0000001
 44
0.0000000001
 40
0.0
 40
0.0
 40
0.0
 40
0.0
 40
0.2439696506
 40
0.5054849894
 40
0.7635359504
 40
1.0
 40
1.0
 40
1.0
 40
1.0
 10
167.3223378515
 20
211.9117631097
 30
0.0
 10
167.3217971857
 20
211.9738242516
 30
0.0
 10
167.2971809976
 20
212.1033843844
 30
0.0
 10
167.1897053334
 20
212.2713303025
 30
0.0
 10
167.0261668289
 20
212.3824836108
 30
0.0
 10
166.8990929954
 20
212.4073998372
 30
0.0
 10
166.8389388501
 20
212.4073998477
 30
0.0
  0
SPLINE
  5
32D
100
AcDbEntity
  8
0
100
AcDbSpline
 62
7
  6
CONTINUOUS
 70
0
 71
3
 72
21
 73
17
 74
0
 42
0.0000001
 43
0.0000001
 44
0.0000000001
 40
0.0
 40
0.0
 40
0.0
 40
0.0
 40
0.0012150886
 40
0.0048301842
 40
0.0108381491
 40
0.0192280149
 40
0.0430773653
 40
0.0761342488
 40
0.1180951951
 40
0.1685421967
 40
0.2270028546
 40
0.2929017834
 40
0.4444346732
 40
0.6173182559
 40
0.8049094495
 40
1.0
 40
1.0
 40
1.0
 40
1.0
 10
100.9413718788
 20
182.3240441684
 30
0.0
 10
100.9419793656
 20
182.3240388669
 30
0.0
 10
100.9410374956
 20
182.3279039416
 30
0.0
 10
100.9423369699
 20
182.3319199408
 30
0.0
 10
100.9420098896
 20
182.3417104207
 30
0.0
 10
100.9428497967
 20
182.3603497785
 30
0.0
 10
100.9432127637
 20
182.393342698
 30
0.0
 10
100.9441615929
 20
182.4425985895
 30
0.0
 10
100.9450348584
 20
182.5053851055
 30
0.0
 10
100.9460705701
 20
182.5807855308
 30
0.0
 10
100.9471655689
 20
182.6681845282
 30
0.0
 10
100.9488095345
 20
182.8061101173
 30
0.0
 10
100.9509617533
 20
183.0012467389
 30
0.0
 10
100.9535851001
 20
183.2572220146
 30
0.0
 10
100.9562488889
 20
183.5349764397
 30
0.0
 10
100.9579724147
 20
183.7262987031
 30
0.0
 10
100.9588236205
 20
183.8238347541
 30
0.0
  0
SPLINE
  5
32E
100
AcDbEntity
  8
0
100
AcDbSpline
 62
7
  6
CONTINUOUS
 70
0
 71
3
 72
21
 73
17
 74
0
 42
0.0000001
 43
0.0000001
 44
0.0000000001
 40
0.0
 40
0.0
 40
0.0
 40
0.0
 40
0.0012151159
 40
0.0048302884
 40
0.0108383784
 40
0.0192284161
 40
0.0430782417
 40
0.07613575
 40
0.1180974355
 40
0.1685452432
 40
0.2270067203
 40
0.2929064179
 40
0.444440416
 40
0.6173240222
 40
0.8049135118
 40
1.0
 40
1.0
 40
1.0
 40
1.0
 10
91.8897571312
 20
212.4073998477
 30
0.0
 10
91.8891495613
 20
212.4073998387
 30
0.0
 10
91.8901252258
 20
212.4035427745
 30
0.0
 10
91.8888607217
 20
212.3995151755
 30
0.0
 10
91.8892732708
 20
212.3897269859
 30
0.0
 10
91.8885959898
 20
212.3710792046
 30
0.0
 10
91.8885209486
 20
212.3380812237
 30
0.0
 10
91.888001945
 20
212.2888142568
 30
0.0
 10
91.8876765978
 20
212.2260166437
 30
0.0
 10
91.887298883
 20
212.1506031262
 30
0.0
 10
91.8869665955
 20
212.0631900475
 30
0.0
 10
91.8865262821
 20
211.9252435109
 30
0.0
 10
91.8860769981
 20
211.7300797257
 30
0.0
 10
91.8856875338
 20
211.4740720945
 30
0.0
 10
91.8854477091
 20
211.1962867171
 30
0.0
 10
91.8853938636
 20
211.0049450101
 30
0.0
 10
91.8853938636
 20
210.9073998477
 30
0.0
  0
SPLINE
  5
32F
100
AcDbEntity
  8
0
100
AcDbSpline
 62
7
  6
CONTINUOUS
 70
0
 71
3
 72
21
 73
17
 74
0
 42
0.0000001
 43
0.0000001
 44
0.0000000001
 40
0.0
 40
0.0
 40
0.0
 40
0.0
 40
0.1950924919
 40
0.3826864338
 40
0.5555727964
 40
0.7071077247
 40
0.7730071164
 40
0.8314679745
 40
0.8819145857
 40
0.9238747187
 40
0.9569302024
 40
0.9807775856
 40
0.9891668277
 40
0.9951729649
 40
0.9987860528
 40
1.0
 40
1.0
 40
1.0
 40
1.0
 10
101.1951784316
 20
210.9073998463
 30
0.0
 10
101.1963134463
 20
211.0049446974
 30
0.0
 10
101.198486012
 20
211.1962857598
 30
0.0
 10
101.2014784491
 20
211.4740710992
 30
0.0
 10
101.204067844
 20
211.7300786337
 30
0.0
 10
101.2058894553
 20
211.9252427129
 30
0.0
 10
101.2070542669
 20
212.0631896807
 30
0.0
 10
101.2077391017
 20
212.1506026175
 30
0.0
 10
101.208238888
 20
212.226016219
 30
0.0
 10
101.2086442337
 20
212.2888132813
 30
0.0
 10
101.20869852
 20
212.3380811302
 30
0.0
 10
101.2090073731
 20
212.3710772117
 30
0.0
 10
101.2085471817
 20
212.3897283405
 30
0.0
 10
101.2090733534
 20
212.3995109361
 30
0.0
 10
101.2078565135
 20
212.4035474655
 30
0.0
 10
101.2088758785
 20
212.4073941635
 30
0.0
 10
101.2082688974
 20
212.4073996524
 30
0.0
  0
SPLINE
  5
330
100
AcDbEntity
  8
0
100
AcDbSpline
 62
7
  6
CONTINUOUS
 70
0
 71
3
 72
20
 73
16
 74
0
 42
0.0000001
 43
0.0000001
 44
0.0000000001
 40
0.0
 40
0.0
 40
0.0
 40
0.0
 40
0.1950824497
 40
0.3826666674
 40
0.5555447591
 40
0.7070739721
 40
0.8314320081
 40
0.8818791622
 40
0.9238409643
 40
0.9568995339
 40
0.9807516654
 40
0.9891435578
 40
0.9951542722
 40
0.9987736361
 40
1.0
 40
1.0
 40
1.0
 40
1.0
 10
86.8855941414
 20
141.5272125634
 30
0.0
 10
86.8853104343
 20
141.4621859278
 30
0.0
 10
86.8848075512
 20
141.3346316761
 30
0.0
 10
86.8842400011
 20
141.1494520836
 30
0.0
 10
86.8838821729
 20
140.9787875813
 30
0.0
 10
86.8837529998
 20
140.829204548
 30
0.0
 10
86.8838199802
 20
140.7204148266
 30
0.0
 10
86.8840339885
 20
140.648178598
 30
0.0
 10
86.8841982722
 20
140.6063156032
 30
0.0
 10
86.8845173344
 20
140.5734669232
 30
0.0
 10
86.8846142367
 20
140.5514744175
 30
0.0
 10
86.8850772515
 20
140.5390315793
 30
0.0
 10
86.8848999872
 20
140.5325203001
 30
0.0
 10
86.8856859575
 20
140.5298038976
 30
0.0
 10
86.8851825214
 20
140.5272542098
 30
0.0
 10
86.8855912924
 20
140.5272506402
 30
0.0
  0
SPLINE
  5
331
100
AcDbEntity
  8
0
100
AcDbSpline
 62
7
  6
CONTINUOUS
 70
0
 71
3
 72
9
 73
5
 74
0
 42
0.0000001
 43
0.0000001
 44
0.0000000001
 40
0.0
 40
0.0
 40
0.0
 40
0.0
 40
0.5064967113
 40
1.0
 40
1.0
 40
1.0
 40
1.0
 10
109.6494864519
 20
174.4083998477
 30
0.0
 10
109.4721126686
 20
174.2027270722
 30
0.0
 10
109.1240032387
 20
173.7968233606
 30
0.0
 10
108.6474053641
 20
173.4994490753
 30
0.0
 10
108.3898277836
 20
173.4387816618
 30
0.0
  0
SPLINE
  5
332
100
AcDbEntity
  8
0
100
AcDbSpline
 62
7
  6
CONTINUOUS
 70
0
 71
3
 72
20
 73
16
 74
0
 42
0.0000001
 43
0.0000001
 44
0.0000000001
 40
0.0
 40
0.0
 40
0.0
 40
0.0
 40
0.0012263639
 40
0.0048457278
 40
0.0108564422
 40
0.0192483346
 40
0.0431004661
 40
0.0761590357
 40
0.1181208378
 40
0.1685679919
 40
0.2929260279
 40
0.4444552409
 40
0.6173333326
 40
0.8049175503
 40
1.0
 40
1.0
 40
1.0
 40
1.0
 10
86.8855912924
 20
168.2915490552
 30
0.0
 10
86.8851825215
 20
168.2915454856
 30
0.0
 10
86.8856859576
 20
168.2889957978
 30
0.0
 10
86.8848999872
 20
168.2862793953
 30
0.0
 10
86.8850772516
 20
168.2797681162
 30
0.0
 10
86.8846142368
 20
168.2673252779
 30
0.0
 10
86.8845173345
 20
168.2453327723
 30
0.0
 10
86.8841982722
 20
168.2124840923
 30
0.0
 10
86.8840339886
 20
168.1706210974
 30
0.0
 10
86.8838199802
 20
168.0983848688
 30
0.0
 10
86.8837529999
 20
167.9895951474
 30
0.0
 10
86.8838821729
 20
167.8400121142
 30
0.0
 10
86.8842400012
 20
167.6693476118
 30
0.0
 10
86.8848075513
 20
167.4841680194
 30
0.0
 10
86.8853104344
 20
167.3566137676
 30
0.0
 10
86.8855941414
 20
167.291587132
 30
0.0
  0
SPLINE
  5
333
100
AcDbEntity
  8
0
100
AcDbSpline
 62
7
  6
CONTINUOUS
 70
0
 71
3
 72
20
 73
16
 74
0
 42
0.0000001
 43
0.0000001
 44
0.0000000001
 40
0.0
 40
0.0
 40
0.0
 40
0.0
 40
0.195083162
 40
0.3826665951
 40
0.5555431322
 40
0.707070722
 40
0.8314276912
 40
0.8818746839
 40
0.9238366396
 40
0.9568957171
 40
0.9807487345
 40
0.9891412173
 40
0.9951526203
 40
0.9987727695
 40
1.0
 40
1.0
 40
1.0
 40
1.0
 10
86.8855941579
 20
158.9481136765
 30
0.0
 10
86.8850267958
 20
158.8830905176
 30
0.0
 10
86.8839674937
 20
158.7555433422
 30
0.0
 10
86.8825921158
 20
158.5703738185
 30
0.0
 10
86.8814897472
 20
158.3997187056
 30
0.0
 10
86.8807079652
 20
158.2501433252
 30
0.0
 10
86.8803002705
 20
158.1413584616
 30
0.0
 10
86.8801990634
 20
158.0691243201
 30
0.0
 10
86.8801806434
 20
158.0272622283
 30
0.0
 10
86.8803563466
 20
157.9944123885
 30
0.0
 10
86.8803571891
 20
157.9724206862
 30
0.0
 10
86.8807659243
 20
157.9599741686
 30
0.0
 10
86.8805600689
 20
157.9534655147
 30
0.0
 10
86.8813345042
 20
157.9507410648
 30
0.0
 10
86.880819372
 20
157.9481969693
 30
0.0
 10
86.8812283733
 20
157.9481898255
 30
0.0
  0
SPLINE
  5
334
100
AcDbEntity
  8
0
100
AcDbSpline
 62
7
  6
CONTINUOUS
 70
0
 71
3
 72
20
 73
16
 74
0
 42
0.0000001
 43
0.0000001
 44
0.0000000001
 40
0.0
 40
0.0
 40
0.0
 40
0.0
 40
0.0012272305
 40
0.0048473797
 40
0.0108587827
 40
0.0192512655
 40
0.0431042829
 40
0.0761633605
 40
0.1181253161
 40
0.1685723089
 40
0.2929292781
 40
0.4444568678
 40
0.6173334049
 40
0.804916838
 40
1.0
 40
1.0
 40
1.0
 40
1.0
 10
86.8812283713
 20
152.8706098699
 30
0.0
 10
86.8808193699
 20
152.8706027261
 30
0.0
 10
86.8813345021
 20
152.8680586306
 30
0.0
 10
86.8805600668
 20
152.8653341807
 30
0.0
 10
86.8807659222
 20
152.8588255268
 30
0.0
 10
86.8803571871
 20
152.8463790092
 30
0.0
 10
86.8803563445
 20
152.8243873069
 30
0.0
 10
86.8801806413
 20
152.7915374671
 30
0.0
 10
86.8801990613
 20
152.7496753753
 30
0.0
 10
86.8803002684
 20
152.6774412338
 30
0.0
 10
86.8807079632
 20
152.5686563702
 30
0.0
 10
86.8814897452
 20
152.4190809898
 30
0.0
 10
86.8825921137
 20
152.2484258769
 30
0.0
 10
86.8839674917
 20
152.0632563532
 30
0.0
 10
86.8850267937
 20
151.9357091778
 30
0.0
 10
86.8855941559
 20
151.8706860189
 30
0.0
  0
SPLINE
  5
335
100
AcDbEntity
  8
0
100
AcDbSpline
 62
7
  6
CONTINUOUS
 70
0
 71
3
 72
10
 73
6
 74
0
 42
0.0000001
 43
0.0000001
 44
0.0000000001
 40
0.0
 40
0.0
 40
0.0
 40
0.0
 40
0.5414649702
 40
0.8107395274
 40
1.0
 40
1.0
 40
1.0
 40
1.0
 10
101.3897571045
 20
174.4083998477
 30
0.0
 10
101.3897571045
 20
174.2758748737
 30
0.0
 10
101.5478649994
 20
174.1018190814
 30
0.0
 10
101.7360717098
 20
173.9607982329
 30
0.0
 10
101.8434320134
 20
173.9083995584
 30
0.0
 10
101.8897540113
 20
173.9083998477
 30
0.0
  0
SPLINE
  5
336
100
AcDbEntity
  8
0
100
AcDbSpline
 62
7
  6
CONTINUOUS
 70
0
 71
3
 72
10
 73
6
 74
0
 42
0.0000001
 43
0.0000001
 44
0.0000000001
 40
0.0
 40
0.0
 40
0.0
 40
0.0
 40
0.1901794614
 40
0.4588335048
 40
1.0
 40
1.0
 40
1.0
 40
1.0
 10
101.6995996208
 20
211.9117626339
 30
0.0
 10
101.7000006665
 20
211.9577605126
 30
0.0
 10
101.6496353271
 20
212.0645628769
 30
0.0
 10
101.511348359
 20
212.2516248179
 30
0.0
 10
101.3391634614
 20
212.4073997625
 30
0.0
 10
101.2082689012
 20
212.4073998477
 30
0.0
  0
SPLINE
  5
337
100
AcDbEntity
  8
0
100
AcDbSpline
 62
7
  6
CONTINUOUS
 70
0
 71
3
 72
11
 73
7
 74
0
 42
0.0000001
 43
0.0000001
 44
0.0000000001
 40
0.0
 40
0.0
 40
0.0
 40
0.0
 40
0.1971914817
 40
0.426159723
 40
0.6960322134
 40
1.0
 40
1.0
 40
1.0
 40
1.0
 10
108.2832125394
 20
173.9235837047
 30
0.0
 10
108.3771933811
 20
173.9397941573
 30
0.0
 10
108.575913738
 20
173.9982618829
 30
0.0
 10
108.8891388443
 20
174.1210741311
 30
0.0
 10
109.2506293962
 20
174.2629657533
 30
0.0
 10
109.5111997716
 20
174.3585145088
 30
0.0
 10
109.6494864519
 20
174.4083998477
 30
0.0
  0
SPLINE
  5
338
100
AcDbEntity
  8
0
100
AcDbSpline
 62
7
  6
CONTINUOUS
 70
0
 71
3
 72
9
 73
5
 74
0
 42
0.0000001
 43
0.0000001
 44
0.0000000001
 40
0.0
 40
0.0
 40
0.0
 40
0.0
 40
0.2446362767
 40
1.0
 40
1.0
 40
1.0
 40
1.0
 10
108.1143552721
 20
173.9083998477
 30
0.0
 10
108.128189836
 20
173.9083998473
 30
0.0
 10
108.1847394714
 20
173.9097572235
 30
0.0
 10
108.2411131986
 20
173.9163211077
 30
0.0
 10
108.2832086738
 20
173.9235814798
 30
0.0
  0
SPLINE
  5
339
100
AcDbEntity
  8
0
100
AcDbSpline
 62
7
  6
CONTINUOUS
 70
0
 71
3
 72
11
 73
7
 74
0
 42
0.0000001
 43
0.0000001
 44
0.0000000001
 40
0.0
 40
0.0
 40
0.0
 40
0.0
 40
0.2507091173
 40
0.5000001212
 40
0.7492903721
 40
1.0
 40
1.0
 40
1.0
 40
1.0
 10
88.9093723467
 20
202.8763213263
 30
0.0
 10
88.7757944249
 20
203.3286790058
 30
0.0
 10
88.5569998557
 20
204.2465403879
 30
0.0
 10
88.4363490619
 20
205.6573951434
 30
0.0
 10
88.556987563
 20
207.0682533679
 30
0.0
 10
88.7757941528
 20
207.9861115908
 30
0.0
 10
88.9093723467
 20
208.4384701916
 30
0.0
  0
SPLINE
  5
33A
100
AcDbEntity
  8
0
100
AcDbSpline
 62
7
  6
CONTINUOUS
 70
0
 71
3
 72
9
 73
5
 74
0
 42
0.0000001
 43
0.0000001
 44
0.0000000001
 40
0.0
 40
0.0
 40
0.0
 40
0.0
 40
0.2758163941
 40
1.0
 40
1.0
 40
1.0
 40
1.0
 10
104.6994847549
 20
211.9117633042
 30
0.0
 10
104.5044631719
 20
211.9120218637
 30
0.0
 10
103.7973929167
 20
211.9129741443
 30
0.0
 10
103.0903219886
 20
211.9136033875
 30
0.0
 10
102.5782728137
 20
211.9135704741
 30
0.0
  0
SPLINE
  5
33B
100
AcDbEntity
  8
0
100
AcDbSpline
 62
7
  6
CONTINUOUS
 70
0
 71
3
 72
18
 73
14
 74
0
 42
0.0000001
 43
0.0000001
 44
0.0000000001
 40
0.0
 40
0.0
 40
0.0
 40
0.0
 40
0.224669292
 40
0.4244216154
 40
0.596877846
 40
0.7401257451
 40
0.8529768796
 40
0.8976522886
 40
0.9343381306
 40
0.9629728256
 40
0.9834989815
 40
0.9958595049
 40
1.0
 40
1.0
 40
1.0
 40
1.0
 10
102.5782728137
 20
211.9135704741
 30
0.0
 10
102.5124683931
 20
211.913574713
 30
0.0
 10
102.388156501
 20
211.9135618053
 30
0.0
 10
102.2133384972
 20
211.9134687646
 30
0.0
 10
102.0623516191
 20
211.913337306
 30
0.0
 10
101.9368655986
 20
211.9131147294
 30
0.0
 10
101.8486883958
 20
211.9129769944
 30
0.0
 10
101.791931759
 20
211.9126453195
 30
0.0
 10
101.7594472003
 20
211.9127248391
 30
0.0
 10
101.7349982508
 20
211.9119196963
 30
0.0
 10
101.7154013336
 20
211.9131800239
 30
0.0
 10
101.7073377795
 20
211.9104856239
 30
0.0
 10
101.6996172669
 20
211.9129759948
 30
0.0
 10
101.6995989913
 20
211.9117634039
 30
0.0
  0
SPLINE
  5
33C
100
AcDbEntity
  8
0
100
AcDbSpline
 62
7
  6
CONTINUOUS
 70
0
 71
3
 72
11
 73
7
 74
0
 42
0.0000001
 43
0.0000001
 44
0.0000000001
 40
0.0
 40
0.0
 40
0.0
 40
0.0
 40
0.2507091173
 40
0.5000001212
 40
0.7492903721
 40
1.0
 40
1.0
 40
1.0
 40
1.0
 10
88.9093723467
 20
196.3763213262
 30
0.0
 10
88.7757944249
 20
196.8286790057
 30
0.0
 10
88.5569998557
 20
197.7465403878
 30
0.0
 10
88.4363490619
 20
199.1573951433
 30
0.0
 10
88.556987563
 20
200.5682533679
 30
0.0
 10
88.7757941528
 20
201.4861115908
 30
0.0
 10
88.9093723467
 20
201.9384701916
 30
0.0
  0
SPLINE
  5
33D
100
AcDbEntity
  8
0
100
AcDbSpline
 62
7
  6
CONTINUOUS
 70
0
 71
3
 72
21
 73
17
 74
0
 42
0.0000001
 43
0.0000001
 44
0.0000000001
 40
0.0
 40
0.0
 40
0.0
 40
0.0
 40
0.1950864935
 40
0.3826759878
 40
0.5555595975
 40
0.7070935974
 40
0.7729932952
 40
0.8314547719
 40
0.8819025785
 40
0.9238642624
 40
0.9569217686
 40
0.9807715913
 40
0.9891616273
 40
0.9951697155
 40
0.9987848861
 40
1.0
 40
1.0
 40
1.0
 40
1.0
 10
124.1397571045
 20
211.911763089
 30
0.0
 10
124.0422119395
 20
211.911763089
 30
0.0
 10
123.8508702274
 20
211.9117092434
 30
0.0
 10
123.5730848433
 20
211.9114694187
 30
0.0
 10
123.3170772071
 20
211.9110799545
 30
0.0
 10
123.1219134191
 20
211.9106306703
 30
0.0
 10
122.9839668818
 20
211.9101903569
 30
0.0
 10
122.8965538036
 20
211.9098580694
 30
0.0
 10
122.821140288
 20
211.9094803547
 30
0.0
 10
122.7583426762
 20
211.9091550074
 30
0.0
 10
122.7090757153
 20
211.9086360038
 30
0.0
 10
122.6760777324
 20
211.9085609625
 30
0.0
 10
122.6574299614
 20
211.9078836816
 30
0.0
 10
122.6476417627
 20
211.9082962303
 30
0.0
 10
122.6436141871
 20
211.9070317273
 30
0.0
 10
122.6397571045
 20
211.90800739
 30
0.0
 10
122.6397571045
 20
211.9073998211
 30
0.0
  0
SPLINE
  5
33E
100
AcDbEntity
  8
0
100
AcDbSpline
 62
7
  6
CONTINUOUS
 70
0
 71
3
 72
9
 73
5
 74
0
 42
0.0000001
 43
0.0000001
 44
0.0000000001
 40
0.0
 40
0.0
 40
0.0
 40
0.0
 40
0.5214116395
 40
1.0
 40
1.0
 40
1.0
 40
1.0
 10
63.1400399689
 20
131.614442323
 30
0.0
 10
63.1392222333
 20
131.679981123
 30
0.0
 10
63.1411252078
 20
131.8056903012
 30
0.0
 10
63.138861817
 20
131.9314011108
 30
0.0
 10
63.1397005399
 20
131.9915560773
 30
0.0
  0
SPLINE
  5
33F
100
AcDbEntity
  8
0
100
AcDbSpline
 62
7
  6
CONTINUOUS
 70
0
 71
3
 72
16
 73
12
 74
0
 42
0.0000001
 43
0.0000001
 44
0.0000000001
 40
0.0
 40
0.0
 40
0.0
 40
0.0
 40
0.0062084586
 40
0.0208876504
 40
0.0447245201
 40
0.0777162391
 40
0.1700116867
 40
0.2940913096
 40
0.4454261463
 40
0.6181406819
 40
1.0
 40
1.0
 40
1.0
 40
1.0
 10
48.1399390768
 20
134.9093998477
 30
0.0
 10
48.1385910731
 20
134.9093998263
 30
0.0
 10
48.1363064489
 20
134.9039061193
 30
0.0
 10
48.1350186451
 20
134.8953701901
 30
0.0
 10
48.1333842539
 20
134.8793385286
 30
0.0
 10
48.1320059171
 20
134.8473230963
 30
0.0
 10
48.1313711716
 20
134.7929320804
 30
0.0
 10
48.1313515549
 20
134.7132075725
 30
0.0
 10
48.1314078691
 20
134.6158665836
 30
0.0
 10
48.1328787271
 20
134.4626191106
 30
0.0
 10
48.1364510441
 20
134.3422349486
 30
0.0
 10
48.1399424383
 20
134.2593977738
 30
0.0
  0
SPLINE
  5
340
100
AcDbEntity
  8
0
100
AcDbSpline
 62
7
  6
CONTINUOUS
 70
0
 71
3
 72
9
 73
5
 74
0
 42
0.0000001
 43
0.0000001
 44
0.0000000001
 40
0.0
 40
0.0
 40
0.0
 40
0.0
 40
0.5000000149
 40
1.0
 40
1.0
 40
1.0
 40
1.0
 10
48.1399424979
 20
134.2593957058
 30
0.0
 10
48.1343176445
 20
132.4260707719
 30
0.0
 10
48.1380939563
 20
128.7593957292
 30
0.0
 10
48.134722653
 20
125.0927230847
 30
0.0
 10
48.1399419417
 20
123.259397061
 30
0.0
  0
SPLINE
  5
341
100
AcDbEntity
  8
0
100
AcDbSpline
 62
7
  6
CONTINUOUS
 70
0
 71
3
 72
21
 73
17
 74
0
 42
0.0000001
 43
0.0000001
 44
0.0000000001
 40
0.0
 40
0.0
 40
0.0
 40
0.0
 40
0.0012151139
 40
0.0048302845
 40
0.0108383727
 40
0.0192284087
 40
0.0430782314
 40
0.0761357376
 40
0.1180974215
 40
0.1685452281
 40
0.2270067048
 40
0.2929064026
 40
0.4444404025
 40
0.6173240122
 40
0.8049135065
 40
1.0
 40
1.0
 40
1.0
 40
1.0
 10
160.1397571045
 20
211.907399821
 30
0.0
 10
160.1397571045
 20
211.9080073899
 30
0.0
 10
160.1359000218
 20
211.9070317272
 30
0.0
 10
160.1318724463
 20
211.9082962302
 30
0.0
 10
160.1220842475
 20
211.9078836815
 30
0.0
 10
160.1034364766
 20
211.9085609624
 30
0.0
 10
160.0704384936
 20
211.9086360037
 30
0.0
 10
160.0211715327
 20
211.9091550073
 30
0.0
 10
159.958373921
 20
211.9094803545
 30
0.0
 10
159.8829604053
 20
211.9098580693
 30
0.0
 10
159.7955473272
 20
211.9101903568
 30
0.0
 10
159.6576007899
 20
211.9106306702
 30
0.0
 10
159.4624370019
 20
211.9110799543
 30
0.0
 10
159.2064293657
 20
211.9114694186
 30
0.0
 10
158.9286439815
 20
211.9117092433
 30
0.0
 10
158.7373022695
 20
211.9117630888
 30
0.0
 10
158.6397571045
 20
211.9117630888
 30
0.0
  0
SPLINE
  5
342
100
AcDbEntity
  8
0
100
AcDbSpline
 62
7
  6
CONTINUOUS
 70
0
 71
3
 72
9
 73
5
 74
0
 42
0.0000001
 43
0.0000001
 44
0.0000000001
 40
0.0
 40
0.0
 40
0.0
 40
0.0
 40
0.4794085676
 40
1.0
 40
1.0
 40
1.0
 40
1.0
 10
63.1396997349
 20
125.5736443606
 30
0.0
 10
63.1390244284
 20
125.6352709531
 30
0.0
 10
63.1409983742
 20
125.763829448
 30
0.0
 10
63.1392651764
 20
125.8923872303
 30
0.0
 10
63.1399298182
 20
125.959308479
 30
0.0
  0
SPLINE
  5
343
100
AcDbEntity
  8
0
100
AcDbSpline
 62
7
  6
CONTINUOUS
 70
0
 71
3
 72
16
 73
12
 74
0
 42
0.0000001
 43
0.0000001
 44
0.0000000001
 40
0.0
 40
0.0
 40
0.0
 40
0.0
 40
0.3816816972
 40
0.5543530653
 40
0.7057092219
 40
0.8298595156
 40
0.9222371223
 40
0.9552453286
 40
0.9791144208
 40
0.9938222909
 40
1.0
 40
1.0
 40
1.0
 40
1.0
 10
48.1399419826
 20
123.2593984545
 30
0.0
 10
48.1363621988
 20
123.1766068502
 30
0.0
 10
48.132909827
 20
123.0562691853
 30
0.0
 10
48.1315038215
 20
122.9030721134
 30
0.0
 10
48.131355441
 20
122.8057227723
 30
0.0
 10
48.131277739
 20
122.7259682699
 30
0.0
 10
48.1319173221
 20
122.6715315979
 30
0.0
 10
48.1333831684
 20
122.6395055238
 30
0.0
 10
48.1350386494
 20
122.6234385832
 30
0.0
 10
48.1363770481
 20
122.6149418437
 30
0.0
 10
48.1385981627
 20
122.6093998732
 30
0.0
 10
48.1399394382
 20
122.6093998477
 30
0.0
  0
SPLINE
  5
344
100
AcDbEntity
  8
0
100
AcDbSpline
 62
7
  6
CONTINUOUS
 70
0
 71
3
 72
23
 73
19
 74
0
 42
0.0000001
 43
0.0000001
 44
0.0000000001
 40
0.0
 40
0.0
 40
0.0
 40
0.0
 40
0.001212967
 40
0.0048314651
 40
0.0108417943
 40
0.0192287676
 40
0.0299770326
 40
0.0430697084
 40
0.0761405561
 40
0.1180893798
 40
0.1685419104
 40
0.2270030476
 40
0.2928997505
 40
0.3656258615
 40
0.4444480058
 40
0.6172937875
 40
0.8049746681
 40
1.0
 40
1.0
 40
1.0
 40
1.0
 10
181.0799237341
 20
211.9107875281
 30
0.0
 10
181.0799141154
 20
211.912000422
 30
0.0
 10
181.0721858903
 20
211.9096758356
 30
0.0
 10
181.0641366167
 20
211.9123161808
 30
0.0
 10
181.0445385594
 20
211.9111814994
 30
0.0
 10
181.0200921086
 20
211.9120213063
 30
0.0
 10
180.9875969537
 20
211.912014001
 30
0.0
 10
180.9308149278
 20
211.9124282656
 30
0.0
 10
180.8426230232
 20
211.9126683206
 30
0.0
 10
180.7171902587
 20
211.9129919058
 30
0.0
 10
180.5663197347
 20
211.9132110823
 30
0.0
 10
180.3915186754
 20
211.9133802645
 30
0.0
 10
180.1944390796
 20
211.9134744716
 30
0.0
 10
179.977000807
 20
211.9134966179
 30
0.0
 10
179.6526159734
 20
211.9134269825
 30
0.0
 10
179.2132799866
 20
211.913163549
 30
0.0
 10
178.6577442959
 20
211.9125586088
 30
0.0
 10
178.2750495541
 20
211.9119863616
 30
0.0
 10
178.0800300699
 20
211.9116921997
 30
0.0
  0
SPLINE
  5
345
100
AcDbEntity
  8
0
100
AcDbSpline
 62
7
  6
CONTINUOUS
 70
0
 71
3
 72
11
 73
7
 74
0
 42
0.0000001
 43
0.0000001
 44
0.0000000001
 40
0.0
 40
0.0
 40
0.0
 40
0.0
 40
0.2364640494
 40
0.4945150106
 40
0.7560303493
 40
1.0
 40
1.0
 40
1.0
 40
1.0
 10
115.9405753589
 20
212.4073998477
 30
0.0
 10
115.8804212136
 20
212.4073998365
 30
0.0
 10
115.7533473801
 20
212.3824836113
 30
0.0
 10
115.5898088756
 20
212.2713303025
 30
0.0
 10
115.4823332114
 20
212.1033843845
 30
0.0
 10
115.4577170233
 20
211.9738242516
 30
0.0
 10
115.4571763574
 20
211.9117631097
 30
0.0
  0
SPLINE
  5
346
100
AcDbEntity
  8
0
100
AcDbSpline
 62
7
  6
CONTINUOUS
 70
0
 71
3
 72
9
 73
5
 74
0
 42
0.0000001
 43
0.0000001
 44
0.0000000001
 40
0.0
 40
0.0
 40
0.0
 40
0.0
 40
0.4946116343
 40
1.0
 40
1.0
 40
1.0
 40
1.0
 10
174.3898282046
 20
173.4387466977
 30
0.0
 10
174.1316467425
 20
173.4995237819
 30
0.0
 10
173.6551250739
 20
173.7972701431
 30
0.0
 10
173.3070255702
 20
174.2031624995
 30
0.0
 10
173.130027757
 20
174.4083998477
 30
0.0
  0
SPLINE
  5
347
100
AcDbEntity
  8
0
100
AcDbSpline
 62
7
  6
CONTINUOUS
 70
0
 71
3
 72
8
 73
4
 74
0
 42
0.0000001
 43
0.0000001
 44
0.0000000001
 40
0.0
 40
0.0
 40
0.0
 40
0.0
 40
1.0
 40
1.0
 40
1.0
 40
1.0
 10
174.6651589456
 20
173.4083993718
 30
0.0
 10
174.5728074146
 20
173.4083993948
 30
0.0
 10
174.4799720056
 20
173.4189372818
 30
0.0
 10
174.3897728036
 20
173.4387592205
 30
0.0
  0
SPLINE
  5
348
100
AcDbEntity
  8
0
100
AcDbSpline
 62
7
  6
CONTINUOUS
 70
0
 71
3
 72
9
 73
5
 74
0
 42
0.0000001
 43
0.0000001
 44
0.0000000001
 40
0.0
 40
0.0
 40
0.0
 40
0.0
 40
0.2565226823
 40
1.0
 40
1.0
 40
1.0
 40
1.0
 10
174.4963055352
 20
173.9235814798
 30
0.0
 10
174.5106005509
 20
173.9211159622
 30
0.0
 10
174.566494699
 20
173.9125435668
 30
0.0
 10
174.62311611
 20
173.9083998463
 30
0.0
 10
174.665158937
 20
173.9083998477
 30
0.0
  0
SPLINE
  5
349
100
AcDbEntity
  8
0
100
AcDbSpline
 62
7
  6
CONTINUOUS
 70
0
 71
3
 72
11
 73
7
 74
0
 42
0.0000001
 43
0.0000001
 44
0.0000000001
 40
0.0
 40
0.0
 40
0.0
 40
0.0
 40
0.3040627946
 40
0.5727294826
 40
0.8026664501
 40
1.0
 40
1.0
 40
1.0
 40
1.0
 10
173.130027757
 20
174.4083998477
 30
0.0
 10
173.2683576148
 20
174.3584986149
 30
0.0
 10
173.5284218529
 20
174.2631300252
 30
0.0
 10
173.8898594809
 20
174.1212918891
 30
0.0
 10
174.2030202303
 20
173.9984426595
 30
0.0
 10
174.4022539572
 20
173.9398050283
 30
0.0
 10
174.4963025951
 20
173.9235831721
 30
0.0
  0
SPLINE
  5
34A
100
AcDbEntity
  8
0
100
AcDbSpline
 62
7
  6
CONTINUOUS
 70
0
 71
3
 72
10
 73
6
 74
0
 42
0.0000001
 43
0.0000001
 44
0.0000000001
 40
0.0
 40
0.0
 40
0.0
 40
0.0
 40
0.1892604761
 40
0.4585350376
 40
1.0
 40
1.0
 40
1.0
 40
1.0
 10
180.8897601779
 20
173.9083998477
 30
0.0
 10
180.9360821773
 20
173.9083995603
 30
0.0
 10
181.0434424828
 20
173.9607982381
 30
0.0
 10
181.2316491967
 20
174.1018190858
 30
0.0
 10
181.3897571045
 20
174.2758748737
 30
0.0
 10
181.3897571045
 20
174.4083998477
 30
0.0
  0
ENDSEC
  0
SECTION
  2
OBJECTS
  0
DICTIONARY
  5
C
100
AcDbDictionary
280
0
281
1
  3
ACAD_GROUP
350
D
  3
ACAD_MLINESTYLE
350
17
  3
ACAD_LAYOUT
350
1A
  3
ACAD_PLOTSETTINGS
350
19
  3
ACAD_PLOTSTYLENAME
350
E
  0
DICTIONARY
  5
D
102
{ACAD_REACTORS
330
C
102
}
100
AcDbDictionary
280
0
281
1
  0
ACDBDICTIONARYWDFLT
  5
E
102
{ACAD_REACTORS
330
C
102
}
100
AcDbDictionary
281
1
  3
Normal
350
F
100
AcDbDictionaryWithDefault
340
F
  0
DICTIONARY
  5
17
102
{ACAD_REACTORS
330
C
102
}
100
AcDbDictionary
280
0
281
1
  3
Standard
350
18
  0
DICTIONARY
  5
19
102
{ACAD_REACTORS
330
C
102
}
100
AcDbDictionary
281
1
  0
DICTIONARY
  5
1A
102
{ACAD_REACTORS
330
C
102
}
100
AcDbDictionary
281
1
  3
Model
350
34B
  3
Layout1
350
34C
  0
ACDBPLACEHOLDER
  5
F
102
{ACAD_REACTORS
330
E
102
}
  0
MLINESTYLE
  5
18
102
{ACAD_REACTORS
330
17
102
}
100
AcDbMlineStyle
  2
STANDARD
 70
0
  3

 62
256
 51
90.0
 52
90.0
 71
2
 49
0.5
 62
256
  6
BYLAYER
 49
-0.5
 62
256
  6
BYLAYER
  0
LAYOUT
  5
34B
102
{ACAD_REACTORS
330
1A
102
}
100
AcDbPlotSettings
  1

  2
none_device
  4

  6

 40
0.0
 41
0.0
 42
0.0
 43
0.0
 44
210.0
 45
297.0
 46
0.0
 47
0.0
 48
0.0
 49
0.0
140
0.0
141
0.0
142
1.0
143
1.0
 70
1024
 72
1
 73
0
 74
0
  7

 75
0
147
1.0
148
0.0
149
0.0
100
AcDbLayout
  1
Model
 70
0
 71
0
 10
0.0
 20
0.0
 11
210.0
 21
297.0
 12
0.0
 22
0.0
 32
0.0
 14
0.0
 24
0.0
 34
0.0
 15
0.0
 25
0.0
 35
0.0
146
0.0
 13
0.0
 23
0.0
 33
0.0
 16
1.0
 26
0.0
 36
0.0
 17
0.0
 27
1.0
 37
0.0
 76
0
330
210
345
0
346
0
  0
LAYOUT
  5
34C
102
{ACAD_REACTORS
330
1A
102
}
100
AcDbPlotSettings
  1

  2
none_device
  4

  6

 40
0.0
 41
0.0
 42
0.0
 43
0.0
 44
210.0
 45
297.0
 46
0.0
 47
0.0
 48
0.0
 49
0.0
140
0.0
141
0.0
142
1.0
143
1.0
 70
0
 72
1
 73
0
 74
0
  7

 75
0
147
1.0
148
0.0
149
0.0
100
AcDbLayout
  1
Layout1
 70
0
 71
1
 10
0.0
 20
0.0
 11
210.0
 21
297.0
 12
0.0
 22
0.0
 32
0.0
 14
0.0
 24
0.0
 34
0.0
 15
0.0
 25
0.0
 35
0.0
146
0.0
 13
0.0
 23
0.0
 33
0.0
 16
1.0
 26
0.0
 36
0.0
 17
0.0
 27
1.0
 37
0.0
 76
0
330
211
345
0
346
0
  0
ENDSEC
  0
EOF
