999
DXF file: C:\Users\sesa63760\Dev\_Creo\CAD\MCADID0000051_3D-CAD\drw0001_2.dxf
999
Pro/ENGINEER 2019471 by Parametric Technology Corporation
  0
SECTION
  2
HEADER
  9
$ACADVER
  1
AC1024
  9
$DWGCODEPAGE
  3
ANSI_1252
  9
$EXTMAX
 10
130.2845476037
 20
184.2595744681
 30
0.0
  9
$EXTMIN
 10
0.0
 20
0.0
 30
0.0
  9
$LIMMIN
 10
0.0
 20
0.0
  9
$LIMMAX
 10
130.2845476037
 20
184.2595744681
  9
$VIEWCTR
 10
65.1422738019
 20
92.1297872341
  9
$VIEWSIZE
 40
184.2595744681
  9
$CLAYER
  8
0
  9
$LTSCALE
 40
12.0109944838
  9
$CELTYPE
  6
BYLAYER
  9
$DIMSCALE
 40
1.0
  9
$DIMASZ
 40
1.5510065191
  9
$DIMEXO
 40
1.0
  9
$DIMDLI
 40
8.2985052797
  9
$DIMEXE
 40
1.0
  9
$DIMCEN
 40
1.965435461
  9
$DIMLFAC
 40
1.0
  9
$DIMBLK
  1
_FILLED
  9
$DIMALT
 70
0
  9
$DIMALTF
 40
0.0393700787
  9
$DIMTXT
 40
2.1714091267
  9
$DIMTOL
 70
1
  9
$DIMLIM
 70
0
  9
$DIMTFAC
 40
1.0
  9
$DIMTP
 40
0.01
  9
$DIMTM
 40
0.01
  9
$DIMGAP
 40
0.625
  9
$DIMDSEP
 70
46
  9
$AUNITS
 70
0
  9
$PDMODE
 70
3
  9
$PDSIZE
 40
0.3125
  9
$HANDSEED
  5
287
  9
$TILEMODE
 70
1
  9
$MEASUREMENT
 70
1
  9
$INSUNITS
 70
4
  0
ENDSEC
  0
SECTION
  2
CLASSES
  0
CLASS
  1
ACDBDICTIONARYWDFLT
  2
AcDbDictionaryWithDefault
  3
AutoCAD 2000
 90
0
 91
1
280
0
281
0
  0
CLASS
  1
ACDBPLACEHOLDER
  2
AcDbPlaceHolder
  3
AutoCAD 2000
 90
0
 91
1
280
0
281
0
  0
CLASS
  1
LAYOUT
  2
AcDbLayout
  3
AutoCAD 2000
 90
0
 91
0
280
0
281
0
  0
ENDSEC
  0
SECTION
  2
TABLES
  0
TABLE
  2
VPORT
  5
8
100
AcDbSymbolTable
 70
2
  0
VPORT
  5
1F4
100
AcDbSymbolTableRecord
100
AcDbViewportTableRecord
  2
*ACTIVE
 70
0
 10
0.0
 20
0.0
 11
1.0
 21
1.0
 12
65.1422738019
 22
92.1297872341
 13
0.0
 23
0.0
 14
1.0
 24
1.0
 15
0.0
 25
0.0
 16
0.0
 26
0.0
 36
1.0
 17
0.0
 27
0.0
 37
0.0
 40
184.2595744681
 41
0.7070707071
 42
50.0
 43
0.0
 44
0.0
 50
0.0
 51
0.0
 71
0
 72
100
 73
1
 74
1
 75
0
 76
0
 77
0
 78
0
  0
ENDTAB
  0
TABLE
  2
LTYPE
  5
5
100
AcDbSymbolTable
 70
6
  0
LTYPE
  5
14
100
AcDbSymbolTableRecord
100
AcDbLinetypeTableRecord
  2
BYBLOCK
 70
0
  3

 72
65
 73
0
 40
0.0
  0
LTYPE
  5
15
100
AcDbSymbolTableRecord
100
AcDbLinetypeTableRecord
  2
BYLAYER
 70
0
  3

 72
65
 73
0
 40
0.0
  0
LTYPE
  5
16
100
AcDbSymbolTableRecord
100
AcDbLinetypeTableRecord
  2
CONTINUOUS
 70
64
  3
Solid line
 72
65
 73
0
 40
0.0
  0
LTYPE
  5
1F5
100
AcDbSymbolTableRecord
100
AcDbLinetypeTableRecord
  2
CENTER
 70
64
  3
____ _ ____ _ ____ _ ____ _ ____ _ ____ _ ____
 72
65
 73
4
 40
0.6
 49
0.375
 74
0
 49
-0.075
 74
0
 49
0.075
 74
0
 49
-0.075
 74
0
  0
LTYPE
  5
1F6
100
AcDbSymbolTableRecord
100
AcDbLinetypeTableRecord
  2
HIDDEN
 70
64
  3
- - - - - - - - - - - - - - - - - - - -
 72
65
 73
2
 40
0.2
 49
0.1
 74
0
 49
-0.1
 74
0
  0
LTYPE
  5
1F7
100
AcDbSymbolTableRecord
100
AcDbLinetypeTableRecord
  2
PHANTOM
 70
64
  3
_____ _ _ _____ _ _ _____ _ _ _____
 72
65
 73
6
 40
0.8
 49
0.45
 74
0
 49
-0.05
 74
0
 49
0.1
 74
0
 49
-0.05
 74
0
 49
0.1
 74
0
 49
-0.05
 74
0
  0
LTYPE
  5
1F8
100
AcDbSymbolTableRecord
100
AcDbLinetypeTableRecord
  2
DOT
 70
64
  3
. . . . . . . . . . . . . . . . . . . .
 72
65
 73
2
 40
0.2
 49
0.1
 74
0
 49
-0.1
 74
0
  0
LTYPE
  5
1F9
100
AcDbSymbolTableRecord
100
AcDbLinetypeTableRecord
  2
DASHED
 70
64
  3
- - - - - - - - - - - - - - - - - - - -
 72
65
 73
2
 40
0.2
 49
0.1
 74
0
 49
-0.1
 74
0
  0
ENDTAB
  0
TABLE
  2
LAYER
  5
2
100
AcDbSymbolTable
 70
36
  0
LAYER
  5
10
100
AcDbSymbolTableRecord
100
AcDbLayerTableRecord
  2
0
 70
0
 62
7
  6
CONTINUOUS
370
-3
390
F
  0
LAYER
  5
1FA
100
AcDbSymbolTableRecord
100
AcDbLayerTableRecord
  2
DEFAULT_1
 70
0
 62
7
  6
CENTER
370
-3
390
F
  0
LAYER
  5
1FB
100
AcDbSymbolTableRecord
100
AcDbLayerTableRecord
  2
DEFAULT_2
 70
0
 62
8
  6
HIDDEN
370
-3
390
F
  0
LAYER
  5
1FC
100
AcDbSymbolTableRecord
100
AcDbLayerTableRecord
  2
DEFAULT_3
 70
0
 62
7
  6
PHANTOM
370
-3
390
F
  0
LAYER
  5
1FD
100
AcDbSymbolTableRecord
100
AcDbLayerTableRecord
  2
00_COMPONENTS
 70
0
 62
7
  6
CONTINUOUS
370
-3
390
F
  0
LAYER
  5
1FE
100
AcDbSymbolTableRecord
100
AcDbLayerTableRecord
  2
01_1_DEFAULT_DATUMS
 70
0
 62
7
  6
CONTINUOUS
370
-3
390
F
  0
LAYER
  5
1FF
100
AcDbSymbolTableRecord
100
AcDbLayerTableRecord
  2
01_PLANES
 70
0
 62
7
  6
CONTINUOUS
370
-3
390
F
  0
LAYER
  5
200
100
AcDbSymbolTableRecord
100
AcDbLayerTableRecord
  2
02_COORD_SYS
 70
0
 62
7
  6
CONTINUOUS
370
-3
390
F
  0
LAYER
  5
201
100
AcDbSymbolTableRecord
100
AcDbLayerTableRecord
  2
03_AXES
 70
0
 62
7
  6
CONTINUOUS
370
-3
390
F
  0
LAYER
  5
202
100
AcDbSymbolTableRecord
100
AcDbLayerTableRecord
  2
04_POINTS
 70
0
 62
7
  6
CONTINUOUS
370
-3
390
F
  0
LAYER
  5
203
100
AcDbSymbolTableRecord
100
AcDbLayerTableRecord
  2
05_CURVES
 70
0
 62
7
  6
CONTINUOUS
370
-3
390
F
  0
LAYER
  5
204
100
AcDbSymbolTableRecord
100
AcDbLayerTableRecord
  2
06_SURFS
 70
0
 62
7
  6
CONTINUOUS
370
-3
390
F
  0
LAYER
  5
205
100
AcDbSymbolTableRecord
100
AcDbLayerTableRecord
  2
07_COSMETICS
 70
0
 62
7
  6
CONTINUOUS
370
-3
390
F
  0
LAYER
  5
206
100
AcDbSymbolTableRecord
100
AcDbLayerTableRecord
  2
10_NOTES
 70
0
 62
7
  6
CONTINUOUS
370
-3
390
F
  0
LAYER
  5
207
100
AcDbSymbolTableRecord
100
AcDbLayerTableRecord
  2
11_NOTES_PUB
 70
0
 62
7
  6
CONTINUOUS
370
-3
390
F
  0
LAYER
  5
208
100
AcDbSymbolTableRecord
100
AcDbLayerTableRecord
  2
13_REF_GTOL
 70
0
 62
7
  6
CONTINUOUS
370
-3
390
F
  0
LAYER
  5
209
100
AcDbSymbolTableRecord
100
AcDbLayerTableRecord
  2
16_MISC
 70
0
 62
7
  6
CONTINUOUS
370
-3
390
F
  0
LAYER
  5
20A
100
AcDbSymbolTableRecord
100
AcDbLayerTableRecord
  2
17_NO_PRINT
 70
0
 62
7
  6
CONTINUOUS
370
-3
390
F
  0
LAYER
  5
20B
100
AcDbSymbolTableRecord
100
AcDbLayerTableRecord
  2
18_DATUM_CAMS_JOINTS
 70
0
 62
7
  6
CONTINUOUS
370
-3
390
F
  0
LAYER
  5
20C
100
AcDbSymbolTableRecord
100
AcDbLayerTableRecord
  2
19_DATUM_FUNCTIONAL
 70
0
 62
7
  6
CONTINUOUS
370
-3
390
F
  0
LAYER
  5
20D
100
AcDbSymbolTableRecord
100
AcDbLayerTableRecord
  2
20_DATUM_KINEMATIC_SCHEME
 70
0
 62
7
  6
CONTINUOUS
370
-3
390
F
  0
ENDTAB
  0
TABLE
  2
STYLE
  5
3
100
AcDbSymbolTable
 70
1
  0
STYLE
  5
11
100
AcDbSymbolTableRecord
100
AcDbTextStyleTableRecord
  2
STANDARD
 70
0
 40
0.0
 41
0.8
 50
0.0
 71
0
 42
0.2
  3
txt
  4

  0
STYLE
  5
20E
100
AcDbSymbolTableRecord
100
AcDbTextStyleTableRecord
  2
TEXTSTYLE_1
 70
0
 40
0.0
 41
0.8
 50
0.0
 71
0
 42
0.2
  3
gdt
  4

  0
ENDTAB
  0
TABLE
  2
VIEW
  5
6
100
AcDbSymbolTable
 70
0
  0
ENDTAB
  0
TABLE
  2
UCS
  5
7
100
AcDbSymbolTable
 70
0
  0
ENDTAB
  0
TABLE
  2
APPID
  5
9
100
AcDbSymbolTable
 70
1
  0
APPID
  5
20F
100
AcDbSymbolTableRecord
100
AcDbRegAppTableRecord
  2
ACAD
 70
0
  0
ENDTAB
  0
TABLE
  2
BLOCK_RECORD
  5
1
100
AcDbSymbolTable
 70
0
  0
BLOCK_RECORD
  5
210
100
AcDbSymbolTableRecord
100
AcDbBlockTableRecord
  2
*Model_Space
  0
BLOCK_RECORD
  5
211
100
AcDbSymbolTableRecord
100
AcDbBlockTableRecord
  2
*Paper_Space
  0
BLOCK_RECORD
  5
212
100
AcDbSymbolTableRecord
100
AcDbBlockTableRecord
  2
_FILLED
  0
ENDTAB
  0
TABLE
  2
DIMSTYLE
  5
A
100
AcDbSymbolTable
 70
1
100
AcDbDimStyleTable
 71
0
  0
DIMSTYLE
105
213
100
AcDbSymbolTableRecord
100
AcDbDimStyleTableRecord
  2
STANDARD
 70
0
  3

  4

 40
1.0
 41
1.5510065191
 42
1.0
 43
0.38
 44
1.0
 45
0.0
 46
0.0
 47
0.01
 48
0.01
140
2.1714091267
141
0.09
142
0.0
143
25.4
144
1.0
145
0.0
146
1.0
147
0.625
 71
1
 72
0
 73
0
 74
0
 75
0
 76
0
 77
1
 78
8
 79
2
170
0
171
1
172
0
173
0
174
0
175
0
176
0
177
0
178
0
270
2
179
2
271
2
272
2
273
2
274
2
275
0
280
0
281
0
282
0
283
1
284
8
285
0
286
0
287
3
288
0
340
11
278
46
341
212
342
212
343
212
344
212
  0
ENDTAB
  0
ENDSEC
  0
SECTION
  2
BLOCKS
  0
BLOCK
  5
20
100
AcDbEntity
  8
0
100
AcDbBlockBegin
  2
*Model_Space
 70
0
 10
0.0
 20
0.0
 30
0.0
  3
*Model_Space
  1

  0
ENDBLK
  5
21
100
AcDbEntity
  8
0
100
AcDbBlockEnd
  0
BLOCK
  5
1C
100
AcDbEntity
  8
0
100
AcDbBlockBegin
  2
*Paper_Space
 70
0
 10
0.0
 20
0.0
 30
0.0
  3
*Paper_Space
  1

  0
ENDBLK
  5
1D
100
AcDbEntity
  8
0
100
AcDbBlockEnd
  0
BLOCK
  5
214
100
AcDbEntity
  8
0
100
AcDbBlockBegin
  2
_FILLED
 70
64
 10
0.0
 20
0.0
  3
_FILLED
  1

  0
SOLID
  5
215
100
AcDbEntity
  8
0
  6
BYBLOCK
 62
0
100
AcDbTrace
 10
0.0
 20
0.0
 11
-1.0
 21
0.25
 12
-1.0
 22
-0.25
 13
-1.0
 23
-0.25
  0
ENDBLK
  5
216
100
AcDbEntity
  8
0
  6
BYBLOCK
 62
0
100
AcDbBlockEnd
  0
ENDSEC
  0
SECTION
  2
ENTITIES
  0
LINE
  5
217
100
AcDbEntity
  8
0
100
AcDbLine
 62
7
  6
CONTINUOUS
 10
72.5444014614
 20
12.2914893617
 11
59.5444014614
 21
12.2914893617
  0
LINE
  5
218
100
AcDbEntity
  8
0
100
AcDbLine
 62
7
  6
CONTINUOUS
 10
73.0444014614
 20
12.7914893617
 11
59.0444014614
 21
12.7914893617
  0
LINE
  5
219
100
AcDbEntity
  8
0
100
AcDbLine
 62
7
  6
CONTINUOUS
 10
59.5444014614
 20
12.2914893617
 11
59.0444014614
 21
12.7914893617
  0
LINE
  5
21A
100
AcDbEntity
  8
0
100
AcDbLine
 62
7
  6
CONTINUOUS
 10
73.5344014614
 20
36.2914893617
 11
58.5544014614
 21
36.2914893617
  0
LINE
  5
21B
100
AcDbEntity
  8
0
100
AcDbLine
 62
7
  6
CONTINUOUS
 10
80.5444014614
 20
36.7914893617
 11
51.5444014614
 21
36.7914893617
  0
LINE
  5
21C
100
AcDbEntity
  8
0
100
AcDbLine
 62
7
  6
CONTINUOUS
 10
81.0444014614
 20
37.2914893617
 11
51.0444014614
 21
37.2914893617
  0
LINE
  5
21D
100
AcDbEntity
  8
0
100
AcDbLine
 62
7
  6
CONTINUOUS
 10
51.0444014614
 20
38.7914893617
 11
81.0444014614
 21
38.7914893617
  0
LINE
  5
21E
100
AcDbEntity
  8
0
100
AcDbLine
 62
7
  6
CONTINUOUS
 10
90.5438696834
 20
39.2914893617
 11
41.5449332394
 21
39.2914893617
  0
LINE
  5
21F
100
AcDbEntity
  8
0
100
AcDbLine
 62
7
  6
CONTINUOUS
 10
91.0444014614
 20
39.7914893617
 11
41.0444014614
 21
39.7914893617
  0
LINE
  5
220
100
AcDbEntity
  8
0
100
AcDbLine
 62
7
  6
CONTINUOUS
 10
41.5444014614
 20
39.2914893617
 11
41.0444014614
 21
39.7914893617
  0
LINE
  5
221
100
AcDbEntity
  8
0
100
AcDbLine
 62
7
  6
CONTINUOUS
 10
36.0444014614
 20
42.2914893617
 11
96.0444014614
 21
42.2914893617
  0
LINE
  5
222
100
AcDbEntity
  8
0
100
AcDbLine
 62
7
  6
CONTINUOUS
 10
51.0444014614
 20
37.2914893617
 11
51.5444014614
 21
36.7914893617
  0
LINE
  5
223
100
AcDbEntity
  8
0
100
AcDbLine
 62
7
  6
CONTINUOUS
 10
36.0444014614
 20
49.7914893617
 11
48.5444014615
 21
49.7914893617
  0
LINE
  5
224
100
AcDbEntity
  8
0
100
AcDbLine
 62
7
  6
CONTINUOUS
 10
83.5444014613
 20
49.7914893617
 11
96.0444014614
 21
49.7914893617
  0
LINE
  5
225
100
AcDbEntity
  8
0
100
AcDbLine
 62
7
  6
CONTINUOUS
 10
36.0444014614
 20
137.2914893617
 11
36.0444014614
 21
42.2914893617
  0
LINE
  5
226
100
AcDbEntity
  8
0
100
AcDbLine
 62
7
  6
CONTINUOUS
 10
36.7944014614
 20
167.7914893617
 11
36.7944014614
 21
170.4914893617
  0
LINE
  5
227
100
AcDbEntity
  8
0
100
AcDbLine
 62
7
  6
CONTINUOUS
 10
37.9830690034
 20
170.7914893617
 11
37.9830690034
 21
171.2914893617
  0
LINE
  5
228
100
AcDbEntity
  8
0
100
AcDbLine
 62
7
  6
CONTINUOUS
 10
36.0444014614
 20
137.2914893617
 11
36.4830261598
 21
170.7980341548
  0
LINE
  5
229
100
AcDbEntity
  8
0
100
AcDbLine
 62
7
  6
CONTINUOUS
 10
38.9434541514
 20
167.7914893617
 11
38.5442943712
 21
137.2914893886
  0
LINE
  5
22A
100
AcDbEntity
  8
0
100
AcDbLine
 62
7
  6
CONTINUOUS
 10
38.5444014614
 20
49.7914893617
 11
38.5442943713
 21
137.2914893886
  0
LINE
  5
22B
100
AcDbEntity
  8
0
100
AcDbLine
 62
7
  6
CONTINUOUS
 10
39.5444014614
 20
171.2914893617
 11
39.5444014614
 21
170.7914893617
  0
LINE
  5
22C
100
AcDbEntity
  8
0
100
AcDbLine
 62
7
  6
CONTINUOUS
 10
41.0444014614
 20
39.7914893617
 11
41.0444014614
 21
49.7914893617
  0
LINE
  5
22D
100
AcDbEntity
  8
0
100
AcDbLine
 62
7
  6
CONTINUOUS
 10
42.0444014614
 20
167.7914893617
 11
42.0444014614
 21
49.7914893617
  0
LINE
  5
22E
100
AcDbEntity
  8
0
100
AcDbLine
 62
7
  6
CONTINUOUS
 10
42.2944014614
 20
167.7914893617
 11
42.2944014614
 21
170.4914893617
  0
LINE
  5
22F
100
AcDbEntity
  8
0
100
AcDbLine
 62
7
  6
CONTINUOUS
 10
42.7944014614
 20
170.7914893639
 11
42.7944014614
 21
167.7914893617
  0
LINE
  5
230
100
AcDbEntity
  8
0
100
AcDbLine
 62
7
  6
CONTINUOUS
 10
45.8197881464
 20
134.8914893617
 11
45.8197881464
 21
137.2914893617
  0
LINE
  5
231
100
AcDbEntity
  8
0
100
AcDbLine
 62
7
  6
CONTINUOUS
 10
46.0444014614
 20
134.8914893617
 11
46.0444014614
 21
49.7914893617
  0
LINE
  5
232
100
AcDbEntity
  8
0
100
AcDbLine
 62
7
  6
CONTINUOUS
 10
46.7944014614
 20
134.8914893617
 11
46.7944014614
 21
136.5914893617
  0
LINE
  5
233
100
AcDbEntity
  8
0
100
AcDbLine
 62
7
  6
CONTINUOUS
 10
47.2355581532
 20
136.8914893617
 11
47.2355581532
 21
137.2914893617
  0
LINE
  5
234
100
AcDbEntity
  8
0
100
AcDbLine
 62
7
  6
CONTINUOUS
 10
48.5444014614
 20
49.7914893617
 11
48.5444014614
 21
134.8914893617
  0
LINE
  5
235
100
AcDbEntity
  8
0
100
AcDbLine
 62
7
  6
CONTINUOUS
 10
48.9828119788
 20
170.7980341805
 11
48.9828119788
 21
171.2914893617
  0
LINE
  5
236
100
AcDbEntity
  8
0
100
AcDbLine
 62
7
  6
CONTINUOUS
 10
49.1126771279
 20
137.2914893617
 11
49.1126771279
 21
136.8914893617
  0
LINE
  5
237
100
AcDbEntity
  8
0
100
AcDbLine
 62
7
  6
CONTINUOUS
 10
46.0444014632
 20
137.291489494
 11
46.4830261607
 21
170.7980342202
  0
LINE
  5
238
100
AcDbEntity
  8
0
100
AcDbLine
 62
7
  6
CONTINUOUS
 10
48.9828119788
 20
170.7980341408
 11
48.5441872804
 21
137.2914893617
  0
LINE
  5
239
100
AcDbEntity
  8
0
100
AcDbLine
 62
7
  6
CONTINUOUS
 10
51.0444014614
 20
38.7914893617
 11
51.0444014614
 21
37.2914893617
  0
LINE
  5
23A
100
AcDbEntity
  8
0
100
AcDbLine
 62
7
  6
CONTINUOUS
 10
52.2944014614
 20
134.8914893617
 11
52.2944014614
 21
136.5914893617
  0
LINE
  5
23B
100
AcDbEntity
  8
0
100
AcDbLine
 62
7
  6
CONTINUOUS
 10
52.3944014614
 20
137.2914893617
 11
52.3944014614
 21
134.8914893617
  0
LINE
  5
23C
100
AcDbEntity
  8
0
100
AcDbLine
 62
7
  6
CONTINUOUS
 10
53.8944014614
 20
134.8914893617
 11
53.8944014614
 21
137.2914893617
  0
LINE
  5
23D
100
AcDbEntity
  8
0
100
AcDbLine
 62
7
  6
CONTINUOUS
 10
58.5544014614
 20
36.7914893617
 11
58.5544014614
 21
36.2914893617
  0
LINE
  5
23E
100
AcDbEntity
  8
0
100
AcDbLine
 62
7
  6
CONTINUOUS
 10
59.0444014614
 20
36.2914893617
 11
59.0444014614
 21
12.7914893617
  0
LINE
  5
23F
100
AcDbEntity
  8
0
100
AcDbLine
 62
7
  6
CONTINUOUS
 10
73.0444014614
 20
36.2914893617
 11
73.0444014614
 21
12.7914893617
  0
LINE
  5
240
100
AcDbEntity
  8
0
100
AcDbLine
 62
7
  6
CONTINUOUS
 10
73.5344014614
 20
36.7914893617
 11
73.5344014614
 21
36.2914893617
  0
LINE
  5
241
100
AcDbEntity
  8
0
100
AcDbLine
 62
7
  6
CONTINUOUS
 10
78.1944014614
 20
137.2914893617
 11
78.1944014614
 21
134.8914893617
  0
LINE
  5
242
100
AcDbEntity
  8
0
100
AcDbLine
 62
7
  6
CONTINUOUS
 10
79.6944014614
 20
134.8914893617
 11
79.6944014614
 21
137.2914893617
  0
LINE
  5
243
100
AcDbEntity
  8
0
100
AcDbLine
 62
7
  6
CONTINUOUS
 10
79.7944014614
 20
134.8914893617
 11
79.7944014614
 21
136.5914893617
  0
LINE
  5
244
100
AcDbEntity
  8
0
100
AcDbLine
 62
7
  6
CONTINUOUS
 10
81.0444014614
 20
38.7914893617
 11
81.0444014614
 21
37.2914893617
  0
LINE
  5
245
100
AcDbEntity
  8
0
100
AcDbLine
 62
7
  6
CONTINUOUS
 10
82.976125795
 20
136.8914893617
 11
82.976125795
 21
137.2914893617
  0
LINE
  5
246
100
AcDbEntity
  8
0
100
AcDbLine
 62
7
  6
CONTINUOUS
 10
83.1059909441
 20
171.2914893617
 11
83.1059909441
 21
170.7980341805
  0
LINE
  5
247
100
AcDbEntity
  8
0
100
AcDbLine
 62
7
  6
CONTINUOUS
 10
83.5444014614
 20
134.8914893617
 11
83.5444014614
 21
49.7914893617
  0
LINE
  5
248
100
AcDbEntity
  8
0
100
AcDbLine
 62
7
  6
CONTINUOUS
 10
83.5446156425
 20
137.2914893617
 11
83.105990943
 21
170.7980342202
  0
LINE
  5
249
100
AcDbEntity
  8
0
100
AcDbLine
 62
7
  6
CONTINUOUS
 10
85.6057767622
 20
170.7980342202
 11
86.0444014597
 21
137.291489494
  0
LINE
  5
24A
100
AcDbEntity
  8
0
100
AcDbLine
 62
7
  6
CONTINUOUS
 10
84.8532447697
 20
137.2914893617
 11
84.8532447697
 21
136.8914893617
  0
LINE
  5
24B
100
AcDbEntity
  8
0
100
AcDbLine
 62
7
  6
CONTINUOUS
 10
85.2944014614
 20
134.8914893617
 11
85.2944014614
 21
136.5914893617
  0
LINE
  5
24C
100
AcDbEntity
  8
0
100
AcDbLine
 62
7
  6
CONTINUOUS
 10
86.0444014614
 20
49.7914893617
 11
86.0444014614
 21
134.8914893617
  0
LINE
  5
24D
100
AcDbEntity
  8
0
100
AcDbLine
 62
7
  6
CONTINUOUS
 10
86.2690147765
 20
137.2914893617
 11
86.2690147765
 21
134.8914893617
  0
LINE
  5
24E
100
AcDbEntity
  8
0
100
AcDbLine
 62
7
  6
CONTINUOUS
 10
89.2944014614
 20
167.7914893621
 11
89.2944014614
 21
170.7914893644
  0
LINE
  5
24F
100
AcDbEntity
  8
0
100
AcDbLine
 62
7
  6
CONTINUOUS
 10
93.5445085518
 20
137.2914893752
 11
93.1453487714
 21
167.7914893617
  0
LINE
  5
250
100
AcDbEntity
  8
0
100
AcDbLine
 62
7
  6
CONTINUOUS
 10
89.7944014614
 20
167.7914893617
 11
89.7944014614
 21
170.4914893617
  0
LINE
  5
251
100
AcDbEntity
  8
0
100
AcDbLine
 62
7
  6
CONTINUOUS
 10
90.0444014614
 20
49.7914893617
 11
90.0444014614
 21
167.7914893617
  0
LINE
  5
252
100
AcDbEntity
  8
0
100
AcDbLine
 62
7
  6
CONTINUOUS
 10
91.0444014614
 20
49.7914893617
 11
91.0444014614
 21
39.7914893617
  0
LINE
  5
253
100
AcDbEntity
  8
0
100
AcDbLine
 62
7
  6
CONTINUOUS
 10
92.5444014614
 20
170.7914893617
 11
92.5444014614
 21
171.2914893617
  0
LINE
  5
254
100
AcDbEntity
  8
0
100
AcDbLine
 62
7
  6
CONTINUOUS
 10
93.5445085518
 20
137.2914893752
 11
93.5444014614
 21
49.7914893617
  0
LINE
  5
255
100
AcDbEntity
  8
0
100
AcDbLine
 62
7
  6
CONTINUOUS
 10
94.1057339195
 20
171.2914893617
 11
94.1057339195
 21
170.7914893617
  0
LINE
  5
256
100
AcDbEntity
  8
0
100
AcDbLine
 62
7
  6
CONTINUOUS
 10
96.0444014611
 20
137.2914893886
 11
95.6057767631
 21
170.7980341548
  0
LINE
  5
257
100
AcDbEntity
  8
0
100
AcDbLine
 62
7
  6
CONTINUOUS
 10
95.2944014614
 20
167.7914893617
 11
95.2944014614
 21
170.4914893617
  0
LINE
  5
258
100
AcDbEntity
  8
0
100
AcDbLine
 62
7
  6
CONTINUOUS
 10
96.0444014614
 20
42.2914893617
 11
96.0444014614
 21
137.2914893886
  0
LINE
  5
259
100
AcDbEntity
  8
0
100
AcDbLine
 62
7
  6
CONTINUOUS
 10
45.8197881464
 20
134.8914893617
 11
53.8944014616
 21
134.8914893617
  0
LINE
  5
25A
100
AcDbEntity
  8
0
100
AcDbLine
 62
7
  6
CONTINUOUS
 10
78.1944014614
 20
134.8914893617
 11
86.2690147765
 21
134.8914893617
  0
LINE
  5
25B
100
AcDbEntity
  8
0
100
AcDbLine
 62
7
  6
CONTINUOUS
 10
46.7944014614
 20
136.5914893617
 11
52.2944014614
 21
136.5914893617
  0
LINE
  5
25C
100
AcDbEntity
  8
0
100
AcDbLine
 62
7
  6
CONTINUOUS
 10
79.7944014614
 20
136.5914893617
 11
85.2944014614
 21
136.5914893617
  0
LINE
  5
25D
100
AcDbEntity
  8
0
100
AcDbLine
 62
7
  6
CONTINUOUS
 10
47.0944307414
 20
136.8914893617
 11
51.9943721815
 21
136.8914893617
  0
LINE
  5
25E
100
AcDbEntity
  8
0
100
AcDbLine
 62
7
  6
CONTINUOUS
 10
80.0944307414
 20
136.8914893617
 11
84.9943721815
 21
136.8914893617
  0
LINE
  5
25F
100
AcDbEntity
  8
0
100
AcDbLine
 62
7
  6
CONTINUOUS
 10
36.0444014636
 20
137.2914894019
 11
96.0444014611
 21
137.2914893816
  0
LINE
  5
260
100
AcDbEntity
  8
0
100
AcDbLine
 62
7
  6
CONTINUOUS
 10
81.0444014614
 20
37.2914893617
 11
80.5444014614
 21
36.7914893617
  0
LINE
  5
261
100
AcDbEntity
  8
0
100
AcDbLine
 62
7
  6
CONTINUOUS
 10
90.5444014614
 20
39.2914893617
 11
91.0444014614
 21
39.7914893617
  0
LINE
  5
262
100
AcDbEntity
  8
0
100
AcDbLine
 62
7
  6
CONTINUOUS
 10
73.0444014614
 20
12.7914893617
 11
72.5444014614
 21
12.2914893617
  0
LINE
  5
263
100
AcDbEntity
  8
0
100
AcDbLine
 62
7
  6
CONTINUOUS
 10
36.4436683342
 20
167.7914893617
 11
43.7239012661
 21
167.7914893617
  0
LINE
  5
264
100
AcDbEntity
  8
0
100
AcDbLine
 62
7
  6
CONTINUOUS
 10
88.3664996502
 20
167.7914893617
 11
95.6451345886
 21
167.7914893617
  0
LINE
  5
265
100
AcDbEntity
  8
0
100
AcDbLine
 62
7
  6
CONTINUOUS
 10
36.7944014614
 20
170.4914893617
 11
42.2944014614
 21
170.4914893617
  0
LINE
  5
266
100
AcDbEntity
  8
0
100
AcDbLine
 62
7
  6
CONTINUOUS
 10
89.7944014614
 20
170.4914893617
 11
95.2944014614
 21
170.4914893617
  0
LINE
  5
267
100
AcDbEntity
  8
0
100
AcDbLine
 62
7
  6
CONTINUOUS
 10
89.2944014614
 20
170.7914893617
 11
95.6057767634
 21
170.7980341263
  0
LINE
  5
268
100
AcDbEntity
  8
0
100
AcDbLine
 62
7
  6
CONTINUOUS
 10
83.105990943
 20
170.7980342202
 11
48.9828119788
 21
170.7980341408
  0
LINE
  5
269
100
AcDbEntity
  8
0
100
AcDbLine
 62
7
  6
CONTINUOUS
 10
43.7261244418
 20
170.7980341595
 11
46.4830261599
 21
170.7980341595
  0
LINE
  5
26A
100
AcDbEntity
  8
0
100
AcDbLine
 62
7
  6
CONTINUOUS
 10
85.605776763
 20
170.7980341595
 11
88.3626784811
 21
170.7980341595
  0
LINE
  5
26B
100
AcDbEntity
  8
0
100
AcDbLine
 62
7
  6
CONTINUOUS
 10
36.9829833237
 20
171.2914893617
 11
95.1058195992
 21
171.2914893617
  0
LINE
  5
26C
100
AcDbEntity
  8
0
100
AcDbLine
 62
7
  6
CONTINUOUS
 10
42.7944014614
 20
170.7914893617
 11
36.4830261596
 21
170.798034143
  0
ARC
  5
26D
100
AcDbEntity
  8
0
100
AcDbCircle
 62
7
  6
CONTINUOUS
 10
95.1058195992
 20
170.7914893617
 40
0.5
100
AcDbArc
 50
0.7499994669
 51
90.0
  0
ARC
  5
26E
100
AcDbEntity
  8
0
100
AcDbCircle
 62
7
  6
CONTINUOUS
 10
36.9829833237
 20
170.7914893617
 40
0.5
100
AcDbArc
 50
90.0
 51
179.2500005331
  0
ARC
  5
26F
100
AcDbEntity
  8
0
100
AcDbCircle
 62
7
  6
CONTINUOUS
 10
88.7944014614
 20
170.7914893617
 40
0.5
100
AcDbArc
 50
0.0000001535
 51
90.0000502961
  0
ARC
  5
270
100
AcDbEntity
  8
0
100
AcDbCircle
 62
7
  6
CONTINUOUS
 10
85.1058195992
 20
170.7914893617
 40
0.5
100
AcDbArc
 50
0.7500034787
 51
89.9999146918
  0
ARC
  5
271
100
AcDbEntity
  8
0
100
AcDbCircle
 62
7
  6
CONTINUOUS
 10
46.9829833237
 20
170.7914893617
 40
0.5
100
AcDbArc
 50
90.0000918361
 51
179.24999652
  0
ARC
  5
272
100
AcDbEntity
  8
0
100
AcDbCircle
 62
7
  6
CONTINUOUS
 10
43.2944014614
 20
170.7914893617
 40
0.5
100
AcDbArc
 50
90.0000000006
 51
179.9999998755
  0
ARC
  5
273
100
AcDbEntity
  8
0
100
AcDbCircle
 62
7
  6
CONTINUOUS
 10
81.5444014614
 20
38.7914893617
 40
0.5
100
AcDbArc
 50
90.0
 51
180.0
  0
ARC
  5
274
100
AcDbEntity
  8
0
100
AcDbCircle
 62
7
  6
CONTINUOUS
 10
50.5444014614
 20
38.7914893617
 40
0.5
100
AcDbArc
 50
0.0
 51
90.0
  0
ARC
  5
275
100
AcDbEntity
  8
0
100
AcDbCircle
 62
7
  6
CONTINUOUS
 10
80.0944014614
 20
136.5914893617
 40
0.3
100
AcDbArc
 50
90.0
 51
180.0
  0
ARC
  5
276
100
AcDbEntity
  8
0
100
AcDbCircle
 62
7
  6
CONTINUOUS
 10
84.9944014614
 20
136.5914893617
 40
0.3
100
AcDbArc
 50
0.0
 51
90.0
  0
ARC
  5
277
100
AcDbEntity
  8
0
100
AcDbCircle
 62
7
  6
CONTINUOUS
 10
47.0944014614
 20
136.5914893617
 40
0.3
100
AcDbArc
 50
90.0
 51
180.0
  0
ARC
  5
278
100
AcDbEntity
  8
0
100
AcDbCircle
 62
7
  6
CONTINUOUS
 10
51.9944014614
 20
136.5914893617
 40
0.3
100
AcDbArc
 50
0.0
 51
90.0
  0
ARC
  5
279
100
AcDbEntity
  8
0
100
AcDbCircle
 62
7
  6
CONTINUOUS
 10
94.9944014614
 20
170.4914893617
 40
0.3
100
AcDbArc
 50
0.0
 51
90.0
  0
ARC
  5
27A
100
AcDbEntity
  8
0
100
AcDbCircle
 62
7
  6
CONTINUOUS
 10
90.0944014614
 20
170.4914893617
 40
0.3
100
AcDbArc
 50
90.0
 51
180.0
  0
ARC
  5
27B
100
AcDbEntity
  8
0
100
AcDbCircle
 62
7
  6
CONTINUOUS
 10
41.9944014614
 20
170.4914893617
 40
0.3
100
AcDbArc
 50
0.0
 51
90.0
  0
ARC
  5
27C
100
AcDbEntity
  8
0
100
AcDbCircle
 62
7
  6
CONTINUOUS
 10
37.0944014614
 20
170.4914893617
 40
0.3
100
AcDbArc
 50
90.0
 51
180.0
  0
SPLINE
  5
27D
100
AcDbEntity
  8
0
100
AcDbSpline
 62
7
  6
CONTINUOUS
 70
0
 71
3
 72
21
 73
17
 74
0
 42
0.0000001
 43
0.0000001
 44
0.0000000001
 40
0.0
 40
0.0
 40
0.0
 40
0.0
 40
0.0011442602
 40
0.0044836044
 40
0.0100379721
 40
0.0178113306
 40
0.0399043377
 40
0.0703825127
 40
0.1090776592
 40
0.1560068936
 40
0.2112546959
 40
0.2740341641
 40
0.4200973335
 40
0.5931972312
 40
0.7873511119
 40
1.0
 40
1.0
 40
1.0
 40
1.0
 10
89.2944014614
 20
170.7914906332
 30
0.0
 10
89.2944014475
 20
170.7918460421
 30
0.0
 10
89.2922354887
 20
170.7915968796
 30
0.0
 10
89.2898713142
 20
170.7922360231
 30
0.0
 10
89.2842794565
 20
170.7922458801
 30
0.0
 10
89.2735392042
 20
170.7927677998
 30
0.0
 10
89.2546124932
 20
170.7930956275
 30
0.0
 10
89.2263585708
 20
170.7936319159
 30
0.0
 10
89.190265748
 20
170.7940912902
 30
0.0
 10
89.1465254059
 20
170.7945688175
 30
0.0
 10
89.0952875295
 20
170.7950237203
 30
0.0
 10
89.0132646748
 20
170.7956419826
 30
0.0
 10
88.8946336664
 20
170.7963335077
 30
0.0
 10
88.7351985422
 20
170.7970310457
 30
0.0
 10
88.5550806825
 20
170.7976149344
 30
0.0
 10
88.4287274845
 20
170.7979079453
 30
0.0
 10
88.3626785424
 20
170.7980354212
 30
0.0
  0
SPLINE
  5
27E
100
AcDbEntity
  8
0
100
AcDbSpline
 62
7
  6
CONTINUOUS
 70
0
 71
3
 72
12
 73
8
 74
0
 42
0.0000001
 43
0.0000001
 44
0.0000000001
 40
0.0
 40
0.0
 40
0.0
 40
0.0
 40
0.1382013471
 40
0.2395465036
 40
0.3657442832
 40
0.6735617628
 40
1.0
 40
1.0
 40
1.0
 40
1.0
 10
88.1732528011
 20
171.2914893617
 30
0.0
 10
88.1990468648
 20
171.2914893492
 30
0.0
 10
88.2418325906
 20
171.264235634
 30
0.0
 10
88.2799276326
 20
171.2082562806
 30
0.0
 10
88.3219273393
 20
171.1167675196
 30
0.0
 10
88.3536045049
 20
170.9773684189
 30
0.0
 10
88.3623762861
 20
170.8589602307
 30
0.0
 10
88.3626784709
 20
170.7980341595
 30
0.0
  0
SPLINE
  5
27F
100
AcDbEntity
  8
0
100
AcDbSpline
 62
7
  6
CONTINUOUS
 70
0
 71
3
 72
8
 73
4
 74
0
 42
0.0000001
 43
0.0000001
 44
0.0000000001
 40
0.0
 40
0.0
 40
0.0
 40
0.0
 40
1.0
 40
1.0
 40
1.0
 40
1.0
 10
88.3664338281
 20
167.7914878529
 30
0.0
 10
88.3647197298
 20
168.7936697856
 30
0.0
 10
88.3644184631
 20
169.7958537957
 30
0.0
 10
88.3627196596
 20
170.7980357544
 30
0.0
  0
SPLINE
  5
280
100
AcDbEntity
  8
0
100
AcDbSpline
 62
7
  6
CONTINUOUS
 70
0
 71
3
 72
25
 73
21
 74
0
 42
0.0000001
 43
0.0000001
 44
0.0000000001
 40
0.0
 40
0.0
 40
0.0
 40
0.0
 40
0.0012140944
 40
0.002721902
 40
0.0048292508
 40
0.0108373502
 40
0.0192273655
 40
0.029984066
 40
0.0430769461
 40
0.0584716653
 40
0.0761338658
 40
0.1180946443
 40
0.1685413051
 40
0.2270014883
 40
0.2928998659
 40
0.3656134612
 40
0.4444316944
 40
0.6173147836
 40
0.8049067378
 40
1.0
 40
1.0
 40
1.0
 40
1.0
 10
85.6057767635
 20
170.7980341037
 30
0.0
 10
85.6057690581
 20
170.7990457458
 30
0.0
 10
85.601945692
 20
170.7979077682
 30
0.0
 10
85.5987264519
 20
170.79871295
 30
0.0
 10
85.5902547555
 20
170.7985531795
 30
0.0
 10
85.5768411794
 20
170.799062388
 30
0.0
 10
85.5557191973
 20
170.7991806393
 30
0.0
 10
85.5289189842
 20
170.7994668958
 30
0.0
 10
85.4961958028
 20
170.7996671908
 30
0.0
 10
85.4577486652
 20
170.7998739161
 30
0.0
 10
85.3952357335
 20
170.8001277464
 30
0.0
 10
85.303520029
 20
170.8003832399
 30
0.0
 10
85.1778055659
 20
170.8005934146
 30
0.0
 10
85.0321455015
 20
170.8007194044
 30
0.0
 10
84.8679306188
 20
170.8007589418
 30
0.0
 10
84.6867520489
 20
170.8007107709
 30
0.0
 10
84.4164260907
 20
170.8005239712
 30
0.0
 10
84.0503753779
 20
170.8000651151
 30
0.0
 10
83.5874363872
 20
170.7992137209
 30
0.0
 10
83.2685562224
 20
170.7984596852
 30
0.0
 10
83.1059909428
 20
170.7980341972
 30
0.0
  0
SPLINE
  5
281
100
AcDbEntity
  8
0
100
AcDbSpline
 62
7
  6
CONTINUOUS
 70
0
 71
3
 72
25
 73
21
 74
0
 42
0.0000001
 43
0.0000001
 44
0.0000000001
 40
0.0
 40
0.0
 40
0.0
 40
0.0
 40
0.1950932622
 40
0.3826852165
 40
0.5555683056
 40
0.6343865389
 40
0.7071001342
 40
0.7729985118
 40
0.831458695
 40
0.8819053558
 40
0.9238661343
 40
0.9415283347
 40
0.9569230539
 40
0.9700159341
 40
0.9807726346
 40
0.9891626498
 40
0.9951707493
 40
0.997278098
 40
0.9987859056
 40
1.0
 40
1.0
 40
1.0
 40
1.0
 10
48.9828119789
 20
170.7980341752
 30
0.0
 10
48.8202466993
 20
170.7984596632
 30
0.0
 10
48.5013665345
 20
170.799213699
 30
0.0
 10
48.038427544
 20
170.8000650932
 30
0.0
 10
47.6723768313
 20
170.8005239492
 30
0.0
 10
47.4020508731
 20
170.800710749
 30
0.0
 10
47.2208723034
 20
170.8007589199
 30
0.0
 10
47.0566574207
 20
170.8007193825
 30
0.0
 10
46.9109973563
 20
170.8005933927
 30
0.0
 10
46.7852828933
 20
170.800383218
 30
0.0
 10
46.6935671889
 20
170.8001277245
 30
0.0
 10
46.6310542572
 20
170.7998738942
 30
0.0
 10
46.5926071197
 20
170.7996671689
 30
0.0
 10
46.5598839383
 20
170.7994668739
 30
0.0
 10
46.5330837252
 20
170.7991806174
 30
0.0
 10
46.5119617431
 20
170.799062366
 30
0.0
 10
46.4985481671
 20
170.7985531575
 30
0.0
 10
46.4900764707
 20
170.798712928
 30
0.0
 10
46.4868572305
 20
170.7979077462
 30
0.0
 10
46.4830338645
 20
170.7990457238
 30
0.0
 10
46.4830261591
 20
170.7980340818
 30
0.0
  0
SPLINE
  5
282
100
AcDbEntity
  8
0
100
AcDbSpline
 62
7
  6
CONTINUOUS
 70
0
 71
3
 72
12
 73
8
 74
0
 42
0.0000001
 43
0.0000001
 44
0.0000000001
 40
0.0
 40
0.0
 40
0.0
 40
0.0
 40
0.3264382376
 40
0.6342557168
 40
0.7604534958
 40
0.861798654
 40
1.0
 40
1.0
 40
1.0
 40
1.0
 10
43.726124452
 20
170.7980341595
 30
0.0
 10
43.7264266368
 20
170.8589602308
 30
0.0
 10
43.7351984182
 20
170.9773684188
 30
0.0
 10
43.7668755834
 20
171.1167675203
 30
0.0
 10
43.8088752906
 20
171.20825628
 30
0.0
 10
43.846970332
 20
171.2642356368
 30
0.0
 10
43.8897560583
 20
171.2914893427
 30
0.0
 10
43.9155501218
 20
171.2914893617
 30
0.0
  0
SPLINE
  5
283
100
AcDbEntity
  8
0
100
AcDbSpline
 62
7
  6
CONTINUOUS
 70
0
 71
3
 72
21
 73
17
 74
0
 42
0.0000001
 43
0.0000001
 44
0.0000000001
 40
0.0
 40
0.0
 40
0.0
 40
0.0
 40
0.2139292633
 40
0.4088742622
 40
0.5806026151
 40
0.7275898905
 40
0.789828209
 40
0.8444387834
 40
0.8914036232
 40
0.9303970639
 40
0.9607203354
 40
0.9824084549
 40
0.990047956
 40
0.995537855
 40
0.9988569518
 40
1.0
 40
1.0
 40
1.0
 40
1.0
 10
43.7261243837
 20
170.7980354204
 30
0.0
 10
43.6596777584
 20
170.7979071769
 30
0.0
 10
43.5326811587
 20
170.7976123794
 30
0.0
 10
43.3523459056
 20
170.7970263038
 30
0.0
 10
43.1928040479
 20
170.7963265184
 30
0.0
 10
43.0744801008
 20
170.7956353317
 30
0.0
 10
42.9925362315
 20
170.7950155954
 30
0.0
 10
42.941653346
 20
170.7945625851
 30
0.0
 10
42.8980072479
 20
170.794084957
 30
0.0
 10
42.8618585793
 20
170.7936235003
 30
0.0
 10
42.8336854837
 20
170.7930861395
 30
0.0
 10
42.8149778328
 20
170.7927577809
 30
0.0
 10
42.8044192785
 20
170.7922428149
 30
0.0
 10
42.7989016973
 20
170.792231625
 30
0.0
 10
42.7965577295
 20
170.7915971183
 30
0.0
 10
42.7944014752
 20
170.7918456649
 30
0.0
 10
42.7944014614
 20
170.7914906324
 30
0.0
  0
SPLINE
  5
284
100
AcDbEntity
  8
0
100
AcDbSpline
 62
7
  6
CONTINUOUS
 70
0
 71
3
 72
8
 73
4
 74
0
 42
0.0000001
 43
0.0000001
 44
0.0000000001
 40
0.0
 40
0.0
 40
0.0
 40
0.0
 40
1.0
 40
1.0
 40
1.0
 40
1.0
 10
43.7260851815
 20
170.7980354935
 30
0.0
 10
43.7243851944
 20
169.7958536721
 30
0.0
 10
43.7240843021
 20
168.7936697958
 30
0.0
 10
43.7223690287
 20
167.7914880004
 30
0.0
  0
ENDSEC
  0
SECTION
  2
OBJECTS
  0
DICTIONARY
  5
C
100
AcDbDictionary
280
0
281
1
  3
ACAD_GROUP
350
D
  3
ACAD_MLINESTYLE
350
17
  3
ACAD_LAYOUT
350
1A
  3
ACAD_PLOTSETTINGS
350
19
  3
ACAD_PLOTSTYLENAME
350
E
  0
DICTIONARY
  5
D
102
{ACAD_REACTORS
330
C
102
}
100
AcDbDictionary
280
0
281
1
  0
ACDBDICTIONARYWDFLT
  5
E
102
{ACAD_REACTORS
330
C
102
}
100
AcDbDictionary
281
1
  3
Normal
350
F
100
AcDbDictionaryWithDefault
340
F
  0
DICTIONARY
  5
17
102
{ACAD_REACTORS
330
C
102
}
100
AcDbDictionary
280
0
281
1
  3
Standard
350
18
  0
DICTIONARY
  5
19
102
{ACAD_REACTORS
330
C
102
}
100
AcDbDictionary
281
1
  0
DICTIONARY
  5
1A
102
{ACAD_REACTORS
330
C
102
}
100
AcDbDictionary
281
1
  3
Model
350
285
  3
Layout1
350
286
  0
ACDBPLACEHOLDER
  5
F
102
{ACAD_REACTORS
330
E
102
}
  0
MLINESTYLE
  5
18
102
{ACAD_REACTORS
330
17
102
}
100
AcDbMlineStyle
  2
STANDARD
 70
0
  3

 62
256
 51
90.0
 52
90.0
 71
2
 49
0.5
 62
256
  6
BYLAYER
 49
-0.5
 62
256
  6
BYLAYER
  0
LAYOUT
  5
285
102
{ACAD_REACTORS
330
1A
102
}
100
AcDbPlotSettings
  1

  2
none_device
  4

  6

 40
0.0
 41
0.0
 42
0.0
 43
0.0
 44
210.0
 45
297.0
 46
0.0
 47
0.0
 48
0.0
 49
0.0
140
0.0
141
0.0
142
1.0
143
1.0
 70
1024
 72
1
 73
0
 74
0
  7

 75
0
147
1.0
148
0.0
149
0.0
100
AcDbLayout
  1
Model
 70
0
 71
0
 10
0.0
 20
0.0
 11
210.0
 21
297.0
 12
0.0
 22
0.0
 32
0.0
 14
0.0
 24
0.0
 34
0.0
 15
0.0
 25
0.0
 35
0.0
146
0.0
 13
0.0
 23
0.0
 33
0.0
 16
1.0
 26
0.0
 36
0.0
 17
0.0
 27
1.0
 37
0.0
 76
0
330
210
345
0
346
0
  0
LAYOUT
  5
286
102
{ACAD_REACTORS
330
1A
102
}
100
AcDbPlotSettings
  1

  2
none_device
  4

  6

 40
0.0
 41
0.0
 42
0.0
 43
0.0
 44
210.0
 45
297.0
 46
0.0
 47
0.0
 48
0.0
 49
0.0
140
0.0
141
0.0
142
1.0
143
1.0
 70
0
 72
1
 73
0
 74
0
  7

 75
0
147
1.0
148
0.0
149
0.0
100
AcDbLayout
  1
Layout1
 70
0
 71
1
 10
0.0
 20
0.0
 11
210.0
 21
297.0
 12
0.0
 22
0.0
 32
0.0
 14
0.0
 24
0.0
 34
0.0
 15
0.0
 25
0.0
 35
0.0
146
0.0
 13
0.0
 23
0.0
 33
0.0
 16
1.0
 26
0.0
 36
0.0
 17
0.0
 27
1.0
 37
0.0
 76
0
330
211
345
0
346
0
  0
ENDSEC
  0
EOF
