999
DXF file: Y:\001_SCHNEIDER_PARIS\maxime fuentes - génération CAD 2D\TRAVAIL\RE17LHBM_2D-Views\re17lhbm_2d-views_3.dxf
999
Pro/ENGINEER 2018260 by Parametric Technology Corporation
  0
SECTION
  2
HEADER
  9
$ACADVER
  1
AC1027
  9
$DWGCODEPAGE
  3
ANSI_1252
  9
$EXTMAX
 10
558.8
 20
431.8
 30
0.0
  9
$EXTMIN
 10
0.0
 20
0.0
 30
0.0
  9
$LIMMIN
 10
0.0
 20
0.0
  9
$LIMMAX
 10
558.8
 20
431.8
  9
$VIEWCTR
 10
279.4
 20
215.9
  9
$VIEWSIZE
 40
431.8
  9
$CLAYER
  8
0
  9
$LTSCALE
 40
30.734
  9
$CELTYPE
  6
BYLAYER
  9
$DIMSCALE
 40
1.0
  9
$DIMASZ
 40
3.5
  9
$DIMEXO
 40
1.0
  9
$DIMDLI
 40
21.2344
  9
$DIMEXE
 40
3.0
  9
$DIMCEN
 40
5.0292
  9
$DIMLFAC
 40
1.0
  9
$DIMBLK
  1
_FILLED
  9
$DIMALT
 70
0
  9
$DIMALTF
 40
0.0393700787
  9
$DIMTXT
 40
4.0
  9
$DIMTOL
 70
1
  9
$DIMLIM
 70
0
  9
$DIMTFAC
 40
1.0
  9
$DIMTP
 40
0.0001
  9
$DIMTM
 40
0.0001
  9
$DIMGAP
 40
0.625
  9
$DIMDSEP
 70
46
  9
$AUNITS
 70
0
  9
$PDMODE
 70
0
  9
$PDSIZE
 40
0.01
  9
$HANDSEED
  5
2A5
  9
$TILEMODE
 70
1
  9
$MEASUREMENT
 70
1
  9
$INSUNITS
 70
4
  0
ENDSEC
  0
SECTION
  2
CLASSES
  0
CLASS
  1
ACDBDICTIONARYWDFLT
  2
AcDbDictionaryWithDefault
  3
AutoCAD 2000
 90
0
 91
1
280
0
281
0
  0
CLASS
  1
ACDBPLACEHOLDER
  2
AcDbPlaceHolder
  3
AutoCAD 2000
 90
0
 91
1
280
0
281
0
  0
CLASS
  1
LAYOUT
  2
AcDbLayout
  3
AutoCAD 2000
 90
0
 91
0
280
0
281
0
  0
ENDSEC
  0
SECTION
  2
TABLES
  0
TABLE
  2
VPORT
  5
8
100
AcDbSymbolTable
 70
2
  0
VPORT
  5
1F4
100
AcDbSymbolTableRecord
100
AcDbViewportTableRecord
  2
*ACTIVE
 70
0
 10
0.0
 20
0.0
 11
1.0
 21
1.0
 12
279.4
 22
215.9
 13
0.0
 23
0.0
 14
1.0
 24
1.0
 15
0.0
 25
0.0
 16
0.0
 26
0.0
 36
1.0
 17
0.0
 27
0.0
 37
0.0
 40
431.8
 41
1.2941176471
 42
50.0
 43
0.0
 44
0.0
 50
0.0
 51
0.0
 71
0
 72
100
 73
1
 74
1
 75
0
 76
0
 77
0
 78
0
  0
ENDTAB
  0
TABLE
  2
LTYPE
  5
5
100
AcDbSymbolTable
 70
6
  0
LTYPE
  5
14
100
AcDbSymbolTableRecord
100
AcDbLinetypeTableRecord
  2
BYBLOCK
 70
0
  3

 72
65
 73
0
 40
0.0
  0
LTYPE
  5
15
100
AcDbSymbolTableRecord
100
AcDbLinetypeTableRecord
  2
BYLAYER
 70
0
  3

 72
65
 73
0
 40
0.0
  0
LTYPE
  5
16
100
AcDbSymbolTableRecord
100
AcDbLinetypeTableRecord
  2
CONTINUOUS
 70
64
  3
Solid line
 72
65
 73
0
 40
0.0
  0
LTYPE
  5
1F5
100
AcDbSymbolTableRecord
100
AcDbLinetypeTableRecord
  2
CENTER
 70
64
  3
____ _ ____ _ ____ _ ____ _ ____ _ ____ _ ____
 72
65
 73
4
 40
0.6
 49
0.375
 74
0
 49
-0.075
 74
0
 49
0.075
 74
0
 49
-0.075
 74
0
  0
LTYPE
  5
1F6
100
AcDbSymbolTableRecord
100
AcDbLinetypeTableRecord
  2
HIDDEN
 70
64
  3
- - - - - - - - - - - - - - - - - - - -
 72
65
 73
2
 40
0.2
 49
0.1
 74
0
 49
-0.1
 74
0
  0
LTYPE
  5
1F7
100
AcDbSymbolTableRecord
100
AcDbLinetypeTableRecord
  2
PHANTOM
 70
64
  3
_____ _ _ _____ _ _ _____ _ _ _____
 72
65
 73
6
 40
0.8
 49
0.45
 74
0
 49
-0.05
 74
0
 49
0.1
 74
0
 49
-0.05
 74
0
 49
0.1
 74
0
 49
-0.05
 74
0
  0
LTYPE
  5
1F8
100
AcDbSymbolTableRecord
100
AcDbLinetypeTableRecord
  2
DOT
 70
64
  3
. . . . . . . . . . . . . . . . . . . .
 72
65
 73
2
 40
0.2
 49
0.1
 74
0
 49
-0.1
 74
0
  0
LTYPE
  5
1F9
100
AcDbSymbolTableRecord
100
AcDbLinetypeTableRecord
  2
DASHED
 70
64
  3
- - - - - - - - - - - - - - - - - - - -
 72
65
 73
2
 40
0.2
 49
0.1
 74
0
 49
-0.1
 74
0
  0
ENDTAB
  0
TABLE
  2
LAYER
  5
2
100
AcDbSymbolTable
 70
36
  0
LAYER
  5
10
100
AcDbSymbolTableRecord
100
AcDbLayerTableRecord
  2
0
 70
0
 62
7
  6
CONTINUOUS
370
-3
390
F
  0
LAYER
  5
1FA
100
AcDbSymbolTableRecord
100
AcDbLayerTableRecord
  2
DEFAULT_1
 70
0
 62
7
  6
CENTER
370
-3
390
F
  0
LAYER
  5
1FB
100
AcDbSymbolTableRecord
100
AcDbLayerTableRecord
  2
DEFAULT_2
 70
0
 62
8
  6
HIDDEN
370
-3
390
F
  0
LAYER
  5
1FC
100
AcDbSymbolTableRecord
100
AcDbLayerTableRecord
  2
DEFAULT_3
 70
0
 62
7
  6
PHANTOM
370
-3
390
F
  0
LAYER
  5
1FD
100
AcDbSymbolTableRecord
100
AcDbLayerTableRecord
  2
01_ALL_DTM_PLN
 70
0
 62
7
  6
CONTINUOUS
370
-3
390
F
  0
LAYER
  5
1FE
100
AcDbSymbolTableRecord
100
AcDbLayerTableRecord
  2
01__ASM_ALL_DTM_PLN
 70
0
 62
7
  6
CONTINUOUS
370
-3
390
F
  0
LAYER
  5
1FF
100
AcDbSymbolTableRecord
100
AcDbLayerTableRecord
  2
01__ASM_DEF_DTM_PLN
 70
0
 62
7
  6
CONTINUOUS
370
-3
390
F
  0
LAYER
  5
200
100
AcDbSymbolTableRecord
100
AcDbLayerTableRecord
  2
01___PRT_ALL_DTM_PLN
 70
0
 62
7
  6
CONTINUOUS
370
-3
390
F
  0
LAYER
  5
201
100
AcDbSymbolTableRecord
100
AcDbLayerTableRecord
  2
01___PRT_DEF_DTM_PLN
 70
0
 62
7
  6
CONTINUOUS
370
-3
390
F
  0
LAYER
  5
202
100
AcDbSymbolTableRecord
100
AcDbLayerTableRecord
  2
02_ALL_AXES
 70
0
 62
7
  6
CONTINUOUS
370
-3
390
F
  0
LAYER
  5
203
100
AcDbSymbolTableRecord
100
AcDbLayerTableRecord
  2
02__ASM_ALL_AXES
 70
0
 62
7
  6
CONTINUOUS
370
-3
390
F
  0
LAYER
  5
204
100
AcDbSymbolTableRecord
100
AcDbLayerTableRecord
  2
02___PRT_ALL_AXES
 70
0
 62
7
  6
CONTINUOUS
370
-3
390
F
  0
LAYER
  5
205
100
AcDbSymbolTableRecord
100
AcDbLayerTableRecord
  2
03_ALL_CURVES
 70
0
 62
7
  6
CONTINUOUS
370
-3
390
F
  0
LAYER
  5
206
100
AcDbSymbolTableRecord
100
AcDbLayerTableRecord
  2
03__ASM_ALL_CURVES
 70
0
 62
7
  6
CONTINUOUS
370
-3
390
F
  0
LAYER
  5
207
100
AcDbSymbolTableRecord
100
AcDbLayerTableRecord
  2
03___PRT_ALL_CURVES
 70
0
 62
7
  6
CONTINUOUS
370
-3
390
F
  0
LAYER
  5
208
100
AcDbSymbolTableRecord
100
AcDbLayerTableRecord
  2
04_ALL_DTM_PNT
 70
0
 62
7
  6
CONTINUOUS
370
-3
390
F
  0
LAYER
  5
209
100
AcDbSymbolTableRecord
100
AcDbLayerTableRecord
  2
04__ASM_ALL_DTM_PNT
 70
0
 62
7
  6
CONTINUOUS
370
-3
390
F
  0
LAYER
  5
20A
100
AcDbSymbolTableRecord
100
AcDbLayerTableRecord
  2
04___PRT_ALL_DTM_PNT
 70
0
 62
7
  6
CONTINUOUS
370
-3
390
F
  0
LAYER
  5
20B
100
AcDbSymbolTableRecord
100
AcDbLayerTableRecord
  2
05_ALL_DTM_CSYS
 70
0
 62
7
  6
CONTINUOUS
370
-3
390
F
  0
LAYER
  5
20C
100
AcDbSymbolTableRecord
100
AcDbLayerTableRecord
  2
05__ASM_ALL_DTM_CSYS
 70
0
 62
7
  6
CONTINUOUS
370
-3
390
F
  0
LAYER
  5
20D
100
AcDbSymbolTableRecord
100
AcDbLayerTableRecord
  2
05__ASM_DEF_DTM_CSYS
 70
0
 62
7
  6
CONTINUOUS
370
-3
390
F
  0
LAYER
  5
20E
100
AcDbSymbolTableRecord
100
AcDbLayerTableRecord
  2
05___PRT_ALL_DTM_CSYS
 70
0
 62
7
  6
CONTINUOUS
370
-3
390
F
  0
LAYER
  5
20F
100
AcDbSymbolTableRecord
100
AcDbLayerTableRecord
  2
05___PRT_DEF_DTM_CSYS
 70
0
 62
7
  6
CONTINUOUS
370
-3
390
F
  0
LAYER
  5
210
100
AcDbSymbolTableRecord
100
AcDbLayerTableRecord
  2
06_ALL_SURFS
 70
0
 62
7
  6
CONTINUOUS
370
-3
390
F
  0
LAYER
  5
211
100
AcDbSymbolTableRecord
100
AcDbLayerTableRecord
  2
06__ASM_ALL_SURFS
 70
0
 62
7
  6
CONTINUOUS
370
-3
390
F
  0
LAYER
  5
212
100
AcDbSymbolTableRecord
100
AcDbLayerTableRecord
  2
06___PRT_ALL_SURFS
 70
0
 62
7
  6
CONTINUOUS
370
-3
390
F
  0
LAYER
  5
213
100
AcDbSymbolTableRecord
100
AcDbLayerTableRecord
  2
07__ASM_ALL_SKELETONS
 70
0
 62
7
  6
CONTINUOUS
370
-3
390
F
  0
LAYER
  5
214
100
AcDbSymbolTableRecord
100
AcDbLayerTableRecord
  2
CLOSED_SHELL
 70
0
 62
7
  6
CONTINUOUS
370
-3
390
F
  0
LAYER
  5
215
100
AcDbSymbolTableRecord
100
AcDbLayerTableRecord
  2
ORIENTED_CLOSED_SHE
 70
0
 62
7
  6
CONTINUOUS
370
-3
390
F
  0
ENDTAB
  0
TABLE
  2
STYLE
  5
3
100
AcDbSymbolTable
 70
1
  0
STYLE
  5
11
100
AcDbSymbolTableRecord
100
AcDbTextStyleTableRecord
  2
STANDARD
 70
0
 40
0.0
 41
0.6
 50
0.0
 71
0
 42
0.2
  3
txt
  4

  0
STYLE
  5
216
100
AcDbSymbolTableRecord
100
AcDbTextStyleTableRecord
  2
TEXTSTYLE_1
 70
0
 40
0.0
 41
0.8
 50
0.0
 71
0
 42
0.2
  3
gdt
  4

  0
ENDTAB
  0
TABLE
  2
VIEW
  5
6
100
AcDbSymbolTable
 70
0
  0
ENDTAB
  0
TABLE
  2
UCS
  5
7
100
AcDbSymbolTable
 70
0
  0
ENDTAB
  0
TABLE
  2
APPID
  5
9
100
AcDbSymbolTable
 70
1
  0
APPID
  5
217
100
AcDbSymbolTableRecord
100
AcDbRegAppTableRecord
  2
ACAD
 70
0
  0
ENDTAB
  0
TABLE
  2
BLOCK_RECORD
  5
1
100
AcDbSymbolTable
 70
0
  0
BLOCK_RECORD
  5
218
100
AcDbSymbolTableRecord
100
AcDbBlockTableRecord
  2
*Model_Space
  0
BLOCK_RECORD
  5
219
100
AcDbSymbolTableRecord
100
AcDbBlockTableRecord
  2
*Paper_Space
  0
BLOCK_RECORD
  5
21A
100
AcDbSymbolTableRecord
100
AcDbBlockTableRecord
  2
_FILLED
  0
ENDTAB
  0
TABLE
  2
DIMSTYLE
  5
A
100
AcDbSymbolTable
 70
1
100
AcDbDimStyleTable
 71
0
  0
DIMSTYLE
105
21B
100
AcDbSymbolTableRecord
100
AcDbDimStyleTableRecord
  2
STANDARD
 70
0
  3

  4

 40
1.0
 41
3.5
 42
1.0
 43
0.38
 44
3.0
 45
0.0
 46
0.0
 47
0.0001
 48
0.0001
140
4.0
141
0.09
142
0.0
143
25.4
144
1.0
145
0.0
146
1.0
147
0.625
 71
1.0
 72
0.0
 73
0
 74
0
 75
0
 76
0
 77
1
 78
8
 79
2
170
0
171
3
172
0
173
0
174
0
175
0
176
0
177
0
178
0
270
2
179
4
271
4
272
4
273
2
274
2
275
0
280
0
281
0
282
0
283
1
284
8
285
0
286
0
287
3
288
0
340
11
278
46
341
21A
342
21A
343
21A
344
21A
  0
ENDTAB
  0
ENDSEC
  0
SECTION
  2
BLOCKS
  0
BLOCK
  5
20
100
AcDbEntity
  8
0
100
AcDbBlockBegin
  2
*Model_Space
 70
0
 10
0.0
 20
0.0
 30
0.0
  3
*Model_Space
  1

  0
ENDBLK
  5
21
100
AcDbEntity
  8
0
100
AcDbBlockEnd
  0
BLOCK
  5
1C
100
AcDbEntity
  8
0
100
AcDbBlockBegin
  2
*Paper_Space
 70
0
 10
0.0
 20
0.0
 30
0.0
  3
*Paper_Space
  1

  0
ENDBLK
  5
1D
100
AcDbEntity
  8
0
100
AcDbBlockEnd
  0
BLOCK
  5
21C
100
AcDbEntity
  8
0
100
AcDbBlockBegin
  2
_FILLED
 70
64
 10
0.0
 20
0.0
  3
_FILLED
  1

  0
SOLID
  5
21D
100
AcDbEntity
  8
0
  6
BYBLOCK
 62
0
100
AcDbTrace
 10
0.0
 20
0.0
 11
-1.0
 21
0.2857142857
 12
-1.0
 22
-0.2857142857
 13
-1.0
 23
-0.2857142857
  0
ENDBLK
  5
21E
100
AcDbEntity
  8
0
  6
BYBLOCK
 62
0
100
AcDbBlockEnd
  0
ENDSEC
  0
SECTION
  2
ENTITIES
  0
LINE
  5
21F
100
AcDbEntity
  8
0
100
AcDbLine
 62
9
  6
CONTINUOUS
 10
205.7452638338
 20
292.9515114324
 11
206.1571195148
 21
293.233741296
  0
LINE
  5
220
100
AcDbEntity
  8
0
100
AcDbLine
 62
7
  6
CONTINUOUS
 10
184.9192657645
 20
200.6518515499
 11
187.3192657645
 21
200.6518515499
  0
LINE
  5
221
100
AcDbEntity
  8
0
100
AcDbLine
 62
9
  6
CONTINUOUS
 10
187.3192657645
 20
201.6388213349
 11
184.7452363623
 21
201.6388213349
  0
LINE
  5
222
100
AcDbEntity
  8
0
100
AcDbLine
 62
7
  6
CONTINUOUS
 10
182.0592657645
 20
203.4518515499
 11
206.0537421263
 21
203.4518495595
  0
LINE
  5
223
100
AcDbEntity
  8
0
100
AcDbLine
 62
9
  6
CONTINUOUS
 10
205.7454302811
 20
203.9517547027
 11
182.0592657645
 21
203.9518515499
  0
LINE
  5
224
100
AcDbEntity
  8
0
100
AcDbLine
 62
9
  6
CONTINUOUS
 10
206.4473537506
 20
203.6435103538
 11
206.1572123745
 21
203.6699438234
  0
LINE
  5
225
100
AcDbEntity
  8
0
100
AcDbLine
 62
7
  6
CONTINUOUS
 10
183.8014946081
 20
293.45185155
 11
182.0592657645
 21
282.4518515498
  0
LINE
  5
226
100
AcDbEntity
  8
0
100
AcDbLine
 62
9
  6
CONTINUOUS
 10
206.1571337235
 20
203.6699784372
 11
205.7452531425
 21
203.9511043743
  0
LINE
  5
227
100
AcDbEntity
  8
0
100
AcDbLine
 62
7
  6
CONTINUOUS
 10
184.9192657645
 20
200.6518515502
 11
184.4255502185
 21
203.4518515499
  0
LINE
  5
228
100
AcDbEntity
  8
0
100
AcDbLine
 62
7
  6
CONTINUOUS
 10
182.0592657645
 20
282.4518515498
 11
182.0592657645
 21
266.5819391025
  0
LINE
  5
229
100
AcDbEntity
  8
0
100
AcDbLine
 62
7
  6
CONTINUOUS
 10
182.0592657645
 20
203.4518515499
 11
182.0592657645
 21
229.3281309915
  0
LINE
  5
22A
100
AcDbEntity
  8
0
100
AcDbLine
 62
7
  6
CONTINUOUS
 10
182.3192657645
 20
229.3977977815
 11
182.3192657645
 21
230.110223521
  0
LINE
  5
22B
100
AcDbEntity
  8
0
100
AcDbLine
 62
7
  6
CONTINUOUS
 10
184.0192657638
 20
231.536692894
 11
184.0192657638
 21
229.8533114084
  0
LINE
  5
22C
100
AcDbEntity
  8
0
100
AcDbLine
 62
7
  6
CONTINUOUS
 10
186.3192657645
 20
231.1518515506
 11
186.3192657645
 21
231.7518515501
  0
LINE
  5
22D
100
AcDbEntity
  8
0
100
AcDbLine
 62
7
  6
CONTINUOUS
 10
186.7592657638
 20
265.6018515503
 11
186.7592657638
 21
266.1018515503
  0
LINE
  5
22E
100
AcDbEntity
  8
0
100
AcDbLine
 62
7
  6
CONTINUOUS
 10
188.2592657638
 20
264.6018515503
 11
187.5592657645
 21
263.3894159844
  0
LINE
  5
22F
100
AcDbEntity
  8
0
100
AcDbLine
 62
7
  6
CONTINUOUS
 10
184.8393533156
 20
264.1018515503
 11
186.7592657638
 21
265.6018515503
  0
LINE
  5
230
100
AcDbEntity
  8
0
100
AcDbLine
 62
7
  6
CONTINUOUS
 10
209.5560987522
 20
214.7018515499
 11
226.8536460809
 21
214.7018515499
  0
LINE
  5
231
100
AcDbEntity
  8
0
100
AcDbLine
 62
9
  6
CONTINUOUS
 10
209.1040202864
 20
215.2018515499
 11
226.5452846848
 21
215.2018731473
  0
LINE
  5
232
100
AcDbEntity
  8
0
100
AcDbLine
 62
9
  6
CONTINUOUS
 10
227.2471668795
 20
214.8932724302
 11
226.9571838173
 21
214.9199023621
  0
LINE
  5
233
100
AcDbEntity
  8
0
100
AcDbLine
 62
7
  6
CONTINUOUS
 10
186.3192657645
 20
231.7518515501
 11
185.9441368955
 21
233.1518515506
  0
LINE
  5
234
100
AcDbEntity
  8
0
100
AcDbLine
 62
7
  6
CONTINUOUS
 10
187.3192657645
 20
231.1518515499
 11
187.3192657645
 21
230.7375437433
  0
LINE
  5
235
100
AcDbEntity
  8
0
100
AcDbLine
 62
7
  6
CONTINUOUS
 10
187.3192657645
 20
203.4518515499
 11
187.3192657645
 21
200.6518515499
  0
LINE
  5
236
100
AcDbEntity
  8
0
100
AcDbLine
 62
7
  6
CONTINUOUS
 10
187.5592657645
 20
263.3894159844
 11
187.5592657645
 21
230.8018515495
  0
LINE
  5
237
100
AcDbEntity
  8
0
100
AcDbLine
 62
7
  6
CONTINUOUS
 10
188.2592657638
 20
266.1018515503
 11
188.2592657638
 21
264.6018515503
  0
LINE
  5
238
100
AcDbEntity
  8
0
100
AcDbLine
 62
7
  6
CONTINUOUS
 10
228.231109569
 20
217.9518515499
 11
229.2592657641
 21
217.9518515499
  0
LINE
  5
239
100
AcDbEntity
  8
0
100
AcDbLine
 62
9
  6
CONTINUOUS
 10
227.877656214
 20
218.1518516367
 11
229.2592637002
 21
218.1518518211
  0
LINE
  5
23A
100
AcDbEntity
  8
0
100
AcDbLine
 62
7
  6
CONTINUOUS
 10
209.467634339
 20
214.7821053571
 11
209.1033355975
 21
215.2018515499
  0
LINE
  5
23B
100
AcDbEntity
  8
0
100
AcDbLine
 62
9
  6
CONTINUOUS
 10
231.6592657645
 20
220.3518555001
 11
231.4592655851
 21
220.3518555001
  0
LINE
  5
23C
100
AcDbEntity
  8
0
100
AcDbLine
 62
7
  6
CONTINUOUS
 10
230.3592657652
 20
225.9518515499
 11
247.0592657645
 21
225.9518515499
  0
LINE
  5
23D
100
AcDbEntity
  8
0
100
AcDbLine
 62
7
  6
CONTINUOUS
 10
247.5592657645
 20
226.1518515499
 11
253.5592578438
 21
226.1518515499
  0
LINE
  5
23E
100
AcDbEntity
  8
0
100
AcDbLine
 62
9
  6
CONTINUOUS
 10
247.5592657645
 20
226.4518515499
 11
230.3592657652
 21
226.4518515499
  0
LINE
  5
23F
100
AcDbEntity
  8
0
100
AcDbLine
 62
9
  6
CONTINUOUS
 10
254.0592657645
 20
226.6518515499
 11
253.7846337185
 21
226.6518515499
  0
LINE
  5
240
100
AcDbEntity
  8
0
100
AcDbLine
 62
9
  6
CONTINUOUS
 10
253.4833630319
 20
226.6518515499
 11
247.5592657645
 21
226.6518515499
  0
LINE
  5
241
100
AcDbEntity
  8
0
100
AcDbLine
 62
9
  6
CONTINUOUS
 10
226.5452187648
 20
215.201206676
 11
226.9571137714
 21
214.9199491162
  0
LINE
  5
242
100
AcDbEntity
  8
0
100
AcDbLine
 62
7
  6
CONTINUOUS
 10
186.3192657645
 20
231.1518515499
 11
187.3192657645
 21
231.1518515499
  0
LINE
  5
243
100
AcDbEntity
  8
0
100
AcDbLine
 62
9
  6
CONTINUOUS
 10
205.7452780993
 20
203.4521421119
 11
205.7452830967
 21
203.4518515499
  0
LINE
  5
244
100
AcDbEntity
  8
0
100
AcDbLine
 62
9
  6
CONTINUOUS
 10
205.7452731018
 20
203.951791651
 11
205.7452780993
 21
203.4521421119
  0
LINE
  5
245
100
AcDbEntity
  8
0
100
AcDbLine
 62
9
  6
CONTINUOUS
 10
205.7452638339
 20
293.4518515499
 11
205.7452638339
 21
292.951846911
  0
LINE
  5
246
100
AcDbEntity
  8
0
100
AcDbLine
 62
7
  6
CONTINUOUS
 10
182.0592657645
 20
266.5819391025
 11
184.5393533167
 21
264.1018515503
  0
LINE
  5
247
100
AcDbEntity
  8
0
100
AcDbLine
 62
9
  6
CONTINUOUS
 10
208.4592614964
 20
290.2018515499
 11
208.4592618521
 21
290.001851356
  0
LINE
  5
248
100
AcDbEntity
  8
0
100
AcDbLine
 62
9
  6
CONTINUOUS
 10
210.6592654717
 20
287.8018493092
 11
210.6592657157
 21
281.7018515499
  0
LINE
  5
249
100
AcDbEntity
  8
0
100
AcDbLine
 62
7
  6
CONTINUOUS
 10
185.9441368955
 20
233.1518515506
 11
182.3192657645
 21
230.1102235211
  0
LINE
  5
24A
100
AcDbEntity
  8
0
100
AcDbLine
 62
7
  6
CONTINUOUS
 10
187.5592657645
 20
230.8018515495
 11
182.0592657645
 21
229.3281309915
  0
LINE
  5
24B
100
AcDbEntity
  8
0
100
AcDbLine
 62
7
  6
CONTINUOUS
 10
210.8592657645
 20
282.1018515499
 11
210.8592657645
 21
287.8018515499
  0
LWPOLYLINE
  5
24C
100
AcDbEntity
  8
0
100
AcDbPolyline
 62
7
  6
CONTINUOUS
 90
6
 70
0
 10
208.0860627901
 20
290.2018515499
 10
207.9096510193
 20
290.6095320013
 10
207.5442354809
 20
291.3905782999
 10
207.1669770191
 20
292.1247096859
 10
206.7693801413
 20
292.8021922505
 10
206.4469784461
 20
293.2604792097
  0
LINE
  5
24D
100
AcDbEntity
  8
0
100
AcDbLine
 62
9
  6
CONTINUOUS
 10
207.5208544428
 20
290.2351487661
 11
207.5332059106
 21
290.2018524782
  0
LINE
  5
24E
100
AcDbEntity
  8
0
100
AcDbLine
 62
9
  6
CONTINUOUS
 10
207.5213419028
 20
290.2353218749
 11
207.5332059106
 21
290.2018524782
  0
LINE
  5
24F
100
AcDbEntity
  8
0
100
AcDbLine
 62
9
  6
CONTINUOUS
 10
226.5452731015
 20
215.2018626215
 11
226.5452706764
 21
214.7021420982
  0
LINE
  5
250
100
AcDbEntity
  8
0
100
AcDbLine
 62
9
  6
CONTINUOUS
 10
229.2592647441
 20
218.1518517289
 11
229.2592647441
 21
217.9518515499
  0
LINE
  5
251
100
AcDbEntity
  8
0
100
AcDbLine
 62
9
  6
CONTINUOUS
 10
226.5452576328
 20
281.7018515499
 11
226.5452847186
 21
282.2018515499
  0
LINE
  5
252
100
AcDbEntity
  8
0
100
AcDbLine
 62
9
  6
CONTINUOUS
 10
226.5452706764
 20
214.7021420982
 11
226.5452682512
 21
214.7018515499
  0
LINE
  5
253
100
AcDbEntity
  8
0
100
AcDbLine
 62
7
  6
CONTINUOUS
 10
247.5592657645
 20
265.8049259107
 11
252.9592657649
 21
267.25185155
  0
LINE
  5
254
100
AcDbEntity
  8
0
100
AcDbLine
 62
7
  6
CONTINUOUS
 10
247.5592657637
 20
266.1495703571
 11
252.2751400457
 21
267.4131850626
  0
LINE
  5
255
100
AcDbEntity
  8
0
100
AcDbLine
 62
9
  6
CONTINUOUS
 10
247.0592657645
 20
266.5332338506
 11
252.1457325102
 21
267.8961495154
  0
LINE
  5
256
100
AcDbEntity
  8
0
100
AcDbLine
 62
7
  6
CONTINUOUS
 10
230.3592657645
 20
270.9518515499
 11
230.3592657645
 21
270.4518515499
  0
LINE
  5
257
100
AcDbEntity
  8
0
100
AcDbLine
 62
7
  6
CONTINUOUS
 10
230.3592657652
 20
225.9518515499
 11
230.3592657652
 21
226.4518515499
  0
LINE
  5
258
100
AcDbEntity
  8
0
100
AcDbLine
 62
9
  6
CONTINUOUS
 10
231.4592654929
 20
220.3518562718
 11
231.4592656773
 21
225.9518515499
  0
LINE
  5
259
100
AcDbEntity
  8
0
100
AcDbLine
 62
7
  6
CONTINUOUS
 10
231.6592657645
 20
220.3518515499
 11
231.6592657645
 21
225.9518515499
  0
LWPOLYLINE
  5
25A
100
AcDbEntity
  8
0
100
AcDbPolyline
 62
7
  6
CONTINUOUS
 90
13
 70
0
 10
206.447378315
 20
203.6437346556
 10
206.7701400393
 20
204.1026956003
 10
207.1681948756
 20
204.7812356634
 10
207.5458850606
 20
205.5164996957
 10
207.9117050134
 20
206.2987466616
 10
208.2724545974
 20
207.1327997043
 10
208.6310738802
 20
208.0218910676
 10
208.9891531263
 20
208.9704150686
 10
209.3475925214
 20
209.9851599564
 10
209.7058530307
 20
211.0740181878
 10
210.0619775245
 20
212.2483928188
 10
210.4108025918
 20
213.5218027606
 10
210.6942247724
 20
214.7018515499
  0
LINE
  5
25B
100
AcDbEntity
  8
0
100
AcDbLine
 62
9
  6
CONTINUOUS
 10
228.3212856759
 20
217.9181678787
 11
228.33322398
 21
217.9518442806
  0
LINE
  5
25C
100
AcDbEntity
  8
0
100
AcDbLine
 62
9
  6
CONTINUOUS
 10
228.3207163706
 20
217.9183700587
 11
228.33322398
 21
217.9518442806
  0
LINE
  5
25D
100
AcDbEntity
  8
0
100
AcDbLine
 62
7
  6
CONTINUOUS
 10
184.5393533167
 20
264.1018515503
 11
184.8393533156
 21
264.1018515503
  0
LINE
  5
25E
100
AcDbEntity
  8
0
100
AcDbLine
 62
7
  6
CONTINUOUS
 10
186.7592657638
 20
266.1018515503
 11
188.2592657638
 21
266.1018515503
  0
LWPOLYLINE
  5
25F
100
AcDbEntity
  8
0
100
AcDbPolyline
 62
7
  6
CONTINUOUS
 90
13
 70
0
 10
231.4942247724
 20
270.9518515499
 10
231.2067730915
 20
272.1475238503
 10
230.8580320249
 20
273.4189249084
 10
230.5021227594
 20
274.5914599838
 10
230.1441514608
 20
275.6786199924
 10
229.7860462713
 20
276.691787303
 10
229.428332049
 20
277.6388396066
 10
229.0700960334
 20
278.5265511176
 10
228.7097507852
 20
279.3593098053
 10
228.3443520433
 20
280.1403398696
 10
227.967115677
 20
280.8744544438
 10
227.5695478864
 20
281.5519307601
 10
227.247378315
 20
282.0099684441
  0
LINE
  5
260
100
AcDbEntity
  8
0
100
AcDbLine
 62
7
  6
CONTINUOUS
 10
228.7096515356
 20
217.5441722483
 11
228.8860627885
 21
217.9518515499
  0
LINE
  5
261
100
AcDbEntity
  8
0
100
AcDbLine
 62
7
  6
CONTINUOUS
 10
252.9592657649
 20
267.2518515499
 11
253.2644091473
 21
267.2518515499
  0
LINE
  5
262
100
AcDbEntity
  8
0
100
AcDbLine
 62
9
  6
CONTINUOUS
 10
253.5961005148
 20
269.0518515499
 11
254.0592657645
 21
269.0518515499
  0
LINE
  5
263
100
AcDbEntity
  8
0
100
AcDbLine
 62
9
  6
CONTINUOUS
 10
251.8092459939
 20
270.4518505775
 11
230.3592657652
 21
270.4518515499
  0
LINE
  5
264
100
AcDbEntity
  8
0
100
AcDbLine
 62
7
  6
CONTINUOUS
 10
251.8092657645
 20
270.9518515499
 11
229.8314019596
 21
270.9518515499
  0
LWPOLYLINE
  5
265
100
AcDbEntity
  8
0
100
AcDbPolyline
 62
7
  6
CONTINUOUS
 90
5
 70
0
 10
227.2469784581
 20
214.8932239053
 10
227.5693802545
 20
215.3515110257
 10
227.9669772779
 20
216.0289938902
 10
228.3442358738
 20
216.7631256034
 10
228.7096515356
 20
217.5441722483
  0
LINE
  5
266
100
AcDbEntity
  8
0
100
AcDbLine
 62
9
  6
CONTINUOUS
 10
247.0592657645
 20
266.5332338506
 11
247.0592657642
 21
225.9518515499
  0
LINE
  5
267
100
AcDbEntity
  8
0
100
AcDbLine
 62
7
  6
CONTINUOUS
 10
247.5592657645
 20
226.1518515499
 11
247.5592657645
 21
266.1495703571
  0
LINE
  5
268
100
AcDbEntity
  8
0
100
AcDbLine
 62
7
  6
CONTINUOUS
 10
253.4833630325
 20
233.1193539525
 11
253.7846337191
 21
233.2932926646
  0
LINE
  5
269
100
AcDbEntity
  8
0
100
AcDbLine
 62
9
  6
CONTINUOUS
 10
251.8092657645
 20
270.9518515499
 11
251.8092657645
 21
270.4518510637
  0
LINE
  5
26A
100
AcDbEntity
  8
0
100
AcDbLine
 62
9
  6
CONTINUOUS
 10
252.352860446
 20
267.0893657345
 11
252.352860446
 21
226.1518515499
  0
LINE
  5
26B
100
AcDbEntity
  8
0
100
AcDbLine
 62
9
  6
CONTINUOUS
 10
252.8324128982
 20
267.2178614278
 11
252.8324128982
 21
226.6518515499
  0
LINE
  5
26C
100
AcDbEntity
  8
0
100
AcDbLine
 62
7
  6
CONTINUOUS
 10
253.2644091473
 20
268.1167040239
 11
253.2644091473
 21
267.2518515499
  0
LINE
  5
26D
100
AcDbEntity
  8
0
100
AcDbLine
 62
7
  6
CONTINUOUS
 10
253.4833630324
 20
226.6518515525
 11
253.4833630324
 21
233.1193539512
  0
LINE
  5
26E
100
AcDbEntity
  8
0
100
AcDbLine
 62
7
  6
CONTINUOUS
 10
253.7846337185
 20
233.2932926642
 11
253.7846337185
 21
226.6518515499
  0
LINE
  5
26F
100
AcDbEntity
  8
0
100
AcDbLine
 62
9
  6
CONTINUOUS
 10
226.9572152791
 20
281.9837565561
 11
227.2473550512
 21
282.0101910855
  0
LINE
  5
270
100
AcDbEntity
  8
0
100
AcDbLine
 62
9
  6
CONTINUOUS
 10
210.6592657157
 20
281.7018515499
 11
226.545448147
 21
281.7019543976
  0
LINE
  5
271
100
AcDbEntity
  8
0
100
AcDbLine
 62
7
  6
CONTINUOUS
 10
210.8592657646
 20
282.2018515499
 11
226.8536461661
 21
282.2018515499
  0
LINE
  5
272
100
AcDbEntity
  8
0
100
AcDbLine
 62
7
  6
CONTINUOUS
 10
254.0592657645
 20
226.6518515499
 11
254.0592657645
 21
269.0518515499
  0
LINE
  5
273
100
AcDbEntity
  8
0
100
AcDbLine
 62
9
  6
CONTINUOUS
 10
252.1457386985
 20
267.8961501662
 11
252.2751513655
 21
267.4131880956
  0
LINE
  5
274
100
AcDbEntity
  8
0
100
AcDbLine
 62
9
  6
CONTINUOUS
 10
210.6592655937
 20
287.8018515502
 11
210.8592657645
 21
287.8018515502
  0
LINE
  5
275
100
AcDbEntity
  8
0
100
AcDbLine
 62
9
  6
CONTINUOUS
 10
208.4592606666
 20
290.0018512563
 11
207.0770499428
 21
290.0018514557
  0
LINE
  5
276
100
AcDbEntity
  8
0
100
AcDbLine
 62
7
  6
CONTINUOUS
 10
208.4592657641
 20
290.2018515499
 11
207.431093961
 21
290.2018515499
  0
LINE
  5
277
100
AcDbEntity
  8
0
100
AcDbLine
 62
9
  6
CONTINUOUS
 10
206.1571905787
 20
293.2337921327
 11
206.4471776279
 21
293.2604410822
  0
LINE
  5
278
100
AcDbEntity
  8
0
100
AcDbLine
 62
9
  6
CONTINUOUS
 10
183.7223023885
 20
292.9518515499
 11
205.7452809359
 21
292.9518381146
  0
LINE
  5
279
100
AcDbEntity
  8
0
100
AcDbLine
 62
7
  6
CONTINUOUS
 10
183.8014946081
 20
293.4518515499
 11
206.0537417531
 21
293.4518535414
  0
ARC
  5
27A
100
AcDbEntity
  8
0
100
AcDbCircle
 62
9
  6
CONTINUOUS
 10
153.6664792173
 20
222.9296574873
 40
55.9736425798
100
AcDbArc
 50
351.5471711806
 51
352.0642988313
  0
ARC
  5
27B
100
AcDbEntity
  8
0
100
AcDbCircle
 62
7
  6
CONTINUOUS
 10
229.2592657645
 20
220.3518515499
 40
2.4
100
AcDbArc
 50
270.0
 51
360.0
  0
ARC
  5
27C
100
AcDbEntity
  8
0
100
AcDbCircle
 62
9
  6
CONTINUOUS
 10
229.2592657645
 20
220.3518515499
 40
2.1999995831
100
AcDbArc
 50
269.9999462388
 51
0.0001229752
  0
ARC
  5
27D
100
AcDbEntity
  8
0
100
AcDbCircle
 62
7
  6
CONTINUOUS
 10
206.0537461268
 20
203.9518496305
 40
0.5000000711
100
AcDbArc
 50
270.0
 51
321.9479928687
  0
ARC
  5
27E
100
AcDbEntity
  8
0
100
AcDbCircle
 62
7
  6
CONTINUOUS
 10
226.8537457548
 20
215.2018496247
 40
0.5000000664
100
AcDbArc
 50
270.0
 51
321.8913766008
  0
ARC
  5
27F
100
AcDbEntity
  8
0
100
AcDbCircle
 62
7
  6
CONTINUOUS
 10
253.5592657645
 20
226.6518515499
 40
0.5
100
AcDbArc
 50
270.0000000573
 51
360.0
  0
ARC
  5
280
100
AcDbEntity
  8
0
100
AcDbCircle
 62
7
  6
CONTINUOUS
 10
247.0592657645
 20
226.4518515499
 40
0.5
100
AcDbArc
 50
270.0
 51
360.0
  0
ARC
  5
281
100
AcDbEntity
  8
0
100
AcDbCircle
 62
9
  6
CONTINUOUS
 10
205.7441967674
 20
203.9515373628
 40
0.4999057717
100
AcDbArc
 50
270.0763604398
 51
325.6842834897
  0
ARC
  5
282
100
AcDbEntity
  8
0
100
AcDbCircle
 62
9
  6
CONTINUOUS
 10
226.5444640167
 20
215.2011896117
 40
0.4994840761
100
AcDbArc
 50
270.0480919617
 51
301.1601578853
  0
ARC
  5
283
100
AcDbEntity
  8
0
100
AcDbCircle
 62
7
  6
CONTINUOUS
 10
208.4592657645
 20
287.8018515499
 40
2.4
100
AcDbArc
 50
0.0
 51
90.0000000095
  0
ARC
  5
284
100
AcDbEntity
  8
0
100
AcDbCircle
 62
9
  6
CONTINUOUS
 10
208.4592657645
 20
287.8018515499
 40
2.1999995502
100
AcDbArc
 50
359.999941646
 51
90.0001327688
  0
ARC
  5
285
100
AcDbEntity
  8
0
100
AcDbCircle
 62
7
  6
CONTINUOUS
 10
252.2592657645
 20
269.0518515499
 40
1.8
100
AcDbArc
 50
0.0
 51
84.8447424526
  0
ARC
  5
286
100
AcDbEntity
  8
0
100
AcDbCircle
 62
7
  6
CONTINUOUS
 10
251.8092657645
 20
269.1518515499
 40
1.8
100
AcDbArc
 50
285.0000000003
 51
90.0
  0
ARC
  5
287
100
AcDbEntity
  8
0
100
AcDbCircle
 62
9
  6
CONTINUOUS
 10
251.8092657645
 20
269.1518515499
 40
1.2999980302
100
AcDbArc
 50
285.0001021567
 51
90.000871366
  0
CIRCLE
  5
288
100
AcDbEntity
  8
0
100
AcDbCircle
 62
7
  6
CONTINUOUS
 10
251.8092657645
 20
269.1518515499
 40
0.9
  0
CIRCLE
  5
289
100
AcDbEntity
  8
0
100
AcDbCircle
 62
7
  6
CONTINUOUS
 10
251.8092657645
 20
269.1518515499
 40
0.86
  0
ARC
  5
28A
100
AcDbEntity
  8
0
100
AcDbCircle
 62
9
  6
CONTINUOUS
 10
226.5445844027
 20
281.7003415928
 40
0.5015104441
100
AcDbArc
 50
71.4727648001
 51
89.9201005492
  0
ARC
  5
28B
100
AcDbEntity
  8
0
100
AcDbCircle
 62
7
  6
CONTINUOUS
 10
226.8537461268
 20
281.7018534692
 40
0.5000000711
100
AcDbArc
 50
38.0520071313
 51
90.0
  0
ARC
  5
28C
100
AcDbEntity
  8
0
100
AcDbCircle
 62
7
  6
CONTINUOUS
 10
206.0537457538
 20
292.9518534751
 40
0.5000000663
100
AcDbArc
 50
38.1086265415
 51
90.0
  0
ARC
  5
28D
100
AcDbEntity
  8
0
100
AcDbCircle
 62
9
  6
CONTINUOUS
 10
205.7443174598
 20
292.9522030678
 40
0.4998669787
100
AcDbArc
 50
34.3228691251
 51
89.9353617856
  0
SPLINE
  5
28E
100
AcDbEntity
  8
0
100
AcDbSpline
 62
7
  6
CONTINUOUS
 70
0
 71
3
 72
11
 73
7
 74
0
 42
0.0000001
 43
0.0000001
 44
0.0000000001
 40
0.0
 40
0.0
 40
0.0
 40
0.0
 40
0.250051518
 40
0.5000848315
 40
0.7500604271
 40
1.0
 40
1.0
 40
1.0
 40
1.0
 10
252.973405926
 20
226.1518515492
 30
0.0
 10
253.0390991803
 20
226.1518515491
 30
0.0
 10
253.1718500645
 20
226.177286127
 30
0.0
 10
253.3412823155
 20
226.2870980308
 30
0.0
 10
253.4561853175
 20
226.4533572976
 30
0.0
 10
253.4833630324
 20
226.5861877083
 30
0.0
 10
253.4833630324
 20
226.6518515525
 30
0.0
  0
SPLINE
  5
28F
100
AcDbEntity
  8
0
100
AcDbSpline
 62
9
  6
CONTINUOUS
 70
0
 71
3
 72
15
 73
11
 74
0
 42
0.0000001
 43
0.0000001
 44
0.0000000001
 40
0.0
 40
0.0
 40
0.0
 40
0.0
 40
0.0625001953
 40
0.1250387889
 40
0.2500178377
 40
0.3750205388
 40
0.5000208631
 40
0.6250243721
 40
0.750024119
 40
1.0
 40
1.0
 40
1.0
 40
1.0
 10
206.1579990697
 20
203.6693818425
 30
0.0
 10
206.2953745359
 20
203.8684144343
 30
0.0
 10
206.5353731067
 20
204.2902784668
 30
0.0
 10
206.9494318735
 20
205.1646853317
 30
0.0
 10
207.396517247
 20
206.2895187837
 30
0.0
 10
207.8668165196
 20
207.6624030849
 30
0.0
 10
208.2863410047
 20
209.0517877317
 30
0.0
 10
208.6636635479
 20
210.4531657147
 30
0.0
 10
209.1104847601
 20
212.3355493639
 30
0.0
 10
209.3827341782
 20
213.7624786738
 30
0.0
 10
209.5215042188
 20
214.7197311686
 30
0.0
  0
LINE
  5
290
100
AcDbEntity
  8
0
100
AcDbLine
 62
7
  6
CONTINUOUS
 10
209.5218052939
 20
214.7196595247
 11
209.467634339
 21
214.7821053571
  0
SPLINE
  5
291
100
AcDbEntity
  8
0
100
AcDbSpline
 62
7
  6
CONTINUOUS
 70
0
 71
3
 72
9
 73
5
 74
0
 42
0.0000001
 43
0.0000001
 44
0.0000000001
 40
0.0
 40
0.0
 40
0.0
 40
0.0
 40
0.7136538455
 40
1.0
 40
1.0
 40
1.0
 40
1.0
 10
209.5559620834
 20
214.7018515499
 30
0.0
 10
209.5466463574
 20
214.7018515499
 30
0.0
 10
209.5334976431
 20
214.7076848105
 30
0.0
 10
209.5242634513
 20
214.7168436957
 30
0.0
 10
209.5218052939
 20
214.7196595247
 30
0.0
  0
SPLINE
  5
292
100
AcDbEntity
  8
0
100
AcDbSpline
 62
9
  6
CONTINUOUS
 70
0
 71
3
 72
8
 73
4
 74
0
 42
0.0000001
 43
0.0000001
 44
0.0000000001
 40
0.0
 40
0.0
 40
0.0
 40
0.0
 40
1.0
 40
1.0
 40
1.0
 40
1.0
 10
226.8029131032
 20
214.7737689618
 30
0.0
 10
226.8635071674
 20
214.8104382316
 30
0.0
 10
226.9172517428
 20
214.8614060155
 30
0.0
 10
226.9571137714
 20
214.9199491162
 30
0.0
  0
SPLINE
  5
293
100
AcDbEntity
  8
0
100
AcDbSpline
 62
9
  6
CONTINUOUS
 70
0
 71
3
 72
11
 73
7
 74
0
 42
0.0000001
 43
0.0000001
 44
0.0000000001
 40
0.0
 40
0.0
 40
0.0
 40
0.0
 40
0.24998055
 40
0.4999691302
 40
0.7499850194
 40
1.0
 40
1.0
 40
1.0
 40
1.0
 10
226.9579809626
 20
214.919355543
 30
0.0
 10
227.1142249586
 20
215.1457274392
 30
0.0
 10
227.3808051376
 20
215.6292999196
 30
0.0
 10
227.7276027662
 20
216.3779730027
 30
0.0
 10
228.0383793322
 20
217.1428552539
 30
0.0
 10
228.2292264906
 20
217.658933679
 30
0.0
 10
228.3212856759
 20
217.9181678787
 30
0.0
  0
SPLINE
  5
294
100
AcDbEntity
  8
0
100
AcDbSpline
 62
7
  6
CONTINUOUS
 70
0
 71
3
 72
10
 73
6
 74
0
 42
0.0000001
 43
0.0000001
 44
0.0000000001
 40
0.0
 40
0.0
 40
0.0
 40
0.0
 40
0.5582629829
 40
0.8006207979
 40
1.0
 40
1.0
 40
1.0
 40
1.0
 10
227.8776560948
 20
218.1518517289
 30
0.0
 10
227.9386270875
 20
218.1057789358
 30
0.0
 10
228.0257699747
 20
218.0385357451
 30
0.0
 10
228.1441655168
 20
217.9702530097
 30
0.0
 10
228.2038164269
 20
217.9518515499
 30
0.0
 10
228.2311095699
 20
217.9518515499
 30
0.0
  0
SPLINE
  5
295
100
AcDbEntity
  8
0
100
AcDbSpline
 62
7
  6
CONTINUOUS
 70
0
 71
3
 72
9
 73
5
 74
0
 42
0.0000001
 43
0.0000001
 44
0.0000000001
 40
0.0
 40
0.0
 40
0.0
 40
0.0
 40
0.347955694
 40
1.0
 40
1.0
 40
1.0
 40
1.0
 10
247.0592657637
 20
266.533233851
 30
0.0
 10
247.1172583834
 20
266.4887345488
 30
0.0
 10
247.2840247475
 20
266.3609766859
 30
0.0
 10
247.4507785321
 20
266.2332024458
 30
0.0
 10
247.5592657639
 20
266.1495703571
 30
0.0
  0
SPLINE
  5
296
100
AcDbEntity
  8
0
100
AcDbSpline
 62
9
  6
CONTINUOUS
 70
0
 71
3
 72
16
 73
12
 74
0
 42
0.0000001
 43
0.0000001
 44
0.0000000001
 40
0.0
 40
0.0
 40
0.0
 40
0.0
 40
0.1249986709
 40
0.2499986666
 40
0.3749990905
 40
0.4999994777
 40
0.6250003952
 40
0.7499988748
 40
0.8749906108
 40
0.9374994402
 40
1.0
 40
1.0
 40
1.0
 40
1.0
 10
230.3193084659
 20
270.9518413794
 30
0.0
 10
230.2497855361
 20
271.4297487572
 30
0.0
 10
230.0879364168
 20
272.3823014715
 30
0.0
 10
229.7959978321
 20
273.8016225725
 30
0.0
 10
229.4605482828
 20
275.2113184117
 30
0.0
 10
229.0839684651
 20
276.610558069
 30
0.0
 10
228.6645568751
 20
277.9976713969
 30
0.0
 10
228.1949136931
 20
279.3684708935
 30
0.0
 10
227.7486219166
 20
280.4915881356
 30
0.0
 10
227.3340166159
 20
281.3640673788
 30
0.0
 10
227.0946409789
 20
281.7852105803
 30
0.0
 10
226.9580465009
 20
281.9843373189
 30
0.0
  0
SPLINE
  5
297
100
AcDbEntity
  8
0
100
AcDbSpline
 62
9
  6
CONTINUOUS
 70
0
 71
3
 72
8
 73
4
 74
0
 42
0.0000001
 43
0.0000001
 44
0.0000000001
 40
0.0
 40
0.0
 40
0.0
 40
0.0
 40
1.0
 40
1.0
 40
1.0
 40
1.0
 10
226.9571385066
 20
281.9837135502
 30
0.0
 10
226.8975156336
 20
282.0712951074
 30
0.0
 10
226.8043753235
 20
282.1421173422
 30
0.0
 10
226.7039420547
 20
282.1758601143
 30
0.0
  0
SPLINE
  5
298
100
AcDbEntity
  8
0
100
AcDbSpline
 62
9
  6
CONTINUOUS
 70
0
 71
3
 72
14
 73
10
 74
0
 42
0.0000001
 43
0.0000001
 44
0.0000000001
 40
0.0
 40
0.0
 40
0.0
 40
0.0
 40
0.3692631219
 40
0.5375429384
 40
0.6865834003
 40
0.8112082596
 40
0.9071503226
 40
0.9707680863
 40
1.0
 40
1.0
 40
1.0
 40
1.0
 10
226.5452576204
 20
281.701739213
 30
0.0
 10
226.594452471
 20
281.7385552711
 30
0.0
 10
226.669175105
 20
281.7878761975
 30
0.0
 10
226.7638673646
 20
281.8517404437
 30
0.0
 10
226.8247551577
 20
281.8930607879
 30
0.0
 10
226.8752985472
 20
281.9278921884
 30
0.0
 10
226.9150687689
 20
281.9540421554
 30
0.0
 10
226.9401400931
 20
281.9719477365
 30
0.0
 10
226.9545801738
 20
281.9795764728
 30
0.0
 10
226.9571385066
 20
281.9837135502
 30
0.0
  0
SPLINE
  5
299
100
AcDbEntity
  8
0
100
AcDbSpline
 62
9
  6
CONTINUOUS
 70
0
 71
3
 72
10
 73
6
 74
0
 42
0.0000001
 43
0.0000001
 44
0.0000000001
 40
0.0
 40
0.0
 40
0.0
 40
0.0
 40
0.2500139408
 40
0.50003449
 40
1.0
 40
1.0
 40
1.0
 40
1.0
 10
206.1571199029
 20
293.2337428784
 30
0.0
 10
206.3123726876
 20
293.0066535319
 30
0.0
 10
206.5824038995
 20
292.525148544
 30
0.0
 10
207.0418835608
 20
291.5252996822
 30
0.0
 10
207.3372719001
 20
290.7537181705
 30
0.0
 10
207.5213419028
 20
290.2353218749
 30
0.0
  0
SPLINE
  5
29A
100
AcDbEntity
  8
0
100
AcDbSpline
 62
7
  6
CONTINUOUS
 70
0
 71
3
 72
10
 73
6
 74
0
 42
0.0000001
 43
0.0000001
 44
0.0000000001
 40
0.0
 40
0.0
 40
0.0
 40
0.0
 40
0.1988375831
 40
0.4413290006
 40
1.0
 40
1.0
 40
1.0
 40
1.0
 10
207.431093961
 20
290.2018515499
 30
0.0
 10
207.4038784261
 20
290.2018515499
 30
0.0
 10
207.3443153778
 20
290.1833473848
 30
0.0
 10
207.2259982693
 20
290.1150166095
 30
0.0
 10
207.1386468078
 20
290.0479471965
 30
0.0
 10
207.0776354291
 20
290.001851356
 30
0.0
  0
SPLINE
  5
29B
100
AcDbEntity
  8
0
100
AcDbSpline
 62
7
  6
CONTINUOUS
 70
0
 71
3
 72
10
 73
6
 74
0
 42
0.0000001
 43
0.0000001
 44
0.0000000001
 40
0.0
 40
0.0
 40
0.0
 40
0.0
 40
0.5534585366
 40
0.7999538842
 40
1.0
 40
1.0
 40
1.0
 40
1.0
 10
210.6592655937
 20
281.7018500139
 30
0.0
 10
210.7036740792
 20
281.7720659947
 30
0.0
 10
210.7686211302
 20
281.8736795887
 30
0.0
 10
210.8374568178
 20
282.0062099779
 30
0.0
 10
210.8592657645
 20
282.0718222632
 30
0.0
 10
210.8592657645
 20
282.10185155
 30
0.0
  0
SPLINE
  5
29C
100
AcDbEntity
  8
0
100
AcDbSpline
 62
9
  6
CONTINUOUS
 70
0
 71
3
 72
17
 73
13
 74
0
 42
0.0000001
 43
0.0000001
 44
0.0000000001
 40
0.0
 40
0.0
 40
0.0
 40
0.0
 40
0.0304392392
 40
0.0611422407
 40
0.1231509688
 40
0.185521604
 40
0.2480232356
 40
0.3732411625
 40
0.4985953838
 40
0.6240008087
 40
0.7494135115
 40
1.0
 40
1.0
 40
1.0
 40
1.0
 10
205.7458366232
 20
203.9514746653
 30
0.0
 10
205.810870349
 20
204.0458404143
 30
0.0
 10
205.9314134205
 20
204.2422759419
 30
0.0
 10
206.154658553
 20
204.6487499254
 30
0.0
 10
206.403688597
 20
205.1773970775
 30
0.0
 10
206.6766358235
 20
205.8259899148
 30
0.0
 10
207.0145348295
 20
206.70501463
 30
0.0
 10
207.397238393
 20
207.8202931423
 30
0.0
 10
207.8085239474
 20
209.1750125847
 30
0.0
 10
208.1795518204
 20
210.5421135707
 30
0.0
 10
208.6202490768
 20
212.3777980205
 30
0.0
 10
208.8921479767
 20
213.7687744321
 30
0.0
 10
209.0313727243
 20
214.701913003
 30
0.0
  0
SPLINE
  5
29D
100
AcDbEntity
  8
0
100
AcDbSpline
 62
9
  6
CONTINUOUS
 70
0
 71
3
 72
11
 73
7
 74
0
 42
0.0000001
 43
0.0000001
 44
0.0000000001
 40
0.0
 40
0.0
 40
0.0
 40
0.0
 40
0.245164005
 40
0.4931843808
 40
0.7451994048
 40
1.0
 40
1.0
 40
1.0
 40
1.0
 10
252.352860446
 20
226.1518515499
 30
0.0
 10
252.4153354674
 20
226.1518515498
 30
0.0
 10
252.5424643701
 20
226.1782647671
 30
0.0
 10
252.7018567552
 20
226.290326715
 30
0.0
 10
252.8078034759
 20
226.4564371748
 30
0.0
 10
252.8324128983
 20
226.5869208426
 30
0.0
 10
252.8324128982
 20
226.6518515515
 30
0.0
  0
SPLINE
  5
29E
100
AcDbEntity
  8
0
100
AcDbSpline
 62
7
  6
CONTINUOUS
 70
0
 71
3
 72
9
 73
5
 74
0
 42
0.0000001
 43
0.0000001
 44
0.0000000001
 40
0.0
 40
0.0
 40
0.0
 40
0.0
 40
0.5000061329
 40
1.0
 40
1.0
 40
1.0
 40
1.0
 10
253.7846337185
 20
226.6518515499
 30
0.0
 10
253.7846337185
 20
226.5548957423
 30
0.0
 10
253.7246923962
 20
226.3565524608
 30
0.0
 10
253.5634147648
 20
226.227070232
 30
0.0
 10
253.4737521174
 20
226.1901842308
 30
0.0
  0
SPLINE
  5
29F
100
AcDbEntity
  8
0
100
AcDbSpline
 62
7
  6
CONTINUOUS
 70
0
 71
3
 72
8
 73
4
 74
0
 42
0.0000001
 43
0.0000001
 44
0.0000000001
 40
0.0
 40
0.0
 40
0.0
 40
0.0
 40
1.0
 40
1.0
 40
1.0
 40
1.0
 10
253.4737521174
 20
226.1901842308
 30
0.0
 10
253.4128472402
 20
226.1651287876
 30
0.0
 10
253.3457918924
 20
226.1518515506
 30
0.0
 10
253.2799346278
 20
226.1518515506
 30
0.0
  0
SPLINE
  5
2A0
100
AcDbEntity
  8
0
100
AcDbSpline
 62
9
  6
CONTINUOUS
 70
0
 71
3
 72
12
 73
8
 74
0
 42
0.0000001
 43
0.0000001
 44
0.0000000001
 40
0.0
 40
0.0
 40
0.0
 40
0.0
 40
0.2519125423
 40
0.5033642723
 40
0.7535846635
 40
0.8774661425
 40
1.0
 40
1.0
 40
1.0
 40
1.0
 10
207.0770536936
 20
290.0018527827
 30
0.0
 10
206.9862088669
 20
290.258629409
 30
0.0
 10
206.7983303682
 20
290.7695386404
 30
0.0
 10
206.4919365166
 20
291.5245986069
 30
0.0
 10
206.211986225
 20
292.1409328831
 30
0.0
 10
205.9586753514
 20
292.6145290063
 30
0.0
 10
205.8202953055
 20
292.8426346
 30
0.0
 10
205.7452809372
 20
292.9518381155
 30
0.0
  0
SPLINE
  5
2A1
100
AcDbEntity
  8
0
100
AcDbSpline
 62
9
  6
CONTINUOUS
 70
0
 71
3
 72
17
 73
13
 74
0
 42
0.0000001
 43
0.0000001
 44
0.0000000001
 40
0.0
 40
0.0
 40
0.0
 40
0.0
 40
0.2506003821
 40
0.3760169092
 40
0.5014269519
 40
0.6267852003
 40
0.7520048626
 40
0.8145091591
 40
0.8768779159
 40
0.9388977494
 40
0.9695978473
 40
1.0
 40
1.0
 40
1.0
 40
1.0
 10
229.8314788793
 20
270.9518630724
 30
0.0
 10
229.6917026096
 20
271.8849521763
 30
0.0
 10
229.4198700745
 20
273.2759572814
 30
0.0
 10
228.978924703
 20
275.1116319953
 30
0.0
 10
228.6081230467
 20
276.4788095446
 30
0.0
 10
228.1967034267
 20
277.83350546
 30
0.0
 10
227.8139372165
 20
278.9487566617
 30
0.0
 10
227.4764281993
 20
279.8279280575
 30
0.0
 10
227.2029802188
 20
280.4763411583
 30
0.0
 10
226.9542178487
 20
281.0051204382
 30
0.0
 10
226.7308990929
 20
281.4114346813
 30
0.0
 10
226.6102934966
 20
281.6076313878
 30
0.0
 10
226.5454827513
 20
281.7019781688
 30
0.0
  0
SPLINE
  5
2A2
100
AcDbEntity
  8
0
100
AcDbSpline
 62
9
  6
CONTINUOUS
 70
0
 71
3
 72
12
 73
8
 74
0
 42
0.0000001
 43
0.0000001
 44
0.0000000001
 40
0.0
 40
0.0
 40
0.0
 40
0.0
 40
0.1226818325
 40
0.2465216519
 40
0.4967166864
 40
0.7481034303
 40
1.0
 40
1.0
 40
1.0
 40
1.0
 10
226.5461403408
 20
215.201283454
 30
0.0
 10
226.6214228788
 20
215.3105198191
 30
0.0
 10
226.7596607529
 20
215.5389133092
 30
0.0
 10
227.0130091329
 20
216.0126570854
 30
0.0
 10
227.2930331438
 20
216.6289143136
 30
0.0
 10
227.5994399175
 20
217.3839720426
 30
0.0
 10
227.7872341376
 20
217.8949021885
 30
0.0
 10
227.8781005289
 20
218.1516944151
 30
0.0
  0
ENDSEC
  0
SECTION
  2
OBJECTS
  0
DICTIONARY
  5
C
100
AcDbDictionary
280
0
281
1
  3
ACAD_GROUP
350
D
  3
ACAD_MLINESTYLE
350
17
  3
ACAD_LAYOUT
350
1A
  3
ACAD_PLOTSETTINGS
350
19
  3
ACAD_PLOTSTYLENAME
350
E
  0
DICTIONARY
  5
D
102
{ACAD_REACTORS
330
C
102
}
100
AcDbDictionary
280
0
281
1
  0
ACDBDICTIONARYWDFLT
  5
E
102
{ACAD_REACTORS
330
C
102
}
100
AcDbDictionary
281
1
  3
Normal
350
F
100
AcDbDictionaryWithDefault
340
F
  0
DICTIONARY
  5
17
102
{ACAD_REACTORS
330
C
102
}
100
AcDbDictionary
280
0
281
1
  3
Standard
350
18
  0
DICTIONARY
  5
19
102
{ACAD_REACTORS
330
C
102
}
100
AcDbDictionary
281
1
  0
DICTIONARY
  5
1A
102
{ACAD_REACTORS
330
C
102
}
100
AcDbDictionary
281
1
  3
Model
350
2A3
  3
Layout1
350
2A4
  0
ACDBPLACEHOLDER
  5
F
102
{ACAD_REACTORS
330
E
102
}
  0
MLINESTYLE
  5
18
102
{ACAD_REACTORS
330
17
102
}
100
AcDbMlineStyle
  2
STANDARD
 70
0
  3

 62
256
 51
90.0
 52
90.0
 71
2
 49
0.5
 62
256
  6
BYLAYER
 49
-0.5
 62
256
  6
BYLAYER
  0
LAYOUT
  5
2A3
102
{ACAD_REACTORS
330
1A
102
}
100
AcDbPlotSettings
  1

  2
none_device
  4
ANSI_C_(22.00_x_17.00_Inches)
  6

 40
0.0
 41
0.0
 42
0.0
 43
0.0
 44
558.8
 45
431.8
 46
0.0
 47
0.0
 48
0.0
 49
0.0
140
0.0
141
0.0
142
1.0
143
1.0
 70
1024
 72
1
 73
0
 74
0
  7

 75
0
147
1.0
148
0.0
149
0.0
100
AcDbLayout
  1
Model
 70
0
 71
0
 10
0.0
 20
0.0
 11
558.8
 21
431.8
 12
0.0
 22
0.0
 32
0.0
 14
0.0
 24
0.0
 34
0.0
 15
0.0
 25
0.0
 35
0.0
146
0.0
 13
0.0
 23
0.0
 33
0.0
 16
1.0
 26
0.0
 36
0.0
 17
0.0
 27
1.0
 37
0.0
 76
0
330
218
345
0
346
0
  0
LAYOUT
  5
2A4
102
{ACAD_REACTORS
330
1A
102
}
100
AcDbPlotSettings
  1

  2
none_device
  4
ANSI_C_(22.00_x_17.00_Inches)
  6

 40
0.0
 41
0.0
 42
0.0
 43
0.0
 44
558.8
 45
431.8
 46
0.0
 47
0.0
 48
0.0
 49
0.0
140
0.0
141
0.0
142
1.0
143
1.0
 70
0
 72
1
 73
0
 74
0
  7

 75
0
147
1.0
148
0.0
149
0.0
100
AcDbLayout
  1
Layout1
 70
0
 71
1
 10
0.0
 20
0.0
 11
558.8
 21
431.8
 12
0.0
 22
0.0
 32
0.0
 14
0.0
 24
0.0
 34
0.0
 15
0.0
 25
0.0
 35
0.0
146
0.0
 13
0.0
 23
0.0
 33
0.0
 16
1.0
 26
0.0
 36
0.0
 17
0.0
 27
1.0
 37
0.0
 76
0
330
219
345
0
346
0
  0
ENDSEC
  0
EOF
