999
DXF file: C:\Users\sesa63760\Dev\_Creo\CAD\MCADID0000709_3D-CAD\drw0001_1.dxf
999
Pro/ENGINEER 2019471 by Parametric Technology Corporation
  0
SECTION
  2
HEADER
  9
$ACADVER
  1
AC1024
  9
$DWGCODEPAGE
  3
ANSI_1252
  9
$EXTMAX
 10
88.8892738138
 20
125.7148301081
 30
0.0
  9
$EXTMIN
 10
0.0
 20
0.0
 30
0.0
  9
$LIMMIN
 10
0.0
 20
0.0
  9
$LIMMAX
 10
88.8892738138
 20
125.7148301081
  9
$VIEWCTR
 10
44.4446369069
 20
62.8574150541
  9
$VIEWSIZE
 40
125.7148301081
  9
$CLAYER
  8
0
  9
$LTSCALE
 40
8.1947444811
  9
$CELTYPE
  6
BYLAYER
  9
$DIMSCALE
 40
1.0
  9
$DIMASZ
 40
1.0582056406
  9
$DIMEXO
 40
1.0
  9
$DIMDLI
 40
5.6618234597
  9
$DIMEXE
 40
1.0
  9
$DIMCEN
 40
1.3409581878
  9
$DIMLFAC
 40
1.0
  9
$DIMBLK
  1
_FILLED
  9
$DIMALT
 70
0
  9
$DIMALTF
 40
0.0393700787
  9
$DIMTXT
 40
1.4814878969
  9
$DIMTOL
 70
1
  9
$DIMLIM
 70
0
  9
$DIMTFAC
 40
1.0
  9
$DIMTP
 40
0.01
  9
$DIMTM
 40
0.01
  9
$DIMGAP
 40
0.625
  9
$DIMDSEP
 70
46
  9
$AUNITS
 70
0
  9
$PDMODE
 70
3
  9
$PDSIZE
 40
0.3125
  9
$HANDSEED
  5
37B
  9
$TILEMODE
 70
1
  9
$MEASUREMENT
 70
1
  9
$INSUNITS
 70
4
  0
ENDSEC
  0
SECTION
  2
CLASSES
  0
CLASS
  1
ACDBDICTIONARYWDFLT
  2
AcDbDictionaryWithDefault
  3
AutoCAD 2000
 90
0
 91
1
280
0
281
0
  0
CLASS
  1
ACDBPLACEHOLDER
  2
AcDbPlaceHolder
  3
AutoCAD 2000
 90
0
 91
1
280
0
281
0
  0
CLASS
  1
LAYOUT
  2
AcDbLayout
  3
AutoCAD 2000
 90
0
 91
0
280
0
281
0
  0
ENDSEC
  0
SECTION
  2
TABLES
  0
TABLE
  2
VPORT
  5
8
100
AcDbSymbolTable
 70
2
  0
VPORT
  5
1F4
100
AcDbSymbolTableRecord
100
AcDbViewportTableRecord
  2
*ACTIVE
 70
0
 10
0.0
 20
0.0
 11
1.0
 21
1.0
 12
44.4446369069
 22
62.8574150541
 13
0.0
 23
0.0
 14
1.0
 24
1.0
 15
0.0
 25
0.0
 16
0.0
 26
0.0
 36
1.0
 17
0.0
 27
0.0
 37
0.0
 40
125.7148301081
 41
0.7070707071
 42
50.0
 43
0.0
 44
0.0
 50
0.0
 51
0.0
 71
0
 72
100
 73
1
 74
1
 75
0
 76
0
 77
0
 78
0
  0
ENDTAB
  0
TABLE
  2
LTYPE
  5
5
100
AcDbSymbolTable
 70
6
  0
LTYPE
  5
14
100
AcDbSymbolTableRecord
100
AcDbLinetypeTableRecord
  2
BYBLOCK
 70
0
  3

 72
65
 73
0
 40
0.0
  0
LTYPE
  5
15
100
AcDbSymbolTableRecord
100
AcDbLinetypeTableRecord
  2
BYLAYER
 70
0
  3

 72
65
 73
0
 40
0.0
  0
LTYPE
  5
16
100
AcDbSymbolTableRecord
100
AcDbLinetypeTableRecord
  2
CONTINUOUS
 70
64
  3
Solid line
 72
65
 73
0
 40
0.0
  0
LTYPE
  5
1F5
100
AcDbSymbolTableRecord
100
AcDbLinetypeTableRecord
  2
CENTER
 70
64
  3
____ _ ____ _ ____ _ ____ _ ____ _ ____ _ ____
 72
65
 73
4
 40
0.6
 49
0.375
 74
0
 49
-0.075
 74
0
 49
0.075
 74
0
 49
-0.075
 74
0
  0
LTYPE
  5
1F6
100
AcDbSymbolTableRecord
100
AcDbLinetypeTableRecord
  2
HIDDEN
 70
64
  3
- - - - - - - - - - - - - - - - - - - -
 72
65
 73
2
 40
0.2
 49
0.1
 74
0
 49
-0.1
 74
0
  0
LTYPE
  5
1F7
100
AcDbSymbolTableRecord
100
AcDbLinetypeTableRecord
  2
PHANTOM
 70
64
  3
_____ _ _ _____ _ _ _____ _ _ _____
 72
65
 73
6
 40
0.8
 49
0.45
 74
0
 49
-0.05
 74
0
 49
0.1
 74
0
 49
-0.05
 74
0
 49
0.1
 74
0
 49
-0.05
 74
0
  0
LTYPE
  5
1F8
100
AcDbSymbolTableRecord
100
AcDbLinetypeTableRecord
  2
DOT
 70
64
  3
. . . . . . . . . . . . . . . . . . . .
 72
65
 73
2
 40
0.2
 49
0.1
 74
0
 49
-0.1
 74
0
  0
LTYPE
  5
1F9
100
AcDbSymbolTableRecord
100
AcDbLinetypeTableRecord
  2
DASHED
 70
64
  3
- - - - - - - - - - - - - - - - - - - -
 72
65
 73
2
 40
0.2
 49
0.1
 74
0
 49
-0.1
 74
0
  0
ENDTAB
  0
TABLE
  2
LAYER
  5
2
100
AcDbSymbolTable
 70
36
  0
LAYER
  5
10
100
AcDbSymbolTableRecord
100
AcDbLayerTableRecord
  2
0
 70
0
 62
7
  6
CONTINUOUS
370
-3
390
F
  0
LAYER
  5
1FA
100
AcDbSymbolTableRecord
100
AcDbLayerTableRecord
  2
DEFAULT_1
 70
0
 62
7
  6
CENTER
370
-3
390
F
  0
LAYER
  5
1FB
100
AcDbSymbolTableRecord
100
AcDbLayerTableRecord
  2
DEFAULT_2
 70
0
 62
8
  6
HIDDEN
370
-3
390
F
  0
LAYER
  5
1FC
100
AcDbSymbolTableRecord
100
AcDbLayerTableRecord
  2
DEFAULT_3
 70
0
 62
7
  6
PHANTOM
370
-3
390
F
  0
LAYER
  5
1FD
100
AcDbSymbolTableRecord
100
AcDbLayerTableRecord
  2
00_COMPONENTS
 70
0
 62
7
  6
CONTINUOUS
370
-3
390
F
  0
LAYER
  5
1FE
100
AcDbSymbolTableRecord
100
AcDbLayerTableRecord
  2
01_1_DEFAULT_DATUMS
 70
0
 62
7
  6
CONTINUOUS
370
-3
390
F
  0
LAYER
  5
1FF
100
AcDbSymbolTableRecord
100
AcDbLayerTableRecord
  2
01_PLANES
 70
0
 62
7
  6
CONTINUOUS
370
-3
390
F
  0
LAYER
  5
200
100
AcDbSymbolTableRecord
100
AcDbLayerTableRecord
  2
02_COORD_SYS
 70
0
 62
7
  6
CONTINUOUS
370
-3
390
F
  0
LAYER
  5
201
100
AcDbSymbolTableRecord
100
AcDbLayerTableRecord
  2
03_AXES
 70
0
 62
7
  6
CONTINUOUS
370
-3
390
F
  0
LAYER
  5
202
100
AcDbSymbolTableRecord
100
AcDbLayerTableRecord
  2
04_POINTS
 70
0
 62
7
  6
CONTINUOUS
370
-3
390
F
  0
LAYER
  5
203
100
AcDbSymbolTableRecord
100
AcDbLayerTableRecord
  2
05_CURVES
 70
0
 62
7
  6
CONTINUOUS
370
-3
390
F
  0
LAYER
  5
204
100
AcDbSymbolTableRecord
100
AcDbLayerTableRecord
  2
06_SURFS
 70
0
 62
7
  6
CONTINUOUS
370
-3
390
F
  0
LAYER
  5
205
100
AcDbSymbolTableRecord
100
AcDbLayerTableRecord
  2
07_COSMETICS
 70
0
 62
7
  6
CONTINUOUS
370
-3
390
F
  0
LAYER
  5
206
100
AcDbSymbolTableRecord
100
AcDbLayerTableRecord
  2
10_NOTES
 70
0
 62
7
  6
CONTINUOUS
370
-3
390
F
  0
LAYER
  5
207
100
AcDbSymbolTableRecord
100
AcDbLayerTableRecord
  2
11_NOTES_PUB
 70
0
 62
7
  6
CONTINUOUS
370
-3
390
F
  0
LAYER
  5
208
100
AcDbSymbolTableRecord
100
AcDbLayerTableRecord
  2
13_REF_GTOL
 70
0
 62
7
  6
CONTINUOUS
370
-3
390
F
  0
LAYER
  5
209
100
AcDbSymbolTableRecord
100
AcDbLayerTableRecord
  2
16_MISC
 70
0
 62
7
  6
CONTINUOUS
370
-3
390
F
  0
LAYER
  5
20A
100
AcDbSymbolTableRecord
100
AcDbLayerTableRecord
  2
17_NO_PRINT
 70
0
 62
7
  6
CONTINUOUS
370
-3
390
F
  0
LAYER
  5
20B
100
AcDbSymbolTableRecord
100
AcDbLayerTableRecord
  2
18_DATUM_CAMS_JOINTS
 70
0
 62
7
  6
CONTINUOUS
370
-3
390
F
  0
LAYER
  5
20C
100
AcDbSymbolTableRecord
100
AcDbLayerTableRecord
  2
19_DATUM_FUNCTIONAL
 70
0
 62
7
  6
CONTINUOUS
370
-3
390
F
  0
LAYER
  5
20D
100
AcDbSymbolTableRecord
100
AcDbLayerTableRecord
  2
20_DATUM_KINEMATIC_SCHEME
 70
0
 62
7
  6
CONTINUOUS
370
-3
390
F
  0
ENDTAB
  0
TABLE
  2
STYLE
  5
3
100
AcDbSymbolTable
 70
1
  0
STYLE
  5
11
100
AcDbSymbolTableRecord
100
AcDbTextStyleTableRecord
  2
STANDARD
 70
0
 40
0.0
 41
0.8
 50
0.0
 71
0
 42
0.2
  3
txt
  4

  0
STYLE
  5
20E
100
AcDbSymbolTableRecord
100
AcDbTextStyleTableRecord
  2
TEXTSTYLE_1
 70
0
 40
0.0
 41
0.8
 50
0.0
 71
0
 42
0.2
  3
gdt
  4

  0
ENDTAB
  0
TABLE
  2
VIEW
  5
6
100
AcDbSymbolTable
 70
0
  0
ENDTAB
  0
TABLE
  2
UCS
  5
7
100
AcDbSymbolTable
 70
0
  0
ENDTAB
  0
TABLE
  2
APPID
  5
9
100
AcDbSymbolTable
 70
1
  0
APPID
  5
20F
100
AcDbSymbolTableRecord
100
AcDbRegAppTableRecord
  2
ACAD
 70
0
  0
ENDTAB
  0
TABLE
  2
BLOCK_RECORD
  5
1
100
AcDbSymbolTable
 70
0
  0
BLOCK_RECORD
  5
210
100
AcDbSymbolTableRecord
100
AcDbBlockTableRecord
  2
*Model_Space
  0
BLOCK_RECORD
  5
211
100
AcDbSymbolTableRecord
100
AcDbBlockTableRecord
  2
*Paper_Space
  0
BLOCK_RECORD
  5
212
100
AcDbSymbolTableRecord
100
AcDbBlockTableRecord
  2
_FILLED
  0
ENDTAB
  0
TABLE
  2
DIMSTYLE
  5
A
100
AcDbSymbolTable
 70
1
100
AcDbDimStyleTable
 71
0
  0
DIMSTYLE
105
213
100
AcDbSymbolTableRecord
100
AcDbDimStyleTableRecord
  2
STANDARD
 70
0
  3

  4

 40
1.0
 41
1.0582056406
 42
1.0
 43
0.38
 44
1.0
 45
0.0
 46
0.0
 47
0.01
 48
0.01
140
1.4814878969
141
0.09
142
0.0
143
25.4
144
1.0
145
0.0
146
1.0
147
0.625
 71
1
 72
0
 73
0
 74
0
 75
0
 76
0
 77
1
 78
8
 79
2
170
0
171
1
172
0
173
0
174
0
175
0
176
0
177
0
178
0
270
2
179
2
271
2
272
2
273
2
274
2
275
0
280
0
281
0
282
0
283
1
284
8
285
0
286
0
287
3
288
0
340
11
278
46
341
212
342
212
343
212
344
212
  0
ENDTAB
  0
ENDSEC
  0
SECTION
  2
BLOCKS
  0
BLOCK
  5
20
100
AcDbEntity
  8
0
100
AcDbBlockBegin
  2
*Model_Space
 70
0
 10
0.0
 20
0.0
 30
0.0
  3
*Model_Space
  1

  0
ENDBLK
  5
21
100
AcDbEntity
  8
0
100
AcDbBlockEnd
  0
BLOCK
  5
1C
100
AcDbEntity
  8
0
100
AcDbBlockBegin
  2
*Paper_Space
 70
0
 10
0.0
 20
0.0
 30
0.0
  3
*Paper_Space
  1

  0
ENDBLK
  5
1D
100
AcDbEntity
  8
0
100
AcDbBlockEnd
  0
BLOCK
  5
214
100
AcDbEntity
  8
0
100
AcDbBlockBegin
  2
_FILLED
 70
64
 10
0.0
 20
0.0
  3
_FILLED
  1

  0
SOLID
  5
215
100
AcDbEntity
  8
0
  6
BYBLOCK
 62
0
100
AcDbTrace
 10
0.0
 20
0.0
 11
-1.0
 21
0.25
 12
-1.0
 22
-0.25
 13
-1.0
 23
-0.25
  0
ENDBLK
  5
216
100
AcDbEntity
  8
0
  6
BYBLOCK
 62
0
100
AcDbBlockEnd
  0
ENDSEC
  0
SECTION
  2
ENTITIES
  0
LINE
  5
217
100
AcDbEntity
  8
0
100
AcDbLine
 62
7
  6
CONTINUOUS
 10
41.4916308017
 20
12.2894520859
 11
17.2377672292
 21
26.292109966
  0
LINE
  5
218
100
AcDbEntity
  8
0
100
AcDbLine
 62
7
  6
CONTINUOUS
 10
41.3570077933
 20
12.587013082
 11
17.1031442207
 21
26.589670962
  0
LINE
  5
219
100
AcDbEntity
  8
0
100
AcDbLine
 62
7
  6
CONTINUOUS
 10
35.2402978827
 20
107.0352129432
 11
30.6441229408
 21
104.381625943
  0
LINE
  5
21A
100
AcDbEntity
  8
0
100
AcDbLine
 62
7
  6
CONTINUOUS
 10
50.4109898522
 20
115.4907342477
 11
49.1602686904
 21
114.7686343586
  0
LINE
  5
21B
100
AcDbEntity
  8
0
100
AcDbLine
 62
7
  6
CONTINUOUS
 10
50.1602642135
 20
114.6695858006
 11
51.2752761742
 21
115.3133344135
  0
LINE
  5
21C
100
AcDbEntity
  8
0
100
AcDbLine
 62
7
  6
CONTINUOUS
 10
53.1730892961
 20
116.2076986553
 11
51.5082147492
 21
115.2464886251
  0
LINE
  5
21D
100
AcDbEntity
  8
0
100
AcDbLine
 62
7
  6
CONTINUOUS
 10
52.0354191287
 20
114.8744756024
 11
54.1730848192
 21
116.1086500973
  0
LINE
  5
21E
100
AcDbEntity
  8
0
100
AcDbLine
 62
7
  6
CONTINUOUS
 10
52.7188117741
 20
9.7899027619
 11
45.2654675777
 21
14.0929956911
  0
LINE
  5
21F
100
AcDbEntity
  8
0
100
AcDbLine
 62
7
  6
CONTINUOUS
 10
52.5844687522
 20
10.0691033171
 11
45.4400948564
 21
14.1938161956
  0
LINE
  5
220
100
AcDbEntity
  8
0
100
AcDbLine
 62
7
  6
CONTINUOUS
 10
38.0932208411
 20
19.7171686893
 11
13.8393572686
 21
33.7198265693
  0
LINE
  5
221
100
AcDbEntity
  8
0
100
AcDbLine
 62
7
  6
CONTINUOUS
 10
37.9585978327
 20
20.0147296853
 11
13.7047342601
 21
34.0173875654
  0
LINE
  5
222
100
AcDbEntity
  8
0
100
AcDbLine
 62
7
  6
CONTINUOUS
 10
56.0469255908
 20
115.0268120978
 11
53.9092599003
 21
113.792637603
  0
LINE
  5
223
100
AcDbEntity
  8
0
100
AcDbLine
 62
7
  6
CONTINUOUS
 10
54.6694028549
 20
113.3537787918
 11
53.5543908942
 21
112.7100301789
  0
LINE
  5
224
100
AcDbEntity
  8
0
100
AcDbLine
 62
7
  6
CONTINUOUS
 10
48.6874667082
 20
109.0175712443
 11
42.8702772689
 21
105.6590354034
  0
LINE
  5
225
100
AcDbEntity
  8
0
100
AcDbLine
 62
7
  6
CONTINUOUS
 10
28.4649441422
 20
97.3421620899
 11
42.5167253503
 21
105.4549133264
  0
LINE
  5
226
100
AcDbEntity
  8
0
100
AcDbLine
 62
7
  6
CONTINUOUS
 10
28.7899426872
 20
97.3099713086
 11
42.8417238953
 21
105.4227225451
  0
LINE
  5
227
100
AcDbEntity
  8
0
100
AcDbLine
 62
7
  6
CONTINUOUS
 10
43.1952758139
 20
105.626844622
 11
48.6874667082
 21
108.7977435856
  0
LINE
  5
228
100
AcDbEntity
  8
0
100
AcDbLine
 62
7
  6
CONTINUOUS
 10
48.6874667082
 20
108.3486750163
 11
48.5339130232
 21
108.2600212841
  0
LINE
  5
229
100
AcDbEntity
  8
0
100
AcDbLine
 62
7
  6
CONTINUOUS
 10
56.2850465383
 20
111.8983090205
 11
57.4611450411
 21
112.5773257545
  0
LINE
  5
22A
100
AcDbEntity
  8
0
100
AcDbLine
 62
7
  6
CONTINUOUS
 10
54.9686103445
 20
110.2605438356
 11
56.5468788539
 21
111.1717521451
  0
LINE
  5
22B
100
AcDbEntity
  8
0
100
AcDbLine
 62
7
  6
CONTINUOUS
 10
51.6451760893
 20
107.8109322982
 11
53.0382218722
 21
108.6152028551
  0
LINE
  5
22C
100
AcDbEntity
  8
0
100
AcDbLine
 62
7
  6
CONTINUOUS
 10
13.5143517543
 20
34.2827462654
 11
13.5143517543
 21
69.963901894
  0
LINE
  5
22D
100
AcDbEntity
  8
0
100
AcDbLine
 62
7
  6
CONTINUOUS
 10
13.7047342601
 20
34.0173875654
 11
13.7047342601
 21
69.6985431939
  0
LINE
  5
22E
100
AcDbEntity
  8
0
100
AcDbLine
 62
7
  6
CONTINUOUS
 10
58.7869716542
 20
106.8311973397
 11
54.8979005496
 21
104.5858544934
  0
LINE
  5
22F
100
AcDbEntity
  8
0
100
AcDbLine
 62
7
  6
CONTINUOUS
 10
17.2377631699
 20
81.8786582371
 11
27.8794751743
 21
88.022616853
  0
LINE
  5
230
100
AcDbEntity
  8
0
100
AcDbLine
 62
7
  6
CONTINUOUS
 10
17.5627617149
 20
81.8464674557
 11
28.0744765213
 21
87.9153726023
  0
LINE
  5
231
100
AcDbEntity
  8
0
100
AcDbLine
 62
7
  6
CONTINUOUS
 10
45.3343398454
 20
96.4720127282
 11
49.0819901827
 21
98.6357067437
  0
LINE
  5
232
100
AcDbEntity
  8
0
100
AcDbLine
 62
7
  6
CONTINUOUS
 10
45.6879008176
 20
96.2678888236
 11
49.0819901827
 21
98.2274555351
  0
LINE
  5
233
100
AcDbEntity
  8
0
100
AcDbLine
 62
7
  6
CONTINUOUS
 10
70.5664479394
 20
14.9650382606
 11
67.1723212587
 21
16.9245938823
  0
LINE
  5
234
100
AcDbEntity
  8
0
100
AcDbLine
 62
7
  6
CONTINUOUS
 10
70.5250254753
 20
15.0565954901
 11
67.1308987946
 21
17.0161511118
  0
LINE
  5
235
100
AcDbEntity
  8
0
100
AcDbLine
 62
7
  6
CONTINUOUS
 10
16.9127617149
 20
26.855029662
 11
16.9127617149
 21
31.945435827
  0
LINE
  5
236
100
AcDbEntity
  8
0
100
AcDbLine
 62
7
  6
CONTINUOUS
 10
16.9127617149
 20
72.3012418826
 11
16.9127617149
 21
81.3157408846
  0
LINE
  5
237
100
AcDbEntity
  8
0
100
AcDbLine
 62
7
  6
CONTINUOUS
 10
17.1031442207
 20
26.589670962
 11
17.1031442207
 21
31.8355209226
  0
LINE
  5
238
100
AcDbEntity
  8
0
100
AcDbLine
 62
7
  6
CONTINUOUS
 10
17.1031442207
 20
72.1913309587
 11
17.1031442207
 21
81.0503821846
  0
LINE
  5
239
100
AcDbEntity
  8
0
100
AcDbLine
 62
7
  6
CONTINUOUS
 10
51.8043626245
 20
97.0639798388
 11
48.0567122872
 21
94.9002858233
  0
LINE
  5
23A
100
AcDbEntity
  8
0
100
AcDbLine
 62
7
  6
CONTINUOUS
 10
48.9264572492
 20
94.3981496952
 11
52.6741075864
 21
96.5618437107
  0
LINE
  5
23B
100
AcDbEntity
  8
0
100
AcDbLine
 62
7
  6
CONTINUOUS
 10
49.2800182214
 20
94.1940257906
 11
52.6741075864
 21
96.1535925022
  0
LINE
  5
23C
100
AcDbEntity
  8
0
100
AcDbLine
 62
7
  6
CONTINUOUS
 10
76.747558673
 20
44.2830933888
 11
73.8308694615
 21
43.5015891296
  0
LINE
  5
23D
100
AcDbEntity
  8
0
100
AcDbLine
 62
7
  6
CONTINUOUS
 10
72.9823377913
 20
43.991478035
 11
75.8990270028
 21
44.7729822942
  0
LINE
  5
23E
100
AcDbEntity
  8
0
100
AcDbLine
 62
7
  6
CONTINUOUS
 10
55.3964800282
 20
94.9901168058
 11
51.648829691
 21
92.8264227903
  0
LINE
  5
23F
100
AcDbEntity
  8
0
100
AcDbLine
 62
7
  6
CONTINUOUS
 10
13.8393532093
 20
70.5268192465
 11
16.912761715
 21
72.3012418827
  0
LINE
  5
240
100
AcDbEntity
  8
0
100
AcDbLine
 62
7
  6
CONTINUOUS
 10
14.1643517543
 20
70.4946284651
 11
17.1031442207
 21
72.1913309587
  0
LINE
  5
241
100
AcDbEntity
  8
0
100
AcDbLine
 62
7
  6
CONTINUOUS
 10
52.5185746529
 20
92.3242866622
 11
56.2662249902
 21
94.4879806778
  0
LINE
  5
242
100
AcDbEntity
  8
0
100
AcDbLine
 62
7
  6
CONTINUOUS
 10
52.8721356251
 20
92.1201627577
 11
56.2662249902
 21
94.0797294692
  0
LINE
  5
243
100
AcDbEntity
  8
0
100
AcDbLine
 62
7
  6
CONTINUOUS
 10
28.14022962
 20
96.7985561369
 11
27.8793778316
 21
88.0224538911
  0
LINE
  5
244
100
AcDbEntity
  8
0
100
AcDbLine
 62
7
  6
CONTINUOUS
 10
28.0744765213
 20
87.9153726023
 11
28.3306051796
 21
96.5325697771
  0
LINE
  5
245
100
AcDbEntity
  8
0
100
AcDbLine
 62
7
  6
CONTINUOUS
 10
58.988597432
 20
92.9162537729
 11
55.2409470947
 21
90.7525597573
  0
LINE
  5
246
100
AcDbEntity
  8
0
100
AcDbLine
 62
7
  6
CONTINUOUS
 10
56.1106920567
 20
90.2504236293
 11
59.8583423939
 21
92.4141176448
  0
LINE
  5
247
100
AcDbEntity
  8
0
100
AcDbLine
 62
7
  6
CONTINUOUS
 10
56.4642530289
 20
90.0462997247
 11
59.8583423939
 21
92.0058664362
  0
LINE
  5
248
100
AcDbEntity
  8
0
100
AcDbLine
 62
7
  6
CONTINUOUS
 10
52.5844687521
 20
10.0691033171
 11
52.7188117741
 21
9.7899027619
  0
LINE
  5
249
100
AcDbEntity
  8
0
100
AcDbLine
 62
7
  6
CONTINUOUS
 10
30.6441229408
 20
104.381625943
 11
30.6441229408
 21
98.6003040458
  0
LINE
  5
24A
100
AcDbEntity
  8
0
100
AcDbLine
 62
7
  6
CONTINUOUS
 10
62.5807148357
 20
90.8423907399
 11
58.8330644985
 21
88.6786967244
  0
LINE
  5
24B
100
AcDbEntity
  8
0
100
AcDbLine
 62
7
  6
CONTINUOUS
 10
66.9895210091
 20
91.4813007782
 11
71.7271167179
 21
94.2165366088
  0
LINE
  5
24C
100
AcDbEntity
  8
0
100
AcDbLine
 62
7
  6
CONTINUOUS
 10
76.2879373516
 20
96.7272386653
 11
71.8331831766
 21
94.1553004956
  0
LINE
  5
24D
100
AcDbEntity
  8
0
100
AcDbLine
 62
7
  6
CONTINUOUS
 10
71.3382104911
 20
93.8695295882
 11
53.0438062598
 21
83.3073134285
  0
LINE
  5
24E
100
AcDbEntity
  8
0
100
AcDbLine
 62
7
  6
CONTINUOUS
 10
53.5034275811
 20
82.511230367
 11
71.7978318125
 21
93.0734465267
  0
LINE
  5
24F
100
AcDbEntity
  8
0
100
AcDbLine
 62
7
  6
CONTINUOUS
 10
72.292804498
 20
93.3592174341
 11
76.747558673
 21
95.9311556038
  0
LINE
  5
250
100
AcDbEntity
  8
0
100
AcDbLine
 62
7
  6
CONTINUOUS
 10
67.6993637263
 20
36.1655249708
 11
67.9087607078
 21
36.0446323021
  0
LINE
  5
251
100
AcDbEntity
  8
0
100
AcDbLine
 62
7
  6
CONTINUOUS
 10
13.7047342601
 20
69.6985431939
 11
37.9585978327
 21
55.6958853139
  0
LINE
  5
252
100
AcDbEntity
  8
0
100
AcDbLine
 62
7
  6
CONTINUOUS
 10
38.4182153269
 20
56.4919705851
 11
14.1643517543
 21
70.4946284651
  0
LINE
  5
253
100
AcDbEntity
  8
0
100
AcDbLine
 62
7
  6
CONTINUOUS
 10
37.9585978327
 20
55.6958853139
 11
37.9585978327
 21
20.0147296853
  0
LINE
  5
254
100
AcDbEntity
  8
0
100
AcDbLine
 62
7
  6
CONTINUOUS
 10
38.8778366482
 20
20.0147318949
 11
38.8778366482
 21
55.6958875235
  0
LINE
  5
255
100
AcDbEntity
  8
0
100
AcDbLine
 62
7
  6
CONTINUOUS
 10
41.3570077933
 20
67.0477243045
 11
41.3570077933
 21
58.1886730787
  0
LINE
  5
256
100
AcDbEntity
  8
0
100
AcDbLine
 62
7
  6
CONTINUOUS
 10
41.3570077933
 20
21.2262366491
 11
41.3570077933
 21
12.587013082
  0
LINE
  5
257
100
AcDbEntity
  8
0
100
AcDbLine
 62
7
  6
CONTINUOUS
 10
52.3283400938
 20
73.9127147223
 11
41.8166252874
 21
67.8438095757
  0
LINE
  5
258
100
AcDbEntity
  8
0
100
AcDbLine
 62
7
  6
CONTINUOUS
 10
42.2762466088
 20
67.0477265141
 11
53.23180887
 21
73.3728855786
  0
LINE
  5
259
100
AcDbEntity
  8
0
100
AcDbLine
 62
7
  6
CONTINUOUS
 10
71.7978318125
 20
74.501734967
 11
71.9392478696
 21
74.5426670509
  0
LINE
  5
25A
100
AcDbEntity
  8
0
100
AcDbLine
 62
7
  6
CONTINUOUS
 10
41.3570077933
 20
58.1886730787
 11
17.1031442207
 21
72.1913309587
  0
LINE
  5
25B
100
AcDbEntity
  8
0
100
AcDbLine
 62
7
  6
CONTINUOUS
 10
72.5049356497
 20
40.5314984757
 11
72.8584875683
 21
40.3273797981
  0
LINE
  5
25C
100
AcDbEntity
  8
0
100
AcDbLine
 62
7
  6
CONTINUOUS
 10
42.2762466088
 20
12.5870152916
 11
42.2762466088
 21
21.9767930886
  0
LINE
  5
25D
100
AcDbEntity
  8
0
100
AcDbLine
 62
7
  6
CONTINUOUS
 10
42.2762466088
 20
57.6579487171
 11
42.2762466088
 21
67.0477265141
  0
LINE
  5
25E
100
AcDbEntity
  8
0
100
AcDbLine
 62
7
  6
CONTINUOUS
 10
72.292804498
 20
74.4071238319
 11
72.8584875683
 21
74.5708576215
  0
LINE
  5
25F
100
AcDbEntity
  8
0
100
AcDbLine
 62
7
  6
CONTINUOUS
 10
72.5049356497
 20
74.2160744473
 11
71.7978318125
 21
74.0114072106
  0
LINE
  5
260
100
AcDbEntity
  8
0
100
AcDbLine
 62
7
  6
CONTINUOUS
 10
72.5049356497
 20
43.1443062105
 11
72.8584875683
 21
42.9401875329
  0
LINE
  5
261
100
AcDbEntity
  8
0
100
AcDbLine
 62
7
  6
CONTINUOUS
 10
72.9823377914
 20
43.991478035
 11
73.8308694616
 21
43.5015891296
  0
LINE
  5
262
100
AcDbEntity
  8
0
100
AcDbLine
 62
7
  6
CONTINUOUS
 10
75.8990270028
 20
44.7729822943
 11
76.747558673
 21
44.2830933888
  0
LINE
  5
263
100
AcDbEntity
  8
0
100
AcDbLine
 62
7
  6
CONTINUOUS
 10
48.6874667082
 20
113.7714134923
 11
48.6874667082
 21
108.1713690283
  0
LINE
  5
264
100
AcDbEntity
  8
0
100
AcDbLine
 62
7
  6
CONTINUOUS
 10
48.7460459408
 20
108.1375490577
 11
48.7460459408
 21
113.6897654937
  0
LINE
  5
265
100
AcDbEntity
  8
0
100
AcDbLine
 62
7
  6
CONTINUOUS
 10
49.0819901827
 20
98.2274555351
 11
49.0819901827
 21
98.6357067437
  0
LINE
  5
266
100
AcDbEntity
  8
0
100
AcDbLine
 62
7
  6
CONTINUOUS
 10
41.3570077933
 20
58.1886730787
 11
38.4182153269
 21
56.4919705851
  0
LINE
  5
267
100
AcDbEntity
  8
0
100
AcDbLine
 62
7
  6
CONTINUOUS
 10
38.8778366482
 20
55.6958875235
 11
42.2762466088
 21
57.6579487171
  0
LINE
  5
268
100
AcDbEntity
  8
0
100
AcDbLine
 62
7
  6
CONTINUOUS
 10
17.1031442207
 20
81.0503821846
 11
41.3570077933
 21
67.0477243045
  0
LINE
  5
269
100
AcDbEntity
  8
0
100
AcDbLine
 62
7
  6
CONTINUOUS
 10
41.8166252874
 20
67.8438095757
 11
17.5627617149
 21
81.8464674557
  0
LINE
  5
26A
100
AcDbEntity
  8
0
100
AcDbLine
 62
7
  6
CONTINUOUS
 10
52.3349881068
 20
18.1745609079
 11
52.5844687522
 21
10.0691033171
  0
LINE
  5
26B
100
AcDbEntity
  8
0
100
AcDbLine
 62
7
  6
CONTINUOUS
 10
53.23180887
 20
18.9121743561
 11
53.5034275812
 21
10.0874659676
  0
LINE
  5
26C
100
AcDbEntity
  8
0
100
AcDbLine
 62
7
  6
CONTINUOUS
 10
51.6451760893
 20
106.4637733519
 11
51.6451760893
 21
107.8109322982
  0
LINE
  5
26D
100
AcDbEntity
  8
0
100
AcDbLine
 62
7
  6
CONTINUOUS
 10
52.6741075864
 20
96.1535925022
 11
52.6741075864
 21
96.5618437107
  0
LINE
  5
26E
100
AcDbEntity
  8
0
100
AcDbLine
 62
7
  6
CONTINUOUS
 10
52.5844687522
 20
82.529911897
 11
52.3283400938
 21
73.9127147223
  0
LINE
  5
26F
100
AcDbEntity
  8
0
100
AcDbLine
 62
7
  6
CONTINUOUS
 10
53.5034275811
 20
82.511230367
 11
53.23180887
 21
73.3728855786
  0
LINE
  5
270
100
AcDbEntity
  8
0
100
AcDbLine
 62
7
  6
CONTINUOUS
 10
75.7753343779
 20
73.6100555788
 11
72.8584875683
 21
71.9260233404
  0
LINE
  5
271
100
AcDbEntity
  8
0
100
AcDbLine
 62
7
  6
CONTINUOUS
 10
54.685767632
 20
110.2605431557
 11
54.685767632
 21
104.7083267198
  0
LINE
  5
272
100
AcDbEntity
  8
0
100
AcDbLine
 62
7
  6
CONTINUOUS
 10
54.9686103445
 20
104.6266785689
 11
54.9686103445
 21
110.2605438356
  0
LINE
  5
273
100
AcDbEntity
  8
0
100
AcDbLine
 62
7
  6
CONTINUOUS
 10
56.2662249902
 20
94.0797294692
 11
56.2662249902
 21
94.4879806778
  0
LINE
  5
274
100
AcDbEntity
  8
0
100
AcDbLine
 62
7
  6
CONTINUOUS
 10
57.0192114724
 20
109.830776125
 11
57.0192114724
 21
105.8105866151
  0
LINE
  5
275
100
AcDbEntity
  8
0
100
AcDbLine
 62
7
  6
CONTINUOUS
 10
57.0777895274
 20
109.9124242759
 11
57.0777895274
 21
105.844406469
  0
LINE
  5
276
100
AcDbEntity
  8
0
100
AcDbLine
 62
7
  6
CONTINUOUS
 10
57.4611450411
 20
112.5773257545
 11
57.4611450411
 21
106.0657355569
  0
LINE
  5
277
100
AcDbEntity
  8
0
100
AcDbLine
 62
7
  6
CONTINUOUS
 10
57.5197230961
 20
106.0995554109
 11
57.5197230961
 21
112.6589739054
  0
LINE
  5
278
100
AcDbEntity
  8
0
100
AcDbLine
 62
7
  6
CONTINUOUS
 10
59.8583423939
 20
92.0058664362
 11
59.8583423939
 21
92.4141176448
  0
LINE
  5
279
100
AcDbEntity
  8
0
100
AcDbLine
 62
7
  6
CONTINUOUS
 10
75.775334378
 20
73.6100555789
 11
76.747558673
 21
74.5799739547
  0
LINE
  5
27A
100
AcDbEntity
  8
0
100
AcDbLine
 62
7
  6
CONTINUOUS
 10
52.3283400938
 20
73.9127147223
 11
28.0744765213
 21
87.9153726023
  0
LINE
  5
27B
100
AcDbEntity
  8
0
100
AcDbLine
 62
7
  6
CONTINUOUS
 10
28.3306051796
 20
96.5325697771
 11
52.5844687522
 21
82.529911897
  0
LINE
  5
27C
100
AcDbEntity
  8
0
100
AcDbLine
 62
7
  6
CONTINUOUS
 10
67.5552087892
 20
36.0407950183
 11
67.5552087892
 21
18.200217204
  0
LINE
  5
27D
100
AcDbEntity
  8
0
100
AcDbLine
 62
7
  6
CONTINUOUS
 10
67.9087607078
 20
36.0446323021
 11
67.9087607078
 21
18.404339281
  0
LINE
  5
27E
100
AcDbEntity
  8
0
100
AcDbLine
 62
7
  6
CONTINUOUS
 10
53.0438062598
 20
83.3073134285
 11
28.7899426872
 21
97.3099713086
  0
LINE
  5
27F
100
AcDbEntity
  8
0
100
AcDbLine
 62
7
  6
CONTINUOUS
 10
72.5049356497
 20
72.130142018
 11
72.8584875683
 21
71.9260233404
  0
LINE
  5
280
100
AcDbEntity
  8
0
100
AcDbLine
 62
7
  6
CONTINUOUS
 10
72.5049356497
 20
74.2160744472
 11
71.9392478696
 21
74.5426670509
  0
LINE
  5
281
100
AcDbEntity
  8
0
100
AcDbLine
 62
7
  6
CONTINUOUS
 10
71.7978318125
 20
74.6928899803
 11
72.292804498
 21
74.407123832
  0
LINE
  5
282
100
AcDbEntity
  8
0
100
AcDbLine
 62
7
  6
CONTINUOUS
 10
71.7271167179
 20
94.2165366088
 11
71.7271167179
 21
93.3653685649
  0
LINE
  5
283
100
AcDbEntity
  8
0
100
AcDbLine
 62
7
  6
CONTINUOUS
 10
71.7978229806
 20
20.4298401984
 11
71.7978229806
 21
15.7914664828
  0
LINE
  5
284
100
AcDbEntity
  8
0
100
AcDbLine
 62
7
  6
CONTINUOUS
 10
71.7978318125
 20
93.0734465267
 11
71.7978318125
 21
74.0114072106
  0
LINE
  5
285
100
AcDbEntity
  8
0
100
AcDbLine
 62
7
  6
CONTINUOUS
 10
72.080665693
 20
15.7914671627
 11
72.080665693
 21
20.5931385398
  0
LINE
  5
286
100
AcDbEntity
  8
0
100
AcDbLine
 62
7
  6
CONTINUOUS
 10
72.292804498
 20
93.3592174341
 11
72.2927997882
 21
74.3385483733
  0
LINE
  5
287
100
AcDbEntity
  8
0
100
AcDbLine
 62
7
  6
CONTINUOUS
 10
72.5049356497
 20
74.2160744472
 11
72.5049356497
 21
40.3235425144
  0
LINE
  5
288
100
AcDbEntity
  8
0
100
AcDbLine
 62
7
  6
CONTINUOUS
 10
72.8584875683
 20
74.5708576215
 11
72.8584875683
 21
71.9260233404
  0
LINE
  5
289
100
AcDbEntity
  8
0
100
AcDbLine
 62
7
  6
CONTINUOUS
 10
72.8584875683
 20
42.9401875329
 11
72.8584875683
 21
40.327379798
  0
LINE
  5
28A
100
AcDbEntity
  8
0
100
AcDbLine
 62
7
  6
CONTINUOUS
 10
74.131266821
 20
21.777046586
 11
74.131266821
 21
18.5890509221
  0
LINE
  5
28B
100
AcDbEntity
  8
0
100
AcDbLine
 62
7
  6
CONTINUOUS
 10
74.1898448759
 20
21.8108664399
 11
74.1898448759
 21
18.6706990659
  0
LINE
  5
28C
100
AcDbEntity
  8
0
100
AcDbLine
 62
7
  6
CONTINUOUS
 10
74.5732003897
 20
22.0321955278
 11
74.5732003897
 21
18.1082490816
  0
LINE
  5
28D
100
AcDbEntity
  8
0
100
AcDbLine
 62
7
  6
CONTINUOUS
 10
30.6441229408
 20
104.381625943
 11
35.6509661482
 21
101.4909890644
  0
LINE
  5
28E
100
AcDbEntity
  8
0
100
AcDbLine
 62
7
  6
CONTINUOUS
 10
58.8330644985
 20
88.6786967244
 11
56.1106920567
 21
90.2504236293
  0
LINE
  5
28F
100
AcDbEntity
  8
0
100
AcDbLine
 62
7
  6
CONTINUOUS
 10
55.2409470947
 20
90.7525597573
 11
52.5185746529
 21
92.3242866622
  0
LINE
  5
290
100
AcDbEntity
  8
0
100
AcDbLine
 62
7
  6
CONTINUOUS
 10
51.648829691
 20
92.8264227903
 11
48.9264572492
 21
94.3981496952
  0
LINE
  5
291
100
AcDbEntity
  8
0
100
AcDbLine
 62
7
  6
CONTINUOUS
 10
48.0567122872
 20
94.9002858233
 11
45.3343398454
 21
96.4720127282
  0
LINE
  5
292
100
AcDbEntity
  8
0
100
AcDbLine
 62
7
  6
CONTINUOUS
 10
56.9850965907
 20
110.0344882834
 11
56.5468788539
 21
111.1717521451
  0
LINE
  5
293
100
AcDbEntity
  8
0
100
AcDbLine
 62
7
  6
CONTINUOUS
 10
57.0302992933
 20
110.1880477748
 11
56.5920816061
 21
111.3253115078
  0
LINE
  5
294
100
AcDbEntity
  8
0
100
AcDbLine
 62
7
  6
CONTINUOUS
 10
74.6317784447
 20
22.0660153818
 11
74.6317784447
 21
18.1898980647
  0
LINE
  5
295
100
AcDbEntity
  8
0
100
AcDbLine
 62
7
  6
CONTINUOUS
 10
76.747558673
 20
95.9311556038
 11
76.747558673
 21
74.5799739548
  0
LINE
  5
296
100
AcDbEntity
  8
0
100
AcDbLine
 62
7
  6
CONTINUOUS
 10
76.747558673
 20
44.2830933888
 11
76.747558673
 21
23.5073912044
  0
LINE
  5
297
100
AcDbEntity
  8
0
100
AcDbLine
 62
7
  6
CONTINUOUS
 10
72.5049356497
 20
43.7158514253
 11
72.9823377913
 21
43.991478035
  0
LINE
  5
298
100
AcDbEntity
  8
0
100
AcDbLine
 62
7
  6
CONTINUOUS
 10
72.8584875683
 20
42.9401875329
 11
73.8308694616
 21
43.5015891296
  0
LINE
  5
299
100
AcDbEntity
  8
0
100
AcDbLine
 62
7
  6
CONTINUOUS
 10
49.0819901827
 20
98.2274555351
 11
51.4508016523
 21
96.8598525348
  0
LINE
  5
29A
100
AcDbEntity
  8
0
100
AcDbLine
 62
7
  6
CONTINUOUS
 10
52.6741075864
 20
96.1535925022
 11
55.042919056
 21
94.7859895018
  0
LINE
  5
29B
100
AcDbEntity
  8
0
100
AcDbLine
 62
7
  6
CONTINUOUS
 10
56.2662249902
 20
94.0797294692
 11
58.6350364598
 21
92.7121264689
  0
LINE
  5
29C
100
AcDbEntity
  8
0
100
AcDbLine
 62
7
  6
CONTINUOUS
 10
59.8583423939
 20
92.0058664362
 11
62.2271538635
 21
90.6382634359
  0
LINE
  5
29D
100
AcDbEntity
  8
0
100
AcDbLine
 62
7
  6
CONTINUOUS
 10
49.0819901827
 20
98.6357067437
 11
51.8043626245
 21
97.0639798388
  0
LINE
  5
29E
100
AcDbEntity
  8
0
100
AcDbLine
 62
7
  6
CONTINUOUS
 10
52.6741075864
 20
96.5618437107
 11
55.3964800282
 21
94.9901168058
  0
LINE
  5
29F
100
AcDbEntity
  8
0
100
AcDbLine
 62
7
  6
CONTINUOUS
 10
56.2662249902
 20
94.4879806778
 11
58.988597432
 21
92.9162537729
  0
LINE
  5
2A0
100
AcDbEntity
  8
0
100
AcDbLine
 62
7
  6
CONTINUOUS
 10
59.8583423939
 20
92.4141176448
 11
62.5807148357
 21
90.8423907399
  0
LINE
  5
2A1
100
AcDbEntity
  8
0
100
AcDbLine
 62
7
  6
CONTINUOUS
 10
35.2402978827
 20
107.0352129432
 11
40.2471410874
 21
104.1445760629
  0
LWPOLYLINE
  5
2A2
100
AcDbEntity
  8
0
100
AcDbPolyline
 62
7
  6
CONTINUOUS
 90
5
 70
0
 10
56.5920130404
 20
111.3253358933
 10
56.2899420114
 20
111.8920640442
 10
55.8297471256
 20
112.4791178491
 10
55.2913371756
 20
112.9951184665
 10
54.769393105
 20
113.3636716622
  0
LINE
  5
2A3
100
AcDbEntity
  8
0
100
AcDbLine
 62
7
  6
CONTINUOUS
 10
67.5552087892
 20
36.0407950183
 11
72.5049356497
 21
40.3235425144
  0
LINE
  5
2A4
100
AcDbEntity
  8
0
100
AcDbLine
 62
7
  6
CONTINUOUS
 10
72.8584875683
 20
40.327379798
 11
67.9087607078
 21
36.0446323021
  0
LINE
  5
2A5
100
AcDbEntity
  8
0
100
AcDbLine
 62
7
  6
CONTINUOUS
 10
42.2762466088
 20
21.9767930886
 11
38.8778366482
 21
20.0147318949
  0
LINE
  5
2A6
100
AcDbEntity
  8
0
100
AcDbLine
 62
7
  6
CONTINUOUS
 10
41.8166223775
 20
21.4915936691
 11
38.7432138719
 21
19.7171710329
  0
LINE
  5
2A7
100
AcDbEntity
  8
0
100
AcDbLine
 62
7
  6
CONTINUOUS
 10
66.9895210091
 20
91.4813007782
 11
42.8417238953
 21
105.4227225451
  0
LINE
  5
2A8
100
AcDbEntity
  8
0
100
AcDbLine
 62
7
  6
CONTINUOUS
 10
43.1952758139
 20
105.626844622
 11
67.3430729277
 21
91.6854228551
  0
LINE
  5
2A9
100
AcDbEntity
  8
0
100
AcDbLine
 62
7
  6
CONTINUOUS
 10
42.7305838483
 20
106.3732407838
 11
43.4189599856
 21
105.9758156266
  0
LINE
  5
2AA
100
AcDbEntity
  8
0
100
AcDbLine
 62
7
  6
CONTINUOUS
 10
73.6589342024
 20
16.7026754722
 11
74.0971519576
 21
18.3459466389
  0
LINE
  5
2AB
100
AcDbEntity
  8
0
100
AcDbLine
 62
7
  6
CONTINUOUS
 10
74.1489766458
 20
18.3760609298
 11
73.7107588907
 21
16.7327897634
  0
LINE
  5
2AC
100
AcDbEntity
  8
0
100
AcDbLine
 62
7
  6
CONTINUOUS
 10
43.7305668813
 20
108.1053013872
 11
45.4189772664
 21
107.1305192494
  0
LINE
  5
2AD
100
AcDbEntity
  8
0
100
AcDbLine
 62
7
  6
CONTINUOUS
 10
71.2321440323
 20
93.9307657014
 11
71.3382104911
 21
93.8695295882
  0
LINE
  5
2AE
100
AcDbEntity
  8
0
100
AcDbLine
 62
7
  6
CONTINUOUS
 10
71.7271167179
 20
94.2165366088
 11
71.8331831766
 21
94.1553004956
  0
LINE
  5
2AF
100
AcDbEntity
  8
0
100
AcDbLine
 62
7
  6
CONTINUOUS
 10
48.5339130232
 20
108.2600212841
 11
54.8979005496
 21
104.5858544934
  0
LINE
  5
2B0
100
AcDbEntity
  8
0
100
AcDbLine
 62
7
  6
CONTINUOUS
 10
53.23180887
 20
18.9121743561
 11
42.2762466088
 21
12.5870152916
  0
LINE
  5
2B1
100
AcDbEntity
  8
0
100
AcDbLine
 62
7
  6
CONTINUOUS
 10
52.7833358368
 20
18.4334130454
 11
42.1416238325
 21
12.2894544295
  0
LINE
  5
2B2
100
AcDbEntity
  8
0
100
AcDbLine
 62
7
  6
CONTINUOUS
 10
43.5695790028
 20
108.1515420419
 11
43.7305668813
 21
108.1053013872
  0
LINE
  5
2B3
100
AcDbEntity
  8
0
100
AcDbLine
 62
7
  6
CONTINUOUS
 10
51.6451760893
 20
107.8109322982
 11
50.9027108779
 21
108.2395850905
  0
LINE
  5
2B4
100
AcDbEntity
  8
0
100
AcDbLine
 62
7
  6
CONTINUOUS
 10
76.2879373516
 20
96.7272386653
 11
58.7869716542
 21
106.8311973397
  0
LINE
  5
2B5
100
AcDbEntity
  8
0
100
AcDbLine
 62
7
  6
CONTINUOUS
 10
76.747558673
 20
23.5073912044
 11
67.9087607078
 21
18.404339281
  0
LINE
  5
2B6
100
AcDbEntity
  8
0
100
AcDbLine
 62
7
  6
CONTINUOUS
 10
67.5552087892
 20
18.200217204
 11
53.5034275812
 21
10.0874659676
  0
LINE
  5
2B7
100
AcDbEntity
  8
0
100
AcDbLine
 62
7
  6
CONTINUOUS
 10
50.018843446
 20
114.4246364864
 11
53.4129701267
 21
112.4650808647
  0
LINE
  5
2B8
100
AcDbEntity
  8
0
100
AcDbLine
 62
7
  6
CONTINUOUS
 10
53.5543908942
 20
112.7100301789
 11
50.1602642135
 21
114.6695858006
  0
LINE
  5
2B9
100
AcDbEntity
  8
0
100
AcDbLine
 62
7
  6
CONTINUOUS
 10
51.2752761742
 20
115.3133344135
 11
52.0354191287
 21
114.8744756024
  0
LINE
  5
2BA
100
AcDbEntity
  8
0
100
AcDbLine
 62
7
  6
CONTINUOUS
 10
53.9092599003
 20
113.792637603
 11
54.6694028549
 21
113.3537787918
  0
LINE
  5
2BB
100
AcDbEntity
  8
0
100
AcDbLine
 62
7
  6
CONTINUOUS
 10
54.7694011592
 20
113.3636843682
 11
54.3490213633
 21
113.6063852658
  0
LINE
  5
2BC
100
AcDbEntity
  8
0
100
AcDbLine
 62
7
  6
CONTINUOUS
 10
51.7956542723
 20
115.0805390934
 11
51.3752745028
 21
115.3232399758
  0
LINE
  5
2BD
100
AcDbEntity
  8
0
100
AcDbLine
 62
7
  6
CONTINUOUS
 10
67.4205860129
 20
17.902656342
 11
53.3688048048
 21
9.7899051055
  0
LINE
  5
2BE
100
AcDbEntity
  8
0
100
AcDbLine
 62
7
  6
CONTINUOUS
 10
67.7741379315
 20
18.1067784189
 11
76.6129358966
 21
23.2098303423
  0
LINE
  5
2BF
100
AcDbEntity
  8
0
100
AcDbLine
 62
7
  6
CONTINUOUS
 10
74.5732003897
 20
18.1082490816
 11
73.9873602322
 21
17.770016128
  0
LINE
  5
2C0
100
AcDbEntity
  8
0
100
AcDbLine
 62
7
  6
CONTINUOUS
 10
74.1589764625
 20
17.1926771984
 11
73.7741496877
 21
16.9704986826
  0
LWPOLYLINE
  5
2C1
100
AcDbEntity
  8
0
100
AcDbPolyline
 62
7
  6
CONTINUOUS
 90
4
 70
0
 10
51.3753492831
 20
115.3231794281
 10
50.9373434459
 20
115.517117044
 10
50.728987106
 20
115.5551081941
 10
50.4105236342
 20
115.4904721577
  0
LINE
  5
2C2
100
AcDbEntity
  8
0
100
AcDbLine
 62
7
  6
CONTINUOUS
 10
54.1730848192
 20
116.1086500973
 11
56.0469255908
 21
115.0268120978
  0
LINE
  5
2C3
100
AcDbEntity
  8
0
100
AcDbLine
 62
7
  6
CONTINUOUS
 10
54.2730831225
 20
116.1185556742
 11
56.1469231735
 21
115.0367180908
  0
LWPOLYLINE
  5
2C4
100
AcDbEntity
  8
0
100
AcDbPolyline
 62
7
  6
CONTINUOUS
 90
4
 70
0
 10
72.9165755422
 20
15.5976486348
 10
73.1955780557
 20
15.809897902
 10
73.4151432464
 20
16.0723718245
 10
73.7106963348
 20
16.7328152435
  0
LINE
  5
2C5
100
AcDbEntity
  8
0
100
AcDbLine
 62
7
  6
CONTINUOUS
 10
73.6589342024
 20
16.7026754722
 11
72.080665693
 21
15.7914671627
  0
LINE
  5
2C6
100
AcDbEntity
  8
0
100
AcDbLine
 62
7
  6
CONTINUOUS
 10
72.9171328323
 20
15.5979777931
 11
71.6664417659
 21
14.8758952794
  0
ARC
  5
2C7
100
AcDbEntity
  8
0
100
AcDbCircle
 62
7
  6
CONTINUOUS
 10
66.9555135796
 20
17.6983630561
 40
3.6572886913
100
AcDbArc
 50
15.7421404272
 51
16.3942444752
  0
ARC
  5
2C8
100
AcDbEntity
  8
0
100
AcDbCircle
 62
7
  6
CONTINUOUS
 10
53.2020002331
 20
110.8136142724
 40
2.933567358
100
AcDbArc
 50
58.6284726585
 51
59.9856127909
  0
ARC
  5
2C9
100
AcDbEntity
  8
0
100
AcDbCircle
 62
7
  6
CONTINUOUS
 10
51.0493213345
 20
109.5576639929
 40
2.4343598568
100
AcDbArc
 50
0.0157531206
 51
1.9501322601
  0
ARC
  5
2CA
100
AcDbEntity
  8
0
100
AcDbCircle
 62
7
  6
CONTINUOUS
 10
55.0823729483
 20
113.3564922854
 40
1.9288157184
100
AcDbArc
 50
57.9961114636
 51
59.9950337278
  0
ARC
  5
2CB
100
AcDbEntity
  8
0
100
AcDbCircle
 62
7
  6
CONTINUOUS
 10
73.5132833873
 20
90.5423305254
 40
1.1836670957
100
AcDbArc
 50
359.9955744679
 51
1.4610859428
  0
ARC
  5
2CC
100
AcDbEntity
  8
0
100
AcDbCircle
 62
7
  6
CONTINUOUS
 10
73.0385053454
 20
18.6286415646
 40
1.0957413338
100
AcDbArc
 50
345.0489207943
 51
349.5345184672
  0
ARC
  5
2CD
100
AcDbEntity
  8
0
100
AcDbCircle
 62
7
  6
CONTINUOUS
 10
39.3884930153
 20
83.7015748761
 40
0.7494422126
100
AcDbArc
 50
282.9379254352
 51
287.4327175229
  0
ARC
  5
2CE
100
AcDbEntity
  8
0
100
AcDbCircle
 62
7
  6
CONTINUOUS
 10
42.980610419
 20
81.6277118431
 40
0.7494422126
100
AcDbArc
 50
282.9379254354
 51
287.4327175233
  0
ARC
  5
2CF
100
AcDbEntity
  8
0
100
AcDbCircle
 62
7
  6
CONTINUOUS
 10
46.5727278228
 20
79.5538488101
 40
0.7494422126
100
AcDbArc
 50
282.937925435
 51
287.4327175227
  0
ARC
  5
2D0
100
AcDbEntity
  8
0
100
AcDbCircle
 62
7
  6
CONTINUOUS
 10
50.1648452265
 20
77.4799857772
 40
0.7494422126
100
AcDbArc
 50
282.9379254354
 51
287.4327175233
  0
ARC
  5
2D1
100
AcDbEntity
  8
0
100
AcDbCircle
 62
7
  6
CONTINUOUS
 10
17.5627617149
 20
81.3157408846
 40
0.65
100
AcDbArc
 50
119.9998519061
 51
180.0
  0
ARC
  5
2D2
100
AcDbEntity
  8
0
100
AcDbCircle
 62
7
  6
CONTINUOUS
 10
14.1643517543
 20
69.963901894
 40
0.65
100
AcDbArc
 50
119.9998519061
 51
180.0
  0
ARC
  5
2D3
100
AcDbEntity
  8
0
100
AcDbCircle
 62
7
  6
CONTINUOUS
 10
14.1643517543
 20
34.2827462654
 40
0.65
100
AcDbArc
 50
180.0
 51
240.0005612632
  0
ARC
  5
2D4
100
AcDbEntity
  8
0
100
AcDbCircle
 62
7
  6
CONTINUOUS
 10
17.5627617149
 20
26.855029662
 40
0.65
100
AcDbArc
 50
180.0
 51
240.0005612632
  0
ARC
  5
2D5
100
AcDbEntity
  8
0
100
AcDbCircle
 62
7
  6
CONTINUOUS
 10
53.0438062598
 20
10.352822458
 40
0.65
100
AcDbArc
 50
240.0005612632
 51
300.0420050373
  0
ARC
  5
2D6
100
AcDbEntity
  8
0
100
AcDbCircle
 62
7
  6
CONTINUOUS
 10
41.8166252874
 20
12.852371782
 40
0.65
100
AcDbArc
 50
240.0005612632
 51
299.9998519061
  0
ARC
  5
2D7
100
AcDbEntity
  8
0
100
AcDbCircle
 62
7
  6
CONTINUOUS
 10
38.4182153269
 20
20.2800883854
 40
0.65
100
AcDbArc
 50
240.0005612632
 51
299.9998519061
  0
ARC
  5
2D8
100
AcDbEntity
  8
0
100
AcDbCircle
 62
7
  6
CONTINUOUS
 10
28.7899426872
 20
96.7792447374
 40
0.65
100
AcDbArc
 50
119.9998519061
 51
178.2975007376
  0
ARC
  5
2D9
100
AcDbEntity
  8
0
100
AcDbCircle
 62
7
  6
CONTINUOUS
 10
43.5468884631
 20
107.7202679259
 40
0.43187061
100
AcDbArc
 50
86.988285362
 51
92.2506419691
  0
ARC
  5
2DA
100
AcDbEntity
  8
0
100
AcDbCircle
 62
7
  6
CONTINUOUS
 10
73.6873616637
 20
16.7390355422
 40
0.0241495153
100
AcDbArc
 50
338.3633908484
 51
345.0536448433
  0
SPLINE
  5
2DB
100
AcDbEntity
  8
0
100
AcDbSpline
 62
7
  6
CONTINUOUS
 70
0
 71
3
 72
14
 73
10
 74
0
 42
0.0000001
 43
0.0000001
 44
0.0000000001
 40
0.0
 40
0.0
 40
0.0
 40
0.0
 40
0.3075411579
 40
0.4455952268
 40
0.573017764
 40
0.6903705453
 40
0.7990752154
 40
0.9014871754
 40
1.0
 40
1.0
 40
1.0
 40
1.0
 10
70.5371572153
 20
17.9633437296
 30
0.0
 10
70.5371572153
 20
17.8500741285
 30
0.0
 10
70.5244021995
 20
17.6851433251
 30
0.0
 10
70.4747529951
 20
17.4796489215
 30
0.0
 10
70.4257096652
 20
17.3470601773
 30
0.0
 10
70.3648815915
 20
17.2314924182
 30
0.0
 10
70.2932236967
 20
17.1334214301
 30
0.0
 10
70.2117875257
 20
17.0528876182
 30
0.0
 10
70.1507997795
 20
17.0102256213
 30
0.0
 10
70.119377754
 20
16.9920842147
 30
0.0
  0
SPLINE
  5
2DC
100
AcDbEntity
  8
0
100
AcDbSpline
 62
7
  6
CONTINUOUS
 70
0
 71
3
 72
9
 73
5
 74
0
 42
0.0000001
 43
0.0000001
 44
0.0000000001
 40
0.0
 40
0.0
 40
0.0
 40
0.0
 40
0.483170445
 40
1.0
 40
1.0
 40
1.0
 40
1.0
 10
67.1723212587
 20
16.9245938823
 30
0.0
 10
67.065216615
 20
16.9864293782
 30
0.0
 10
66.8557339253
 20
17.1360199152
 30
0.0
 10
66.6721400239
 20
17.3157144681
 30
0.0
 10
66.5839307394
 20
17.4143013712
 30
0.0
  0
SPLINE
  5
2DD
100
AcDbEntity
  8
0
100
AcDbSpline
 62
7
  6
CONTINUOUS
 70
0
 71
3
 72
9
 73
5
 74
0
 42
0.0000001
 43
0.0000001
 44
0.0000000001
 40
0.0
 40
0.0
 40
0.0
 40
0.0
 40
0.258566961
 40
1.0
 40
1.0
 40
1.0
 40
1.0
 10
74.1489766459
 20
18.3760609298
 30
0.0
 10
74.1555927617
 20
18.4008706786
 30
0.0
 10
74.1784235833
 20
18.497504905
 30
0.0
 10
74.1898448717
 20
18.5970716844
 30
0.0
 10
74.1898448759
 20
18.6706990614
 30
0.0
  0
SPLINE
  5
2DE
100
AcDbEntity
  8
0
100
AcDbSpline
 62
7
  6
CONTINUOUS
 70
0
 71
3
 72
14
 73
10
 74
0
 42
0.0000001
 43
0.0000001
 44
0.0000000001
 40
0.0
 40
0.0
 40
0.0
 40
0.0
 40
0.1158145204
 40
0.232330972
 40
0.3507891563
 40
0.4719715307
 40
0.5968157993
 40
0.7261367739
 40
1.0
 40
1.0
 40
1.0
 40
1.0
 10
71.6664417659
 20
14.8758952794
 30
0.0
 10
71.6278144824
 20
14.8535939401
 30
0.0
 10
71.5464046952
 20
14.8152904643
 30
0.0
 10
71.4158176735
 20
14.7785583292
 30
0.0
 10
71.2790758931
 20
14.7623687113
 30
0.0
 10
71.1383120859
 20
14.7662970758
 30
0.0
 10
70.9952162892
 20
14.7893871075
 30
0.0
 10
70.7993743339
 20
14.8454567496
 30
0.0
 10
70.6577891328
 20
14.912303591
 30
0.0
 10
70.5664479394
 20
14.9650382606
 30
0.0
  0
SPLINE
  5
2DF
100
AcDbEntity
  8
0
100
AcDbSpline
 62
7
  6
CONTINUOUS
 70
0
 71
3
 72
14
 73
10
 74
0
 42
0.0000001
 43
0.0000001
 44
0.0000000001
 40
0.0
 40
0.0
 40
0.0
 40
0.0
 40
0.2738640818
 40
0.4031850557
 40
0.5280291589
 40
0.6492111571
 40
0.7676685687
 40
0.884185398
 40
1.0
 40
1.0
 40
1.0
 40
1.0
 10
74.6317784447
 20
18.1898981001
 30
0.0
 10
74.6317784929
 20
18.0844239778
 30
0.0
 10
74.6188781223
 20
17.9283797552
 30
0.0
 10
74.5695152838
 20
17.7307351547
 30
0.0
 10
74.5179638478
 20
17.5952618544
 30
0.0
 10
74.4509830879
 20
17.4713896984
 30
0.0
 10
74.3685906895
 20
17.3610592894
 30
0.0
 10
74.2714833509
 20
17.2663318338
 30
0.0
 10
74.1976047489
 20
17.2149791168
 30
0.0
 10
74.1589764625
 20
17.1926771984
 30
0.0
  0
SPLINE
  5
2E0
100
AcDbEntity
  8
0
100
AcDbSpline
 62
7
  6
CONTINUOUS
 70
0
 71
3
 72
9
 73
5
 74
0
 42
0.0000001
 43
0.0000001
 44
0.0000000001
 40
0.0
 40
0.0
 40
0.0
 40
0.0
 40
0.5212645971
 40
1.0
 40
1.0
 40
1.0
 40
1.0
 10
70.4245477715
 20
18.7180065523
 30
0.0
 10
70.4605985988
 20
18.5901048563
 30
0.0
 10
70.5157680199
 20
18.3404934933
 30
0.0
 10
70.5371572153
 20
18.0853871284
 30
0.0
 10
70.5371572153
 20
17.9633437296
 30
0.0
  0
SPLINE
  5
2E1
100
AcDbEntity
  8
0
100
AcDbSpline
 62
7
  6
CONTINUOUS
 70
0
 71
3
 72
9
 73
5
 74
0
 42
0.0000001
 43
0.0000001
 44
0.0000000001
 40
0.0
 40
0.0
 40
0.0
 40
0.0
 40
0.5077253358
 40
1.0
 40
1.0
 40
1.0
 40
1.0
 10
70.1257283852
 20
19.461298501
 30
0.0
 10
70.1888581922
 20
19.3411048577
 30
0.0
 10
70.3015913722
 20
19.098083061
 30
0.0
 10
70.388836791
 20
18.8447025347
 30
0.0
 10
70.4245477715
 20
18.7180065523
 30
0.0
  0
SPLINE
  5
2E2
100
AcDbEntity
  8
0
100
AcDbSpline
 62
7
  6
CONTINUOUS
 70
0
 71
3
 72
21
 73
17
 74
0
 42
0.0000001
 43
0.0000001
 44
0.0000000001
 40
0.0
 40
0.0
 40
0.0
 40
0.0
 40
0.1446355995
 40
0.2112767942
 40
0.2742482815
 40
0.3339424508
 40
0.3909325978
 40
0.4459746451
 40
0.4999980431
 40
0.5540215318
 40
0.6090638429
 40
0.6660544037
 40
0.7257491057
 40
0.7887212063
 40
0.8553630558
 40
1.0
 40
1.0
 40
1.0
 40
1.0
 10
70.5250254753
 20
15.0565954901
 30
0.0
 10
70.6040359072
 20
15.010979828
 30
0.0
 10
70.7253440046
 20
14.9532433204
 30
0.0
 10
70.8917025671
 20
14.9047422843
 30
0.0
 10
71.0097809567
 20
14.8849293352
 30
0.0
 10
71.1233947501
 20
14.8810017211
 30
0.0
 10
71.231469716
 20
14.893030415
 30
0.0
 10
71.3328704109
 20
14.921098396
 30
0.0
 10
71.426496574
 20
14.9649149942
 30
0.0
 10
71.5112545977
 20
15.0240915433
 30
0.0
 10
71.5862611128
 20
15.0978752513
 30
0.0
 10
71.6507142929
 20
15.1854585787
 30
0.0
 10
71.7041182925
 20
15.28581671
 30
0.0
 10
71.7459974758
 20
15.3979838299
 30
0.0
 10
71.7871716062
 20
15.5663072676
 30
0.0
 10
71.7978230223
 20
15.7002327624
 30
0.0
 10
71.7978229806
 20
15.7914664828
 30
0.0
  0
SPLINE
  5
2E3
100
AcDbEntity
  8
0
100
AcDbSpline
 62
7
  6
CONTINUOUS
 70
0
 71
3
 72
9
 73
5
 74
0
 42
0.0000001
 43
0.0000001
 44
0.0000000001
 40
0.0
 40
0.0
 40
0.0
 40
0.0
 40
0.5196840895
 40
1.0
 40
1.0
 40
1.0
 40
1.0
 10
66.618363054
 20
17.4364878013
 30
0.0
 10
66.6963834397
 20
17.3518013136
 30
0.0
 10
66.8569901879
 20
17.1980925766
 30
0.0
 10
67.0387317361
 20
17.069362584
 30
0.0
 10
67.1308987946
 20
17.0161511118
 30
0.0
  0
SPLINE
  5
2E4
100
AcDbEntity
  8
0
100
AcDbSpline
 62
7
  6
CONTINUOUS
 70
0
 71
3
 72
9
 73
5
 74
0
 42
0.0000001
 43
0.0000001
 44
0.0000000001
 40
0.0
 40
0.0
 40
0.0
 40
0.0
 40
0.2479384814
 40
1.0
 40
1.0
 40
1.0
 40
1.0
 10
72.9171408773
 20
15.5979748422
 30
0.0
 10
72.928902514
 20
15.6047655941
 30
0.0
 10
72.9758621172
 20
15.6329767498
 30
0.0
 10
73.0208623803
 20
15.6644301719
 30
0.0
 10
73.0534513521
 20
15.6896298534
 30
0.0
  0
SPLINE
  5
2E5
100
AcDbEntity
  8
0
100
AcDbSpline
 62
7
  6
CONTINUOUS
 70
0
 71
3
 72
11
 73
7
 74
0
 42
0.0000001
 43
0.0000001
 44
0.0000000001
 40
0.0
 40
0.0
 40
0.0
 40
0.0
 40
0.2313882183
 40
0.4748809135
 40
0.7312622533
 40
1.0
 40
1.0
 40
1.0
 40
1.0
 10
73.0534513521
 20
15.6896298534
 30
0.0
 10
73.1267310318
 20
15.7462939483
 30
0.0
 10
73.2648002584
 20
15.8791530298
 30
0.0
 10
73.435179856
 20
16.1189542598
 30
0.0
 10
73.5700494652
 20
16.396886232
 30
0.0
 10
73.6334600595
 20
16.5981525013
 30
0.0
 10
73.6589389174
 20
16.7026764006
 30
0.0
  0
SPLINE
  5
2E6
100
AcDbEntity
  8
0
100
AcDbSpline
 62
7
  6
CONTINUOUS
 70
0
 71
3
 72
14
 73
10
 74
0
 42
0.0000001
 43
0.0000001
 44
0.0000000001
 40
0.0
 40
0.0
 40
0.0
 40
0.0
 40
0.1080471958
 40
0.2181318917
 40
0.3321076842
 40
0.4515068867
 40
0.5774545588
 40
0.7107201793
 40
1.0
 40
1.0
 40
1.0
 40
1.0
 10
71.6664390762
 20
14.8758999381
 30
0.0
 10
71.6992301362
 20
14.8948317533
 30
0.0
 10
71.7622810392
 20
14.9388170356
 30
0.0
 10
71.8455778566
 20
15.0208074593
 30
0.0
 10
71.9172265508
 20
15.1181091325
 30
0.0
 10
71.9765397152
 20
15.22963638
 30
0.0
 10
72.0230850076
 20
15.354261046
 30
0.0
 10
72.0688309478
 20
15.5412889359
 30
0.0
 10
72.0806657162
 20
15.6900926402
 30
0.0
 10
72.080665693
 20
15.7914671627
 30
0.0
  0
SPLINE
  5
2E7
100
AcDbEntity
  8
0
100
AcDbSpline
 62
7
  6
CONTINUOUS
 70
0
 71
3
 72
9
 73
5
 74
0
 42
0.0000001
 43
0.0000001
 44
0.0000000001
 40
0.0
 40
0.0
 40
0.0
 40
0.0
 40
0.5063603917
 40
1.0
 40
1.0
 40
1.0
 40
1.0
 10
70.1576680341
 20
19.479681209
 30
0.0
 10
70.2214886364
 20
19.3587129279
 30
0.0
 10
70.3362771043
 20
19.1136973403
 30
0.0
 10
70.4264742571
 20
18.8585296863
 30
0.0
 10
70.4641054404
 20
18.7306148304
 30
0.0
  0
SPLINE
  5
2E8
100
AcDbEntity
  8
0
100
AcDbSpline
 62
7
  6
CONTINUOUS
 70
0
 71
3
 72
14
 73
10
 74
0
 42
0.0000001
 43
0.0000001
 44
0.0000000001
 40
0.0
 40
0.0
 40
0.0
 40
0.0
 40
0.2892798207
 40
0.4225454412
 40
0.5484931133
 40
0.6678923158
 40
0.7818681083
 40
0.8919528042
 40
1.0
 40
1.0
 40
1.0
 40
1.0
 10
74.5732003897
 20
18.1082490816
 30
0.0
 10
74.5732004129
 20
18.0068745591
 30
0.0
 10
74.5613656444
 20
17.8580708548
 30
0.0
 10
74.5156197042
 20
17.6710429649
 30
0.0
 10
74.4690744119
 20
17.5464182989
 30
0.0
 10
74.4097612475
 20
17.4348910514
 30
0.0
 10
74.3381125532
 20
17.3375893782
 30
0.0
 10
74.2548157358
 20
17.2555989546
 30
0.0
 10
74.1917648329
 20
17.2116136722
 30
0.0
 10
74.1589737728
 20
17.192681857
 30
0.0
  0
SPLINE
  5
2E9
100
AcDbEntity
  8
0
100
AcDbSpline
 62
7
  6
CONTINUOUS
 70
0
 71
3
 72
9
 73
5
 74
0
 42
0.0000001
 43
0.0000001
 44
0.0000000001
 40
0.0
 40
0.0
 40
0.0
 40
0.0
 40
0.7469668922
 40
1.0
 40
1.0
 40
1.0
 40
1.0
 10
67.1723259045
 20
16.9246019291
 30
0.0
 10
67.1682718184
 20
16.9269425045
 30
0.0
 10
67.1631549994
 20
16.9306665358
 30
0.0
 10
67.1586348082
 20
16.9350096262
 30
0.0
 10
67.1575283767
 20
16.9361455955
 30
0.0
  0
SPLINE
  5
2EA
100
AcDbEntity
  8
0
100
AcDbSpline
 62
7
  6
CONTINUOUS
 70
0
 71
3
 72
10
 73
6
 74
0
 42
0.0000001
 43
0.0000001
 44
0.0000000001
 40
0.0
 40
0.0
 40
0.0
 40
0.0
 40
0.4557794982
 40
0.7164180985
 40
1.0
 40
1.0
 40
1.0
 40
1.0
 10
67.1575283767
 20
16.9361455955
 30
0.0
 10
67.1484093201
 20
16.9455080988
 30
0.0
 10
67.1381769665
 20
16.9643566292
 30
0.0
 10
67.1319329606
 20
16.9923644929
 30
0.0
 10
67.1308987946
 20
17.008019343
 30
0.0
 10
67.1308987946
 20
17.0161511118
 30
0.0
  0
SPLINE
  5
2EB
100
AcDbEntity
  8
0
100
AcDbSpline
 62
7
  6
CONTINUOUS
 70
0
 71
3
 72
23
 73
19
 74
0
 42
0.0000001
 43
0.0000001
 44
0.0000000001
 40
0.0
 40
0.0
 40
0.0
 40
0.0
 40
0.0654674246
 40
0.1259496988
 40
0.1816530687
 40
0.2333587458
 40
0.282355802
 40
0.3303979746
 40
0.3794146657
 40
0.4311521534
 40
0.4869047238
 40
0.547421796
 40
0.61294704
 40
0.6833099002
 40
0.758017396
 40
0.8363323344
 40
0.9173384882
 40
1.0
 40
1.0
 40
1.0
 40
1.0
 10
70.5957364478
 20
17.8816948988
 30
0.0
 10
70.5957364478
 20
17.7880661799
 30
0.0
 10
70.5850455477
 20
17.6076447902
 30
0.0
 10
70.5327197048
 20
17.3521492377
 30
0.0
 10
70.4451901379
 20
17.1271118486
 30
0.0
 10
70.3235682863
 20
16.9373421896
 30
0.0
 10
70.1695929463
 20
16.7875829886
 30
0.0
 10
69.9866490132
 20
16.6822675954
 30
0.0
 10
69.7797645513
 20
16.6242649157
 30
0.0
 10
69.5544452688
 20
16.6142605142
 30
0.0
 10
69.3157066254
 20
16.6514401799
 30
0.0
 10
69.0681778513
 20
16.7343037529
 30
0.0
 10
68.8164806262
 20
16.8608119734
 30
0.0
 10
68.5653798242
 20
17.0283115974
 30
0.0
 10
68.3197376177
 20
17.2334337686
 30
0.0
 10
68.0843925182
 20
17.4720935905
 30
0.0
 10
67.8640444939
 20
17.7394866932
 30
0.0
 10
67.7307851039
 20
17.9323102226
 30
0.0
 10
67.6676205568
 20
18.0322400212
 30
0.0
  0
SPLINE
  5
2EC
100
AcDbEntity
  8
0
100
AcDbSpline
 62
7
  6
CONTINUOUS
 70
0
 71
3
 72
9
 73
5
 74
0
 42
0.0000001
 43
0.0000001
 44
0.0000000001
 40
0.0
 40
0.0
 40
0.0
 40
0.0
 40
0.5182526012
 40
1.0
 40
1.0
 40
1.0
 40
1.0
 10
70.4756263776
 20
18.6906162801
 30
0.0
 10
70.5140420028
 20
18.5543247165
 30
0.0
 10
70.5730531039
 20
18.2867597673
 30
0.0
 10
70.5957364478
 20
18.0133226728
 30
0.0
 10
70.5957364478
 20
17.8816948988
 30
0.0
  0
SPLINE
  5
2ED
100
AcDbEntity
  8
0
100
AcDbSpline
 62
7
  6
CONTINUOUS
 70
0
 71
3
 72
9
 73
5
 74
0
 42
0.0000001
 43
0.0000001
 44
0.0000000001
 40
0.0
 40
0.0
 40
0.0
 40
0.0
 40
0.7469162154
 40
1.0
 40
1.0
 40
1.0
 40
1.0
 10
74.6317691531
 20
18.1898980647
 30
0.0
 10
74.6317691533
 20
18.1851772639
 30
0.0
 10
74.6310908361
 20
18.1788299145
 30
0.0
 10
74.6295644953
 20
18.1726949599
 30
0.0
 10
74.6291266824
 20
18.1711564538
 30
0.0
  0
SPLINE
  5
2EE
100
AcDbEntity
  8
0
100
AcDbSpline
 62
7
  6
CONTINUOUS
 70
0
 71
3
 72
10
 73
6
 74
0
 42
0.0000001
 43
0.0000001
 44
0.0000000001
 40
0.0
 40
0.0
 40
0.0
 40
0.0
 40
0.4558633595
 40
0.7164898615
 40
1.0
 40
1.0
 40
1.0
 40
1.0
 10
74.6291266824
 20
18.1711564538
 30
0.0
 10
74.6255555617
 20
18.1586072803
 30
0.0
 10
74.6143461878
 20
18.1403743336
 30
0.0
 10
74.5932425203
 20
18.1210103089
 30
0.0
 10
74.5802277007
 20
18.1123071094
 30
0.0
 10
74.5732003897
 20
18.1082499138
 30
0.0
  0
SPLINE
  5
2EF
100
AcDbEntity
  8
0
100
AcDbSpline
 62
7
  6
CONTINUOUS
 70
0
 71
3
 72
18
 73
14
 74
0
 42
0.0000001
 43
0.0000001
 44
0.0000000001
 40
0.0
 40
0.0
 40
0.0
 40
0.0
 40
0.0455945822
 40
0.0919734002
 40
0.1398566411
 40
0.1898490597
 40
0.2424146393
 40
0.2978693836
 40
0.4178948442
 40
0.5500927158
 40
0.692969884
 40
0.8440031647
 40
1.0
 40
1.0
 40
1.0
 40
1.0
 10
70.1193756055
 20
16.9920879364
 30
0.0
 10
70.0833886672
 20
16.971315254
 30
0.0
 10
70.0072316306
 20
16.9352776673
 30
0.0
 10
69.8843027138
 20
16.899768142
 30
0.0
 10
69.7534520804
 20
16.8828136736
 30
0.0
 10
69.615949946
 20
16.8844879878
 30
0.0
 10
69.4730027746
 20
16.9046445645
 30
0.0
 10
69.2715408866
 20
16.957224873
 30
0.0
 10
69.013062882
 20
17.0705430391
 30
0.0
 10
68.7106430487
 20
17.2682984543
 30
0.0
 10
68.4174139633
 20
17.5245959855
 30
0.0
 10
68.1432710416
 20
17.8306651871
 30
0.0
 10
67.9806581768
 20
18.0591829497
 30
0.0
 10
67.9045474214
 20
18.1792585607
 30
0.0
  0
SPLINE
  5
2F0
100
AcDbEntity
  8
0
100
AcDbSpline
 62
7
  6
CONTINUOUS
 70
0
 71
3
 72
11
 73
7
 74
0
 42
0.0000001
 43
0.0000001
 44
0.0000000001
 40
0.0
 40
0.0
 40
0.0
 40
0.0
 40
0.1873300617
 40
0.4086836222
 40
0.6782021381
 40
1.0
 40
1.0
 40
1.0
 40
1.0
 10
73.7098096304
 20
16.7301311677
 30
0.0
 10
73.7084275927
 20
16.7266455863
 30
0.0
 10
73.7035559952
 20
16.7197405971
 30
0.0
 10
73.6921801253
 20
16.712018011
 30
0.0
 10
73.6769143046
 20
16.7061449435
 30
0.0
 10
73.6652972781
 20
16.703674925
 30
0.0
 10
73.6589342223
 20
16.7026755114
 30
0.0
  0
SPLINE
  5
2F1
100
AcDbEntity
  8
0
100
AcDbSpline
 62
7
  6
CONTINUOUS
 70
0
 71
3
 72
11
 73
7
 74
0
 42
0.0000001
 43
0.0000001
 44
0.0000000001
 40
0.0
 40
0.0
 40
0.0
 40
0.0
 40
0.2177486809
 40
0.450890828
 40
0.710462621
 40
1.0
 40
1.0
 40
1.0
 40
1.0
 10
74.1898355843
 20
18.6706990621
 30
0.0
 10
74.1898355842
 20
18.6630826967
 30
0.0
 10
74.1870385239
 20
18.6472032649
 30
0.0
 10
74.1749919816
 20
18.6250755543
 30
0.0
 10
74.155953412
 20
18.6050884473
 30
0.0
 10
74.1400373978
 20
18.5941145797
 30
0.0
 10
74.131266821
 20
18.589050915
 30
0.0
  0
SPLINE
  5
2F2
100
AcDbEntity
  8
0
100
AcDbSpline
 62
7
  6
CONTINUOUS
 70
0
 71
3
 72
11
 73
7
 74
0
 42
0.0000001
 43
0.0000001
 44
0.0000000001
 40
0.0
 40
0.0
 40
0.0
 40
0.0
 40
0.2372465442
 40
0.4999994739
 40
0.7627526898
 40
1.0
 40
1.0
 40
1.0
 40
1.0
 10
72.080665693
 20
15.7914679948
 30
0.0
 10
72.0605873354
 20
15.7798758188
 30
0.0
 10
72.0138974722
 20
15.762956099
 30
0.0
 10
71.9392445591
 20
15.7548664417
 30
0.0
 10
71.8645915335
 20
15.7629557584
 30
0.0
 10
71.8179014867
 20
15.7798752463
 30
0.0
 10
71.7978229806
 20
15.791467315
 30
0.0
  0
SPLINE
  5
2F3
100
AcDbEntity
  8
0
100
AcDbSpline
 62
7
  6
CONTINUOUS
 70
0
 71
3
 72
11
 73
7
 74
0
 42
0.0000001
 43
0.0000001
 44
0.0000000001
 40
0.0
 40
0.0
 40
0.0
 40
0.0
 40
0.2895368706
 40
0.5491085983
 40
0.7822509632
 40
1.0
 40
1.0
 40
1.0
 40
1.0
 10
70.5250254753
 20
15.0565954901
 30
0.0
 10
70.5250254753
 20
15.0464677568
 30
0.0
 10
70.5265712436
 20
15.0271964568
 30
0.0
 10
70.5343617426
 20
15.0007140877
 30
0.0
 10
70.5475022926
 20
14.9792169015
 30
0.0
 10
70.5598563265
 20
14.9688545741
 30
0.0
 10
70.5664525852
 20
14.9650463074
 30
0.0
  0
SPLINE
  5
2F4
100
AcDbEntity
  8
0
100
AcDbSpline
 62
7
  6
CONTINUOUS
 70
0
 71
3
 72
11
 73
7
 74
0
 42
0.0000001
 43
0.0000001
 44
0.0000000001
 40
0.0
 40
0.0
 40
0.0
 40
0.0
 40
0.3255088121
 40
0.5952990257
 40
0.8138677508
 40
1.0
 40
1.0
 40
1.0
 40
1.0
 10
74.0971519575
 20
18.3459466387
 30
0.0
 10
74.103889329
 20
18.3470048469
 30
0.0
 10
74.1161293435
 20
18.3496455316
 30
0.0
 10
74.1320536682
 20
18.3560497994
 30
0.0
 10
74.143586302
 20
18.364627178
 30
0.0
 10
74.1479739593
 20
18.3722922466
 30
0.0
 10
74.1489744523
 20
18.3760615144
 30
0.0
  0
SPLINE
  5
2F5
100
AcDbEntity
  8
0
100
AcDbSpline
 62
7
  6
CONTINUOUS
 70
0
 71
3
 72
9
 73
5
 74
0
 42
0.0000001
 43
0.0000001
 44
0.0000000001
 40
0.0
 40
0.0
 40
0.0
 40
0.0
 40
0.2594618798
 40
1.0
 40
1.0
 40
1.0
 40
1.0
 10
74.1160184949
 20
18.4296076903
 30
0.0
 10
74.1185209085
 20
18.4432430617
 30
0.0
 10
74.1270925137
 20
18.4959800686
 30
0.0
 10
74.1312668187
 20
18.5494838343
 30
0.0
 10
74.131266821
 20
18.5890509221
 30
0.0
  0
SPLINE
  5
2F6
100
AcDbEntity
  8
0
100
AcDbSpline
 62
7
  6
CONTINUOUS
 70
0
 71
3
 72
24
 73
20
 74
0
 42
0.0000001
 43
0.0000001
 44
0.0000000001
 40
0.0
 40
0.0
 40
0.0
 40
0.0
 40
0.0180007694
 40
0.0364873514
 40
0.0758363634
 40
0.1199249974
 40
0.1698339474
 40
0.2256789955
 40
0.2871089383
 40
0.3534533758
 40
0.4238364061
 40
0.4972434441
 40
0.5725665449
 40
0.6486422603
 40
0.7242854761
 40
0.798324523
 40
0.8696296617
 40
0.9371651386
 40
1.0
 40
1.0
 40
1.0
 40
1.0
 10
50.7073327022
 20
112.6524454233
 30
0.0
 10
50.7310737148
 20
112.6661522215
 30
0.0
 10
50.781080152
 20
112.6908093389
 30
0.0
 10
50.890623691
 20
112.7282414604
 30
0.0
 10
51.0460106318
 20
112.7496750648
 30
0.0
 10
51.2496758695
 20
112.7321912539
 30
0.0
 10
51.4706563429
 20
112.6710012557
 30
0.0
 10
51.7033049567
 20
112.5654584378
 30
0.0
 10
51.9412236179
 20
112.4172082929
 30
0.0
 10
52.1780133572
 20
112.2291976609
 30
0.0
 10
52.4076157281
 20
112.0055652878
 30
0.0
 10
52.6244293544
 20
111.7513233894
 30
0.0
 10
52.8233505227
 20
111.4721703022
 30
0.0
 10
52.9998169667
 20
111.1743545271
 30
0.0
 10
53.1498625867
 20
110.8645545402
 30
0.0
 10
53.270161209
 20
110.5497818802
 30
0.0
 10
53.3581354031
 20
110.237236701
 30
0.0
 10
53.411974939
 20
109.934343097
 30
0.0
 10
53.4251018667
 20
109.735674559
 30
0.0
 10
53.4251018667
 20
109.6399821359
 30
0.0
  0
SPLINE
  5
2F7
100
AcDbEntity
  8
0
100
AcDbSpline
 62
7
  6
CONTINUOUS
 70
0
 71
3
 72
9
 73
5
 74
0
 42
0.0000001
 43
0.0000001
 44
0.0000000001
 40
0.0
 40
0.0
 40
0.0
 40
0.0
 40
0.4890064207
 40
1.0
 40
1.0
 40
1.0
 40
1.0
 10
57.0302992933
 20
110.1880477748
 30
0.0
 10
57.0467603875
 20
110.1453278985
 30
0.0
 10
57.0707880995
 20
110.0540852165
 30
0.0
 10
57.0777895274
 20
109.9602643569
 30
0.0
 10
57.0777895274
 20
109.9124242759
 30
0.0
  0
SPLINE
  5
2F8
100
AcDbEntity
  8
0
100
AcDbSpline
 62
7
  6
CONTINUOUS
 70
0
 71
3
 72
14
 73
10
 74
0
 42
0.0000001
 43
0.0000001
 44
0.0000000001
 40
0.0
 40
0.0
 40
0.0
 40
0.0
 40
0.2738640818
 40
0.4031850557
 40
0.5280291589
 40
0.6492111571
 40
0.7676685687
 40
0.884185398
 40
1.0
 40
1.0
 40
1.0
 40
1.0
 10
48.6874667082
 20
113.7714134568
 30
0.0
 10
48.68746666
 20
113.8768875791
 30
0.0
 10
48.7003670306
 20
114.0329318018
 30
0.0
 10
48.7497298691
 20
114.2305764023
 30
0.0
 10
48.8012813051
 20
114.3660497026
 30
0.0
 10
48.8682620649
 20
114.4899218586
 30
0.0
 10
48.9506544634
 20
114.6002522675
 30
0.0
 10
49.047761802
 20
114.6949797231
 30
0.0
 10
49.121640404
 20
114.7463324402
 30
0.0
 10
49.1602686904
 20
114.7686343586
 30
0.0
  0
SPLINE
  5
2F9
100
AcDbEntity
  8
0
100
AcDbSpline
 62
7
  6
CONTINUOUS
 70
0
 71
3
 72
15
 73
11
 74
0
 42
0.0000001
 43
0.0000001
 44
0.0000000001
 40
0.0
 40
0.0
 40
0.0
 40
0.0
 40
0.1158916505
 40
0.2392380804
 40
0.3681422465
 40
0.5000007505
 40
0.6318590601
 40
0.7607629783
 40
0.8841083612
 40
1.0
 40
1.0
 40
1.0
 40
1.0
 10
56.1469231427
 20
115.0367181085
 30
0.0
 10
56.2423840063
 20
114.9816050583
 30
0.0
 10
56.4297922084
 20
114.8506510814
 30
0.0
 10
56.6864872394
 20
114.6111512699
 30
0.0
 10
56.9211877002
 20
114.3300133556
 30
0.0
 10
57.1262693772
 20
114.0169776161
 30
0.0
 10
57.2948262658
 20
113.6828544647
 30
0.0
 10
57.4209488721
 20
113.3390305884
 30
0.0
 10
57.5000161432
 20
112.9969780186
 30
0.0
 10
57.5197230961
 20
112.7692019523
 30
0.0
 10
57.5197230961
 20
112.6589739054
 30
0.0
  0
SPLINE
  5
2FA
100
AcDbEntity
  8
0
100
AcDbSpline
 62
7
  6
CONTINUOUS
 70
0
 71
3
 72
14
 73
10
 74
0
 42
0.0000001
 43
0.0000001
 44
0.0000000001
 40
0.0
 40
0.0
 40
0.0
 40
0.0
 40
0.1158145204
 40
0.232330972
 40
0.3507891563
 40
0.4719715307
 40
0.5968157993
 40
0.7261367739
 40
1.0
 40
1.0
 40
1.0
 40
1.0
 10
53.1730892961
 20
116.2076986553
 30
0.0
 10
53.2117165795
 20
116.2299999947
 30
0.0
 10
53.2931263668
 20
116.2683034704
 30
0.0
 10
53.4237133884
 20
116.3050356056
 30
0.0
 10
53.5604551689
 20
116.3212252234
 30
0.0
 10
53.7012189761
 20
116.3172968589
 30
0.0
 10
53.8443147728
 20
116.2942068273
 30
0.0
 10
54.040156728
 20
116.2381371851
 30
0.0
 10
54.1817419291
 20
116.1712903437
 30
0.0
 10
54.2730831225
 20
116.1185556742
 30
0.0
  0
SPLINE
  5
2FB
100
AcDbEntity
  8
0
100
AcDbSpline
 62
7
  6
CONTINUOUS
 70
0
 71
3
 72
14
 73
10
 74
0
 42
0.0000001
 43
0.0000001
 44
0.0000000001
 40
0.0
 40
0.0
 40
0.0
 40
0.0
 40
0.3075411579
 40
0.4455952268
 40
0.573017764
 40
0.6903705453
 40
0.7990752154
 40
0.9014871754
 40
1.0
 40
1.0
 40
1.0
 40
1.0
 10
53.4251018667
 20
109.6399821359
 30
0.0
 10
53.4251018667
 20
109.5267125348
 30
0.0
 10
53.4123468509
 20
109.3617817314
 30
0.0
 10
53.3626976465
 20
109.1562873278
 30
0.0
 10
53.3136543166
 20
109.0236985836
 30
0.0
 10
53.2528262429
 20
108.9081308245
 30
0.0
 10
53.1811683482
 20
108.8100598364
 30
0.0
 10
53.0997321771
 20
108.7295260245
 30
0.0
 10
53.0387444309
 20
108.6868640276
 30
0.0
 10
53.0073224054
 20
108.668722621
 30
0.0
  0
SPLINE
  5
2FC
100
AcDbEntity
  8
0
100
AcDbSpline
 62
7
  6
CONTINUOUS
 70
0
 71
3
 72
9
 73
5
 74
0
 42
0.0000001
 43
0.0000001
 44
0.0000000001
 40
0.0
 40
0.0
 40
0.0
 40
0.0
 40
0.4772550986
 40
1.0
 40
1.0
 40
1.0
 40
1.0
 10
51.7957883367
 20
115.0805966521
 30
0.0
 10
51.839463664
 20
115.0553783386
 30
0.0
 10
51.9243794395
 20
114.9911341274
 30
0.0
 10
51.9984696837
 20
114.9155391296
 30
0.0
 10
52.0354191287
 20
114.8744756024
 30
0.0
  0
SPLINE
  5
2FD
100
AcDbEntity
  8
0
100
AcDbSpline
 62
7
  6
CONTINUOUS
 70
0
 71
3
 72
9
 73
5
 74
0
 42
0.0000001
 43
0.0000001
 44
0.0000000001
 40
0.0
 40
0.0
 40
0.0
 40
0.0
 40
0.5182527934
 40
1.0
 40
1.0
 40
1.0
 40
1.0
 10
50.3414764506
 20
110.8553300867
 30
0.0
 10
50.3061340605
 20
110.9807183779
 30
0.0
 10
50.2518433148
 20
111.2268780499
 30
0.0
 10
50.230975186
 20
111.4784402478
 30
0.0
 10
50.230975186
 20
111.5995377576
 30
0.0
  0
SPLINE
  5
2FE
100
AcDbEntity
  8
0
100
AcDbSpline
 62
7
  6
CONTINUOUS
 70
0
 71
3
 72
10
 73
6
 74
0
 42
0.0000001
 43
0.0000001
 44
0.0000000001
 40
0.0
 40
0.0
 40
0.0
 40
0.0
 40
0.28350837
 40
0.5441342768
 40
1.0
 40
1.0
 40
1.0
 40
1.0
 10
54.1730848192
 20
116.1086500973
 30
0.0
 10
54.180112019
 20
116.1127072287
 30
0.0
 10
54.1941564598
 20
116.1196266221
 30
0.0
 10
54.2214778138
 20
116.1282207169
 30
0.0
 10
54.2428724985
 20
116.1288118172
 30
0.0
 10
54.2555259343
 20
116.1256300382
 30
0.0
  0
SPLINE
  5
2FF
100
AcDbEntity
  8
0
100
AcDbSpline
 62
7
  6
CONTINUOUS
 70
0
 71
3
 72
9
 73
5
 74
0
 42
0.0000001
 43
0.0000001
 44
0.0000000001
 40
0.0
 40
0.0
 40
0.0
 40
0.0
 40
0.2530837116
 40
1.0
 40
1.0
 40
1.0
 40
1.0
 10
54.2555259343
 20
116.1256300382
 30
0.0
 10
54.2570772761
 20
116.1252399445
 30
0.0
 10
54.2631536723
 20
116.1234943188
 30
0.0
 10
54.2689899966
 20
116.1209080598
 30
0.0
 10
54.2730784768
 20
116.1185476274
 30
0.0
  0
SPLINE
  5
300
100
AcDbEntity
  8
0
100
AcDbSpline
 62
7
  6
CONTINUOUS
 70
0
 71
3
 72
11
 73
7
 74
0
 42
0.0000001
 43
0.0000001
 44
0.0000000001
 40
0.0
 40
0.0
 40
0.0
 40
0.0
 40
0.2895373801
 40
0.5491091728
 40
0.7822513189
 40
1.0
 40
1.0
 40
1.0
 40
1.0
 10
57.4611450411
 20
112.5773257545
 30
0.0
 10
57.4699156183
 20
112.5823894193
 30
0.0
 10
57.4858316331
 20
112.5933632874
 30
0.0
 10
57.5048702032
 20
112.6133503954
 30
0.0
 10
57.5169167452
 20
112.6354781072
 30
0.0
 10
57.5197138048
 20
112.6513575397
 30
0.0
 10
57.5197138045
 20
112.6589739054
 30
0.0
  0
SPLINE
  5
301
100
AcDbEntity
  8
0
100
AcDbSpline
 62
7
  6
CONTINUOUS
 70
0
 71
3
 72
15
 73
11
 74
0
 42
0.0000001
 43
0.0000001
 44
0.0000000001
 40
0.0
 40
0.0
 40
0.0
 40
0.0
 40
0.1157331421
 40
0.2397986971
 40
0.3697226191
 40
0.5025049838
 40
0.6349423589
 40
0.7638568079
 40
0.8863305351
 40
1.0
 40
1.0
 40
1.0
 40
1.0
 10
56.1046005656
 20
114.9921514107
 30
0.0
 10
56.1985327228
 20
114.9334838808
 30
0.0
 10
56.3833544314
 20
114.7958374477
 30
0.0
 10
56.6370051233
 20
114.5479783338
 30
0.0
 10
56.869674543
 20
114.2590773515
 30
0.0
 10
57.073023413
 20
113.9393911132
 30
0.0
 10
57.2398648861
 20
113.6002945862
 30
0.0
 10
57.364245682
 20
113.2537977731
 30
0.0
 10
57.4417676273
 20
112.9122765659
 30
0.0
 10
57.4611450411
 20
112.6860990121
 30
0.0
 10
57.4611450411
 20
112.5773257545
 30
0.0
  0
SPLINE
  5
302
100
AcDbEntity
  8
0
100
AcDbSpline
 62
7
  6
CONTINUOUS
 70
0
 71
3
 72
9
 73
5
 74
0
 42
0.0000001
 43
0.0000001
 44
0.0000000001
 40
0.0
 40
0.0
 40
0.0
 40
0.0
 40
0.4954246205
 40
1.0
 40
1.0
 40
1.0
 40
1.0
 10
53.9092599003
 20
113.792637603
 30
0.0
 10
53.9849337725
 20
113.7699413003
 30
0.0
 10
54.1354977372
 20
113.7165382831
 30
0.0
 10
54.2794207772
 20
113.6467004218
 30
0.0
 10
54.3491057439
 20
113.6064715089
 30
0.0
  0
SPLINE
  5
303
100
AcDbEntity
  8
0
100
AcDbSpline
 62
7
  6
CONTINUOUS
 70
0
 71
3
 72
14
 73
10
 74
0
 42
0.0000001
 43
0.0000001
 44
0.0000000001
 40
0.0
 40
0.0
 40
0.0
 40
0.0
 40
0.2892788489
 40
0.4225441984
 40
0.5484917816
 40
0.6678910897
 40
0.7818671711
 40
0.8919522967
 40
1.0
 40
1.0
 40
1.0
 40
1.0
 10
50.1602642135
 20
114.6695858006
 30
0.0
 10
50.072473452
 20
114.7202706737
 30
0.0
 10
49.9376917036
 20
114.7844201451
 30
0.0
 10
49.7528527807
 20
114.8383138126
 30
0.0
 10
49.6216554574
 20
114.8603151764
 30
0.0
 10
49.4954167065
 20
114.8647112596
 30
0.0
 10
49.3753296282
 20
114.8513124359
 30
0.0
 10
49.2626780636
 20
114.8201711679
 30
0.0
 10
49.1930617157
 20
114.7875610969
 30
0.0
 10
49.16027138
 20
114.7686296999
 30
0.0
  0
SPLINE
  5
304
100
AcDbEntity
  8
0
100
AcDbSpline
 62
7
  6
CONTINUOUS
 70
0
 71
3
 72
11
 73
7
 74
0
 42
0.0000001
 43
0.0000001
 44
0.0000000001
 40
0.0
 40
0.0
 40
0.0
 40
0.0
 40
0.2372483561
 40
0.5000016178
 40
0.7627539995
 40
1.0
 40
1.0
 40
1.0
 40
1.0
 10
50.018843446
 20
114.4246364864
 30
0.0
 10
50.018843446
 20
114.4478211466
 30
0.0
 10
50.0275353081
 20
114.4967159166
 30
0.0
 10
50.0578558621
 20
114.5654123491
 30
0.0
 10
50.1021879876
 20
114.6260189803
 30
0.0
 10
50.1401858781
 20
114.6579936374
 30
0.0
 10
50.1602642135
 20
114.6695858006
 30
0.0
  0
SPLINE
  5
305
100
AcDbEntity
  8
0
100
AcDbSpline
 62
7
  6
CONTINUOUS
 70
0
 71
3
 72
21
 73
17
 74
0
 42
0.0000001
 43
0.0000001
 44
0.0000000001
 40
0.0
 40
0.0
 40
0.0
 40
0.0
 40
0.1446355995
 40
0.2112767942
 40
0.2742482815
 40
0.3339424508
 40
0.3909325978
 40
0.4459746451
 40
0.4999980431
 40
0.5540215318
 40
0.6090638429
 40
0.6660544037
 40
0.7257491057
 40
0.7887212063
 40
0.8553630558
 40
1.0
 40
1.0
 40
1.0
 40
1.0
 10
50.018843446
 20
114.4246364864
 30
0.0
 10
49.9398330142
 20
114.4702521485
 30
0.0
 10
49.8185249168
 20
114.5279886561
 30
0.0
 10
49.6521663543
 20
114.5764896922
 30
0.0
 10
49.5340879646
 20
114.5963026413
 30
0.0
 10
49.4204741713
 20
114.6002302554
 30
0.0
 10
49.3123992053
 20
114.5882015614
 30
0.0
 10
49.2109985104
 20
114.5601335804
 30
0.0
 10
49.1173723473
 20
114.5163169822
 30
0.0
 10
49.0326143236
 20
114.4571404331
 30
0.0
 10
48.9576078085
 20
114.3833567252
 30
0.0
 10
48.8931546284
 20
114.2957733978
 30
0.0
 10
48.8397506288
 20
114.1954152664
 30
0.0
 10
48.7978714455
 20
114.0832481466
 30
0.0
 10
48.7566973152
 20
113.9149247089
 30
0.0
 10
48.746045899
 20
113.7809992141
 30
0.0
 10
48.7460459408
 20
113.6897654937
 30
0.0
  0
SPLINE
  5
306
100
AcDbEntity
  8
0
100
AcDbSpline
 62
7
  6
CONTINUOUS
 70
0
 71
3
 72
15
 73
11
 74
0
 42
0.0000001
 43
0.0000001
 44
0.0000000001
 40
0.0
 40
0.0
 40
0.0
 40
0.0
 40
0.1141555516
 40
0.2373276756
 40
0.3669773296
 40
0.5000011
 40
0.6330247168
 40
0.7626739247
 40
0.885845342
 40
1.0
 40
1.0
 40
1.0
 40
1.0
 10
54.685767632
 20
110.2605431557
 30
0.0
 10
54.685767632
 20
110.3611560905
 30
0.0
 10
54.6673389415
 20
110.570524244
 30
0.0
 10
54.593873337
 20
110.8863788376
 30
0.0
 10
54.476185677
 20
111.2063142104
 30
0.0
 10
54.3186741841
 20
111.5182997682
 30
0.0
 10
54.1272413319
 20
111.8107002615
 30
0.0
 10
53.9090123486
 20
112.0725864195
 30
0.0
 10
53.6722069478
 20
112.2941340663
 30
0.0
 10
53.5001032949
 20
112.4147756446
 30
0.0
 10
53.4129701267
 20
112.4650808647
 30
0.0
  0
SPLINE
  5
307
100
AcDbEntity
  8
0
100
AcDbSpline
 62
7
  6
CONTINUOUS
 70
0
 71
3
 72
11
 73
7
 74
0
 42
0.0000001
 43
0.0000001
 44
0.0000000001
 40
0.0
 40
0.0
 40
0.0
 40
0.0
 40
0.2177482232
 40
0.4508901798
 40
0.7104621454
 40
1.0
 40
1.0
 40
1.0
 40
1.0
 10
48.6874759998
 20
113.7714134618
 30
0.0
 10
48.6874760036
 20
113.7637970162
 30
0.0
 10
48.6902731325
 20
113.7479174063
 30
0.0
 10
48.702319937
 20
113.7257894897
 30
0.0
 10
48.7213588897
 20
113.7058022414
 30
0.0
 10
48.7372752022
 20
113.6948283352
 30
0.0
 10
48.7460459408
 20
113.6897646615
 30
0.0
  0
SPLINE
  5
308
100
AcDbEntity
  8
0
100
AcDbSpline
 62
7
  6
CONTINUOUS
 70
0
 71
3
 72
28
 73
24
 74
0
 42
0.0000001
 43
0.0000001
 44
0.0000000001
 40
0.0
 40
0.0
 40
0.0
 40
0.0
 40
0.0615738349
 40
0.0902361535
 40
0.1174951196
 40
0.1681785136
 40
0.1920583861
 40
0.2152680227
 40
0.2381179674
 40
0.2609444363
 40
0.2840840233
 40
0.3078522732
 40
0.3325212068
 40
0.3583114846
 40
0.4137672783
 40
0.4749361757
 40
0.5416917249
 40
0.6133473842
 40
0.6888166131
 40
0.7667469923
 40
0.8456259711
 40
0.9238913111
 40
1.0
 40
1.0
 40
1.0
 40
1.0
 10
53.4836810993
 20
109.5583333051
 30
0.0
 10
53.4836810993
 20
109.4458342292
 30
0.0
 10
53.4719669968
 20
109.2803930145
 30
0.0
 10
53.4274745339
 20
109.0700677838
 30
0.0
 10
53.3684115054
 20
108.8842589269
 30
0.0
 10
53.2832926096
 20
108.7163854976
 30
0.0
 10
53.1718598365
 20
108.5761258757
 30
0.0
 10
53.0787271342
 20
108.4879620369
 30
0.0
 10
52.9751560357
 20
108.4156274141
 30
0.0
 10
52.8619973107
 20
108.3597437282
 30
0.0
 10
52.7402247236
 20
108.3207488005
 30
0.0
 10
52.610858604
 20
108.2989424994
 30
0.0
 10
52.474941163
 20
108.2943658774
 30
0.0
 10
52.2817867983
 20
108.3116574617
 30
0.0
 10
52.0283945692
 20
108.379061196
 30
0.0
 10
51.7242003032
 20
108.5228148417
 30
0.0
 10
51.4204710568
 20
108.7267130752
 30
0.0
 10
51.125793914
 20
108.9847704866
 30
0.0
 10
50.8485188073
 20
109.2894971424
 30
0.0
 10
50.5967164229
 20
109.6320138724
 30
0.0
 10
50.3777175171
 20
110.0023155596
 30
0.0
 10
50.1979949674
 20
110.3894789306
 30
0.0
 10
50.1059671964
 20
110.6567755762
 30
0.0
 10
50.0682425437
 20
110.7906156963
 30
0.0
  0
SPLINE
  5
309
100
AcDbEntity
  8
0
100
AcDbSpline
 62
7
  6
CONTINUOUS
 70
0
 71
3
 72
11
 73
7
 74
0
 42
0.0000001
 43
0.0000001
 44
0.0000000001
 40
0.0
 40
0.0
 40
0.0
 40
0.0
 40
0.217750441
 40
0.4508934182
 40
0.7104646245
 40
1.0
 40
1.0
 40
1.0
 40
1.0
 10
56.1469185013
 20
115.0367100592
 30
0.0
 10
56.1403224616
 20
115.0405181955
 30
0.0
 10
56.1251718858
 20
115.0460355226
 30
0.0
 10
56.0999854672
 20
115.0466668451
 30
0.0
 10
56.0731569373
 20
115.040172704
 30
0.0
 10
56.0556953624
 20
115.0318761296
 30
0.0
 10
56.0469248702
 20
115.0268125138
 30
0.0
  0
SPLINE
  5
30A
100
AcDbEntity
  8
0
100
AcDbSpline
 62
7
  6
CONTINUOUS
 70
0
 71
3
 72
30
 73
26
 74
0
 42
0.0000001
 43
0.0000001
 44
0.0000000001
 40
0.0
 40
0.0
 40
0.0
 40
0.0
 40
0.0310092795
 40
0.0604582314
 40
0.0883127839
 40
0.1146534188
 40
0.1396348798
 40
0.1634832537
 40
0.1865024928
 40
0.2090662386
 40
0.2315873584
 40
0.2544811931
 40
0.2781310944
 40
0.3028582742
 40
0.3289069734
 40
0.3564408322
 40
0.4161774834
 40
0.4820962496
 40
0.5533435477
 40
0.6285276724
 40
0.7059178775
 40
0.7836066452
 40
0.8596693125
 40
0.9322975082
 40
1.0
 40
1.0
 40
1.0
 40
1.0
 10
49.9481324735
 20
111.5995370777
 30
0.0
 10
49.9481324735
 20
111.6638193683
 30
0.0
 10
49.9532714917
 20
111.7892320089
 30
0.0
 10
49.9776096249
 20
111.9709617243
 30
0.0
 10
50.0183256147
 20
112.1398644659
 30
0.0
 10
50.0750450661
 20
112.2943195438
 30
0.0
 10
50.147379591
 20
112.4328835087
 30
0.0
 10
50.2347253263
 20
112.5542127816
 30
0.0
 10
50.3363912817
 20
112.6569752148
 30
0.0
 10
50.4513720005
 20
112.7400363714
 30
0.0
 10
50.5784719499
 20
112.8024307129
 30
0.0
 10
50.7162800188
 20
112.8435263756
 30
0.0
 10
50.8633137344
 20
112.8629926241
 30
0.0
 10
51.0180769711
 20
112.8607832714
 30
0.0
 10
51.1791052416
 20
112.8370783727
 30
0.0
 10
51.4062879703
 20
112.7755450577
 30
0.0
 10
51.6974249797
 20
112.643414392
 30
0.0
 10
52.036740374
 20
112.4138760317
 30
0.0
 10
52.3639633323
 20
112.1174776577
 30
0.0
 10
52.6673259765
 20
111.7649838484
 30
0.0
 10
52.9359087556
 20
111.3691659377
 30
0.0
 10
53.1599154086
 20
110.9444855897
 30
0.0
 10
53.3311440468
 20
110.5063952276
 30
0.0
 10
53.4434091722
 20
110.070951875
 30
0.0
 10
53.4775077391
 20
109.7807709463
 30
0.0
 10
53.4822712672
 20
109.6405044251
 30
0.0
  0
SPLINE
  5
30B
100
AcDbEntity
  8
0
100
AcDbSpline
 62
7
  6
CONTINUOUS
 70
0
 71
3
 72
11
 73
7
 74
0
 42
0.0000001
 43
0.0000001
 44
0.0000000001
 40
0.0
 40
0.0
 40
0.0
 40
0.0
 40
0.2177875154
 40
0.4509805686
 40
0.7102072779
 40
1.0
 40
1.0
 40
1.0
 40
1.0
 10
54.76939267
 20
113.3636719131
 30
0.0
 10
54.7627943083
 20
113.3674773098
 30
0.0
 10
54.747639208
 20
113.3729866836
 30
0.0
 10
54.7224665489
 20
113.3736163425
 30
0.0
 10
54.6956347538
 20
113.3671509464
 30
0.0
 10
54.678180388
 20
113.3588464726
 30
0.0
 10
54.669402855
 20
113.353778792
 30
0.0
  0
SPLINE
  5
30C
100
AcDbEntity
  8
0
100
AcDbSpline
 62
7
  6
CONTINUOUS
 70
0
 71
3
 72
9
 73
5
 74
0
 42
0.0000001
 43
0.0000001
 44
0.0000000001
 40
0.0
 40
0.0
 40
0.0
 40
0.0
 40
0.4967580582
 40
1.0
 40
1.0
 40
1.0
 40
1.0
 10
53.1730919857
 20
116.2076939966
 30
0.0
 10
53.2002648921
 20
116.2233821885
 30
0.0
 10
53.2572721024
 20
116.2511259079
 30
0.0
 10
53.3175840105
 20
116.2706218319
 30
0.0
 10
53.3484101162
 20
116.2783745696
 30
0.0
  0
SPLINE
  5
30D
100
AcDbEntity
  8
0
100
AcDbSpline
 62
7
  6
CONTINUOUS
 70
0
 71
3
 72
11
 73
7
 74
0
 42
0.0000001
 43
0.0000001
 44
0.0000000001
 40
0.0
 40
0.0
 40
0.0
 40
0.0
 40
0.2199535598
 40
0.457404374
 40
0.7169048189
 40
1.0
 40
1.0
 40
1.0
 40
1.0
 10
53.3484101162
 20
116.2783745696
 30
0.0
 10
53.4096589419
 20
116.293778594
 30
0.0
 10
53.5416753316
 20
116.3088892645
 30
0.0
 10
53.747585891
 20
116.2855661045
 30
0.0
 10
53.9624936996
 20
116.2186763147
 30
0.0
 10
54.1026884276
 20
116.1492925535
 30
0.0
 10
54.1730848192
 20
116.1086500973
 30
0.0
  0
SPLINE
  5
30E
100
AcDbEntity
  8
0
100
AcDbSpline
 62
7
  6
CONTINUOUS
 70
0
 71
3
 72
9
 73
5
 74
0
 42
0.0000001
 43
0.0000001
 44
0.0000000001
 40
0.0
 40
0.0
 40
0.0
 40
0.0
 40
0.5182526012
 40
1.0
 40
1.0
 40
1.0
 40
1.0
 10
50.0682425437
 20
110.7906156963
 30
0.0
 10
50.0298269185
 20
110.92690726
 30
0.0
 10
49.9708158174
 20
111.1944722092
 30
0.0
 10
49.9481324735
 20
111.4679093036
 30
0.0
 10
49.9481324735
 20
111.5995370777
 30
0.0
  0
SPLINE
  5
30F
100
AcDbEntity
  8
0
100
AcDbSpline
 62
7
  6
CONTINUOUS
 70
0
 71
3
 72
11
 73
7
 74
0
 42
0.0000001
 43
0.0000001
 44
0.0000000001
 40
0.0
 40
0.0
 40
0.0
 40
0.0
 40
0.2271461597
 40
0.4656351485
 40
0.7228746194
 40
1.0
 40
1.0
 40
1.0
 40
1.0
 10
57.030299871
 20
110.1880479975
 30
0.0
 10
57.0348954555
 20
110.1761238903
 30
0.0
 10
57.0399380653
 20
110.1497851454
 30
0.0
 10
57.0339075499
 20
110.1089173584
 30
0.0
 10
57.0152920211
 20
110.0690604619
 30
0.0
 10
56.996134065
 20
110.0454995134
 30
0.0
 10
56.985096609
 20
110.034488236
 30
0.0
  0
SPLINE
  5
310
100
AcDbEntity
  8
0
100
AcDbSpline
 62
7
  6
CONTINUOUS
 70
0
 71
3
 72
20
 73
16
 74
0
 42
0.0000001
 43
0.0000001
 44
0.0000000001
 40
0.0
 40
0.0
 40
0.0
 40
0.0
 40
0.0431243329
 40
0.0875309207
 40
0.1343223721
 40
0.184312416
 40
0.2379939084
 40
0.2955593687
 40
0.3569522608
 40
0.4219116045
 40
0.4900124616
 40
0.5607077664
 40
0.7071544257
 40
0.8555857028
 40
1.0
 40
1.0
 40
1.0
 40
1.0
 10
53.0073202412
 20
108.6687263698
 30
0.0
 10
52.9595975566
 20
108.6411794591
 30
0.0
 10
52.8563176635
 20
108.5956767843
 30
0.0
 10
52.6871390015
 20
108.5607264422
 30
0.0
 10
52.5057426444
 20
108.5586973529
 30
0.0
 10
52.3151191327
 20
108.5892299303
 30
0.0
 10
52.1180650836
 20
108.65151997
 30
0.0
 10
51.9174176237
 20
108.744418117
 30
0.0
 10
51.7160837623
 20
108.8664523441
 30
0.0
 10
51.5170386585
 20
109.0157632557
 30
0.0
 10
51.3232192582
 20
109.1900762443
 30
0.0
 10
51.0728192757
 20
109.4553631102
 30
0.0
 10
50.7923663362
 20
109.8312700882
 30
0.0
 10
50.5226188764
 20
110.3254159722
 30
0.0
 10
50.3915372132
 20
110.6777237201
 30
0.0
 10
50.3414764506
 20
110.8553300867
 30
0.0
  0
SPLINE
  5
311
100
AcDbEntity
  8
0
100
AcDbSpline
 62
7
  6
CONTINUOUS
 70
0
 71
3
 72
15
 73
11
 74
0
 42
0.0000001
 43
0.0000001
 44
0.0000000001
 40
0.0
 40
0.0
 40
0.0
 40
0.0
 40
0.1485413313
 40
0.2895051192
 40
0.4227348107
 40
0.5486396601
 40
0.6679967338
 40
0.7819386808
 40
0.8919879563
 40
1.0
 40
1.0
 40
1.0
 40
1.0
 10
50.230975186
 20
111.5995377576
 30
0.0
 10
50.230975186
 20
111.6594195546
 30
0.0
 10
50.2358200115
 20
111.7762076184
 30
0.0
 10
50.2587844153
 20
111.9453419288
 30
0.0
 10
50.2972004203
 20
112.1023356061
 30
0.0
 10
50.350713825
 20
112.2456446757
 30
0.0
 10
50.4189392927
 20
112.3738941496
 30
0.0
 10
50.5013194837
 20
112.4858016373
 30
0.0
 10
50.5971248795
 20
112.5800770537
 30
0.0
 10
50.6696233994
 20
112.6306735814
 30
0.0
 10
50.7073348508
 20
112.6524417017
 30
0.0
  0
SPLINE
  5
312
100
AcDbEntity
  8
0
100
AcDbSpline
 62
7
  6
CONTINUOUS
 70
0
 71
3
 72
11
 73
7
 74
0
 42
0.0000001
 43
0.0000001
 44
0.0000000001
 40
0.0
 40
0.0
 40
0.0
 40
0.0
 40
0.2895373801
 40
0.5491091728
 40
0.7822513189
 40
1.0
 40
1.0
 40
1.0
 40
1.0
 10
57.0192114724
 20
109.830776125
 30
0.0
 10
57.0279820496
 20
109.8358397899
 30
0.0
 10
57.0438980643
 20
109.8468136579
 30
0.0
 10
57.0629366344
 20
109.8668007659
 30
0.0
 10
57.0749831765
 20
109.8889284777
 30
0.0
 10
57.0777802361
 20
109.9048079102
 30
0.0
 10
57.0777802358
 20
109.9124242759
 30
0.0
  0
SPLINE
  5
313
100
AcDbEntity
  8
0
100
AcDbSpline
 62
7
  6
CONTINUOUS
 70
0
 71
3
 72
11
 73
7
 74
0
 42
0.0000001
 43
0.0000001
 44
0.0000000001
 40
0.0
 40
0.0
 40
0.0
 40
0.0
 40
0.2771992979
 40
0.5342437045
 40
0.7728015619
 40
1.0
 40
1.0
 40
1.0
 40
1.0
 10
56.5468788438
 20
111.1717520897
 30
0.0
 10
56.5579163929
 20
111.1827634326
 30
0.0
 10
56.5770636279
 20
111.2063193026
 30
0.0
 10
56.5956278171
 20
111.2461784273
 30
0.0
 10
56.6016787586
 20
111.2870313788
 30
0.0
 10
56.5966093931
 20
111.313361697
 30
0.0
 10
56.5920300367
 20
111.3252916439
 30
0.0
  0
SPLINE
  5
314
100
AcDbEntity
  8
0
100
AcDbSpline
 62
7
  6
CONTINUOUS
 70
0
 71
3
 72
11
 73
7
 74
0
 42
0.0000001
 43
0.0000001
 44
0.0000000001
 40
0.0
 40
0.0
 40
0.0
 40
0.0
 40
0.2897930252
 40
0.5490196427
 40
0.7822124417
 40
1.0
 40
1.0
 40
1.0
 40
1.0
 10
51.2752761771
 20
115.3133344278
 30
0.0
 10
51.2840538164
 20
115.3184021666
 30
0.0
 10
51.3015083921
 20
115.3267067153
 30
0.0
 10
51.3283405138
 20
115.3331720676
 30
0.0
 10
51.3535134445
 20
115.3325421762
 30
0.0
 10
51.3686686304
 20
115.3270325127
 30
0.0
 10
51.3752670006
 20
115.3232269616
 30
0.0
  0
SPLINE
  5
315
100
AcDbEntity
  8
0
100
AcDbSpline
 62
7
  6
CONTINUOUS
 70
0
 71
3
 72
12
 73
8
 74
0
 42
0.0000001
 43
0.0000001
 44
0.0000000001
 40
0.0
 40
0.0
 40
0.0
 40
0.0
 40
0.3088977246
 40
0.5790453819
 40
0.6989552434
 40
0.8087737679
 40
1.0
 40
1.0
 40
1.0
 40
1.0
 10
51.2752800389
 20
115.3133366608
 30
0.0
 10
51.2057354401
 20
115.3534873534
 30
0.0
 10
51.0720815594
 20
115.4233059708
 30
0.0
 10
50.9021368665
 20
115.4891756245
 30
0.0
 10
50.7761473911
 20
115.5217780592
 30
0.0
 10
50.6681667973
 20
115.5396248677
 30
0.0
 10
50.5888218791
 20
115.5407534096
 30
0.0
 10
50.5396336969
 20
115.5335543207
 30
0.0
  0
SPLINE
  5
316
100
AcDbEntity
  8
0
100
AcDbSpline
 62
7
  6
CONTINUOUS
 70
0
 71
3
 72
9
 73
5
 74
0
 42
0.0000001
 43
0.0000001
 44
0.0000000001
 40
0.0
 40
0.0
 40
0.0
 40
0.0
 40
0.5187645443
 40
1.0
 40
1.0
 40
1.0
 40
1.0
 10
50.5396336969
 20
115.5335543207
 30
0.0
 10
50.5163261462
 20
115.5301430718
 30
0.0
 10
50.4717899139
 20
115.5200634411
 30
0.0
 10
50.4298870145
 20
115.5016527217
 30
0.0
 10
50.4109630991
 20
115.4907263975
 30
0.0
  0
SPLINE
  5
317
100
AcDbEntity
  8
0
100
AcDbSpline
 62
7
  6
CONTINUOUS
 70
0
 71
3
 72
11
 73
7
 74
0
 42
0.0000001
 43
0.0000001
 44
0.0000000001
 40
0.0
 40
0.0
 40
0.0
 40
0.0
 40
0.2372460005
 40
0.4999983822
 40
0.7627516439
 40
1.0
 40
1.0
 40
1.0
 40
1.0
 10
53.5543908942
 20
112.7100301789
 30
0.0
 10
53.5343125588
 20
112.6984380157
 30
0.0
 10
53.4963146683
 20
112.6664633586
 30
0.0
 10
53.4519825428
 20
112.6058567274
 30
0.0
 10
53.4216619888
 20
112.5371602949
 30
0.0
 10
53.4129701267
 20
112.4882655249
 30
0.0
 10
53.4129701267
 20
112.4650808647
 30
0.0
  0
SPLINE
  5
318
100
AcDbEntity
  8
0
100
AcDbSpline
 62
7
  6
CONTINUOUS
 70
0
 71
3
 72
15
 73
11
 74
0
 42
0.0000001
 43
0.0000001
 44
0.0000000001
 40
0.0
 40
0.0
 40
0.0
 40
0.0
 40
0.1141582169
 40
0.2373256154
 40
0.3669771987
 40
0.5000010819
 40
0.6330248148
 40
0.7626759584
 40
0.8858426645
 40
1.0
 40
1.0
 40
1.0
 40
1.0
 10
54.9686103445
 20
110.2605438356
 30
0.0
 10
54.9686103445
 20
110.3723385877
 30
0.0
 10
54.9481369815
 20
110.6049683143
 30
0.0
 10
54.8665018719
 20
110.9559160778
 30
0.0
 10
54.7357435767
 20
111.3113989923
 30
0.0
 10
54.5607267926
 20
111.6580500029
 30
0.0
 10
54.348025297
 20
111.9829431225
 30
0.0
 10
54.1055464792
 20
112.2739223538
 30
0.0
 10
53.8424342226
 20
112.5200913068
 30
0.0
 10
53.6512077896
 20
112.6541341828
 30
0.0
 10
53.5543908942
 20
112.7100301789
 30
0.0
  0
SPLINE
  5
319
100
AcDbEntity
  8
0
100
AcDbSpline
 62
7
  6
CONTINUOUS
 70
0
 71
3
 72
11
 73
7
 74
0
 42
0.0000001
 43
0.0000001
 44
0.0000000001
 40
0.0
 40
0.0
 40
0.0
 40
0.0
 40
0.2372473102
 40
0.5000005261
 40
0.7627534558
 40
1.0
 40
1.0
 40
1.0
 40
1.0
 10
54.685767632
 20
110.2605431557
 30
0.0
 10
54.7058461381
 20
110.248951087
 30
0.0
 10
54.7525361849
 20
110.2320315991
 30
0.0
 10
54.8271892106
 20
110.2239422825
 30
0.0
 10
54.9018421237
 20
110.2320319398
 30
0.0
 10
54.9485319868
 20
110.2489516595
 30
0.0
 10
54.9686103445
 20
110.2605438356
 30
0.0
  0
SPLINE
  5
31A
100
AcDbEntity
  8
0
100
AcDbSpline
 62
7
  6
CONTINUOUS
 70
0
 71
3
 72
16
 73
12
 74
0
 42
0.0000001
 43
0.0000001
 44
0.0000000001
 40
0.0
 40
0.0
 40
0.0
 40
0.0
 40
0.0487850511
 40
0.1011105608
 40
0.215397755
 40
0.340531518
 40
0.4733669823
 40
0.61021836
 40
0.746741028
 40
0.8782252396
 40
1.0
 40
1.0
 40
1.0
 40
1.0
 10
56.5469020184
 20
111.1717743226
 30
0.0
 10
56.5319739306
 20
111.2157767464
 30
0.0
 10
56.4977512785
 20
111.3058811341
 30
0.0
 10
56.413609386
 20
111.4930879385
 30
0.0
 10
56.2795527618
 20
111.7370294246
 30
0.0
 10
56.0828463983
 20
112.0324281947
 30
0.0
 10
55.8513203151
 20
112.3291848073
 30
0.0
 10
55.5920250731
 20
112.6167638076
 30
0.0
 10
55.3138319049
 20
112.8843038891
 30
0.0
 10
55.0272099124
 20
113.1208229379
 30
0.0
 10
54.8282069915
 20
113.2579502675
 30
0.0
 10
54.7291725772
 20
113.3183222544
 30
0.0
  0
SPLINE
  5
31B
100
AcDbEntity
  8
0
100
AcDbSpline
 62
7
  6
CONTINUOUS
 70
0
 71
3
 72
9
 73
5
 74
0
 42
0.0000001
 43
0.0000001
 44
0.0000000001
 40
0.0
 40
0.0
 40
0.0
 40
0.0
 40
0.2689917917
 40
1.0
 40
1.0
 40
1.0
 40
1.0
 10
57.0192114724
 20
109.830776125
 30
0.0
 10
57.0192114724
 20
109.849351357
 30
0.0
 10
57.0166743528
 20
109.9183147416
 30
0.0
 10
57.0032469467
 20
109.9873844302
 30
0.0
 10
56.9850965907
 20
110.0344882834
 30
0.0
  0
SPLINE
  5
31C
100
AcDbEntity
  8
0
100
AcDbSpline
 62
7
  6
CONTINUOUS
 70
0
 71
3
 72
19
 73
15
 74
0
 42
0.0000001
 43
0.0000001
 44
0.0000000001
 40
0.0
 40
0.0
 40
0.0
 40
0.0
 40
0.0549794648
 40
0.1099315969
 40
0.1663236388
 40
0.2248193122
 40
0.3501763187
 40
0.4866243203
 40
0.6271249809
 40
0.7623366225
 40
0.8258948813
 40
0.8863235811
 40
0.9441190475
 40
1.0
 40
1.0
 40
1.0
 40
1.0
 10
42.7305838483
 20
106.3732407838
 30
0.0
 10
42.6923095332
 20
106.3953379701
 30
0.0
 10
42.6217438114
 20
106.4508440216
 30
0.0
 10
42.5423085341
 20
106.5601583728
 30
0.0
 10
42.4903751295
 20
106.6876656452
 30
0.0
 10
42.4551972401
 20
106.878662481
 30
0.0
 10
42.4762641509
 20
107.1394859258
 30
0.0
 10
42.5807670157
 20
107.4480838314
 30
0.0
 10
42.7516540121
 20
107.7346653135
 30
0.0
 10
42.9398084317
 20
107.9359439402
 30
0.0
 10
43.1096319644
 20
108.0577288729
 30
0.0
 10
43.2405465273
 20
108.1241855483
 30
0.0
 10
43.3754750114
 20
108.1643625496
 30
0.0
 10
43.4676025435
 20
108.1712012003
 30
0.0
 10
43.5124582337
 20
108.1688024933
 30
0.0
  0
SPLINE
  5
31D
100
AcDbEntity
  8
0
100
AcDbSpline
 62
7
  6
CONTINUOUS
 70
0
 71
3
 72
9
 73
5
 74
0
 42
0.0000001
 43
0.0000001
 44
0.0000000001
 40
0.0
 40
0.0
 40
0.0
 40
0.0
 40
0.5012557226
 40
1.0
 40
1.0
 40
1.0
 40
1.0
 10
43.5124582337
 20
108.1688024933
 30
0.0
 10
43.5506257525
 20
108.1667614435
 30
0.0
 10
43.6266167299
 20
108.1543865317
 30
0.0
 10
43.6976312732
 20
108.1243163392
 30
0.0
 10
43.7305668813
 20
108.1053013872
 30
0.0
  0
SPLINE
  5
31E
100
AcDbEntity
  8
0
100
AcDbSpline
 62
7
  6
CONTINUOUS
 70
0
 71
3
 72
11
 73
7
 74
0
 42
0.0000001
 43
0.0000001
 44
0.0000000001
 40
0.0
 40
0.0
 40
0.0
 40
0.0
 40
0.2177651606
 40
0.4508956102
 40
0.7103690052
 40
1.0
 40
1.0
 40
1.0
 40
1.0
 10
73.7512804476
 20
73.7173191695
 30
0.0
 10
73.6935718567
 20
73.7506670597
 30
0.0
 10
73.5855093298
 20
73.8413761713
 30
0.0
 10
73.4705416224
 20
74.0294384468
 30
0.0
 10
73.4022903061
 20
74.2611346454
 30
0.0
 10
73.3888154462
 20
74.4297663004
 30
0.0
 10
73.3888154462
 20
74.5184132243
 30
0.0
  0
SPLINE
  5
31F
100
AcDbEntity
  8
0
100
AcDbSpline
 62
7
  6
CONTINUOUS
 70
0
 71
3
 72
15
 73
11
 74
0
 42
0.0000001
 43
0.0000001
 44
0.0000000001
 40
0.0
 40
0.0
 40
0.0
 40
0.0
 40
0.1022056966
 40
0.2176937043
 40
0.3444888707
 40
0.4789457033
 40
0.6164938455
 40
0.7521807924
 40
0.88137867
 40
1.0
 40
1.0
 40
1.0
 40
1.0
 10
73.4212693428
 20
74.1486602137
 30
0.0
 10
73.5193896303
 20
74.171229066
 30
0.0
 10
73.7215595451
 20
74.2501004102
 30
0.0
 10
74.0064253682
 20
74.4376708068
 30
0.0
 10
74.2789547119
 20
74.6918696157
 30
0.0
 10
74.5251295892
 20
74.9996277789
 30
0.0
 10
74.7323405265
 20
75.3450278259
 30
0.0
 10
74.8899448528
 20
75.7101683079
 30
0.0
 10
74.9895036113
 20
76.0759223267
 30
0.0
 10
75.0151472063
 20
76.3203033074
 30
0.0
 10
75.0151472063
 20
76.4371566683
 30
0.0
  0
SPLINE
  5
320
100
AcDbEntity
  8
0
100
AcDbSpline
 62
7
  6
CONTINUOUS
 70
0
 71
3
 72
11
 73
7
 74
0
 42
0.0000001
 43
0.0000001
 44
0.0000000001
 40
0.0
 40
0.0
 40
0.0
 40
0.0
 40
0.2177231375
 40
0.4508717887
 40
0.7104673698
 40
1.0
 40
1.0
 40
1.0
 40
1.0
 10
73.9762865089
 20
88.3958426403
 30
0.0
 10
73.9334152965
 20
88.4205915879
 30
0.0
 10
73.8531338758
 20
88.4879612829
 30
0.0
 10
73.767702268
 20
88.6276776486
 30
0.0
 10
73.7170650571
 20
88.7998209368
 30
0.0
 10
73.7070121729
 20
88.9250865892
 30
0.0
 10
73.7070121729
 20
88.9909153933
 30
0.0
  0
SPLINE
  5
321
100
AcDbEntity
  8
0
100
AcDbSpline
 62
7
  6
CONTINUOUS
 70
0
 71
3
 72
13
 73
9
 74
0
 42
0.0000001
 43
0.0000001
 44
0.0000000001
 40
0.0
 40
0.0
 40
0.0
 40
0.0
 40
0.1116538608
 40
0.2333739977
 40
0.4956626047
 40
0.7603189225
 40
0.8849351632
 40
1.0
 40
1.0
 40
1.0
 40
1.0
 10
73.7169155306
 20
88.9173139537
 30
0.0
 10
73.7826984397
 20
88.9502384737
 30
0.0
 10
73.9135106496
 20
89.0327709786
 30
0.0
 10
74.160542469
 20
89.247749256
 30
0.0
 10
74.4234635322
 20
89.5904009805
 30
0.0
 10
74.6041762244
 20
89.9845417194
 30
0.0
 10
74.6823713019
 20
90.3083604392
 30
0.0
 10
74.6969504795
 20
90.466429481
 30
0.0
 10
74.6969504795
 20
90.5422390988
 30
0.0
  0
SPLINE
  5
322
100
AcDbEntity
  8
0
100
AcDbSpline
 62
7
  6
CONTINUOUS
 70
0
 71
3
 72
11
 73
7
 74
0
 42
0.0000001
 43
0.0000001
 44
0.0000000001
 40
0.0
 40
0.0
 40
0.0
 40
0.0
 40
0.2177651606
 40
0.4508956102
 40
0.7103690052
 40
1.0
 40
1.0
 40
1.0
 40
1.0
 10
73.7512804476
 20
38.6077152329
 30
0.0
 10
73.6935718567
 20
38.6410631231
 30
0.0
 10
73.5855093298
 20
38.7317722347
 30
0.0
 10
73.4705416224
 20
38.9198345102
 30
0.0
 10
73.4022903061
 20
39.1515307088
 30
0.0
 10
73.3888154462
 20
39.3201623638
 30
0.0
 10
73.3888154462
 20
39.4088092878
 30
0.0
  0
SPLINE
  5
323
100
AcDbEntity
  8
0
100
AcDbSpline
 62
7
  6
CONTINUOUS
 70
0
 71
3
 72
15
 73
11
 74
0
 42
0.0000001
 43
0.0000001
 44
0.0000000001
 40
0.0
 40
0.0
 40
0.0
 40
0.0
 40
0.1022056966
 40
0.2176937043
 40
0.3444888707
 40
0.4789457033
 40
0.6164938455
 40
0.7521807924
 40
0.88137867
 40
1.0
 40
1.0
 40
1.0
 40
1.0
 10
73.4212693428
 20
39.0390562771
 30
0.0
 10
73.5193896303
 20
39.0616251295
 30
0.0
 10
73.7215595451
 20
39.1404964736
 30
0.0
 10
74.0064253682
 20
39.3280668702
 30
0.0
 10
74.2789547119
 20
39.5822656792
 30
0.0
 10
74.5251295892
 20
39.8900238423
 30
0.0
 10
74.7323405265
 20
40.2354238893
 30
0.0
 10
74.8899448528
 20
40.6005643713
 30
0.0
 10
74.9895036113
 20
40.9663183901
 30
0.0
 10
75.0151472063
 20
41.2106993708
 30
0.0
 10
75.0151472063
 20
41.3275527317
 30
0.0
  0
SPLINE
  5
324
100
AcDbEntity
  8
0
100
AcDbSpline
 62
7
  6
CONTINUOUS
 70
0
 71
3
 72
10
 73
6
 74
0
 42
0.0000001
 43
0.0000001
 44
0.0000000001
 40
0.0
 40
0.0
 40
0.0
 40
0.0
 40
0.2298496899
 40
0.4688153688
 40
1.0
 40
1.0
 40
1.0
 40
1.0
 10
42.8702954538
 20
105.6590039066
 30
0.0
 10
42.8545470281
 20
105.6499115955
 30
0.0
 10
42.824650906
 20
105.6271794281
 30
0.0
 10
42.7747938099
 20
105.5649703654
 30
0.0
 10
42.7537442631
 20
105.5057143178
 30
0.0
 10
42.7454217193
 20
105.4645216684
 30
0.0
  0
SPLINE
  5
325
100
AcDbEntity
  8
0
100
AcDbSpline
 62
7
  6
CONTINUOUS
 70
0
 71
3
 72
10
 73
6
 74
0
 42
0.0000001
 43
0.0000001
 44
0.0000000001
 40
0.0
 40
0.0
 40
0.0
 40
0.0
 40
0.5311841978
 40
0.7701500154
 40
1.0
 40
1.0
 40
1.0
 40
1.0
 10
67.5432601151
 20
18.0959071332
 30
0.0
 10
67.5830946175
 20
18.0825187512
 30
0.0
 10
67.6449355684
 20
18.0711205913
 30
0.0
 10
67.7237373928
 20
18.0831933729
 30
0.0
 10
67.7583715676
 20
18.0977177471
 30
0.0
 10
67.7741197466
 20
18.1068099157
 30
0.0
  0
SPLINE
  5
326
100
AcDbEntity
  8
0
100
AcDbSpline
 62
7
  6
CONTINUOUS
 70
0
 71
3
 72
9
 73
5
 74
0
 42
0.0000001
 43
0.0000001
 44
0.0000000001
 40
0.0
 40
0.0
 40
0.0
 40
0.0
 40
0.2622606396
 40
1.0
 40
1.0
 40
1.0
 40
1.0
 10
75.0151472063
 20
41.3275527317
 30
0.0
 10
75.0151472063
 20
41.3561609738
 30
0.0
 10
75.0122697549
 20
41.4651940121
 30
0.0
 10
74.9975549807
 20
41.5741525967
 30
0.0
 10
74.9782970897
 20
41.6522893998
 30
0.0
  0
SPLINE
  5
327
100
AcDbEntity
  8
0
100
AcDbSpline
 62
7
  6
CONTINUOUS
 70
0
 71
3
 72
11
 73
7
 74
0
 42
0.0000001
 43
0.0000001
 44
0.0000000001
 40
0.0
 40
0.0
 40
0.0
 40
0.0
 40
0.2895401978
 40
0.5491171512
 40
0.782255066
 40
1.0
 40
1.0
 40
1.0
 40
1.0
 10
76.747558673
 20
23.5073912044
 30
0.0
 10
76.747558673
 20
23.4744760993
 30
0.0
 10
76.7425328406
 20
23.4118443623
 30
0.0
 10
76.7172133456
 20
23.3257773149
 30
0.0
 10
76.6745041431
 20
23.2559145433
 30
0.0
 10
76.6343547988
 20
23.2222384682
 30
0.0
 10
76.6129177122
 20
23.2098618393
 30
0.0
  0
SPLINE
  5
328
100
AcDbEntity
  8
0
100
AcDbSpline
 62
7
  6
CONTINUOUS
 70
0
 71
3
 72
17
 73
13
 74
0
 42
0.0000001
 43
0.0000001
 44
0.0000000001
 40
0.0
 40
0.0
 40
0.0
 40
0.0
 40
0.1286891333
 40
0.2702803493
 40
0.4174326844
 40
0.5617743804
 40
0.6954465661
 40
0.8127104963
 40
0.8646756522
 40
0.91250911
 40
0.9571392634
 40
1.0
 40
1.0
 40
1.0
 40
1.0
 10
73.3888154462
 20
39.4088092878
 30
0.0
 10
73.3888154462
 20
39.5583901693
 30
0.0
 10
73.4306627106
 20
39.872906702
 30
0.0
 10
73.5868429982
 20
40.3347049443
 30
0.0
 10
73.8275166933
 20
40.7795598458
 30
0.0
 10
74.1333262467
 20
41.1709984655
 30
0.0
 10
74.4792882065
 20
41.4774034422
 30
0.0
 10
74.7924321766
 20
41.6486347559
 30
0.0
 10
75.0373891458
 20
41.7137941636
 30
0.0
 10
75.2059799671
 20
41.7262100142
 30
0.0
 10
75.3629660693
 20
41.7032039376
 30
0.0
 10
75.4580791255
 20
41.6636840294
 30
0.0
 10
75.501213875
 20
41.6387578812
 30
0.0
  0
SPLINE
  5
329
100
AcDbEntity
  8
0
100
AcDbSpline
 62
7
  6
CONTINUOUS
 70
0
 71
3
 72
17
 73
13
 74
0
 42
0.0000001
 43
0.0000001
 44
0.0000000001
 40
0.0
 40
0.0
 40
0.0
 40
0.0
 40
0.1286849204
 40
0.270303802
 40
0.4174438806
 40
0.5617821443
 40
0.6954492858
 40
0.8127130378
 40
0.8646795618
 40
0.9125091497
 40
0.9571393989
 40
1.0
 40
1.0
 40
1.0
 40
1.0
 10
73.7070121729
 20
88.9909153933
 30
0.0
 10
73.7070121729
 20
89.1020281821
 30
0.0
 10
73.7381204532
 20
89.3356837716
 30
0.0
 10
73.8541143803
 20
89.6787504821
 30
0.0
 10
74.0329394933
 20
90.0092038528
 30
0.0
 10
74.2600887194
 20
90.2999730107
 30
0.0
 10
74.517089979
 20
90.5275874588
 30
0.0
 10
74.7497145779
 20
90.6547376656
 30
0.0
 10
74.9316663369
 20
90.7032186252
 30
0.0
 10
75.056901975
 20
90.7123688345
 30
0.0
 10
75.173533331
 20
90.6953575752
 30
0.0
 10
75.2441571241
 20
90.6659253585
 30
0.0
 10
75.2762078137
 20
90.6474229465
 30
0.0
  0
SPLINE
  5
32A
100
AcDbEntity
  8
0
100
AcDbSpline
 62
7
  6
CONTINUOUS
 70
0
 71
3
 72
17
 73
13
 74
0
 42
0.0000001
 43
0.0000001
 44
0.0000000001
 40
0.0
 40
0.0
 40
0.0
 40
0.0
 40
0.1286891333
 40
0.2702803493
 40
0.4174326844
 40
0.5617743804
 40
0.6954465661
 40
0.8127104963
 40
0.8646756522
 40
0.91250911
 40
0.9571392634
 40
1.0
 40
1.0
 40
1.0
 40
1.0
 10
73.3888154462
 20
74.5184132243
 30
0.0
 10
73.3888154462
 20
74.6679941059
 30
0.0
 10
73.4306627106
 20
74.9825106386
 30
0.0
 10
73.5868429982
 20
75.4443088808
 30
0.0
 10
73.8275166933
 20
75.8891637824
 30
0.0
 10
74.1333262467
 20
76.2806024021
 30
0.0
 10
74.4792882065
 20
76.5870073788
 30
0.0
 10
74.7924321766
 20
76.7582386924
 30
0.0
 10
75.0373891458
 20
76.8233981002
 30
0.0
 10
75.2059799671
 20
76.8358139508
 30
0.0
 10
75.3629660693
 20
76.8128078741
 30
0.0
 10
75.4580791255
 20
76.7732879659
 30
0.0
 10
75.501213875
 20
76.7483618178
 30
0.0
  0
SPLINE
  5
32B
100
AcDbEntity
  8
0
100
AcDbSpline
 62
7
  6
CONTINUOUS
 70
0
 71
3
 72
11
 73
7
 74
0
 42
0.0000001
 43
0.0000001
 44
0.0000000001
 40
0.0
 40
0.0
 40
0.0
 40
0.0
 40
0.2372523758
 40
0.4999990758
 40
0.7627462798
 40
1.0
 40
1.0
 40
1.0
 40
1.0
 10
76.2879373516
 20
96.7272386653
 30
0.0
 10
76.3531938773
 20
96.689563645
 30
0.0
 10
76.476686091
 20
96.5856443753
 30
0.0
 10
76.6207632927
 20
96.3886742569
 30
0.0
 10
76.7193069465
 20
96.1654147096
 30
0.0
 10
76.747558673
 20
96.0065073499
 30
0.0
 10
76.747558673
 20
95.9311556038
 30
0.0
  0
SPLINE
  5
32C
100
AcDbEntity
  8
0
100
AcDbSpline
 62
7
  6
CONTINUOUS
 70
0
 71
3
 72
9
 73
5
 74
0
 42
0.0000001
 43
0.0000001
 44
0.0000000001
 40
0.0
 40
0.0
 40
0.0
 40
0.0
 40
0.2622606396
 40
1.0
 40
1.0
 40
1.0
 40
1.0
 10
75.0151472063
 20
76.4371566683
 30
0.0
 10
75.0151472063
 20
76.4657649104
 30
0.0
 10
75.0122697549
 20
76.5747979486
 30
0.0
 10
74.9975549807
 20
76.6837565332
 30
0.0
 10
74.9782970897
 20
76.7618933364
 30
0.0
  0
SPLINE
  5
32D
100
AcDbEntity
  8
0
100
AcDbSpline
 62
7
  6
CONTINUOUS
 70
0
 71
3
 72
17
 73
13
 74
0
 42
0.0000001
 43
0.0000001
 44
0.0000000001
 40
0.0
 40
0.0
 40
0.0
 40
0.0
 40
0.1286891333
 40
0.2702803493
 40
0.4174326844
 40
0.5617743804
 40
0.6954465661
 40
0.8127104963
 40
0.8646756522
 40
0.91250911
 40
0.9571392634
 40
1.0
 40
1.0
 40
1.0
 40
1.0
 10
75.8636788764
 20
40.8376638263
 30
0.0
 10
75.8636788764
 20
40.6880829448
 30
0.0
 10
75.821831612
 20
40.3735664121
 30
0.0
 10
75.6656513244
 20
39.9117681698
 30
0.0
 10
75.4249776293
 20
39.4669132683
 30
0.0
 10
75.119168076
 20
39.0754746485
 30
0.0
 10
74.7732061161
 20
38.7690696719
 30
0.0
 10
74.460062146
 20
38.5978383582
 30
0.0
 10
74.2151051768
 20
38.5326789505
 30
0.0
 10
74.0465143555
 20
38.5202630999
 30
0.0
 10
73.8895282534
 20
38.5432691765
 30
0.0
 10
73.7944151971
 20
38.5827890847
 30
0.0
 10
73.7512804476
 20
38.6077152329
 30
0.0
  0
SPLINE
  5
32E
100
AcDbEntity
  8
0
100
AcDbSpline
 62
7
  6
CONTINUOUS
 70
0
 71
3
 72
11
 73
7
 74
0
 42
0.0000001
 43
0.0000001
 44
0.0000000001
 40
0.0
 40
0.0
 40
0.0
 40
0.0
 40
0.2372539654
 40
0.5000012591
 40
0.7627478695
 40
1.0
 40
1.0
 40
1.0
 40
1.0
 10
72.292804498
 20
93.3592174341
 30
0.0
 10
72.292804498
 20
93.4345692581
 30
0.0
 10
72.2645527253
 20
93.5934767241
 30
0.0
 10
72.1660089844
 20
93.8167363181
 30
0.0
 10
72.0219317796
 20
94.0137063377
 30
0.0
 10
71.8984396349
 20
94.1176255143
 30
0.0
 10
71.8331831766
 20
94.1553004956
 30
0.0
  0
SPLINE
  5
32F
100
AcDbEntity
  8
0
100
AcDbSpline
 62
7
  6
CONTINUOUS
 70
0
 71
3
 72
17
 73
13
 74
0
 42
0.0000001
 43
0.0000001
 44
0.0000000001
 40
0.0
 40
0.0
 40
0.0
 40
0.0
 40
0.1286849204
 40
0.270303802
 40
0.4174438806
 40
0.5617821443
 40
0.6954492858
 40
0.8127130378
 40
0.8646795618
 40
0.9125091497
 40
0.9571393989
 40
1.0
 40
1.0
 40
1.0
 40
1.0
 10
75.5454821497
 20
90.0523501934
 30
0.0
 10
75.5454821497
 20
89.9412374046
 30
0.0
 10
75.5143738694
 20
89.7075818151
 30
0.0
 10
75.3983799423
 20
89.3645151047
 30
0.0
 10
75.2195548294
 20
89.034061734
 30
0.0
 10
74.9924056033
 20
88.7432925761
 30
0.0
 10
74.7354043437
 20
88.5156781279
 30
0.0
 10
74.5027797447
 20
88.3885279212
 30
0.0
 10
74.3208279857
 20
88.3400469616
 30
0.0
 10
74.1955923477
 20
88.3308967522
 30
0.0
 10
74.0789609916
 20
88.3479080115
 30
0.0
 10
74.0083371986
 20
88.3773402282
 30
0.0
 10
73.9762865089
 20
88.3958426403
 30
0.0
  0
SPLINE
  5
330
100
AcDbEntity
  8
0
100
AcDbSpline
 62
7
  6
CONTINUOUS
 70
0
 71
3
 72
17
 73
13
 74
0
 42
0.0000001
 43
0.0000001
 44
0.0000000001
 40
0.0
 40
0.0
 40
0.0
 40
0.0
 40
0.1286891333
 40
0.2702803493
 40
0.4174326844
 40
0.5617743804
 40
0.6954465661
 40
0.8127104963
 40
0.8646756522
 40
0.91250911
 40
0.9571392634
 40
1.0
 40
1.0
 40
1.0
 40
1.0
 10
75.8636788764
 20
75.9472677629
 30
0.0
 10
75.8636788764
 20
75.7976868813
 30
0.0
 10
75.821831612
 20
75.4831703486
 30
0.0
 10
75.6656513244
 20
75.0213721064
 30
0.0
 10
75.4249776293
 20
74.5765172048
 30
0.0
 10
75.119168076
 20
74.1850785851
 30
0.0
 10
74.7732061161
 20
73.8786736084
 30
0.0
 10
74.460062146
 20
73.7074422948
 30
0.0
 10
74.2151051768
 20
73.6422828871
 30
0.0
 10
74.0465143555
 20
73.6298670364
 30
0.0
 10
73.8895282534
 20
73.6528731131
 30
0.0
 10
73.7944151971
 20
73.6923930213
 30
0.0
 10
73.7512804476
 20
73.7173191695
 30
0.0
  0
SPLINE
  5
331
100
AcDbEntity
  8
0
100
AcDbSpline
 62
7
  6
CONTINUOUS
 70
0
 71
3
 72
11
 73
7
 74
0
 42
0.0000001
 43
0.0000001
 44
0.0000000001
 40
0.0
 40
0.0
 40
0.0
 40
0.0
 40
0.2895391946
 40
0.5491157946
 40
0.7822541179
 40
1.0
 40
1.0
 40
1.0
 40
1.0
 10
43.1952758142
 20
105.6268446218
 30
0.0
 10
43.1667711966
 20
105.6433013982
 30
0.0
 10
43.1100190087
 20
105.6702634365
 30
0.0
 10
43.0228252881
 20
105.6913683304
 30
0.0
 10
42.9409698707
 20
105.6893120848
 30
0.0
 10
42.891732054
 20
105.6713802699
 30
0.0
 10
42.8702954538
 20
105.6590039066
 30
0.0
  0
SPLINE
  5
332
100
AcDbEntity
  8
0
100
AcDbSpline
 62
7
  6
CONTINUOUS
 70
0
 71
3
 72
11
 73
7
 74
0
 42
0.0000001
 43
0.0000001
 44
0.0000000001
 40
0.0
 40
0.0
 40
0.0
 40
0.0
 40
0.2177651606
 40
0.4508956102
 40
0.7103690052
 40
1.0
 40
1.0
 40
1.0
 40
1.0
 10
75.501213875
 20
76.7483618178
 30
0.0
 10
75.558922466
 20
76.7150139275
 30
0.0
 10
75.6669849928
 20
76.6243048159
 30
0.0
 10
75.7819527003
 20
76.4362425404
 30
0.0
 10
75.8502040166
 20
76.2045463418
 30
0.0
 10
75.8636788764
 20
76.0359146868
 30
0.0
 10
75.8636788764
 20
75.9472677629
 30
0.0
  0
SPLINE
  5
333
100
AcDbEntity
  8
0
100
AcDbSpline
 62
7
  6
CONTINUOUS
 70
0
 71
3
 72
11
 73
7
 74
0
 42
0.0000001
 43
0.0000001
 44
0.0000000001
 40
0.0
 40
0.0
 40
0.0
 40
0.0
 40
0.2177231375
 40
0.4508717887
 40
0.7104673698
 40
1.0
 40
1.0
 40
1.0
 40
1.0
 10
75.2762078137
 20
90.6474229465
 30
0.0
 10
75.3190790261
 20
90.6226739989
 30
0.0
 10
75.3993604468
 20
90.5553043038
 30
0.0
 10
75.4847920546
 20
90.4155879382
 30
0.0
 10
75.5354292655
 20
90.2434446499
 30
0.0
 10
75.5454821497
 20
90.1181789976
 30
0.0
 10
75.5454821497
 20
90.0523501934
 30
0.0
  0
SPLINE
  5
334
100
AcDbEntity
  8
0
100
AcDbSpline
 62
7
  6
CONTINUOUS
 70
0
 71
3
 72
19
 73
15
 74
0
 42
0.0000001
 43
0.0000001
 44
0.0000000001
 40
0.0
 40
0.0
 40
0.0
 40
0.0
 40
0.0439620606
 40
0.090392129
 40
0.1412058618
 40
0.1973622769
 40
0.325481648
 40
0.470002663
 40
0.5453503491
 40
0.6206915759
 40
0.7651888922
 40
0.8319115287
 40
0.8935593073
 40
1.0
 40
1.0
 40
1.0
 40
1.0
 10
42.7305902629
 20
106.3732519023
 30
0.0
 10
42.7012828296
 20
106.3901365897
 30
0.0
 10
42.646186522
 20
106.4345906237
 30
0.0
 10
42.5839961346
 20
106.5251774847
 30
0.0
 10
42.5425015489
 20
106.6367166474
 30
0.0
 10
42.5141527163
 20
106.8162999016
 30
0.0
 10
42.5383545552
 20
107.0718316121
 30
0.0
 10
42.6245096937
 20
107.3272847627
 30
0.0
 10
42.7282411542
 20
107.5297423739
 30
0.0
 10
42.8517198789
 20
107.7206452646
 30
0.0
 10
42.9987892399
 20
107.8876311873
 30
0.0
 10
43.1642424389
 20
108.0179742957
 30
0.0
 10
43.320080445
 20
108.1093765585
 30
0.0
 10
43.448096175
 20
108.1486558493
 30
0.0
 10
43.5299284674
 20
108.1518053892
 30
0.0
  0
SPLINE
  5
335
100
AcDbEntity
  8
0
100
AcDbSpline
 62
7
  6
CONTINUOUS
 70
0
 71
3
 72
11
 73
7
 74
0
 42
0.0000001
 43
0.0000001
 44
0.0000000001
 40
0.0
 40
0.0
 40
0.0
 40
0.0
 40
0.2177651606
 40
0.4508956102
 40
0.7103690052
 40
1.0
 40
1.0
 40
1.0
 40
1.0
 10
75.501213875
 20
41.6387578812
 30
0.0
 10
75.558922466
 20
41.605409991
 30
0.0
 10
75.6669849928
 20
41.5147008793
 30
0.0
 10
75.7819527003
 20
41.3266386039
 30
0.0
 10
75.8502040166
 20
41.0949424053
 30
0.0
 10
75.8636788764
 20
40.9263107502
 30
0.0
 10
75.8636788764
 20
40.8376638263
 30
0.0
  0
SPLINE
  5
336
100
AcDbEntity
  8
0
100
AcDbSpline
 62
7
  6
CONTINUOUS
 70
0
 71
3
 72
11
 73
7
 74
0
 42
0.0000001
 43
0.0000001
 44
0.0000000001
 40
0.0
 40
0.0
 40
0.0
 40
0.0
 40
0.217745073
 40
0.4508830113
 40
0.7104597664
 40
1.0
 40
1.0
 40
1.0
 40
1.0
 10
67.7741197466
 20
18.1068099157
 30
0.0
 10
67.7955568406
 20
18.119186564
 30
0.0
 10
67.8357062125
 20
18.1528626362
 30
0.0
 10
67.8784153795
 20
18.2227254277
 30
0.0
 10
67.9037349146
 20
18.3087924453
 30
0.0
 10
67.9087607078
 20
18.3714241713
 30
0.0
 10
67.9087607078
 20
18.404339281
 30
0.0
  0
SPLINE
  5
337
100
AcDbEntity
  8
0
100
AcDbSpline
 62
7
  6
CONTINUOUS
 70
0
 71
3
 72
17
 73
13
 74
0
 42
0.0000001
 43
0.0000001
 44
0.0000000001
 40
0.0
 40
0.0
 40
0.0
 40
0.0
 40
0.0439744464
 40
0.0894043225
 40
0.1376887887
 40
0.1897771606
 40
0.3065272555
 40
0.4391469276
 40
0.5824008724
 40
0.7288416609
 40
0.8704177061
 40
1.0
 40
1.0
 40
1.0
 40
1.0
 10
37.5041750917
 20
86.5992053813
 30
0.0
 10
37.5575930779
 20
86.6300513731
 30
0.0
 10
37.6745863238
 20
86.6792716239
 30
0.0
 10
37.8670271166
 20
86.7094084778
 30
0.0
 10
38.0725822589
 20
86.6963682087
 30
0.0
 10
38.3689412257
 20
86.6200086923
 30
0.0
 10
38.7457031081
 20
86.4147665489
 30
0.0
 10
39.1578291815
 20
86.0441181085
 30
0.0
 10
39.5174263841
 20
85.5692175946
 30
0.0
 10
39.7952099705
 20
85.0283628057
 30
0.0
 10
39.968990909
 20
84.4658549436
 30
0.0
 10
40.0079203262
 20
84.0836321169
 30
0.0
 10
40.0025199935
 20
83.901943226
 30
0.0
  0
SPLINE
  5
338
100
AcDbEntity
  8
0
100
AcDbSpline
 62
7
  6
CONTINUOUS
 70
0
 71
3
 72
17
 73
13
 74
0
 42
0.0000001
 43
0.0000001
 44
0.0000000001
 40
0.0
 40
0.0
 40
0.0
 40
0.0
 40
0.0439744464
 40
0.0894043225
 40
0.1376887887
 40
0.1897771606
 40
0.3065272555
 40
0.4391469276
 40
0.5824008724
 40
0.7288416609
 40
0.8704177061
 40
1.0
 40
1.0
 40
1.0
 40
1.0
 10
41.0962924955
 20
84.5253423484
 30
0.0
 10
41.1497104817
 20
84.5561883402
 30
0.0
 10
41.2667037276
 20
84.605408591
 30
0.0
 10
41.4591445203
 20
84.6355454448
 30
0.0
 10
41.6646996627
 20
84.6225051757
 30
0.0
 10
41.9610586294
 20
84.5461456593
 30
0.0
 10
42.3378205118
 20
84.3409035159
 30
0.0
 10
42.7499465852
 20
83.9702550756
 30
0.0
 10
43.1095437878
 20
83.4953545617
 30
0.0
 10
43.3873273742
 20
82.9544997728
 30
0.0
 10
43.5611083128
 20
82.3919919106
 30
0.0
 10
43.60003773
 20
82.0097690839
 30
0.0
 10
43.5946373973
 20
81.8280801931
 30
0.0
  0
SPLINE
  5
339
100
AcDbEntity
  8
0
100
AcDbSpline
 62
7
  6
CONTINUOUS
 70
0
 71
3
 72
17
 73
13
 74
0
 42
0.0000001
 43
0.0000001
 44
0.0000000001
 40
0.0
 40
0.0
 40
0.0
 40
0.0
 40
0.0439744464
 40
0.0894043225
 40
0.1376887887
 40
0.1897771606
 40
0.3065272555
 40
0.4391469276
 40
0.5824008724
 40
0.7288416609
 40
0.8704177061
 40
1.0
 40
1.0
 40
1.0
 40
1.0
 10
44.6884098992
 20
82.4514793154
 30
0.0
 10
44.7418278854
 20
82.4823253072
 30
0.0
 10
44.8588211313
 20
82.531545558
 30
0.0
 10
45.0512619241
 20
82.5616824118
 30
0.0
 10
45.2568170664
 20
82.5486421428
 30
0.0
 10
45.5531760331
 20
82.4722826263
 30
0.0
 10
45.9299379156
 20
82.2670404829
 30
0.0
 10
46.342063989
 20
81.8963920426
 30
0.0
 10
46.7016611916
 20
81.4214915287
 30
0.0
 10
46.979444778
 20
80.8806367398
 30
0.0
 10
47.1532257165
 20
80.3181288776
 30
0.0
 10
47.1921551337
 20
79.935906051
 30
0.0
 10
47.186754801
 20
79.7542171601
 30
0.0
  0
SPLINE
  5
33A
100
AcDbEntity
  8
0
100
AcDbSpline
 62
7
  6
CONTINUOUS
 70
0
 71
3
 72
17
 73
13
 74
0
 42
0.0000001
 43
0.0000001
 44
0.0000000001
 40
0.0
 40
0.0
 40
0.0
 40
0.0
 40
0.0439744464
 40
0.0894043225
 40
0.1376887887
 40
0.1897771606
 40
0.3065272555
 40
0.4391469276
 40
0.5824008724
 40
0.7288416609
 40
0.8704177061
 40
1.0
 40
1.0
 40
1.0
 40
1.0
 10
48.2805273029
 20
80.3776162824
 30
0.0
 10
48.3339452892
 20
80.4084622743
 30
0.0
 10
48.4509385351
 20
80.457682525
 30
0.0
 10
48.6433793278
 20
80.4878193789
 30
0.0
 10
48.8489344701
 20
80.4747791098
 30
0.0
 10
49.1452934369
 20
80.3984195934
 30
0.0
 10
49.5220553193
 20
80.19317745
 30
0.0
 10
49.9341813927
 20
79.8225290097
 30
0.0
 10
50.2937785953
 20
79.3476284957
 30
0.0
 10
50.5715621817
 20
78.8067737069
 30
0.0
 10
50.7453431203
 20
78.2442658447
 30
0.0
 10
50.7842725375
 20
77.862043018
 30
0.0
 10
50.7788722048
 20
77.6803541271
 30
0.0
  0
SPLINE
  5
33B
100
AcDbEntity
  8
0
100
AcDbSpline
 62
7
  6
CONTINUOUS
 70
0
 71
3
 72
11
 73
7
 74
0
 42
0.0000001
 43
0.0000001
 44
0.0000000001
 40
0.0
 40
0.0
 40
0.0
 40
0.0
 40
0.2871740384
 40
0.546373957
 40
0.7807473612
 40
1.0
 40
1.0
 40
1.0
 40
1.0
 10
50.7788722048
 20
77.6803541271
 30
0.0
 10
50.77564306
 20
77.5717127217
 30
0.0
 10
50.7529510509
 20
77.3648268695
 30
0.0
 10
50.6611572267
 20
77.0812970128
 30
0.0
 10
50.5141233851
 20
76.8509862193
 30
0.0
 10
50.3792168294
 20
76.739151734
 30
0.0
 10
50.3073548005
 20
76.6976553168
 30
0.0
  0
SPLINE
  5
33C
100
AcDbEntity
  8
0
100
AcDbSpline
 62
7
  6
CONTINUOUS
 70
0
 71
3
 72
11
 73
7
 74
0
 42
0.0000001
 43
0.0000001
 44
0.0000000001
 40
0.0
 40
0.0
 40
0.0
 40
0.0
 40
0.2871740384
 40
0.546373957
 40
0.7807473612
 40
1.0
 40
1.0
 40
1.0
 40
1.0
 10
47.186754801
 20
79.7542171601
 30
0.0
 10
47.1835256562
 20
79.6455757547
 30
0.0
 10
47.1608336472
 20
79.4386899025
 30
0.0
 10
47.0690398229
 20
79.1551600457
 30
0.0
 10
46.9220059813
 20
78.9248492523
 30
0.0
 10
46.7870994257
 20
78.813014767
 30
0.0
 10
46.7152373968
 20
78.7715183497
 30
0.0
  0
SPLINE
  5
33D
100
AcDbEntity
  8
0
100
AcDbSpline
 62
7
  6
CONTINUOUS
 70
0
 71
3
 72
11
 73
7
 74
0
 42
0.0000001
 43
0.0000001
 44
0.0000000001
 40
0.0
 40
0.0
 40
0.0
 40
0.0
 40
0.2871740384
 40
0.546373957
 40
0.7807473612
 40
1.0
 40
1.0
 40
1.0
 40
1.0
 10
43.5946373973
 20
81.8280801931
 30
0.0
 10
43.5914082525
 20
81.7194387876
 30
0.0
 10
43.5687162435
 20
81.5125529355
 30
0.0
 10
43.4769224192
 20
81.2290230787
 30
0.0
 10
43.3298885776
 20
80.9987122852
 30
0.0
 10
43.194982022
 20
80.8868777999
 30
0.0
 10
43.123119993
 20
80.8453813827
 30
0.0
  0
SPLINE
  5
33E
100
AcDbEntity
  8
0
100
AcDbSpline
 62
7
  6
CONTINUOUS
 70
0
 71
3
 72
11
 73
7
 74
0
 42
0.0000001
 43
0.0000001
 44
0.0000000001
 40
0.0
 40
0.0
 40
0.0
 40
0.0
 40
0.2871740384
 40
0.546373957
 40
0.7807473612
 40
1.0
 40
1.0
 40
1.0
 40
1.0
 10
40.0025199935
 20
83.901943226
 30
0.0
 10
39.9992908487
 20
83.7933018206
 30
0.0
 10
39.9765988397
 20
83.5864159684
 30
0.0
 10
39.8848050154
 20
83.3028861116
 30
0.0
 10
39.7377711739
 20
83.0725753182
 30
0.0
 10
39.6028646182
 20
82.9607408329
 30
0.0
 10
39.5310025893
 20
82.9192444157
 30
0.0
  0
SPLINE
  5
33F
100
AcDbEntity
  8
0
100
AcDbSpline
 62
7
  6
CONTINUOUS
 70
0
 71
3
 72
11
 73
7
 74
0
 42
0.0000001
 43
0.0000001
 44
0.0000000001
 40
0.0
 40
0.0
 40
0.0
 40
0.0
 40
0.2372523758
 40
0.4999990758
 40
0.7627462798
 40
1.0
 40
1.0
 40
1.0
 40
1.0
 10
71.3382104911
 20
93.8695295882
 30
0.0
 10
71.4034670168
 20
93.8318545679
 30
0.0
 10
71.5269592305
 20
93.7279352982
 30
0.0
 10
71.6710364322
 20
93.5309651798
 30
0.0
 10
71.769580086
 20
93.3077056325
 30
0.0
 10
71.7978318125
 20
93.1487982728
 30
0.0
 10
71.7978318125
 20
93.0734465267
 30
0.0
  0
SPLINE
  5
340
100
AcDbEntity
  8
0
100
AcDbSpline
 62
7
  6
CONTINUOUS
 70
0
 71
3
 72
11
 73
7
 74
0
 42
0.0000001
 43
0.0000001
 44
0.0000000001
 40
0.0
 40
0.0
 40
0.0
 40
0.0
 40
0.2177460211
 40
0.4508843679
 40
0.7104607696
 40
1.0
 40
1.0
 40
1.0
 40
1.0
 10
42.5167435347
 20
105.4548818294
 30
0.0
 10
42.5381801556
 20
105.4672581894
 30
0.0
 10
42.5874179835
 20
105.4851900297
 30
0.0
 10
42.6692734002
 20
105.4872462346
 30
0.0
 10
42.756467115
 20
105.4661413905
 30
0.0
 10
42.8132192737
 20
105.4391793237
 30
0.0
 10
42.8417238953
 20
105.4227225451
 30
0.0
  0
SPLINE
  5
341
100
AcDbEntity
  8
0
100
AcDbSpline
 62
7
  6
CONTINUOUS
 70
0
 71
3
 72
11
 73
7
 74
0
 42
0.0000001
 43
0.0000001
 44
0.0000000001
 40
0.0
 40
0.0
 40
0.0
 40
0.0
 40
0.2895401978
 40
0.5491171512
 40
0.782255066
 40
1.0
 40
1.0
 40
1.0
 40
1.0
 10
67.5552087892
 20
18.200217204
 30
0.0
 10
67.5552087892
 20
18.167302099
 30
0.0
 10
67.5501829568
 20
18.104670362
 30
0.0
 10
67.5248634618
 20
18.0186033146
 30
0.0
 10
67.4821542593
 20
17.9487405429
 30
0.0
 10
67.442004915
 20
17.9150644678
 30
0.0
 10
67.4205678284
 20
17.902687839
 30
0.0
  0
SPLINE
  5
342
100
AcDbEntity
  8
0
100
AcDbSpline
 62
7
  6
CONTINUOUS
 70
0
 71
3
 72
9
 73
5
 74
0
 42
0.0000001
 43
0.0000001
 44
0.0000000001
 40
0.0
 40
0.0
 40
0.0
 40
0.0
 40
0.4921006111
 40
1.0
 40
1.0
 40
1.0
 40
1.0
 10
52.783262611
 20
18.4333553499
 30
0.0
 10
52.8772228573
 20
18.4876607983
 30
0.0
 10
53.0477492477
 20
18.6336416255
 30
0.0
 10
53.1767850341
 20
18.8146122662
 30
0.0
 10
53.23180887
 20
18.9121743561
 30
0.0
  0
SPLINE
  5
343
100
AcDbEntity
  8
0
100
AcDbSpline
 62
7
  6
CONTINUOUS
 70
0
 71
3
 72
17
 73
13
 74
0
 42
0.0000001
 43
0.0000001
 44
0.0000000001
 40
0.0
 40
0.0
 40
0.0
 40
0.0
 40
0.0439744463
 40
0.0894043227
 40
0.1376887893
 40
0.1897771615
 40
0.3065272563
 40
0.4391469272
 40
0.5824008704
 40
0.7288416578
 40
0.8704177035
 40
1.0
 40
1.0
 40
1.0
 40
1.0
 10
50.3073548005
 20
76.6976553168
 30
0.0
 10
50.2539368141
 20
76.6668093319
 30
0.0
 10
50.1369435694
 20
76.6175890945
 30
0.0
 10
49.9445027838
 20
76.5874522555
 30
0.0
 10
49.7389476513
 20
76.6004925342
 30
0.0
 10
49.4425887014
 20
76.6768520564
 30
0.0
 10
49.0658268423
 20
76.8820941925
 30
0.0
 10
48.6537007917
 20
77.2527426096
 30
0.0
 10
48.2941036056
 20
77.7276430903
 30
0.0
 10
48.0163200204
 20
78.2684978425
 30
0.0
 10
47.8425390801
 20
78.8310056725
 30
0.0
 10
47.8036096251
 20
79.2132284817
 30
0.0
 10
47.8090099577
 20
79.3949173671
 30
0.0
  0
SPLINE
  5
344
100
AcDbEntity
  8
0
100
AcDbSpline
 62
7
  6
CONTINUOUS
 70
0
 71
3
 72
11
 73
7
 74
0
 42
0.0000001
 43
0.0000001
 44
0.0000000001
 40
0.0
 40
0.0
 40
0.0
 40
0.0
 40
0.289534906
 40
0.5491059963
 40
0.7822491665
 40
1.0
 40
1.0
 40
1.0
 40
1.0
 10
28.7899426872
 20
97.3099713086
 30
0.0
 10
28.7614381739
 20
97.3264280247
 30
0.0
 10
28.7046872245
 20
97.3533917498
 30
0.0
 10
28.6174933192
 20
97.3744972105
 30
0.0
 10
28.5356364429
 20
97.3724446699
 30
0.0
 10
28.4863965711
 20
97.354512715
 30
0.0
 10
28.464959241
 20
97.3421359379
 30
0.0
  0
SPLINE
  5
345
100
AcDbEntity
  8
0
100
AcDbSpline
 62
7
  6
CONTINUOUS
 70
0
 71
3
 72
11
 73
7
 74
0
 42
0.0000001
 43
0.0000001
 44
0.0000000001
 40
0.0
 40
0.0
 40
0.0
 40
0.0
 40
0.2393537375
 40
0.5021624329
 40
0.763798885
 40
1.0
 40
1.0
 40
1.0
 40
1.0
 10
28.3306051796
 20
96.532569777
 30
0.0
 10
28.3328198689
 20
96.6070808238
 30
0.0
 10
28.3636811348
 20
96.762771627
 30
0.0
 10
28.4629860221
 20
96.9807932886
 30
0.0
 10
28.6053552647
 20
97.1722475882
 30
0.0
 10
28.7262359403
 20
97.2731904207
 30
0.0
 10
28.7899426872
 20
97.3099713086
 30
0.0
  0
SPLINE
  5
346
100
AcDbEntity
  8
0
100
AcDbSpline
 62
7
  6
CONTINUOUS
 70
0
 71
3
 72
13
 73
9
 74
0
 42
0.0000001
 43
0.0000001
 44
0.0000000001
 40
0.0
 40
0.0
 40
0.0
 40
0.0
 40
0.1958145321
 40
0.4415293272
 40
0.5800024068
 40
0.7248703044
 40
0.8689675828
 40
1.0
 40
1.0
 40
1.0
 40
1.0
 10
53.23180887
 20
73.3728855786
 30
0.0
 10
53.1733804987
 20
73.4090173395
 30
0.0
 10
53.0413308304
 20
73.4900010232
 30
0.0
 10
52.8667537365
 20
73.5945419601
 30
0.0
 10
52.7074535881
 20
73.6897997899
 30
0.0
 10
52.5787678096
 20
73.7667898287
 30
0.0
 10
52.4518600027
 20
73.8416677838
 30
0.0
 10
52.3681516667
 20
73.88973002
 30
0.0
 10
52.3283400938
 20
73.9127147223
 30
0.0
  0
SPLINE
  5
347
100
AcDbEntity
  8
0
100
AcDbSpline
 62
7
  6
CONTINUOUS
 70
0
 71
3
 72
11
 73
7
 74
0
 42
0.0000001
 43
0.0000001
 44
0.0000000001
 40
0.0
 40
0.0
 40
0.0
 40
0.0
 40
0.2177498853
 40
0.4508926472
 40
0.710464091
 40
1.0
 40
1.0
 40
1.0
 40
1.0
 10
42.1416087337
 20
12.2894805815
 30
0.0
 10
42.1630465435
 20
12.3018576355
 30
0.0
 10
42.2031970368
 20
12.3355354204
 30
0.0
 10
42.2459037601
 20
12.4054013082
 30
0.0
 10
42.2712228564
 20
12.4914687991
 30
0.0
 10
42.2762466088
 20
12.5541003069
 30
0.0
 10
42.2762466088
 20
12.5870152916
 30
0.0
  0
SPLINE
  5
348
100
AcDbEntity
  8
0
100
AcDbSpline
 62
7
  6
CONTINUOUS
 70
0
 71
3
 72
9
 73
5
 74
0
 42
0.0000001
 43
0.0000001
 44
0.0000000001
 40
0.0
 40
0.0
 40
0.0
 40
0.0
 40
0.5071829171
 40
1.0
 40
1.0
 40
1.0
 40
1.0
 10
42.2762466088
 20
21.9767930886
 30
0.0
 10
42.2192946575
 20
21.8781488678
 30
0.0
 10
42.0864535271
 20
21.6950100478
 30
0.0
 10
41.9126662846
 20
21.5467435386
 30
0.0
 10
41.8169105287
 20
21.491241568
 30
0.0
  0
SPLINE
  5
349
100
AcDbEntity
  8
0
100
AcDbSpline
 62
7
  6
CONTINUOUS
 70
0
 71
3
 72
11
 73
7
 74
0
 42
0.0000001
 43
0.0000001
 44
0.0000000001
 40
0.0
 40
0.0
 40
0.0
 40
0.0
 40
0.2895368706
 40
0.5491085983
 40
0.7822509632
 40
1.0
 40
1.0
 40
1.0
 40
1.0
 10
37.9585978327
 20
20.0147296853
 30
0.0
 10
37.9585978327
 20
19.981814552
 30
0.0
 10
37.9636215796
 20
19.9191828272
 30
0.0
 10
37.9889407012
 20
19.8331151276
 30
0.0
 10
38.031647489
 20
19.7632492724
 30
0.0
 10
38.0717980991
 20
19.7295717083
 30
0.0
 10
38.0932359397
 20
19.7171948414
 30
0.0
  0
SPLINE
  5
34A
100
AcDbEntity
  8
0
100
AcDbSpline
 62
7
  6
CONTINUOUS
 70
0
 71
3
 72
11
 73
7
 74
0
 42
0.0000001
 43
0.0000001
 44
0.0000000001
 40
0.0
 40
0.0
 40
0.0
 40
0.0
 40
0.2372465442
 40
0.4999994739
 40
0.7627526898
 40
1.0
 40
1.0
 40
1.0
 40
1.0
 10
38.8778366482
 20
20.0147318949
 30
0.0
 10
38.8125819858
 20
19.9770573229
 30
0.0
 10
38.6608399305
 20
19.9220682336
 30
0.0
 10
38.418217963
 20
19.8957768473
 30
0.0
 10
38.1755956296
 20
19.9220671264
 30
0.0
 10
38.0238529775
 20
19.9770554622
 30
0.0
 10
37.9585978327
 20
20.0147296853
 30
0.0
  0
SPLINE
  5
34B
100
AcDbEntity
  8
0
100
AcDbSpline
 62
7
  6
CONTINUOUS
 70
0
 71
3
 72
11
 73
7
 74
0
 42
0.0000001
 43
0.0000001
 44
0.0000000001
 40
0.0
 40
0.0
 40
0.0
 40
0.0
 40
0.2372473102
 40
0.5000005261
 40
0.7627534558
 40
1.0
 40
1.0
 40
1.0
 40
1.0
 10
37.9585978327
 20
55.6958853139
 30
0.0
 10
38.0238529775
 20
55.6582110908
 30
0.0
 10
38.1755956296
 20
55.603222755
 30
0.0
 10
38.418217963
 20
55.5769324759
 30
0.0
 10
38.6608399305
 20
55.6032238622
 30
0.0
 10
38.8125819858
 20
55.6582129514
 30
0.0
 10
38.8778366482
 20
55.6958875235
 30
0.0
  0
SPLINE
  5
34C
100
AcDbEntity
  8
0
100
AcDbSpline
 62
7
  6
CONTINUOUS
 70
0
 71
3
 72
11
 73
7
 74
0
 42
0.0000001
 43
0.0000001
 44
0.0000000001
 40
0.0
 40
0.0
 40
0.0
 40
0.0
 40
0.2372460005
 40
0.4999983822
 40
0.7627516439
 40
1.0
 40
1.0
 40
1.0
 40
1.0
 10
38.4182153269
 20
56.4919705851
 30
0.0
 10
38.352960737
 20
56.4542960549
 30
0.0
 10
38.2294675928
 20
56.3503784191
 30
0.0
 10
38.0853881849
 20
56.1534068677
 30
0.0
 10
37.9868463843
 20
55.930143462
 30
0.0
 10
37.9585978327
 20
55.7712354597
 30
0.0
 10
37.9585978327
 20
55.6958853139
 30
0.0
  0
SPLINE
  5
34D
100
AcDbEntity
  8
0
100
AcDbSpline
 62
7
  6
CONTINUOUS
 70
0
 71
3
 72
11
 73
7
 74
0
 42
0.0000001
 43
0.0000001
 44
0.0000000001
 40
0.0
 40
0.0
 40
0.0
 40
0.0
 40
0.2372480941
 40
0.5000010917
 40
0.7627534955
 40
1.0
 40
1.0
 40
1.0
 40
1.0
 10
38.8778366482
 20
55.6958875235
 30
0.0
 10
38.8778366482
 20
55.7712376289
 30
0.0
 10
38.8495878641
 20
55.9301455602
 30
0.0
 10
38.7510451758
 20
56.1534085868
 30
0.0
 10
38.6069644752
 20
56.3503795098
 30
0.0
 10
38.4834703642
 20
56.454296424
 30
0.0
 10
38.4182153269
 20
56.4919705851
 30
0.0
  0
SPLINE
  5
34E
100
AcDbEntity
  8
0
100
AcDbSpline
 62
7
  6
CONTINUOUS
 70
0
 71
3
 72
12
 73
8
 74
0
 42
0.0000001
 43
0.0000001
 44
0.0000000001
 40
0.0
 40
0.0
 40
0.0
 40
0.0
 40
0.4405493364
 40
0.5787375619
 40
0.7237301005
 40
0.868393844
 40
1.0
 40
1.0
 40
1.0
 40
1.0
 10
42.2762466088
 20
57.6579487171
 30
0.0
 10
42.1412572619
 20
57.7358870812
 30
0.0
 10
41.9638608379
 20
57.8381599934
 30
0.0
 10
41.7418749949
 20
57.9658045619
 30
0.0
 10
41.6111085875
 20
58.0420645148
 30
0.0
 10
41.4822605344
 20
58.116992211
 30
0.0
 10
41.3973339385
 20
58.1653912946
 30
0.0
 10
41.3570077933
 20
58.1886730787
 30
0.0
  0
SPLINE
  5
34F
100
AcDbEntity
  8
0
100
AcDbSpline
 62
7
  6
CONTINUOUS
 70
0
 71
3
 72
11
 73
7
 74
0
 42
0.0000001
 43
0.0000001
 44
0.0000000001
 40
0.0
 40
0.0
 40
0.0
 40
0.0
 40
0.2372473102
 40
0.5000005261
 40
0.7627534558
 40
1.0
 40
1.0
 40
1.0
 40
1.0
 10
41.3570077933
 20
67.0477243045
 30
0.0
 10
41.4222629381
 20
67.0100500814
 30
0.0
 10
41.5740055902
 20
66.9550617456
 30
0.0
 10
41.8166279236
 20
66.9287714665
 30
0.0
 10
42.0592498911
 20
66.9550628528
 30
0.0
 10
42.2109919463
 20
67.0100519421
 30
0.0
 10
42.2762466088
 20
67.0477265141
 30
0.0
  0
SPLINE
  5
350
100
AcDbEntity
  8
0
100
AcDbSpline
 62
7
  6
CONTINUOUS
 70
0
 71
3
 72
11
 73
7
 74
0
 42
0.0000001
 43
0.0000001
 44
0.0000000001
 40
0.0
 40
0.0
 40
0.0
 40
0.0
 40
0.2372460005
 40
0.4999983822
 40
0.7627516439
 40
1.0
 40
1.0
 40
1.0
 40
1.0
 10
41.8166252874
 20
67.8438095757
 30
0.0
 10
41.7513706975
 20
67.8061350455
 30
0.0
 10
41.6278775534
 20
67.7022174097
 30
0.0
 10
41.4837981454
 20
67.5052458583
 30
0.0
 10
41.3852563448
 20
67.2819824527
 30
0.0
 10
41.3570077933
 20
67.1230744503
 30
0.0
 10
41.3570077933
 20
67.0477243045
 30
0.0
  0
SPLINE
  5
351
100
AcDbEntity
  8
0
100
AcDbSpline
 62
7
  6
CONTINUOUS
 70
0
 71
3
 72
11
 73
7
 74
0
 42
0.0000001
 43
0.0000001
 44
0.0000000001
 40
0.0
 40
0.0
 40
0.0
 40
0.0
 40
0.2372480941
 40
0.5000010917
 40
0.7627534955
 40
1.0
 40
1.0
 40
1.0
 40
1.0
 10
42.2762466088
 20
67.0477265141
 30
0.0
 10
42.2762466088
 20
67.1230766195
 30
0.0
 10
42.2479978247
 20
67.2819845508
 30
0.0
 10
42.1494551364
 20
67.5052475774
 30
0.0
 10
42.0053744357
 20
67.7022185004
 30
0.0
 10
41.8818803247
 20
67.8061354146
 30
0.0
 10
41.8166252874
 20
67.8438095757
 30
0.0
  0
SPLINE
  5
352
100
AcDbEntity
  8
0
100
AcDbSpline
 62
7
  6
CONTINUOUS
 70
0
 71
3
 72
11
 73
7
 74
0
 42
0.0000001
 43
0.0000001
 44
0.0000000001
 40
0.0
 40
0.0
 40
0.0
 40
0.0
 40
0.2372465442
 40
0.4999994739
 40
0.7627526898
 40
1.0
 40
1.0
 40
1.0
 40
1.0
 10
42.2762466088
 20
12.5870152916
 30
0.0
 10
42.2109919463
 20
12.5493407195
 30
0.0
 10
42.0592498911
 20
12.4943516302
 30
0.0
 10
41.8166279236
 20
12.468060244
 30
0.0
 10
41.5740055902
 20
12.494350523
 30
0.0
 10
41.4222629381
 20
12.5493388589
 30
0.0
 10
41.3570077933
 20
12.587013082
 30
0.0
  0
SPLINE
  5
353
100
AcDbEntity
  8
0
100
AcDbSpline
 62
7
  6
CONTINUOUS
 70
0
 71
3
 72
11
 73
7
 74
0
 42
0.0000001
 43
0.0000001
 44
0.0000000001
 40
0.0
 40
0.0
 40
0.0
 40
0.0
 40
0.2177498853
 40
0.4508926472
 40
0.710464091
 40
1.0
 40
1.0
 40
1.0
 40
1.0
 10
38.7431987731
 20
19.7171971849
 30
0.0
 10
38.764636583
 20
19.7295742389
 30
0.0
 10
38.8047870762
 20
19.7632520238
 30
0.0
 10
38.8474937995
 20
19.8331179116
 30
0.0
 10
38.8728128958
 20
19.9191854024
 30
0.0
 10
38.8778366482
 20
19.9818169103
 30
0.0
 10
38.8778366482
 20
20.0147318949
 30
0.0
  0
SPLINE
  5
354
100
AcDbEntity
  8
0
100
AcDbSpline
 62
7
  6
CONTINUOUS
 70
0
 71
3
 72
11
 73
7
 74
0
 42
0.0000001
 43
0.0000001
 44
0.0000000001
 40
0.0
 40
0.0
 40
0.0
 40
0.0
 40
0.2895368706
 40
0.5491085983
 40
0.7822509632
 40
1.0
 40
1.0
 40
1.0
 40
1.0
 10
41.3570077933
 20
12.587013082
 30
0.0
 10
41.3570077933
 20
12.5540979487
 30
0.0
 10
41.3620315402
 20
12.4914662238
 30
0.0
 10
41.3873506618
 20
12.4053985243
 30
0.0
 10
41.4300574496
 20
12.335532669
 30
0.0
 10
41.4702080596
 20
12.301855105
 30
0.0
 10
41.4916459003
 20
12.289478238
 30
0.0
  0
SPLINE
  5
355
100
AcDbEntity
  8
0
100
AcDbSpline
 62
7
  6
CONTINUOUS
 70
0
 71
3
 72
11
 73
7
 74
0
 42
0.0000001
 43
0.0000001
 44
0.0000000001
 40
0.0
 40
0.0
 40
0.0
 40
0.0
 40
0.218923611
 40
0.4553808493
 40
0.7153203882
 40
1.0
 40
1.0
 40
1.0
 40
1.0
 10
48.3102071393
 20
80.3759950322
 30
0.0
 10
48.2586427527
 20
80.3293669254
 30
0.0
 10
48.1651266169
 20
80.2164220502
 30
0.0
 10
48.0670052041
 20
80.0095207683
 30
0.0
 10
48.0085474931
 20
79.76701447
 30
0.0
 10
47.9966744942
 20
79.5936898488
 30
0.0
 10
47.9966744942
 20
79.5032884524
 30
0.0
  0
SPLINE
  5
356
100
AcDbEntity
  8
0
100
AcDbSpline
 62
7
  6
CONTINUOUS
 70
0
 71
3
 72
9
 73
5
 74
0
 42
0.0000001
 43
0.0000001
 44
0.0000000001
 40
0.0
 40
0.0
 40
0.0
 40
0.0
 40
0.746801161
 40
1.0
 40
1.0
 40
1.0
 40
1.0
 10
13.8393723672
 20
33.7198527214
 30
0.0
 10
13.8258336287
 20
33.7276691413
 30
0.0
 10
13.808769789
 20
33.7401654159
 30
0.0
 10
13.7937660265
 20
33.7547709487
 30
0.0
 10
13.7900957468
 20
33.7585948747
 30
0.0
  0
SPLINE
  5
357
100
AcDbEntity
  8
0
100
AcDbSpline
 62
7
  6
CONTINUOUS
 70
0
 71
3
 72
9
 73
5
 74
0
 42
0.0000001
 43
0.0000001
 44
0.0000000001
 40
0.0
 40
0.0
 40
0.0
 40
0.0
 40
0.4568245881
 40
1.0
 40
1.0
 40
1.0
 40
1.0
 10
13.7900957468
 20
33.7585948747
 30
0.0
 10
13.7608409039
 20
33.7890743921
 30
0.0
 10
13.7154273398
 20
33.8737944253
 30
0.0
 10
13.7047342601
 20
33.9671543353
 30
0.0
 10
13.7047342601
 20
34.0173875654
 30
0.0
  0
SPLINE
  5
358
100
AcDbEntity
  8
0
100
AcDbSpline
 62
7
  6
CONTINUOUS
 70
0
 71
3
 72
11
 73
7
 74
0
 42
0.0000001
 43
0.0000001
 44
0.0000000001
 40
0.0
 40
0.0
 40
0.0
 40
0.0
 40
0.218923611
 40
0.4553808493
 40
0.7153203882
 40
1.0
 40
1.0
 40
1.0
 40
1.0
 10
41.1259723318
 20
84.5237210981
 30
0.0
 10
41.0744079452
 20
84.4770929913
 30
0.0
 10
40.9808918094
 20
84.3641481161
 30
0.0
 10
40.8827703966
 20
84.1572468342
 30
0.0
 10
40.8243126857
 20
83.9147405359
 30
0.0
 10
40.8124396868
 20
83.7414159147
 30
0.0
 10
40.8124396868
 20
83.6510145183
 30
0.0
  0
SPLINE
  5
359
100
AcDbEntity
  8
0
100
AcDbSpline
 62
7
  6
CONTINUOUS
 70
0
 71
3
 72
11
 73
7
 74
0
 42
0.0000001
 43
0.0000001
 44
0.0000000001
 40
0.0
 40
0.0
 40
0.0
 40
0.0
 40
0.2393480741
 40
0.5021906606
 40
0.7638382018
 40
1.0
 40
1.0
 40
1.0
 40
1.0
 10
53.5034275812
 20
10.0874659676
 30
0.0
 10
53.4386051718
 20
10.0474270899
 30
0.0
 10
53.2875350876
 20
9.9874766434
 30
0.0
 10
53.044579246
 20
9.955210374
 30
0.0
 10
52.8015269786
 20
9.9775084394
 30
0.0
 10
52.6495740039
 20
10.0315156329
 30
0.0
 10
52.5844687522
 20
10.0691033171
 30
0.0
  0
SPLINE
  5
35A
100
AcDbEntity
  8
0
100
AcDbSpline
 62
7
  6
CONTINUOUS
 70
0
 71
3
 72
11
 73
7
 74
0
 42
0.0000001
 43
0.0000001
 44
0.0000000001
 40
0.0
 40
0.0
 40
0.0
 40
0.0
 40
0.218923611
 40
0.4553808493
 40
0.7153203882
 40
1.0
 40
1.0
 40
1.0
 40
1.0
 10
37.5338549281
 20
86.5975841311
 30
0.0
 10
37.4822905415
 20
86.5509560243
 30
0.0
 10
37.3887744056
 20
86.4380111491
 30
0.0
 10
37.2906529928
 20
86.2311098672
 30
0.0
 10
37.2321952819
 20
85.9886035689
 30
0.0
 10
37.220322283
 20
85.8152789477
 30
0.0
 10
37.220322283
 20
85.7248775513
 30
0.0
  0
SPLINE
  5
35B
100
AcDbEntity
  8
0
100
AcDbSpline
 62
7
  6
CONTINUOUS
 70
0
 71
3
 72
11
 73
7
 74
0
 42
0.0000001
 43
0.0000001
 44
0.0000000001
 40
0.0
 40
0.0
 40
0.0
 40
0.0
 40
0.2140458844
 40
0.4454778281
 40
0.7063013788
 40
1.0
 40
1.0
 40
1.0
 40
1.0
 10
28.1402592474
 20
96.7985552579
 30
0.0
 10
28.1395380934
 20
96.7741432541
 30
0.0
 10
28.1476222658
 20
96.7226780447
 30
0.0
 10
28.1865452177
 20
96.6507520897
 30
0.0
 10
28.2490992652
 20
96.5853816631
 30
0.0
 10
28.301583606
 20
96.5493250113
 30
0.0
 10
28.3306051797
 20
96.532569777
 30
0.0
  0
SPLINE
  5
35C
100
AcDbEntity
  8
0
100
AcDbSpline
 62
7
  6
CONTINUOUS
 70
0
 71
3
 72
17
 73
13
 74
0
 42
0.0000001
 43
0.0000001
 44
0.0000000001
 40
0.0
 40
0.0
 40
0.0
 40
0.0
 40
0.1249763857
 40
0.2620579284
 40
0.4052295605
 40
0.5475613651
 40
0.6822274641
 40
0.8036486974
 40
0.8584407181
 40
0.9091367378
 40
0.9560769701
 40
1.0
 40
1.0
 40
1.0
 40
1.0
 10
37.220322283
 20
85.7248775513
 30
0.0
 10
37.220322283
 20
85.5594060266
 30
0.0
 10
37.2630673733
 20
85.2120418729
 30
0.0
 10
37.4249207171
 20
84.6981218657
 30
0.0
 10
37.6768416694
 20
84.1959337654
 30
0.0
 10
38.0011424761
 20
83.741036358
 30
0.0
 10
38.3749494974
 20
83.3653709665
 30
0.0
 10
38.7184917748
 20
83.1318624191
 30
0.0
 10
38.9953761966
 20
83.0130648965
 30
0.0
 10
39.1913005671
 20
82.9611772509
 30
0.0
 10
39.3789923047
 20
82.9445484222
 30
0.0
 10
39.4996144365
 20
82.9581225299
 30
0.0
 10
39.5562895928
 20
82.9711585984
 30
0.0
  0
SPLINE
  5
35D
100
AcDbEntity
  8
0
100
AcDbSpline
 62
7
  6
CONTINUOUS
 70
0
 71
3
 72
9
 73
5
 74
0
 42
0.0000001
 43
0.0000001
 44
0.0000000001
 40
0.0
 40
0.0
 40
0.0
 40
0.0
 40
0.5431091953
 40
1.0
 40
1.0
 40
1.0
 40
1.0
 10
17.1031442207
 20
26.589670962
 30
0.0
 10
17.0597136963
 20
26.6147450197
 30
0.0
 10
16.9843226093
 20
26.6705830494
 30
0.0
 10
16.9336557385
 20
26.752071225
 30
0.0
 10
16.9218275501
 20
26.7925669957
 30
0.0
  0
SPLINE
  5
35E
100
AcDbEntity
  8
0
100
AcDbSpline
 62
7
  6
CONTINUOUS
 70
0
 71
3
 72
9
 73
5
 74
0
 42
0.0000001
 43
0.0000001
 44
0.0000000001
 40
0.0
 40
0.0
 40
0.0
 40
0.0
 40
0.2532419651
 40
1.0
 40
1.0
 40
1.0
 40
1.0
 10
16.9218275501
 20
26.7925669957
 30
0.0
 10
16.9203310165
 20
26.7976906275
 30
0.0
 10
16.9151143691
 20
26.8181180843
 30
0.0
 10
16.9127919133
 20
26.8392898434
 30
0.0
 10
16.9127919126
 20
26.855029662
 30
0.0
  0
SPLINE
  5
35F
100
AcDbEntity
  8
0
100
AcDbSpline
 62
7
  6
CONTINUOUS
 70
0
 71
3
 72
17
 73
13
 74
0
 42
0.0000001
 43
0.0000001
 44
0.0000000001
 40
0.0
 40
0.0
 40
0.0
 40
0.0
 40
0.1249763857
 40
0.2620579284
 40
0.4052295605
 40
0.5475613651
 40
0.6822274641
 40
0.8036486974
 40
0.8584407181
 40
0.9091367378
 40
0.9560769701
 40
1.0
 40
1.0
 40
1.0
 40
1.0
 10
40.8124396868
 20
83.6510145183
 30
0.0
 10
40.8124396868
 20
83.4855429936
 30
0.0
 10
40.8551847771
 20
83.13817884
 30
0.0
 10
41.0170381209
 20
82.6242588327
 30
0.0
 10
41.2689590732
 20
82.1220707325
 30
0.0
 10
41.5932598798
 20
81.6671733251
 30
0.0
 10
41.9670669011
 20
81.2915079335
 30
0.0
 10
42.3106091785
 20
81.0579993861
 30
0.0
 10
42.5874936004
 20
80.9392018636
 30
0.0
 10
42.7834179708
 20
80.887314218
 30
0.0
 10
42.9711097084
 20
80.8706853893
 30
0.0
 10
43.0917318403
 20
80.8842594969
 30
0.0
 10
43.1484069965
 20
80.8972955655
 30
0.0
  0
SPLINE
  5
360
100
AcDbEntity
  8
0
100
AcDbSpline
 62
7
  6
CONTINUOUS
 70
0
 71
3
 72
9
 73
5
 74
0
 42
0.0000001
 43
0.0000001
 44
0.0000000001
 40
0.0
 40
0.0
 40
0.0
 40
0.0
 40
0.543152691
 40
1.0
 40
1.0
 40
1.0
 40
1.0
 10
13.7047342601
 20
34.0173875654
 30
0.0
 10
13.6612571577
 20
34.0424885143
 30
0.0
 10
13.58579283
 20
34.0983913247
 30
0.0
 10
13.5351285371
 20
34.1800078595
 30
0.0
 10
13.5233387198
 20
34.22055423
 30
0.0
  0
SPLINE
  5
361
100
AcDbEntity
  8
0
100
AcDbSpline
 62
7
  6
CONTINUOUS
 70
0
 71
3
 72
9
 73
5
 74
0
 42
0.0000001
 43
0.0000001
 44
0.0000000001
 40
0.0
 40
0.0
 40
0.0
 40
0.0
 40
0.2532141114
 40
1.0
 40
1.0
 40
1.0
 40
1.0
 10
13.5233387198
 20
34.22055423
 30
0.0
 10
13.5218551562
 20
34.225656355
 30
0.0
 10
13.5166836096
 20
34.2459986962
 30
0.0
 10
13.5143819527
 20
34.2670757261
 30
0.0
 10
13.514381952
 20
34.2827462654
 30
0.0
  0
SPLINE
  5
362
100
AcDbEntity
  8
0
100
AcDbSpline
 62
7
  6
CONTINUOUS
 70
0
 71
3
 72
17
 73
13
 74
0
 42
0.0000001
 43
0.0000001
 44
0.0000000001
 40
0.0
 40
0.0
 40
0.0
 40
0.0
 40
0.1249763857
 40
0.2620579284
 40
0.4052295605
 40
0.5475613651
 40
0.6822274641
 40
0.8036486974
 40
0.8584407181
 40
0.9091367378
 40
0.9560769701
 40
1.0
 40
1.0
 40
1.0
 40
1.0
 10
44.4045570905
 20
81.5771514853
 30
0.0
 10
44.4045570905
 20
81.4116799607
 30
0.0
 10
44.4473021808
 20
81.064315807
 30
0.0
 10
44.6091555246
 20
80.5503957998
 30
0.0
 10
44.8610764769
 20
80.0482076995
 30
0.0
 10
45.1853772836
 20
79.5933102921
 30
0.0
 10
45.5591843049
 20
79.2176449005
 30
0.0
 10
45.9027265823
 20
78.9841363531
 30
0.0
 10
46.1796110041
 20
78.8653388306
 30
0.0
 10
46.3755353746
 20
78.813451185
 30
0.0
 10
46.5632271121
 20
78.7968223563
 30
0.0
 10
46.683849244
 20
78.8103964639
 30
0.0
 10
46.7405244003
 20
78.8234325325
 30
0.0
  0
SPLINE
  5
363
100
AcDbEntity
  8
0
100
AcDbSpline
 62
7
  6
CONTINUOUS
 70
0
 71
3
 72
11
 73
7
 74
0
 42
0.0000001
 43
0.0000001
 44
0.0000000001
 40
0.0
 40
0.0
 40
0.0
 40
0.0
 40
0.289534906
 40
0.5491059963
 40
0.7822491665
 40
1.0
 40
1.0
 40
1.0
 40
1.0
 10
14.1643517543
 20
70.4946284651
 30
0.0
 10
14.135847241
 20
70.5110851812
 30
0.0
 10
14.0790962916
 20
70.5380489063
 30
0.0
 10
13.9919023863
 20
70.559154367
 30
0.0
 10
13.91004551
 20
70.5571018264
 30
0.0
 10
13.8608056382
 20
70.5391698715
 30
0.0
 10
13.8393683081
 20
70.5267930944
 30
0.0
  0
SPLINE
  5
364
100
AcDbEntity
  8
0
100
AcDbSpline
 62
7
  6
CONTINUOUS
 70
0
 71
3
 72
11
 73
7
 74
0
 42
0.0000001
 43
0.0000001
 44
0.0000000001
 40
0.0
 40
0.0
 40
0.0
 40
0.0
 40
0.2372483561
 40
0.5000016178
 40
0.7627539995
 40
1.0
 40
1.0
 40
1.0
 40
1.0
 10
13.7047342601
 20
69.6985431939
 30
0.0
 10
13.7047342601
 20
69.7738933397
 30
0.0
 10
13.7329828117
 20
69.9328013421
 30
0.0
 10
13.8315246123
 20
70.1560647478
 30
0.0
 10
13.9756040203
 20
70.3530362991
 30
0.0
 10
14.0990971644
 20
70.4569539349
 30
0.0
 10
14.1643517543
 20
70.4946284651
 30
0.0
  0
SPLINE
  5
365
100
AcDbEntity
  8
0
100
AcDbSpline
 62
7
  6
CONTINUOUS
 70
0
 71
3
 72
17
 73
13
 74
0
 42
0.0000001
 43
0.0000001
 44
0.0000000001
 40
0.0
 40
0.0
 40
0.0
 40
0.0
 40
0.1249763857
 40
0.2620579284
 40
0.4052295605
 40
0.5475613651
 40
0.6822274641
 40
0.8036486974
 40
0.8584407181
 40
0.9091367378
 40
0.9560769701
 40
1.0
 40
1.0
 40
1.0
 40
1.0
 10
47.9966744942
 20
79.5032884524
 30
0.0
 10
47.9966744942
 20
79.3378169277
 30
0.0
 10
48.0394195846
 20
78.990452774
 30
0.0
 10
48.2012729284
 20
78.4765327668
 30
0.0
 10
48.4531938806
 20
77.9743446665
 30
0.0
 10
48.7774946873
 20
77.5194472591
 30
0.0
 10
49.1513017086
 20
77.1437818676
 30
0.0
 10
49.494843986
 20
76.9102733202
 30
0.0
 10
49.7717284079
 20
76.7914757976
 30
0.0
 10
49.9676527783
 20
76.739588152
 30
0.0
 10
50.1553445159
 20
76.7229593233
 30
0.0
 10
50.2759666478
 20
76.736533431
 30
0.0
 10
50.332641804
 20
76.7495694995
 30
0.0
  0
SPLINE
  5
366
100
AcDbEntity
  8
0
100
AcDbSpline
 62
7
  6
CONTINUOUS
 70
0
 71
3
 72
18
 73
14
 74
0
 42
0.0000001
 43
0.0000001
 44
0.0000000001
 40
0.0
 40
0.0
 40
0.0
 40
0.0
 40
0.2409897473
 40
0.45112453
 40
0.6271820501
 40
0.7673173961
 40
0.8728242322
 40
0.9131303692
 40
0.9454245422
 40
0.9699421515
 40
0.9869928458
 40
0.9969028748
 40
1.0
 40
1.0
 40
1.0
 40
1.0
 10
17.1031442207
 20
72.1913309587
 30
0.0
 10
17.0878311009
 20
72.2001717925
 30
0.0
 10
17.0592049797
 20
72.2167912256
 30
0.0
 10
17.0194641441
 20
72.2399877853
 30
0.0
 10
16.9860672351
 20
72.2593916235
 30
0.0
 10
16.9592048279
 20
72.2747116066
 30
0.0
 10
16.9408672666
 20
72.2849852461
 30
0.0
 10
16.9295058197
 20
72.2913261723
 30
0.0
 10
16.9231639922
 20
72.2948202696
 30
0.0
 10
16.9187235623
 20
72.2973961299
 30
0.0
 10
16.9148109138
 20
72.2994198562
 30
0.0
 10
16.9139550648
 20
72.3002461235
 30
0.0
 10
16.9120887836
 20
72.3010038208
 30
0.0
 10
16.9123148111
 20
72.3010272938
 30
0.0
  0
SPLINE
  5
367
100
AcDbEntity
  8
0
100
AcDbSpline
 62
7
  6
CONTINUOUS
 70
0
 71
3
 72
11
 73
7
 74
0
 42
0.0000001
 43
0.0000001
 44
0.0000000001
 40
0.0
 40
0.0
 40
0.0
 40
0.0
 40
0.289534906
 40
0.5491059963
 40
0.7822491665
 40
1.0
 40
1.0
 40
1.0
 40
1.0
 10
17.5627617149
 20
81.8464674557
 30
0.0
 10
17.5342572016
 20
81.8629241719
 30
0.0
 10
17.4775062522
 20
81.8898878969
 30
0.0
 10
17.3903123469
 20
81.9109933576
 30
0.0
 10
17.3084554706
 20
81.908940817
 30
0.0
 10
17.2592155988
 20
81.8910088621
 30
0.0
 10
17.2377782687
 20
81.8786320851
 30
0.0
  0
SPLINE
  5
368
100
AcDbEntity
  8
0
100
AcDbSpline
 62
7
  6
CONTINUOUS
 70
0
 71
3
 72
11
 73
7
 74
0
 42
0.0000001
 43
0.0000001
 44
0.0000000001
 40
0.0
 40
0.0
 40
0.0
 40
0.0
 40
0.2372483561
 40
0.5000016178
 40
0.7627539995
 40
1.0
 40
1.0
 40
1.0
 40
1.0
 10
17.1031442207
 20
81.0503821846
 30
0.0
 10
17.1031442207
 20
81.1257323304
 30
0.0
 10
17.1313927723
 20
81.2846403327
 30
0.0
 10
17.2299345729
 20
81.5079037384
 30
0.0
 10
17.3740139809
 20
81.7048752898
 30
0.0
 10
17.497507125
 20
81.8087929256
 30
0.0
 10
17.5627617149
 20
81.8464674557
 30
0.0
  0
SPLINE
  5
369
100
AcDbEntity
  8
0
100
AcDbSpline
 62
7
  6
CONTINUOUS
 70
0
 71
3
 72
17
 73
13
 74
0
 42
0.0000001
 43
0.0000001
 44
0.0000000001
 40
0.0
 40
0.0
 40
0.0
 40
0.0
 40
0.2370465859
 40
0.4443878492
 40
0.6188881915
 40
0.7587244124
 40
0.8650403976
 40
0.9393895655
 40
0.965086539
 40
0.9834983667
 40
0.9949638204
 40
1.0
 40
1.0
 40
1.0
 40
1.0
 10
28.0744765213
 20
87.9153726023
 30
0.0
 10
28.0592220195
 20
87.9241795938
 30
0.0
 10
28.0306431057
 20
87.9407213334
 30
0.0
 10
27.990820022
 20
87.963723769
 30
0.0
 10
27.9571401165
 20
87.9829108446
 30
0.0
 10
27.9297659664
 20
87.998020915
 30
0.0
 10
27.9087423948
 20
88.0091663768
 30
0.0
 10
27.8950217204
 20
88.0161130661
 30
0.0
 10
27.8870877326
 20
88.01979786
 30
0.0
 10
27.8832314349
 20
88.0215129091
 30
0.0
 10
27.8809103398
 20
88.022251395
 30
0.0
 10
27.8795579672
 20
88.0226912776
 30
0.0
 10
27.8792388398
 20
88.0224958248
 30
0.0
  0
SPLINE
  5
36A
100
AcDbEntity
  8
0
100
AcDbSpline
 62
7
  6
CONTINUOUS
 70
0
 71
3
 72
17
 73
13
 74
0
 42
0.0000001
 43
0.0000001
 44
0.0000000001
 40
0.0
 40
0.0
 40
0.0
 40
0.0
 40
0.0439744463
 40
0.0894043227
 40
0.1376887893
 40
0.1897771615
 40
0.3065272563
 40
0.4391469272
 40
0.5824008704
 40
0.7288416578
 40
0.8704177035
 40
1.0
 40
1.0
 40
1.0
 40
1.0
 10
46.7152373968
 20
78.7715183497
 30
0.0
 10
46.6618194103
 20
78.7406723649
 30
0.0
 10
46.5448261657
 20
78.6914521275
 30
0.0
 10
46.3523853801
 20
78.6613152885
 30
0.0
 10
46.1468302476
 20
78.6743555672
 30
0.0
 10
45.8504712976
 20
78.7507150894
 30
0.0
 10
45.4737094386
 20
78.9559572254
 30
0.0
 10
45.061583388
 20
79.3266056426
 30
0.0
 10
44.7019862018
 20
79.8015061233
 30
0.0
 10
44.4242026167
 20
80.3423608754
 30
0.0
 10
44.2504216763
 20
80.9048687055
 30
0.0
 10
44.2114922214
 20
81.2870915147
 30
0.0
 10
44.2168925539
 20
81.4687804
 30
0.0
  0
SPLINE
  5
36B
100
AcDbEntity
  8
0
100
AcDbSpline
 62
7
  6
CONTINUOUS
 70
0
 71
3
 72
11
 73
7
 74
0
 42
0.0000001
 43
0.0000001
 44
0.0000000001
 40
0.0
 40
0.0
 40
0.0
 40
0.0
 40
0.2372480941
 40
0.5000010917
 40
0.7627534955
 40
1.0
 40
1.0
 40
1.0
 40
1.0
 10
53.5034275811
 20
82.511230367
 30
0.0
 10
53.5034275811
 20
82.5865804724
 30
0.0
 10
53.475178797
 20
82.7454884037
 30
0.0
 10
53.3766361088
 20
82.9687514303
 30
0.0
 10
53.2325554081
 20
83.1657223533
 30
0.0
 10
53.1090612971
 20
83.2696392675
 30
0.0
 10
53.0438062598
 20
83.3073134285
 30
0.0
  0
SPLINE
  5
36C
100
AcDbEntity
  8
0
100
AcDbSpline
 62
7
  6
CONTINUOUS
 70
0
 71
3
 72
11
 73
7
 74
0
 42
0.0000001
 43
0.0000001
 44
0.0000000001
 40
0.0
 40
0.0
 40
0.0
 40
0.0
 40
0.236201115
 40
0.4978375671
 40
0.7606462625
 40
1.0
 40
1.0
 40
1.0
 40
1.0
 10
53.0438062598
 20
83.3073134285
 30
0.0
 10
52.9800995129
 20
83.2705325406
 30
0.0
 10
52.8592188373
 20
83.1695897082
 30
0.0
 10
52.7168495946
 20
82.9781354086
 30
0.0
 10
52.6175447073
 20
82.7601137469
 30
0.0
 10
52.5866834415
 20
82.6044229437
 30
0.0
 10
52.5844687522
 20
82.529911897
 30
0.0
  0
SPLINE
  5
36D
100
AcDbEntity
  8
0
100
AcDbSpline
 62
7
  6
CONTINUOUS
 70
0
 71
3
 72
11
 73
7
 74
0
 42
0.0000001
 43
0.0000001
 44
0.0000000001
 40
0.0
 40
0.0
 40
0.0
 40
0.0
 40
0.2383567716
 40
0.5022172362
 40
0.7648753003
 40
1.0
 40
1.0
 40
1.0
 40
1.0
 10
52.5844687522
 20
82.529911897
 30
0.0
 10
52.6498670762
 20
82.4921550112
 30
0.0
 10
52.8013616986
 20
82.4361621322
 30
0.0
 10
53.0434460741
 20
82.4058313849
 30
0.0
 10
53.2855460136
 20
82.4260803211
 30
0.0
 10
53.4378009769
 20
82.4759873491
 30
0.0
 10
53.5034275811
 20
82.511230367
 30
0.0
  0
SPLINE
  5
36E
100
AcDbEntity
  8
0
100
AcDbSpline
 62
7
  6
CONTINUOUS
 70
0
 71
3
 72
11
 73
7
 74
0
 42
0.0000001
 43
0.0000001
 44
0.0000000001
 40
0.0
 40
0.0
 40
0.0
 40
0.0
 40
0.218923611
 40
0.4553808493
 40
0.7153203882
 40
1.0
 40
1.0
 40
1.0
 40
1.0
 10
44.7180897356
 20
82.4498580651
 30
0.0
 10
44.6665253489
 20
82.4032299584
 30
0.0
 10
44.5730092131
 20
82.2902850832
 30
0.0
 10
44.4748878003
 20
82.0833838013
 30
0.0
 10
44.4164300894
 20
81.840877503
 30
0.0
 10
44.4045570905
 20
81.6675528818
 30
0.0
 10
44.4045570905
 20
81.5771514853
 30
0.0
  0
SPLINE
  5
36F
100
AcDbEntity
  8
0
100
AcDbSpline
 62
7
  6
CONTINUOUS
 70
0
 71
3
 72
11
 73
7
 74
0
 42
0.0000001
 43
0.0000001
 44
0.0000000001
 40
0.0
 40
0.0
 40
0.0
 40
0.0
 40
0.2177482241
 40
0.4508901735
 40
0.7104621366
 40
1.0
 40
1.0
 40
1.0
 40
1.0
 10
13.514381952
 20
69.963901894
 30
0.0
 10
13.5143819531
 20
69.9391484386
 30
0.0
 10
13.523472604
 20
69.8875396877
 30
0.0
 10
13.5626247129
 20
69.8156239286
 30
0.0
 10
13.6245013202
 20
69.7506653459
 30
0.0
 10
13.6762293508
 20
69.7150001387
 30
0.0
 10
13.7047342601
 20
69.6985431939
 30
0.0
  0
SPLINE
  5
370
100
AcDbEntity
  8
0
100
AcDbSpline
 62
7
  6
CONTINUOUS
 70
0
 71
3
 72
11
 73
7
 74
0
 42
0.0000001
 43
0.0000001
 44
0.0000000001
 40
0.0
 40
0.0
 40
0.0
 40
0.0
 40
0.2177482241
 40
0.4508901735
 40
0.7104621366
 40
1.0
 40
1.0
 40
1.0
 40
1.0
 10
16.9127919126
 20
81.3157408846
 30
0.0
 10
16.9127919137
 20
81.2909874292
 30
0.0
 10
16.9218825645
 20
81.2393786783
 30
0.0
 10
16.9610346735
 20
81.1674629192
 30
0.0
 10
17.0229112808
 20
81.1025043365
 30
0.0
 10
17.0746393114
 20
81.0668391293
 30
0.0
 10
17.1031442207
 20
81.0503821846
 30
0.0
  0
SPLINE
  5
371
100
AcDbEntity
  8
0
100
AcDbSpline
 62
7
  6
CONTINUOUS
 70
0
 71
3
 72
11
 73
7
 74
0
 42
0.0000001
 43
0.0000001
 44
0.0000000001
 40
0.0
 40
0.0
 40
0.0
 40
0.0
 40
0.2871740394
 40
0.5463739611
 40
0.7807473653
 40
1.0
 40
1.0
 40
1.0
 40
1.0
 10
47.8090099577
 20
79.3949173671
 30
0.0
 10
47.8122391027
 20
79.5035587794
 30
0.0
 10
47.8349310955
 20
79.7104446458
 30
0.0
 10
47.9267248927
 20
79.9939745326
 30
0.0
 10
48.0737587249
 20
80.2242853511
 30
0.0
 10
48.2086652752
 20
80.3361198563
 30
0.0
 10
48.2805273029
 20
80.3776162824
 30
0.0
  0
SPLINE
  5
372
100
AcDbEntity
  8
0
100
AcDbSpline
 62
7
  6
CONTINUOUS
 70
0
 71
3
 72
11
 73
7
 74
0
 42
0.0000001
 43
0.0000001
 44
0.0000000001
 40
0.0
 40
0.0
 40
0.0
 40
0.0
 40
0.2177490368
 40
0.4508914017
 40
0.7104631294
 40
1.0
 40
1.0
 40
1.0
 40
1.0
 10
17.2377823278
 20
26.2921361181
 30
0.0
 10
17.2163444871
 20
26.304512985
 30
0.0
 10
17.176193877
 20
26.3381905491
 30
0.0
 10
17.1334870893
 20
26.4080564043
 30
0.0
 10
17.1081679677
 20
26.4941241038
 30
0.0
 10
17.1031442207
 20
26.5567558287
 30
0.0
 10
17.1031442207
 20
26.589670962
 30
0.0
  0
SPLINE
  5
373
100
AcDbEntity
  8
0
100
AcDbSpline
 62
7
  6
CONTINUOUS
 70
0
 71
3
 72
11
 73
7
 74
0
 42
0.0000001
 43
0.0000001
 44
0.0000000001
 40
0.0
 40
0.0
 40
0.0
 40
0.0
 40
0.2871740394
 40
0.5463739611
 40
0.7807473653
 40
1.0
 40
1.0
 40
1.0
 40
1.0
 10
44.2168925539
 20
81.4687804
 30
0.0
 10
44.2201216989
 20
81.5774218124
 30
0.0
 10
44.2428136917
 20
81.7843076787
 30
0.0
 10
44.3346074889
 20
82.0678375656
 30
0.0
 10
44.4816413212
 20
82.2981483841
 30
0.0
 10
44.6165478715
 20
82.4099828892
 30
0.0
 10
44.6884098992
 20
82.4514793154
 30
0.0
  0
SPLINE
  5
374
100
AcDbEntity
  8
0
100
AcDbSpline
 62
7
  6
CONTINUOUS
 70
0
 71
3
 72
17
 73
13
 74
0
 42
0.0000001
 43
0.0000001
 44
0.0000000001
 40
0.0
 40
0.0
 40
0.0
 40
0.0
 40
0.0439744463
 40
0.0894043227
 40
0.1376887893
 40
0.1897771615
 40
0.3065272563
 40
0.4391469272
 40
0.5824008704
 40
0.7288416578
 40
0.8704177035
 40
1.0
 40
1.0
 40
1.0
 40
1.0
 10
39.5310025893
 20
82.9192444157
 30
0.0
 10
39.4775846028
 20
82.8883984308
 30
0.0
 10
39.3605913582
 20
82.8391781934
 30
0.0
 10
39.1681505726
 20
82.8090413544
 30
0.0
 10
38.9625954401
 20
82.8220816331
 30
0.0
 10
38.6662364901
 20
82.8984411553
 30
0.0
 10
38.2894746311
 20
83.1036832914
 30
0.0
 10
37.8773485805
 20
83.4743317085
 30
0.0
 10
37.5177513943
 20
83.9492321892
 30
0.0
 10
37.2399678092
 20
84.4900869413
 30
0.0
 10
37.0661868688
 20
85.0525947714
 30
0.0
 10
37.0272574139
 20
85.4348175806
 30
0.0
 10
37.0326577464
 20
85.616506466
 30
0.0
  0
SPLINE
  5
375
100
AcDbEntity
  8
0
100
AcDbSpline
 62
7
  6
CONTINUOUS
 70
0
 71
3
 72
11
 73
7
 74
0
 42
0.0000001
 43
0.0000001
 44
0.0000000001
 40
0.0
 40
0.0
 40
0.0
 40
0.0
 40
0.2871740394
 40
0.5463739611
 40
0.7807473653
 40
1.0
 40
1.0
 40
1.0
 40
1.0
 10
40.6247751502
 20
83.542643433
 30
0.0
 10
40.6280042952
 20
83.6512848453
 30
0.0
 10
40.650696288
 20
83.8581707117
 30
0.0
 10
40.7424900852
 20
84.1417005986
 30
0.0
 10
40.8895239174
 20
84.3720114171
 30
0.0
 10
41.0244304677
 20
84.4838459222
 30
0.0
 10
41.0962924955
 20
84.5253423484
 30
0.0
  0
SPLINE
  5
376
100
AcDbEntity
  8
0
100
AcDbSpline
 62
7
  6
CONTINUOUS
 70
0
 71
3
 72
17
 73
13
 74
0
 42
0.0000001
 43
0.0000001
 44
0.0000000001
 40
0.0
 40
0.0
 40
0.0
 40
0.0
 40
0.0439744463
 40
0.0894043227
 40
0.1376887893
 40
0.1897771615
 40
0.3065272563
 40
0.4391469272
 40
0.5824008704
 40
0.7288416578
 40
0.8704177035
 40
1.0
 40
1.0
 40
1.0
 40
1.0
 10
43.123119993
 20
80.8453813827
 30
0.0
 10
43.0697020066
 20
80.8145353978
 30
0.0
 10
42.9527087619
 20
80.7653151604
 30
0.0
 10
42.7602679763
 20
80.7351783214
 30
0.0
 10
42.5547128438
 20
80.7482186001
 30
0.0
 10
42.2583538939
 20
80.8245781223
 30
0.0
 10
41.8815920348
 20
81.0298202584
 30
0.0
 10
41.4694659842
 20
81.4004686756
 30
0.0
 10
41.1098687981
 20
81.8753691562
 30
0.0
 10
40.8320852129
 20
82.4162239084
 30
0.0
 10
40.6583042726
 20
82.9787317385
 30
0.0
 10
40.6193748176
 20
83.3609545477
 30
0.0
 10
40.6247751502
 20
83.542643433
 30
0.0
  0
SPLINE
  5
377
100
AcDbEntity
  8
0
100
AcDbSpline
 62
7
  6
CONTINUOUS
 70
0
 71
3
 72
11
 73
7
 74
0
 42
0.0000001
 43
0.0000001
 44
0.0000000001
 40
0.0
 40
0.0
 40
0.0
 40
0.0
 40
0.2177455481
 40
0.450923238
 40
0.7105070539
 40
1.0
 40
1.0
 40
1.0
 40
1.0
 10
53.3692035687
 20
9.7901708057
 30
0.0
 10
53.3905840705
 20
9.8025773883
 30
0.0
 10
53.430612554
 20
9.8362856509
 30
0.0
 10
53.4731801931
 20
9.9061024469
 30
0.0
 10
53.498418347
 20
9.9920611507
 30
0.0
 10
53.5034275811
 20
10.054601487
 30
0.0
 10
53.5034275811
 20
10.0874659676
 30
0.0
  0
SPLINE
  5
378
100
AcDbEntity
  8
0
100
AcDbSpline
 62
7
  6
CONTINUOUS
 70
0
 71
3
 72
11
 73
7
 74
0
 42
0.0000001
 43
0.0000001
 44
0.0000000001
 40
0.0
 40
0.0
 40
0.0
 40
0.0
 40
0.2871740394
 40
0.5463739611
 40
0.7807473653
 40
1.0
 40
1.0
 40
1.0
 40
1.0
 10
37.0326577464
 20
85.616506466
 30
0.0
 10
37.0358868914
 20
85.7251478783
 30
0.0
 10
37.0585788842
 20
85.9320337447
 30
0.0
 10
37.1503726814
 20
86.2155636315
 30
0.0
 10
37.2974065137
 20
86.44587445
 30
0.0
 10
37.432313064
 20
86.5577089552
 30
0.0
 10
37.5041750917
 20
86.5992053813
 30
0.0
  0
ENDSEC
  0
SECTION
  2
OBJECTS
  0
DICTIONARY
  5
C
100
AcDbDictionary
280
0
281
1
  3
ACAD_GROUP
350
D
  3
ACAD_MLINESTYLE
350
17
  3
ACAD_LAYOUT
350
1A
  3
ACAD_PLOTSETTINGS
350
19
  3
ACAD_PLOTSTYLENAME
350
E
  0
DICTIONARY
  5
D
102
{ACAD_REACTORS
330
C
102
}
100
AcDbDictionary
280
0
281
1
  0
ACDBDICTIONARYWDFLT
  5
E
102
{ACAD_REACTORS
330
C
102
}
100
AcDbDictionary
281
1
  3
Normal
350
F
100
AcDbDictionaryWithDefault
340
F
  0
DICTIONARY
  5
17
102
{ACAD_REACTORS
330
C
102
}
100
AcDbDictionary
280
0
281
1
  3
Standard
350
18
  0
DICTIONARY
  5
19
102
{ACAD_REACTORS
330
C
102
}
100
AcDbDictionary
281
1
  0
DICTIONARY
  5
1A
102
{ACAD_REACTORS
330
C
102
}
100
AcDbDictionary
281
1
  3
Model
350
379
  3
Layout1
350
37A
  0
ACDBPLACEHOLDER
  5
F
102
{ACAD_REACTORS
330
E
102
}
  0
MLINESTYLE
  5
18
102
{ACAD_REACTORS
330
17
102
}
100
AcDbMlineStyle
  2
STANDARD
 70
0
  3

 62
256
 51
90.0
 52
90.0
 71
2
 49
0.5
 62
256
  6
BYLAYER
 49
-0.5
 62
256
  6
BYLAYER
  0
LAYOUT
  5
379
102
{ACAD_REACTORS
330
1A
102
}
100
AcDbPlotSettings
  1

  2
none_device
  4

  6

 40
0.0
 41
0.0
 42
0.0
 43
0.0
 44
210.0
 45
297.0
 46
0.0
 47
0.0
 48
0.0
 49
0.0
140
0.0
141
0.0
142
1.0
143
1.0
 70
1024
 72
1
 73
0
 74
0
  7

 75
0
147
1.0
148
0.0
149
0.0
100
AcDbLayout
  1
Model
 70
0
 71
0
 10
0.0
 20
0.0
 11
210.0
 21
297.0
 12
0.0
 22
0.0
 32
0.0
 14
0.0
 24
0.0
 34
0.0
 15
0.0
 25
0.0
 35
0.0
146
0.0
 13
0.0
 23
0.0
 33
0.0
 16
1.0
 26
0.0
 36
0.0
 17
0.0
 27
1.0
 37
0.0
 76
0
330
210
345
0
346
0
  0
LAYOUT
  5
37A
102
{ACAD_REACTORS
330
1A
102
}
100
AcDbPlotSettings
  1

  2
none_device
  4

  6

 40
0.0
 41
0.0
 42
0.0
 43
0.0
 44
210.0
 45
297.0
 46
0.0
 47
0.0
 48
0.0
 49
0.0
140
0.0
141
0.0
142
1.0
143
1.0
 70
0
 72
1
 73
0
 74
0
  7

 75
0
147
1.0
148
0.0
149
0.0
100
AcDbLayout
  1
Layout1
 70
0
 71
1
 10
0.0
 20
0.0
 11
210.0
 21
297.0
 12
0.0
 22
0.0
 32
0.0
 14
0.0
 24
0.0
 34
0.0
 15
0.0
 25
0.0
 35
0.0
146
0.0
 13
0.0
 23
0.0
 33
0.0
 16
1.0
 26
0.0
 36
0.0
 17
0.0
 27
1.0
 37
0.0
 76
0
330
211
345
0
346
0
  0
ENDSEC
  0
EOF
